  0
SECTION
  2
HEADER
  9
$ACADVER
  1
AC1012
  9
$DWGCODEPAGE
  3
dos932
  9
$INSBASE
 10
0.0
 20
0.0
 30
0.0
  9
$EXTMIN
 10
-399.25
 20
-276.75
 30
0.0
  9
$EXTMAX
 10
406.09414987197181
 20
276.25
 30
0.0
  9
$LIMMIN
 10
-399.25
 20
-276.75
  9
$LIMMAX
 10
406.09414987197181
 20
276.25
  9
$ORTHOMODE
 70
               0
  9
$REGENMODE
 70
               1
  9
$FILLMODE
 70
               1
  9
$QTEXTMODE
 70
               0
  9
$MIRRTEXT
 70
               1
  9
$DRAGMODE
 70
               2
  9
$LTSCALE
 40
1.0
  9
$OSMODE
 70
               0
  9
$ATTMODE
 70
               1
  9
$TEXTSIZE
 40
3.2000000476837158
  9
$TRACEWID
 40
0.05
  9
$TEXTSTYLE
  7
MX_NOTE_STANDARD
  9
$CLAYER
  8
0
  9
$CELTYPE
  6
CONTINUOUS
  9
$CECOLOR
 62
             256
  9
$CELTSCALE
 40
1.0
  9
$DELOBJ
 70
               1
  9
$DISPSILH
 70
               0
  9
$DIMSCALE
 40
1.0
  9
$DIMASZ
 40
2.5
  9
$DIMEXO
 40
1.5
  9
$DIMDLI
 40
3.75
  9
$DIMRND
 40
0.0
  9
$DIMDLE
 40
0.0
  9
$DIMEXE
 40
1.5
  9
$DIMTP
 40
0.0
  9
$DIMTM
 40
0.0
  9
$DIMTXT
 40
3.2000000476837158
  9
$DIMCEN
 40
2.5
  9
$DIMTSZ
 40
0.0
  9
$DIMTOL
 70
               0
  9
$DIMLIM
 70
               0
  9
$DIMTIH
 70
               0
  9
$DIMTOH
 70
               0
  9
$DIMSE1
 70
               0
  9
$DIMSE2
 70
               0
  9
$DIMTAD
 70
               1
  9
$DIMZIN
 70
               8
  9
$DIMBLK
  1

  9
$DIMASO
 70
               1
  9
$DIMSHO
 70
               1
  9
$DIMPOST
  1

  9
$DIMAPOST
  1

  9
$DIMALT
 70
               0
  9
$DIMALTD
 70
               4
  9
$DIMALTF
 40
0.03937007874016
  9
$DIMLFAC
 40
1.0
  9
$DIMTOFL
 70
               1
  9
$DIMTVP
 40
0.0
  9
$DIMTIX
 70
               0
  9
$DIMSOXD
 70
               0
  9
$DIMSAH
 70
               0
  9
$DIMBLK1
  1

  9
$DIMBLK2
  1

  9
$DIMSTYLE
  2
MXDIMSTYLE
  9
$DIMCLRD
 70
               0
  9
$DIMCLRE
 70
               0
  9
$DIMCLRT
 70
               0
  9
$DIMTFAC
 40
1.0
  9
$DIMGAP
 40
1.0
  9
$DIMJUST
 70
               0
  9
$DIMSD1
 70
               0
  9
$DIMSD2
 70
               0
  9
$DIMTOLJ
 70
               1
  9
$DIMTZIN
 70
               0
  9
$DIMALTZ
 70
               0
  9
$DIMALTTZ
 70
               0
  9
$DIMFIT
 70
               3
  9
$DIMUPT
 70
               1
  9
$DIMUNIT
 70
               2
  9
$DIMDEC
 70
               4
  9
$DIMTDEC
 70
               4
  9
$DIMALTU
 70
               2
  9
$DIMALTTD
 70
               4
  9
$DIMTXSTY
  7
MX_NOTE_STANDARD
  9
$DIMAUNIT
 70
               0
  9
$LUNITS
 70
               2
  9
$LUPREC
 70
               4
  9
$SKETCHINC
 40
0.1
  9
$FILLETRAD
 40
0.0
  9
$AUNITS
 70
               0
  9
$AUPREC
 70
               0
  9
$MENU
  1
acad
  9
$ELEVATION
 40
0.0
  9
$PELEVATION
 40
0.0
  9
$THICKNESS
 40
0.0
  9
$LIMCHECK
 70
               0
  9
$BLIPMODE
 70
               1
  9
$CHAMFERA
 40
0.0
  9
$CHAMFERB
 40
0.0
  9
$CHAMFERC
 40
0.0
  9
$CHAMFERD
 40
0.0
  9
$SKPOLY
 70
               0
  9
$TDCREATE
 40
2453378.356412037
  9
$TDUPDATE
 40
2453378.356412037
  9
$TDINDWG
 40
0.0000000000
  9
$TDUSRTIMER
 40
0.0000000000
  9
$USRTIMER
 70
               1
  9
$ANGBASE
 50
0.0
  9
$ANGDIR
 70
               0
  9
$PDMODE
 70
               0
  9
$PDSIZE
 40
0.0
  9
$PLINEWID
 40
0.0
  9
$COORDS
 70
               1
  9
$SPLFRAME
 70
               0
  9
$SPLINETYPE
 70
               6
  9
$SPLINESEGS
 70
               8
  9
$ATTDIA
 70
               0
  9
$ATTREQ
 70
               1
  9
$HANDLING
 70
               1
  9
$HANDSEED
  5
86B
  9
$SURFTAB1
 70
               6
  9
$SURFTAB2
 70
               6
  9
$SURFTYPE
 70
               6
  9
$SURFU
 70
               6
  9
$SURFV
 70
               6
  9
$UCSNAME
  2

  9
$UCSORG
 10
0.0
 20
0.0
 30
0.0
  9
$UCSXDIR
 10
1.0
 20
0.0
 30
0.0
  9
$UCSYDIR
 10
0.0
 20
1.0
 30
0.0
  9
$PUCSNAME
  2

  9
$PUCSORG
 10
0.0
 20
0.0
 30
0.0
  9
$PUCSXDIR
 10
1.0
 20
0.0
 30
0.0
  9
$PUCSYDIR
 10
0.0
 20
1.0
 30
0.0
  9
$USERI1
 70
               0
  9
$USERI2
 70
               0
  9
$USERI3
 70
               0
  9
$USERI4
 70
               0
  9
$USERI5
 70
               0
  9
$USERR1
 40
0.0
  9
$USERR2
 40
0.0
  9
$USERR3
 40
0.0
  9
$USERR4
 40
0.0
  9
$USERR5
 40
0.0
  9
$WORLDVIEW
 70
               1
  9
$SHADEDGE
 70
               3
  9
$SHADEDIF
 70
              70
  9
$TILEMODE
 70
               1
  9
$MAXACTVP
 70
              16
  9
$PINSBASE
 10
0.0
 20
0.0
 30
0.0
  9
$PLIMCHECK
 70
               0
  9
$PEXTMIN
 10
1.0000000000000000E+20
 20
1.0000000000000000E+20
 30
1.0000000000000000E+20
  9
$PEXTMAX
 10
-1.0000000000000000E+20
 20
-1.0000000000000000E+20
 30
-1.0000000000000000E+20
  9
$PLIMMIN
 10
0.0
 20
0.0
  9
$PLIMMAX
 10
12.0
 20
9.0
  9
$UNITMODE
 70
               0
  9
$VISRETAIN
 70
               0
  9
$PLINEGEN
 70
               1
  9
$PSLTSCALE
 70
               0
  9
$TREEDEPTH
 70
            3020
  9
$PICKSTYLE
 70
               1
  9
$CMLSTYLE
  2
Standard
  9
$CMLJUST
 70
               0
  9
$CMLSCALE
 40
1.0
  9
$SAVEIMAGES
 70
               0
  0
ENDSEC
  0
SECTION
  2
CLASSES
  0
CLASS
  1
LWPOLYLINE
  2
AcDbPolyline
  3
"AutoCAD"
 90
        0
280
               0
281
               1
  0
CLASS
  1
IMAGE
  2
AcDbRasterImage
  3
ISM
 90
      127
280
               0
281
               1
  0
CLASS
  1
OLE2FRAME
  2
AcDbOle2Frame
  3
""
 90
        0
280
               0
281
               1
  0
CLASS
  1
HATCH
  2
AcDbHatch
  3
"ACAD_SEDONA"
 90
        0
280
               0
281
               1
  0
CLASS
  1
DICTIONARYVAR
  2
AcDbDictionaryVar
  3
"AutoCAD"
 90
        0
280
               0
281
               0
  0
CLASS
  1
RASTERVARIABLES
  2
AcDbRasterVariables
  3
ISM
 90
        0
280
               0
281
               0
  0
CLASS
  1
IMAGEDEF
  2
AcDbRasterImageDef
  3
ISM
 90
        0
280
               0
281
               0
  0
CLASS
  1
IMAGEDEF_REACTOR
  2
AcDbRasterImageDefReactor
  3
ISM
 90
        1
280
               0
281
               0
  0
CLASS
  1
IDBUFFER
  2
AcDbIdBuffer
  3
"Acad"
 90
        0
280
               0
281
               0
  0
CLASS
  1
SPATIAL_FILTER
  2
AcDbSpatialFilter
  3
"Acad"
 90
        0
280
               0
281
               0
  0
CLASS
  1
XRECORD
  2
AcDbXrecord
  3
"<Built In>"
 90
        0
280
               0
281
               0
  0
CLASS
  1
SORTENTSTABLE
  2
AcDbSortentsTable
  3
"AutoCAD"
 90
        0
280
               0
281
               0
  0
CLASS
  1
LAYER_INDEX
  2
AcDbLayerIndex
  3
"Acad"
 90
        0
280
               0
281
               0
  0
CLASS
  1
SPATIAL_INDEX
  2
AcDbSpatialIndex
  3
"Acad"
 90
        0
280
               0
281
               0
  0
CLASS
  1
OBJECT_PTR
  2
CAseDLPNTableRecord
  3
"ASE-LPNTableRecord"
 90
        1
280
               0
281
               0
  0
CLASS
  1
LAYOUT
  2
AcDbLayout
  3
"AutoCAD 2000"
 90
        1
280
               0
281
               0
  0
CLASS
  1
PLOTSETTINGS
  2
AcDbPlotSettings
  3
"AutoCAD 2000"
 90
        1
280
               0
281
               0
  0
CLASS
  1
ACDBDICTIONARYWDFLT
  2
AcDbDictionaryWithDefault
  3
"AutoCAD 2000"
 90
        1
280
               0
281
               0
  0
CLASS
  1
ACDBPLACEHOLDER
  2
AcDbPlaceHolder
  3
"AutoCAD 2000"
 90
        1
280
               0
281
               0
  0
ENDSEC
  0
SECTION
  2
TABLES
  0
TABLE
  2
VPORT
  5
7
100
AcDbSymbolTable
 70
               1
  0
VPORT
  5
15
100
AcDbSymbolTableRecord
100
AcDbViewportTableRecord
  2
*ACTIVE
 70
               0
 10
0.0
 20
0.0
 11
1.0
 21
1.0
 12
3.4220749359859042
 22
-0.25
 13
0.0
 23
0.0
 14
1.0
 24
1.0
 15
0.0
 25
0.0
 16
0.0
 26
0.0
 36
1.0
 17
0.0
 27
0.0
 37
0.0
 40
558.52999999999997
 41
1.7320508075688772
 42
50.0
 43
0.0
 44
0.0
 50
0.0
 51
0.0
 71
               0
 72
             100
 73
               1
 74
               1
 75
               0
 76
               0
 77
               0
 78
               0
  0
ENDTAB
  0
TABLE
  2
LTYPE
  5
4
100
AcDbSymbolTable
 70
               5
  0
LTYPE
  5
11
100
AcDbSymbolTableRecord
100
AcDbLinetypeTableRecord
  2
BYBLOCK
 70
              64
  3

 72
              65
 73
               0
 40
0.0
  0
LTYPE
  5
12
100
AcDbSymbolTableRecord
100
AcDbLinetypeTableRecord
  2
BYLAYER
 70
              64
  3

 72
              65
 73
               0
 40
0.0
  0
LTYPE
  5
13
100
AcDbSymbolTableRecord
100
AcDbLinetypeTableRecord
  2
CONTINUOUS
 70
              64
  3
Solid line
 72
              65
 73
               0
 40
0.0
  0
LTYPE
  5
1E1
100
AcDbSymbolTableRecord
100
AcDbLinetypeTableRecord
  2
DASHED
 70
              64
  3
Dashed __ __ __ __ __ __ __ __ __ __ __ __ __ _
 72
              65
 73
               2
 40
4.0
 49
2.0
 74
               0
 49
-2.0
 74
               0
  0
LTYPE
  5
4C3
100
AcDbSymbolTableRecord
100
AcDbLinetypeTableRecord
  2
CENTER
 70
              64
  3
Center ____ _ ____ _ ____ _ ____ _ ____ _ ____
 72
              65
 73
               4
 40
26.0
 49
20.0
 74
               0
 49
-2.0
 74
               0
 49
2.0
 74
               0
 49
-2.0
 74
               0
  0
ENDTAB
  0
TABLE
  2
LAYER
  5
2
100
AcDbSymbolTable
 70
               2
  0
LAYER
  5
14
100
AcDbSymbolTableRecord
100
AcDbLayerTableRecord
  2
0
 70
               0
 62
               7
  6
CONTINUOUS
  0
LAYER
  5
1D
100
AcDbSymbolTableRecord
100
AcDbLayerTableRecord
  2
DEFPOINTS
 70
               0
 62
               7
  6
CONTINUOUS
  0
ENDTAB
  0
TABLE
  2
STYLE
  5
3
100
AcDbSymbolTable
 70
               1
  0
STYLE
  5
17
100
AcDbSymbolTableRecord
100
AcDbTextStyleTableRecord
  2
MX_NOTE_STANDARD
 70
               0
 40
0.0
 41
1.0
 50
0.0
 71
               0
 42
3.2000000476837158
  3
txt.shx
  4
extfont.shx
  0
ENDTAB
  0
TABLE
  2
VIEW
  5
5
100
AcDbSymbolTable
 70
               0
  0
ENDTAB
  0
TABLE
  2
UCS
  5
6
100
AcDbSymbolTable
 70
               0
  0
ENDTAB
  0
TABLE
  2
APPID
  5
8
100
AcDbSymbolTable
 70
               1
  0
APPID
  5
16
100
AcDbSymbolTableRecord
100
AcDbRegAppTableRecord
  2
ACAD
 70
               0
  0
ENDTAB
  0
TABLE
  2
DIMSTYLE
  5
9
100
AcDbSymbolTable
 70
               1
  0
DIMSTYLE
105
18
100
AcDbSymbolTableRecord
100
AcDbDimStyleTableRecord
  2
MXDIMSTYLE
 70
               0
  3

  4

  5

  6

  7

 40
1.0
 41
2.5
 42
1.5
 43
3.75
 44
1.5
 45
0.0
 46
0.0
 47
0.0
 48
0.0
 71
               0
 72
               0
 73
               0
 74
               0
 75
               0
 76
               0
 77
               1
 78
               8
140
3.2000000476837158
141
2.5
142
0.0
143
0.03937007874016
144
1.0
145
0.0
146
1.0
147
1.0
170
               0
171
               4
172
               1
173
               0
174
               0
175
               0
176
               0
177
               0
178
               0
270
               2
271
               4
272
               4
273
               2
274
               4
275
               0
280
               0
281
               0
282
               0
283
               1
284
               0
285
               0
286
               0
287
               3
288
               1
340
17
  0
ENDTAB
  0
TABLE
  2
BLOCK_RECORD
  5
1
100
AcDbSymbolTable
 70
              20
  0
BLOCK_RECORD
  5
A
100
AcDbSymbolTableRecord
100
AcDbBlockTableRecord
  2
*MODEL_SPACE
  0
BLOCK_RECORD
  5
B
100
AcDbSymbolTableRecord
100
AcDbBlockTableRecord
  2
*PAPER_SPACE
  0
BLOCK_RECORD
  5
1E
100
AcDbSymbolTableRecord
100
AcDbBlockTableRecord
  2
F10MSJ-1
  0
BLOCK_RECORD
  5
1F
100
AcDbSymbolTableRecord
100
AcDbBlockTableRecord
  2
F10MSJ-2
  0
BLOCK_RECORD
  5
20
100
AcDbSymbolTableRecord
100
AcDbBlockTableRecord
  2
F10MSJ-3
  0
BLOCK_RECORD
  5
21
100
AcDbSymbolTableRecord
100
AcDbBlockTableRecord
  2
F10MSJ-4
  0
BLOCK_RECORD
  5
22
100
AcDbSymbolTableRecord
100
AcDbBlockTableRecord
  2
F10MSJ-5
  0
BLOCK_RECORD
  5
23
100
AcDbSymbolTableRecord
100
AcDbBlockTableRecord
  2
F10MSJ-6
  0
BLOCK_RECORD
  5
24
100
AcDbSymbolTableRecord
100
AcDbBlockTableRecord
  2
F10MSJ-7
  0
BLOCK_RECORD
  5
25
100
AcDbSymbolTableRecord
100
AcDbBlockTableRecord
  2
F10MSJ-8
  0
BLOCK_RECORD
  5
26
100
AcDbSymbolTableRecord
100
AcDbBlockTableRecord
  2
F10MSJ-9
  0
BLOCK_RECORD
  5
27
100
AcDbSymbolTableRecord
100
AcDbBlockTableRecord
  2
F10MSJ-10
  0
BLOCK_RECORD
  5
28
100
AcDbSymbolTableRecord
100
AcDbBlockTableRecord
  2
F10MSJ-11
  0
BLOCK_RECORD
  5
29
100
AcDbSymbolTableRecord
100
AcDbBlockTableRecord
  2
F10MSJ-12
  0
BLOCK_RECORD
  5
2A
100
AcDbSymbolTableRecord
100
AcDbBlockTableRecord
  2
F10MSJ-13
  0
BLOCK_RECORD
  5
2B
100
AcDbSymbolTableRecord
100
AcDbBlockTableRecord
  2
F10MSJ-14
  0
BLOCK_RECORD
  5
2C
100
AcDbSymbolTableRecord
100
AcDbBlockTableRecord
  2
F10MSJ-15
  0
BLOCK_RECORD
  5
2D
100
AcDbSymbolTableRecord
100
AcDbBlockTableRecord
  2
F10MSJ-16
  0
BLOCK_RECORD
  5
2E
100
AcDbSymbolTableRecord
100
AcDbBlockTableRecord
  2
F10MSJ-17
  0
BLOCK_RECORD
  5
2F
100
AcDbSymbolTableRecord
100
AcDbBlockTableRecord
  2
F10MSJ-18
  0
BLOCK_RECORD
  5
30
100
AcDbSymbolTableRecord
100
AcDbBlockTableRecord
  2
F10MSJ-19
  0
BLOCK_RECORD
  5
31
100
AcDbSymbolTableRecord
100
AcDbBlockTableRecord
  2
F10MSJ-20
  0
ENDTAB
  0
ENDSEC
  0
SECTION
  2
BLOCKS
  0
BLOCK
  5
D
100
AcDbEntity
  8
0
100
AcDbBlockBegin
  2
*MODEL_SPACE
 70
               0
 10
0.0
 20
0.0
 30
0.0
  3
*MODEL_SPACE
  1

  0
ENDBLK
  5
E
100
AcDbEntity
  8
0
100
AcDbBlockEnd
  0
BLOCK
  5
F
100
AcDbEntity
 67
               1
  8
0
100
AcDbBlockBegin
  2
*PAPER_SPACE
 70
               0
 10
0.0
 20
0.0
 30
0.0
  3
*PAPER_SPACE
  1

  0
ENDBLK
  5
10
100
AcDbEntity
 67
               1
  8
0
100
AcDbBlockEnd
  0
BLOCK
  5
32
100
AcDbEntity
  8
0
100
AcDbBlockBegin
  2
F10MSJ-1
 70
               0
 10
0.0
 20
0.0
 30
0.0
  3
F10MSJ-1
  1

  0
LINE
  5
33
100
AcDbEntity
  8
0
  6
CONTINUOUS
 62
               2
100
AcDbLine
 10
0.0
 20
-4.0
 30
0.0
 11
0.0
 21
5.2082637773987699
 31
0.0
  0
LINE
  5
34
100
AcDbEntity
  8
0
  6
CONTINUOUS
 62
               2
100
AcDbLine
 10
-12.25
 20
0.0
 30
0.0
 11
225.55000000000001
 21
0.0
 31
0.0
  0
LINE
  5
35
100
AcDbEntity
  8
0
  6
CONTINUOUS
 62
               7
100
AcDbLine
 10
110.0
 20
62.5
 30
0.0
 11
89.0
 21
62.5
 31
0.0
  0
LINE
  5
36
100
AcDbEntity
  8
0
  6
CONTINUOUS
 62
               7
100
AcDbLine
 10
108.39999389648437
 20
-30.5
 30
0.0
 11
110.0
 21
-30.5
 31
0.0
  0
LINE
  5
37
100
AcDbEntity
  8
0
  6
CONTINUOUS
 62
               7
100
AcDbLine
 10
6.5
 20
-5.5
 30
0.0
 11
6.5
 21
-5.0
 31
0.0
  0
ARC
  5
38
100
AcDbEntity
  8
0
  6
CONTINUOUS
 62
               7
100
AcDbCircle
 10
6.5
 20
-6.6999969482421875
 30
0.0
 40
1.1999998092651367
100
AcDbArc
 50
89.999999316754668
 51
179.99998133066532
  0
ARC
  5
39
100
AcDbEntity
  8
0
  6
CONTINUOUS
 62
               7
100
AcDbCircle
 10
6.5
 20
-25.300003051757813
 30
0.0
 40
1.1999998092651367
100
AcDbArc
 50
179.99998133066532
 51
270.00001798608935
  0
ARC
  5
3A
100
AcDbEntity
  8
0
  6
CONTINUOUS
 62
               7
100
AcDbCircle
 10
8.0
 20
-5.0
 30
0.0
 40
1.5
100
AcDbArc
 50
89.999999316754668
 51
179.99998133066532
  0
ARC
  5
3B
100
AcDbEntity
  8
0
  6
CONTINUOUS
 62
               7
100
AcDbCircle
 10
8.0
 20
-27.0
 30
0.0
 40
1.5
100
AcDbArc
 50
179.99998133066532
 51
270.00001798608935
  0
LINE
  5
3C
100
AcDbEntity
  8
0
  6
CONTINUOUS
 62
               7
100
AcDbLine
 10
5.3000030517578125
 20
-25.300003051757813
 30
0.0
 11
5.3000030517578125
 21
-6.6999969482421875
 31
0.0
  0
LINE
  5
3D
100
AcDbEntity
  8
0
  6
CONTINUOUS
 62
               7
100
AcDbLine
 10
8.0
 20
-3.5
 30
0.0
 11
10.0
 21
-3.5
 31
0.0
  0
LINE
  5
3E
100
AcDbEntity
  8
0
  6
CONTINUOUS
 62
               7
100
AcDbLine
 10
8.0
 20
-28.5
 30
0.0
 11
10.0
 21
-28.5
 31
0.0
  0
LINE
  5
3F
100
AcDbEntity
  8
0
  6
CONTINUOUS
 62
               7
100
AcDbLine
 10
6.5
 20
-27.0
 30
0.0
 11
6.5
 21
-26.5
 31
0.0
  0
LINE
  5
40
100
AcDbEntity
  8
0
  6
CONTINUOUS
 62
               7
100
AcDbLine
 10
35.5
 20
48.5
 30
0.0
 11
36.0
 21
48.5
 31
0.0
  0
ARC
  5
41
100
AcDbEntity
  8
0
  6
CONTINUOUS
 62
               7
100
AcDbCircle
 10
34.300003051757812
 20
48.5
 30
0.0
 40
1.1999998092651367
100
AcDbArc
 50
359.99999931675467
 51
89.999981330665321
  0
ARC
  5
42
100
AcDbEntity
  8
0
  6
CONTINUOUS
 62
               7
100
AcDbCircle
 10
15.699996948242188
 20
48.5
 30
0.0
 40
1.1999998092651367
100
AcDbArc
 50
89.999981330665321
 51
180.00001798608935
  0
ARC
  5
43
100
AcDbEntity
  8
0
  6
CONTINUOUS
 62
               7
100
AcDbCircle
 10
36.0
 20
47.0
 30
0.0
 40
1.5
100
AcDbArc
 50
359.99999931675467
 51
89.999981330665321
  0
ARC
  5
44
100
AcDbEntity
  8
0
  6
CONTINUOUS
 62
               7
100
AcDbCircle
 10
14.0
 20
47.0
 30
0.0
 40
1.5
100
AcDbArc
 50
89.999981330665321
 51
180.00001798608935
  0
LINE
  5
45
100
AcDbEntity
  8
0
  6
CONTINUOUS
 62
               7
100
AcDbLine
 10
15.699996948242188
 20
49.699996948242188
 30
0.0
 11
34.300003051757812
 21
49.699996948242188
 31
0.0
  0
LINE
  5
46
100
AcDbEntity
  8
0
  6
CONTINUOUS
 62
               7
100
AcDbLine
 10
37.5
 20
47.0
 30
0.0
 11
37.5
 21
45.0
 31
0.0
  0
LINE
  5
47
100
AcDbEntity
  8
0
  6
CONTINUOUS
 62
               7
100
AcDbLine
 10
12.5
 20
47.0
 30
0.0
 11
12.5
 21
45.0
 31
0.0
  0
LINE
  5
48
100
AcDbEntity
  8
0
  6
CONTINUOUS
 62
               7
100
AcDbLine
 10
14.0
 20
48.5
 30
0.0
 11
14.5
 21
48.5
 31
0.0
  0
LINE
  5
49
100
AcDbEntity
  8
0
  6
CONTINUOUS
 62
               7
100
AcDbLine
 10
6.5
 20
5.5
 30
0.0
 11
6.5
 21
5.0
 31
0.0
  0
ARC
  5
4A
100
AcDbEntity
  8
0
  6
CONTINUOUS
 62
               7
100
AcDbCircle
 10
6.5
 20
6.6999969482421875
 30
0.0
 40
1.1999998092651367
100
AcDbArc
 50
180.00001866933468
 51
270.00000068324533
  0
ARC
  5
4B
100
AcDbEntity
  8
0
  6
CONTINUOUS
 62
               7
100
AcDbCircle
 10
6.5
 20
25.300003051757813
 30
0.0
 40
1.1999998092651367
100
AcDbArc
 50
89.999982013910653
 51
180.00001866933468
  0
ARC
  5
4C
100
AcDbEntity
  8
0
  6
CONTINUOUS
 62
               7
100
AcDbCircle
 10
8.0
 20
5.0
 30
0.0
 40
1.5
100
AcDbArc
 50
180.00001866933468
 51
270.00000068324533
  0
ARC
  5
4D
100
AcDbEntity
  8
0
  6
CONTINUOUS
 62
               7
100
AcDbCircle
 10
8.0
 20
27.0
 30
0.0
 40
1.5
100
AcDbArc
 50
89.999982013910653
 51
180.00001866933468
  0
LINE
  5
4E
100
AcDbEntity
  8
0
  6
CONTINUOUS
 62
               7
100
AcDbLine
 10
5.3000030517578125
 20
25.300003051757813
 30
0.0
 11
5.3000030517578125
 21
6.6999969482421875
 31
0.0
  0
LINE
  5
4F
100
AcDbEntity
  8
0
  6
CONTINUOUS
 62
               7
100
AcDbLine
 10
8.0
 20
3.5
 30
0.0
 11
10.0
 21
3.5
 31
0.0
  0
LINE
  5
50
100
AcDbEntity
  8
0
  6
CONTINUOUS
 62
               7
100
AcDbLine
 10
8.0
 20
28.5
 30
0.0
 11
10.0
 21
28.5
 31
0.0
  0
LINE
  5
51
100
AcDbEntity
  8
0
  6
CONTINUOUS
 62
               7
100
AcDbLine
 10
6.5
 20
27.0
 30
0.0
 11
6.5
 21
26.5
 31
0.0
  0
LINE
  5
52
100
AcDbEntity
  8
0
  6
CONTINUOUS
 62
               7
100
AcDbLine
 10
35.5
 20
-48.5
 30
0.0
 11
36.0
 21
-48.5
 31
0.0
  0
ARC
  5
53
100
AcDbEntity
  8
0
  6
CONTINUOUS
 62
               7
100
AcDbCircle
 10
34.300003051757812
 20
-48.5
 30
0.0
 40
1.1999998092651367
100
AcDbArc
 50
270.00001866933468
 51
0.0000006832453318
  0
ARC
  5
54
100
AcDbEntity
  8
0
  6
CONTINUOUS
 62
               7
100
AcDbCircle
 10
15.699996948242188
 20
-48.5
 30
0.0
 40
1.1999998092651367
100
AcDbArc
 50
179.99998201391065
 51
270.00001866933468
  0
ARC
  5
55
100
AcDbEntity
  8
0
  6
CONTINUOUS
 62
               7
100
AcDbCircle
 10
36.0
 20
-47.0
 30
0.0
 40
1.5
100
AcDbArc
 50
270.00001866933468
 51
0.0000006832453318
  0
ARC
  5
56
100
AcDbEntity
  8
0
  6
CONTINUOUS
 62
               7
100
AcDbCircle
 10
14.0
 20
-47.0
 30
0.0
 40
1.5
100
AcDbArc
 50
179.99998201391065
 51
270.00001866933468
  0
LINE
  5
57
100
AcDbEntity
  8
0
  6
CONTINUOUS
 62
               7
100
AcDbLine
 10
15.699996948242188
 20
-49.699996948242188
 30
0.0
 11
34.300003051757812
 21
-49.699996948242188
 31
0.0
  0
LINE
  5
58
100
AcDbEntity
  8
0
  6
CONTINUOUS
 62
               7
100
AcDbLine
 10
37.5
 20
-47.0
 30
0.0
 11
37.5
 21
-45.0
 31
0.0
  0
LINE
  5
59
100
AcDbEntity
  8
0
  6
CONTINUOUS
 62
               7
100
AcDbLine
 10
12.5
 20
-47.0
 30
0.0
 11
12.5
 21
-45.0
 31
0.0
  0
LINE
  5
5A
100
AcDbEntity
  8
0
  6
CONTINUOUS
 62
               7
100
AcDbLine
 10
14.0
 20
-48.5
 30
0.0
 11
14.5
 21
-48.5
 31
0.0
  0
LINE
  5
5B
100
AcDbEntity
  8
0
  6
CONTINUOUS
 62
               7
100
AcDbLine
 10
98.439345890200343
 20
55.939357580211663
 30
0.0
 11
100.56066637626907
 21
58.060677887466454
 31
0.0
  0
LINE
  5
5C
100
AcDbEntity
  8
0
  6
CONTINUOUS
 62
               7
100
AcDbLine
 10
98.439367558794288
 20
58.060677976872512
 30
0.0
 11
100.56068247125256
 21
55.939362885600758
 31
0.0
  0
LINE
  5
5D
100
AcDbEntity
  8
0
  6
CONTINUOUS
 62
               7
100
AcDbLine
 10
90.5
 20
-28.800003051757813
 30
0.0
 11
108.5
 21
-28.800003051757813
 31
0.0
  0
LINE
  5
5E
100
AcDbEntity
  8
0
  6
CONTINUOUS
 62
               7
100
AcDbLine
 10
90.5
 20
-29.0
 30
0.0
 11
108.5
 21
-29.0
 31
0.0
  0
LINE
  5
5F
100
AcDbEntity
  8
0
  6
CONTINUOUS
 62
               7
100
AcDbLine
 10
90.5
 20
-9.5
 30
0.0
 11
90.5
 21
-30.5
 31
0.0
  0
LINE
  5
60
100
AcDbEntity
  8
0
  6
CONTINUOUS
 62
               7
100
AcDbLine
 10
108.5
 20
-9.5
 30
0.0
 11
108.5
 21
-30.5
 31
0.0
  0
LINE
  5
61
100
AcDbEntity
  8
0
  6
CONTINUOUS
 62
               7
100
AcDbLine
 10
99.5
 20
-16.5
 30
0.0
 11
99.5
 21
-17.0
 31
0.0
  0
LINE
  5
62
100
AcDbEntity
  8
0
  6
CONTINUOUS
 62
               7
100
AcDbLine
 10
103.0
 20
-28.800003051757813
 30
0.0
 11
103.0
 21
-29.0
 31
0.0
  0
LINE
  5
63
100
AcDbEntity
  8
0
  6
CONTINUOUS
 62
               7
100
AcDbLine
 10
96.0
 20
-28.800003051757813
 30
0.0
 11
96.0
 21
-29.0
 31
0.0
  0
LINE
  5
64
100
AcDbEntity
  8
0
  6
CONTINUOUS
 62
               7
100
AcDbLine
 10
90.5
 20
-18.5
 30
0.0
 11
108.5
 21
-18.5
 31
0.0
  0
LINE
  5
65
100
AcDbEntity
  8
0
  6
CONTINUOUS
 62
               7
100
AcDbLine
 10
90.5
 20
-9.5
 30
0.0
 11
108.5
 21
-9.5
 31
0.0
  0
LINE
  5
66
100
AcDbEntity
  8
0
  6
CONTINUOUS
 62
               7
100
AcDbLine
 10
98.5
 20
-28.300003051757812
 30
0.0
 11
100.5
 21
-28.300003051757812
 31
0.0
  0
LINE
  5
67
100
AcDbEntity
  8
0
  6
CONTINUOUS
 62
               7
100
AcDbLine
 10
100.5
 20
-18.5
 30
0.0
 11
100.5
 21
-28.300003051757812
 31
0.0
  0
LINE
  5
68
100
AcDbEntity
  8
0
  6
CONTINUOUS
 62
               7
100
AcDbLine
 10
98.5
 20
-18.5
 30
0.0
 11
98.5
 21
-28.300003051757812
 31
0.0
  0
LINE
  5
69
100
AcDbEntity
  8
0
  6
CONTINUOUS
 62
               7
100
AcDbLine
 10
92.849990844726563
 20
-27.300003051757813
 30
0.0
 11
97.149993896484375
 21
-27.300003051757813
 31
0.0
  0
LINE
  5
6A
100
AcDbEntity
  8
0
  6
CONTINUOUS
 62
               7
100
AcDbLine
 10
92.849990844726563
 20
-20.300003051757813
 30
0.0
 11
97.149993896484375
 21
-20.300003051757813
 31
0.0
  0
LINE
  5
6B
100
AcDbEntity
  8
0
  6
CONTINUOUS
 62
               7
100
AcDbLine
 10
101.84999084472656
 20
-20.300003051757813
 30
0.0
 11
101.84999084472656
 21
-21.100006103515625
 31
0.0
  0
LINE
  5
6C
100
AcDbEntity
  8
0
  6
CONTINUOUS
 62
               7
100
AcDbLine
 10
97.149993896484375
 20
-20.300003051757813
 30
0.0
 11
97.149993896484375
 21
-21.100006103515625
 31
0.0
  0
LINE
  5
6D
100
AcDbEntity
  8
0
  6
CONTINUOUS
 62
               7
100
AcDbLine
 10
92.849990844726563
 20
-20.300003051757813
 30
0.0
 11
92.849990844726563
 21
-21.100006103515625
 31
0.0
  0
LINE
  5
6E
100
AcDbEntity
  8
0
  6
CONTINUOUS
 62
               7
100
AcDbLine
 10
106.14999389648437
 20
-20.300003051757813
 30
0.0
 11
106.14999389648437
 21
-21.100006103515625
 31
0.0
  0
LINE
  5
6F
100
AcDbEntity
  8
0
  6
CONTINUOUS
 62
               7
100
AcDbLine
 10
91.5
 20
-18.5
 30
0.0
 11
91.5
 21
-28.800003051757813
 31
0.0
  0
LINE
  5
70
100
AcDbEntity
  8
0
  6
CONTINUOUS
 62
               7
100
AcDbLine
 10
107.5
 20
-18.5
 30
0.0
 11
107.5
 21
-28.800003051757813
 31
0.0
  0
LINE
  5
71
100
AcDbEntity
  8
0
  6
CONTINUOUS
 62
               7
100
AcDbLine
 10
101.84999084472656
 20
-20.300003051757813
 30
0.0
 11
106.14999389648437
 21
-20.300003051757813
 31
0.0
  0
LINE
  5
72
100
AcDbEntity
  8
0
  6
CONTINUOUS
 62
               7
100
AcDbLine
 10
101.84999084472656
 20
-27.300003051757813
 30
0.0
 11
106.14999389648437
 21
-27.300003051757813
 31
0.0
  0
LINE
  5
73
100
AcDbEntity
  8
0
  6
CONTINUOUS
 62
               7
100
AcDbLine
 10
92.849990844726563
 20
-26.5
 30
0.0
 11
92.849990844726563
 21
-27.300003051757813
 31
0.0
  0
LINE
  5
74
100
AcDbEntity
  8
0
  6
CONTINUOUS
 62
               7
100
AcDbLine
 10
97.149993896484375
 20
-26.5
 30
0.0
 11
97.149993896484375
 21
-27.300003051757813
 31
0.0
  0
LINE
  5
75
100
AcDbEntity
  8
0
  6
CONTINUOUS
 62
               7
100
AcDbLine
 10
101.84999084472656
 20
-26.5
 30
0.0
 11
101.84999084472656
 21
-27.300003051757813
 31
0.0
  0
LINE
  5
76
100
AcDbEntity
  8
0
  6
CONTINUOUS
 62
               7
100
AcDbLine
 10
106.14999389648437
 20
-26.5
 30
0.0
 11
106.14999389648437
 21
-27.300003051757813
 31
0.0
  0
LINE
  5
77
100
AcDbEntity
  8
0
  6
CONTINUOUS
 62
               7
100
AcDbLine
 10
101.05000305175781
 20
-21.100006103515625
 30
0.0
 11
101.05000305175781
 21
-26.5
 31
0.0
  0
LINE
  5
78
100
AcDbEntity
  8
0
  6
CONTINUOUS
 62
               7
100
AcDbLine
 10
106.94999694824219
 20
-21.100006103515625
 30
0.0
 11
106.94999694824219
 21
-26.5
 31
0.0
  0
LINE
  5
79
100
AcDbEntity
  8
0
  6
CONTINUOUS
 62
               7
100
AcDbLine
 10
97.949996948242188
 20
-21.100006103515625
 30
0.0
 11
97.949996948242188
 21
-26.5
 31
0.0
  0
LINE
  5
7A
100
AcDbEntity
  8
0
  6
CONTINUOUS
 62
               7
100
AcDbLine
 10
92.050003051757812
 20
-21.100006103515625
 30
0.0
 11
92.050003051757812
 21
-26.5
 31
0.0
  0
LINE
  5
7B
100
AcDbEntity
  8
0
  6
CONTINUOUS
 62
               7
100
AcDbLine
 10
97.149993896484375
 20
-21.100006103515625
 30
0.0
 11
97.949996948242188
 21
-21.100006103515625
 31
0.0
  0
LINE
  5
7C
100
AcDbEntity
  8
0
  6
CONTINUOUS
 62
               7
100
AcDbLine
 10
92.050003051757812
 20
-21.100006103515625
 30
0.0
 11
92.849990844726563
 21
-21.100006103515625
 31
0.0
  0
LINE
  5
7D
100
AcDbEntity
  8
0
  6
CONTINUOUS
 62
               7
100
AcDbLine
 10
92.050003051757812
 20
-26.5
 30
0.0
 11
92.849990844726563
 21
-26.5
 31
0.0
  0
LINE
  5
7E
100
AcDbEntity
  8
0
  6
CONTINUOUS
 62
               7
100
AcDbLine
 10
97.149993896484375
 20
-26.5
 30
0.0
 11
97.949996948242188
 21
-26.5
 31
0.0
  0
LINE
  5
7F
100
AcDbEntity
  8
0
  6
CONTINUOUS
 62
               7
100
AcDbLine
 10
101.05000305175781
 20
-26.5
 30
0.0
 11
101.84999084472656
 21
-26.5
 31
0.0
  0
LINE
  5
80
100
AcDbEntity
  8
0
  6
CONTINUOUS
 62
               7
100
AcDbLine
 10
106.14999389648437
 20
-26.5
 30
0.0
 11
106.94999694824219
 21
-26.5
 31
0.0
  0
LINE
  5
81
100
AcDbEntity
  8
0
  6
CONTINUOUS
 62
               7
100
AcDbLine
 10
106.14999389648437
 20
-21.100006103515625
 30
0.0
 11
106.94999694824219
 21
-21.100006103515625
 31
0.0
  0
LINE
  5
82
100
AcDbEntity
  8
0
  6
CONTINUOUS
 62
               7
100
AcDbLine
 10
101.05000305175781
 20
-21.100006103515625
 30
0.0
 11
101.84999084472656
 21
-21.100006103515625
 31
0.0
  0
LINE
  5
83
100
AcDbEntity
  8
0
  6
CONTINUOUS
 62
               7
100
AcDbLine
 10
91.5
 20
-18.0
 30
0.0
 11
94.5
 21
-18.0
 31
0.0
  0
LINE
  5
84
100
AcDbEntity
  8
0
  6
CONTINUOUS
 62
               7
100
AcDbLine
 10
91.5
 20
-15.5
 30
0.0
 11
94.5
 21
-15.5
 31
0.0
  0
LINE
  5
85
100
AcDbEntity
  8
0
  6
CONTINUOUS
 62
               7
100
AcDbLine
 10
102.0
 20
-15.5
 30
0.0
 11
102.0
 21
-18.0
 31
0.0
  0
LINE
  5
86
100
AcDbEntity
  8
0
  6
CONTINUOUS
 62
               7
100
AcDbLine
 10
94.5
 20
-15.5
 30
0.0
 11
94.5
 21
-18.0
 31
0.0
  0
LINE
  5
87
100
AcDbEntity
  8
0
  6
CONTINUOUS
 62
               7
100
AcDbLine
 10
99.0
 20
-15.5
 30
0.0
 11
99.0
 21
-18.0
 31
0.0
  0
LINE
  5
88
100
AcDbEntity
  8
0
  6
CONTINUOUS
 62
               7
100
AcDbLine
 10
91.5
 20
-15.5
 30
0.0
 11
91.5
 21
-18.0
 31
0.0
  0
LINE
  5
89
100
AcDbEntity
  8
0
  6
CONTINUOUS
 62
               7
100
AcDbLine
 10
99.0
 20
-15.5
 30
0.0
 11
102.0
 21
-15.5
 31
0.0
  0
LINE
  5
8A
100
AcDbEntity
  8
0
  6
CONTINUOUS
 62
               7
100
AcDbLine
 10
99.0
 20
-18.0
 30
0.0
 11
102.0
 21
-18.0
 31
0.0
  0
LINE
  5
8B
100
AcDbEntity
  8
0
  6
CONTINUOUS
 62
               7
100
AcDbLine
 10
99.5
 20
-17.0
 30
0.0
 11
100.25
 21
-17.0
 31
0.0
  0
LINE
  5
8C
100
AcDbEntity
  8
0
  6
CONTINUOUS
 62
               7
100
AcDbLine
 10
99.5
 20
-16.5
 30
0.0
 11
100.25
 21
-16.5
 31
0.0
  0
LINE
  5
8D
100
AcDbEntity
  8
0
  6
CONTINUOUS
 62
               7
100
AcDbLine
 10
100.75
 20
-15.75
 30
0.0
 11
100.75
 21
-16.5
 31
0.0
  0
LINE
  5
8E
100
AcDbEntity
  8
0
  6
CONTINUOUS
 62
               7
100
AcDbLine
 10
100.25
 20
-15.75
 30
0.0
 11
100.25
 21
-16.5
 31
0.0
  0
LINE
  5
8F
100
AcDbEntity
  8
0
  6
CONTINUOUS
 62
               7
100
AcDbLine
 10
92.0
 20
-16.5
 30
0.0
 11
94.0
 21
-16.5
 31
0.0
  0
LINE
  5
90
100
AcDbEntity
  8
0
  6
CONTINUOUS
 62
               7
100
AcDbLine
 10
92.0
 20
-17.0
 30
0.0
 11
94.0
 21
-17.0
 31
0.0
  0
LINE
  5
91
100
AcDbEntity
  8
0
  6
CONTINUOUS
 62
               7
100
AcDbLine
 10
94.0
 20
-16.5
 30
0.0
 11
94.0
 21
-17.0
 31
0.0
  0
LINE
  5
92
100
AcDbEntity
  8
0
  6
CONTINUOUS
 62
               7
100
AcDbLine
 10
92.0
 20
-16.5
 30
0.0
 11
92.0
 21
-17.0
 31
0.0
  0
LINE
  5
93
100
AcDbEntity
  8
0
  6
CONTINUOUS
 62
               7
100
AcDbLine
 10
101.5
 20
-16.5
 30
0.0
 11
101.5
 21
-17.0
 31
0.0
  0
LINE
  5
94
100
AcDbEntity
  8
0
  6
CONTINUOUS
 62
               7
100
AcDbLine
 10
100.25
 20
-17.75
 30
0.0
 11
100.75
 21
-17.75
 31
0.0
  0
LINE
  5
95
100
AcDbEntity
  8
0
  6
CONTINUOUS
 62
               7
100
AcDbLine
 10
100.25
 20
-15.75
 30
0.0
 11
100.75
 21
-15.75
 31
0.0
  0
LINE
  5
96
100
AcDbEntity
  8
0
  6
CONTINUOUS
 62
               7
100
AcDbLine
 10
100.25
 20
-17.0
 30
0.0
 11
100.25
 21
-17.75
 31
0.0
  0
LINE
  5
97
100
AcDbEntity
  8
0
  6
CONTINUOUS
 62
               7
100
AcDbLine
 10
100.75
 20
-17.0
 30
0.0
 11
100.75
 21
-17.75
 31
0.0
  0
LINE
  5
98
100
AcDbEntity
  8
0
  6
CONTINUOUS
 62
               7
100
AcDbLine
 10
100.75
 20
-16.5
 30
0.0
 11
101.5
 21
-16.5
 31
0.0
  0
LINE
  5
99
100
AcDbEntity
  8
0
  6
CONTINUOUS
 62
               7
100
AcDbLine
 10
100.75
 20
-17.0
 30
0.0
 11
101.5
 21
-17.0
 31
0.0
  0
LINE
  5
9A
100
AcDbEntity
  8
0
  6
CONTINUOUS
 62
               7
100
AcDbLine
 10
90.599990844726563
 20
-9.75
 30
0.0
 11
90.599990844726563
 21
-30.75
 31
0.0
  0
LINE
  5
9B
100
AcDbEntity
  8
0
  6
CONTINUOUS
 62
               7
100
AcDbLine
 10
108.39999389648437
 20
-9.75
 30
0.0
 11
108.39999389648437
 21
-30.75
 31
0.0
  0
LINE
  5
9C
100
AcDbEntity
  8
0
  6
CONTINUOUS
 62
               7
100
AcDbLine
 10
90.599990844726563
 20
-9.75
 30
0.0
 11
108.39999389648437
 21
-9.75
 31
0.0
  0
LINE
  5
9D
100
AcDbEntity
  8
0
  6
CONTINUOUS
 62
               7
100
AcDbLine
 10
90.599990844726563
 20
-30.75
 30
0.0
 11
108.39999389648437
 21
-30.75
 31
0.0
  0
LINE
  5
9E
100
AcDbEntity
  8
0
  6
CONTINUOUS
 62
               7
100
AcDbLine
 10
91.0
 20
-7.5
 30
0.0
 11
108.0
 21
-7.5
 31
0.0
  0
LINE
  5
9F
100
AcDbEntity
  8
0
  6
CONTINUOUS
 62
               7
100
AcDbLine
 10
91.0
 20
51.5
 30
0.0
 11
108.0
 21
51.5
 31
0.0
  0
LINE
  5
A0
100
AcDbEntity
  8
0
  6
CONTINUOUS
 62
               7
100
AcDbLine
 10
108.0
 20
51.5
 30
0.0
 11
108.0
 21
-7.5
 31
0.0
  0
LINE
  5
A1
100
AcDbEntity
  8
0
  6
CONTINUOUS
 62
               7
100
AcDbLine
 10
91.0
 20
51.5
 30
0.0
 11
91.0
 21
34.700042724609375
 31
0.0
  0
LINE
  5
A2
100
AcDbEntity
  8
0
  6
CONTINUOUS
 62
               7
100
AcDbLine
 10
91.300003051757813
 20
-7.20001220703125
 30
0.0
 11
107.69999694824219
 21
-7.20001220703125
 31
0.0
  0
LINE
  5
A3
100
AcDbEntity
  8
0
  6
CONTINUOUS
 62
               7
100
AcDbLine
 10
91.300003051757813
 20
51.199996948242188
 30
0.0
 11
107.69999694824219
 21
51.199996948242188
 31
0.0
  0
LINE
  5
A4
100
AcDbEntity
  8
0
  6
CONTINUOUS
 62
               7
100
AcDbLine
 10
91.300003051757813
 20
51.199996948242188
 30
0.0
 11
91.300003051757813
 21
34.700042724609375
 31
0.0
  0
LINE
  5
A5
100
AcDbEntity
  8
0
  6
CONTINUOUS
 62
               7
100
AcDbLine
 10
107.69999694824219
 20
51.199996948242188
 30
0.0
 11
107.69999694824219
 21
-7.20001220703125
 31
0.0
  0
LINE
  5
A6
100
AcDbEntity
  8
0
  6
CONTINUOUS
 62
               7
100
AcDbLine
 10
93.939359771457021
 20
-24.860660875061512
 30
0.0
 11
96.060680257525746
 21
-22.739340567806721
 31
0.0
  0
LINE
  5
A7
100
AcDbEntity
  8
0
  6
CONTINUOUS
 62
               7
100
AcDbLine
 10
93.939349071270954
 20
-22.73932968880581
 30
0.0
 11
96.060669378525745
 21
-24.860650174874536
 31
0.0
  0
LINE
  5
A8
100
AcDbEntity
  8
0
  6
CONTINUOUS
 62
               7
100
AcDbLine
 10
102.9393481258976
 20
-24.860661254382649
 30
0.0
 11
105.06066861196632
 21
-22.739340947127857
 31
0.0
  0
LINE
  5
A9
100
AcDbEntity
  8
0
  6
CONTINUOUS
 62
               7
100
AcDbLine
 10
102.93935900489851
 20
-22.739330068127856
 30
0.0
 11
105.0606793121533
 21
-24.860650554196582
 31
0.0
  0
LINE
  5
AA
100
AcDbEntity
  8
0
  6
CONTINUOUS
 62
               7
100
AcDbLine
 10
104.0
 20
44.699996948242188
 30
0.0
 11
104.0
 21
-0.70001220703125
 31
0.0
  0
LINE
  5
AB
100
AcDbEntity
  8
0
  6
CONTINUOUS
 62
               7
100
AcDbLine
 10
95.0
 20
44.699996948242188
 30
0.0
 11
95.0
 21
34.700042724609375
 31
0.0
  0
LINE
  5
AC
100
AcDbEntity
  8
0
  6
CONTINUOUS
 62
               7
100
AcDbLine
 10
95.5
 20
-0.45001220703125
 30
0.0
 11
104.0
 21
-0.45001220703125
 31
0.0
  0
LINE
  5
AD
100
AcDbEntity
  8
0
  6
CONTINUOUS
 62
               7
100
AcDbLine
 10
95.5
 20
44.449996948242188
 30
0.0
 11
104.0
 21
44.449996948242188
 31
0.0
  0
LINE
  5
AE
100
AcDbEntity
  8
0
  6
CONTINUOUS
 62
               7
100
AcDbLine
 10
95.5
 20
44.449996948242188
 30
0.0
 11
95.5
 21
34.700042724609375
 31
0.0
  0
LINE
  5
AF
100
AcDbEntity
  8
0
  6
CONTINUOUS
 62
               7
100
AcDbLine
 10
97.75
 20
43.449996948242188
 30
0.0
 11
101.75
 21
43.449996948242188
 31
0.0
  0
LINE
  5
B0
100
AcDbEntity
  8
0
  6
CONTINUOUS
 62
               7
100
AcDbLine
 10
97.75
 20
0.54998779296875
 30
0.0
 11
101.75
 21
0.54998779296875
 31
0.0
  0
LINE
  5
B1
100
AcDbEntity
  8
0
  6
CONTINUOUS
 62
               7
100
AcDbLine
 10
95.5
 20
37.449996948242187
 30
0.0
 11
97.75
 21
37.449996948242187
 31
0.0
  0
LINE
  5
B2
100
AcDbEntity
  8
0
  6
CONTINUOUS
 62
               7
100
AcDbLine
 10
95.5
 20
6.5500030517578125
 30
0.0
 11
97.75
 21
6.5500030517578125
 31
0.0
  0
LINE
  5
B3
100
AcDbEntity
  8
0
  6
CONTINUOUS
 62
               7
100
AcDbLine
 10
97.75
 20
9.5500030517578125
 30
0.0
 11
101.75
 21
9.5500030517578125
 31
0.0
  0
LINE
  5
B4
100
AcDbEntity
  8
0
  6
CONTINUOUS
 62
               7
100
AcDbLine
 10
97.75
 20
34.449996948242188
 30
0.0
 11
101.75
 21
34.449996948242188
 31
0.0
  0
LINE
  5
B5
100
AcDbEntity
  8
0
  6
CONTINUOUS
 62
               7
100
AcDbLine
 10
101.75
 20
37.449996948242187
 30
0.0
 11
104.0
 21
37.449996948242187
 31
0.0
  0
LINE
  5
B6
100
AcDbEntity
  8
0
  6
CONTINUOUS
 62
               7
100
AcDbLine
 10
101.75
 20
6.5500030517578125
 30
0.0
 11
104.0
 21
6.5500030517578125
 31
0.0
  0
LINE
  5
B7
100
AcDbEntity
  8
0
  6
CONTINUOUS
 62
               7
100
AcDbLine
 10
96.5
 20
37.449996948242187
 30
0.0
 11
96.5
 21
34.700042724609375
 31
0.0
  0
LINE
  5
B8
100
AcDbEntity
  8
0
  6
CONTINUOUS
 62
               7
100
AcDbLine
 10
103.0
 20
37.449996948242187
 30
0.0
 11
103.0
 21
34.699996948242188
 31
0.0
  0
LINE
  5
B9
100
AcDbEntity
  8
0
  6
CONTINUOUS
 62
               7
100
AcDbLine
 10
95.5
 20
38.449996948242188
 30
0.0
 11
97.75
 21
38.449996948242188
 31
0.0
  0
LINE
  5
BA
100
AcDbEntity
  8
0
  6
CONTINUOUS
 62
               7
100
AcDbLine
 10
101.75
 20
38.449996948242188
 30
0.0
 11
104.0
 21
38.449996948242188
 31
0.0
  0
LINE
  5
BB
100
AcDbEntity
  8
0
  6
CONTINUOUS
 62
               7
100
AcDbLine
 10
101.75
 20
5.5500030517578125
 30
0.0
 11
104.0
 21
5.5500030517578125
 31
0.0
  0
LINE
  5
BC
100
AcDbEntity
  8
0
  6
CONTINUOUS
 62
               7
100
AcDbLine
 10
95.5
 20
5.5500030517578125
 30
0.0
 11
97.75
 21
5.5500030517578125
 31
0.0
  0
LINE
  5
BD
100
AcDbEntity
  8
0
  6
CONTINUOUS
 62
               7
100
AcDbLine
 10
101.75
 20
9.5500030517578125
 30
0.0
 11
101.75
 21
-0.45001220703125
 31
0.0
  0
LINE
  5
BE
100
AcDbEntity
  8
0
  6
CONTINUOUS
 62
               7
100
AcDbLine
 10
97.75
 20
9.5500030517578125
 30
0.0
 11
97.75
 21
-0.45001220703125
 31
0.0
  0
LINE
  5
BF
100
AcDbEntity
  8
0
  6
CONTINUOUS
 62
               7
100
AcDbLine
 10
97.75
 20
44.449996948242188
 30
0.0
 11
97.75
 21
34.449996948242188
 31
0.0
  0
LINE
  5
C0
100
AcDbEntity
  8
0
  6
CONTINUOUS
 62
               7
100
AcDbLine
 10
101.75
 20
44.449996948242188
 30
0.0
 11
101.75
 21
34.449996948242188
 31
0.0
  0
LINE
  5
C1
100
AcDbEntity
  8
0
  6
CONTINUOUS
 62
               7
100
AcDbLine
 10
95.5
 20
39.949996948242187
 30
0.0
 11
97.75
 21
39.949996948242187
 31
0.0
  0
LINE
  5
C2
100
AcDbEntity
  8
0
  6
CONTINUOUS
 62
               7
100
AcDbLine
 10
101.75
 20
39.949996948242187
 30
0.0
 11
104.0
 21
39.949996948242187
 31
0.0
  0
LINE
  5
C3
100
AcDbEntity
  8
0
  6
CONTINUOUS
 62
               7
100
AcDbLine
 10
95.5
 20
4.0500030517578125
 30
0.0
 11
97.75
 21
4.0500030517578125
 31
0.0
  0
LINE
  5
C4
100
AcDbEntity
  8
0
  6
CONTINUOUS
 62
               7
100
AcDbLine
 10
101.75
 20
4.0500030517578125
 30
0.0
 11
104.0
 21
4.0500030517578125
 31
0.0
  0
LINE
  5
C5
100
AcDbEntity
  8
0
  6
CONTINUOUS
 62
               7
100
AcDbLine
 10
95.5
 20
2.8000030517578125
 30
0.0
 11
97.75
 21
2.8000030517578125
 31
0.0
  0
LINE
  5
C6
100
AcDbEntity
  8
0
  6
CONTINUOUS
 62
               7
100
AcDbLine
 10
101.75
 20
2.8000030517578125
 30
0.0
 11
104.0
 21
2.8000030517578125
 31
0.0
  0
LINE
  5
C7
100
AcDbEntity
  8
0
  6
CONTINUOUS
 62
               7
100
AcDbLine
 10
95.5
 20
41.199996948242188
 30
0.0
 11
97.75
 21
41.199996948242188
 31
0.0
  0
LINE
  5
C8
100
AcDbEntity
  8
0
  6
CONTINUOUS
 62
               7
100
AcDbLine
 10
101.75
 20
41.199996948242188
 30
0.0
 11
104.0
 21
41.199996948242188
 31
0.0
  0
LINE
  5
C9
100
AcDbEntity
  8
0
  6
CONTINUOUS
 62
               7
100
AcDbLine
 10
103.76499938964844
 20
24.0
 30
0.0
 11
104.0
 21
24.0
 31
0.0
  0
LINE
  5
CA
100
AcDbEntity
  8
0
  6
CONTINUOUS
 62
               7
100
AcDbLine
 10
103.7650146484375
 20
20.0
 30
0.0
 11
104.0
 21
20.0
 31
0.0
  0
LINE
  5
CB
100
AcDbEntity
  8
0
  6
CONTINUOUS
 62
               7
100
AcDbLine
 10
103.0
 20
9.2999267578125
 30
0.0
 11
103.0
 21
6.5500030517578125
 31
0.0
  0
LINE
  5
CC
100
AcDbEntity
  8
0
  6
CONTINUOUS
 62
               7
100
AcDbLine
 10
97.75
 20
35.449996948242187
 30
0.0
 11
101.75
 21
35.449996948242187
 31
0.0
  0
LINE
  5
CD
100
AcDbEntity
  8
0
  6
CONTINUOUS
 62
               7
100
AcDbLine
 10
97.75
 20
8.5500030517578125
 30
0.0
 11
101.75
 21
8.5500030517578125
 31
0.0
  0
LINE
  5
CE
100
AcDbEntity
  8
0
  6
CONTINUOUS
 62
               7
100
AcDbLine
 10
97.75
 20
40.949996948242188
 30
0.0
 11
101.75
 21
40.949996948242188
 31
0.0
  0
LINE
  5
CF
100
AcDbEntity
  8
0
  6
CONTINUOUS
 62
               7
100
AcDbLine
 10
97.75
 20
3.0500030517578125
 30
0.0
 11
101.75
 21
3.0500030517578125
 31
0.0
  0
LINE
  5
D0
100
AcDbEntity
  8
0
  6
CONTINUOUS
 62
               7
100
AcDbLine
 10
97.75
 20
3.8499908447265625
 30
0.0
 11
101.75
 21
3.8499908447265625
 31
0.0
  0
LINE
  5
D1
100
AcDbEntity
  8
0
  6
CONTINUOUS
 62
               7
100
AcDbLine
 10
97.75
 20
40.149993896484375
 30
0.0
 11
101.75
 21
40.149993896484375
 31
0.0
  0
LINE
  5
D2
100
AcDbEntity
  8
0
  6
CONTINUOUS
 62
               7
100
AcDbLine
 10
97.75
 20
39.850006103515625
 30
0.0
 11
101.75
 21
39.850006103515625
 31
0.0
  0
LINE
  5
D3
100
AcDbEntity
  8
0
  6
CONTINUOUS
 62
               7
100
AcDbLine
 10
97.75
 20
39.550003051757813
 30
0.0
 11
101.75
 21
39.550003051757813
 31
0.0
  0
LINE
  5
D4
100
AcDbEntity
  8
0
  6
CONTINUOUS
 62
               7
100
AcDbLine
 10
97.75
 20
39.25
 30
0.0
 11
101.75
 21
39.25
 31
0.0
  0
LINE
  5
D5
100
AcDbEntity
  8
0
  6
CONTINUOUS
 62
               7
100
AcDbLine
 10
97.75
 20
38.949996948242188
 30
0.0
 11
101.75
 21
38.949996948242188
 31
0.0
  0
LINE
  5
D6
100
AcDbEntity
  8
0
  6
CONTINUOUS
 62
               7
100
AcDbLine
 10
97.75
 20
38.649993896484375
 30
0.0
 11
101.75
 21
38.649993896484375
 31
0.0
  0
LINE
  5
D7
100
AcDbEntity
  8
0
  6
CONTINUOUS
 62
               7
100
AcDbLine
 10
97.75
 20
38.350006103515625
 30
0.0
 11
101.75
 21
38.350006103515625
 31
0.0
  0
LINE
  5
D8
100
AcDbEntity
  8
0
  6
CONTINUOUS
 62
               7
100
AcDbLine
 10
97.75
 20
38.050003051757813
 30
0.0
 11
101.75
 21
38.050003051757813
 31
0.0
  0
LINE
  5
D9
100
AcDbEntity
  8
0
  6
CONTINUOUS
 62
               7
100
AcDbLine
 10
97.75
 20
4.149993896484375
 30
0.0
 11
101.75
 21
4.149993896484375
 31
0.0
  0
LINE
  5
DA
100
AcDbEntity
  8
0
  6
CONTINUOUS
 62
               7
100
AcDbLine
 10
97.75
 20
4.4499969482421875
 30
0.0
 11
101.75
 21
4.4499969482421875
 31
0.0
  0
LINE
  5
DB
100
AcDbEntity
  8
0
  6
CONTINUOUS
 62
               7
100
AcDbLine
 10
97.75
 20
4.75
 30
0.0
 11
101.75
 21
4.75
 31
0.0
  0
LINE
  5
DC
100
AcDbEntity
  8
0
  6
CONTINUOUS
 62
               7
100
AcDbLine
 10
97.75
 20
5.0500030517578125
 30
0.0
 11
101.75
 21
5.0500030517578125
 31
0.0
  0
LINE
  5
DD
100
AcDbEntity
  8
0
  6
CONTINUOUS
 62
               7
100
AcDbLine
 10
97.75
 20
5.3499908447265625
 30
0.0
 11
101.75
 21
5.3499908447265625
 31
0.0
  0
LINE
  5
DE
100
AcDbEntity
  8
0
  6
CONTINUOUS
 62
               7
100
AcDbLine
 10
97.75
 20
5.649993896484375
 30
0.0
 11
101.75
 21
5.649993896484375
 31
0.0
  0
LINE
  5
DF
100
AcDbEntity
  8
0
  6
CONTINUOUS
 62
               7
100
AcDbLine
 10
97.75
 20
5.9499969482421875
 30
0.0
 11
101.75
 21
5.9499969482421875
 31
0.0
  0
LINE
  5
E0
100
AcDbEntity
  8
0
  6
CONTINUOUS
 62
               7
100
AcDbLine
 10
95.0
 20
44.699996948242188
 30
0.0
 11
104.0
 21
44.699996948242188
 31
0.0
  0
LINE
  5
E1
100
AcDbEntity
  8
0
  6
CONTINUOUS
 62
               7
100
AcDbLine
 10
95.0
 20
-0.70001220703125
 30
0.0
 11
104.0
 21
-0.70001220703125
 31
0.0
  0
CIRCLE
  5
E2
100
AcDbEntity
  8
0
  6
CONTINUOUS
 62
               7
100
AcDbCircle
 10
99.5
 20
57.0
 30
0.0
 40
3.1999998092651367
  0
CIRCLE
  5
E3
100
AcDbEntity
  8
0
  6
CONTINUOUS
 62
               7
100
AcDbCircle
 10
99.5
 20
57.0
 30
0.0
 40
2.7999992370605469
  0
CIRCLE
  5
E4
100
AcDbEntity
  8
0
  6
CONTINUOUS
 62
               7
100
AcDbCircle
 10
105.0
 20
-14.0
 30
0.0
 40
1.5999994277954102
  0
CIRCLE
  5
E5
100
AcDbEntity
  8
0
  6
CONTINUOUS
 62
               7
100
AcDbCircle
 10
105.0
 20
-14.0
 30
0.0
 40
1.5
  0
CIRCLE
  5
E6
100
AcDbEntity
  8
0
  6
CONTINUOUS
 62
               7
100
AcDbCircle
 10
95.0
 20
-23.800003051757813
 30
0.0
 40
2.7999992370605469
  0
CIRCLE
  5
E7
100
AcDbEntity
  8
0
  6
CONTINUOUS
 62
               7
100
AcDbCircle
 10
104.0
 20
-23.800003051757813
 30
0.0
 40
2.7999992370605469
  0
LINE
  5
E8
100
AcDbEntity
  8
0
  6
CONTINUOUS
 62
               7
100
AcDbLine
 10
-12.5
 20
12.5
 30
0.0
 11
5.3000030517578125
 21
12.5
 31
0.0
  0
LINE
  5
E9
100
AcDbEntity
  8
0
  6
CONTINUOUS
 62
               7
100
AcDbLine
 10
-12.5
 20
-12.5
 30
0.0
 11
5.3000030517578125
 21
-12.5
 31
0.0
  0
LINE
  5
EA
100
AcDbEntity
  8
0
  6
CONTINUOUS
 62
               7
100
AcDbLine
 10
-12.5
 20
-17.5
 30
0.0
 11
5.3000030517578125
 21
-17.5
 31
0.0
  0
LINE
  5
EB
100
AcDbEntity
  8
0
  6
CONTINUOUS
 62
               7
100
AcDbLine
 10
-12.5
 20
17.5
 30
0.0
 11
5.3000030517578125
 21
17.5
 31
0.0
  0
LINE
  5
EC
100
AcDbEntity
  8
0
  6
CONTINUOUS
 62
               7
100
AcDbLine
 10
89.970001220703125
 20
22.0
 30
0.0
 11
97.970001220703125
 21
22.0
 31
0.0
  0
LINE
  5
ED
100
AcDbEntity
  8
0
  6
CONTINUOUS
 62
               7
100
AcDbLine
 10
96.970001220703125
 20
7.0500030517578125
 30
0.0
 11
97.75
 21
7.0500030517578125
 31
0.0
  0
LINE
  5
EE
100
AcDbEntity
  8
0
  6
CONTINUOUS
 62
               7
100
AcDbLine
 10
96.970001220703125
 20
36.949996948242188
 30
0.0
 11
97.75
 21
36.949996948242188
 31
0.0
  0
LINE
  5
EF
100
AcDbEntity
  8
0
  6
CONTINUOUS
 62
               7
100
AcDbLine
 10
96.970001220703125
 20
36.949996948242188
 30
0.0
 11
96.970001220703125
 21
34.700042724609375
 31
0.0
  0
LINE
  5
F0
100
AcDbEntity
  8
0
  6
CONTINUOUS
 62
               7
100
AcDbLine
 10
102.97000122070312
 20
36.949996948242188
 30
0.0
 11
102.97000122070312
 21
7.0500030517578125
 31
0.0
  0
LINE
  5
F1
100
AcDbEntity
  8
0
  6
CONTINUOUS
 62
               7
100
AcDbLine
 10
97.970001220703125
 20
34.449996948242188
 30
0.0
 11
97.970001220703125
 21
9.5500030517578125
 31
0.0
  0
LINE
  5
F2
100
AcDbEntity
  8
0
  6
CONTINUOUS
 62
               7
100
AcDbLine
 10
103.74617004394531
 20
20.300003051757813
 30
0.0
 11
103.97000122070312
 21
20.300003051757813
 31
0.0
  0
LINE
  5
F3
100
AcDbEntity
  8
0
  6
CONTINUOUS
 62
               7
100
AcDbLine
 10
103.74618530273437
 20
23.699996948242188
 30
0.0
 11
103.97000122070312
 21
23.699996948242188
 31
0.0
  0
LINE
  5
F4
100
AcDbEntity
  8
0
  6
CONTINUOUS
 62
               7
100
AcDbLine
 10
103.97000122070312
 20
23.699996948242188
 30
0.0
 11
103.97000122070312
 21
20.300003051757813
 31
0.0
  0
ARC
  5
F5
100
AcDbEntity
  8
0
  6
CONTINUOUS
 62
               7
100
AcDbCircle
 10
96.970001220703125
 20
33.949996948242187
 30
0.0
 40
1.0
100
AcDbArc
 50
0.0
 51
30.000000834826057
  0
ARC
  5
F6
100
AcDbEntity
  8
0
  6
CONTINUOUS
 62
               7
100
AcDbCircle
 10
96.970001220703125
 20
10.050003051757812
 30
0.0
 40
1.0
100
AcDbArc
 50
270.00001798608935
 51
321.26046476362995
  0
LINE
  5
F7
100
AcDbEntity
  8
0
  6
CONTINUOUS
 62
               7
100
AcDbLine
 10
96.970001220703125
 20
36.449996948242188
 30
0.0
 11
97.75
 21
36.449996948242188
 31
0.0
  0
LINE
  5
F8
100
AcDbEntity
  8
0
  6
CONTINUOUS
 62
               7
100
AcDbLine
 10
101.75
 20
7.0500030517578125
 30
0.0
 11
102.97000122070312
 21
7.0500030517578125
 31
0.0
  0
LINE
  5
F9
100
AcDbEntity
  8
0
  6
CONTINUOUS
 62
               7
100
AcDbLine
 10
101.75
 20
7.5500030517578125
 30
0.0
 11
102.97000122070312
 21
7.5500030517578125
 31
0.0
  0
LINE
  5
FA
100
AcDbEntity
  8
0
  6
CONTINUOUS
 62
               7
100
AcDbLine
 10
96.970001220703125
 20
7.5500030517578125
 30
0.0
 11
97.75
 21
7.5500030517578125
 31
0.0
  0
LINE
  5
FB
100
AcDbEntity
  8
0
  6
CONTINUOUS
 62
               7
100
AcDbLine
 10
101.75
 20
36.949996948242188
 30
0.0
 11
102.97000122070312
 21
36.949996948242188
 31
0.0
  0
LINE
  5
FC
100
AcDbEntity
  8
0
  6
CONTINUOUS
 62
               7
100
AcDbLine
 10
101.75
 20
36.449996948242188
 30
0.0
 11
102.97000122070312
 21
36.449996948242188
 31
0.0
  0
ARC
  5
FD
100
AcDbEntity
  8
0
  6
CONTINUOUS
 62
               7
100
AcDbCircle
 10
96.970001220703125
 20
33.949996948242187
 30
0.0
 40
1.0
100
AcDbArc
 50
38.739535236370024
 51
89.999982013910653
  0
ARC
  5
FE
100
AcDbEntity
  8
0
  6
CONTINUOUS
 62
               7
100
AcDbCircle
 10
96.970001220703125
 20
10.050003051757812
 30
0.0
 40
1.0
100
AcDbArc
 50
329.99999916517396
 51
0.0
  0
LINE
  5
FF
100
AcDbEntity
  8
0
  6
CONTINUOUS
 62
               7
100
AcDbLine
 10
102.97000122070312
 20
34.699996948242188
 30
0.0
 11
103.32501220703125
 21
34.699996948242188
 31
0.0
  0
LINE
  5
100
100
AcDbEntity
  8
0
  6
CONTINUOUS
 62
               7
100
AcDbLine
 10
102.97000122070312
 20
33.430007934570312
 30
0.0
 11
103.32501220703125
 21
33.430007934570312
 31
0.0
  0
ELLIPSE
  5
101
100
AcDbEntity
  8
0
  6
CONTINUOUS
 62
               7
100
AcDbEllipse
 10
103.32501220703125
 20
34.06500244140625
 30
0.0
 11
-0.0000000000000001
 21
-0.6349999904632568
 31
0.0
210
0.0
220
0.0
230
1.0
 40
0.700787400835704
 41
0.0000003139165088
 42
3.1415929675063019
  0
LINE
  5
102
100
AcDbEntity
  8
0
  6
CONTINUOUS
 62
               7
100
AcDbLine
 10
102.97000122070312
 20
32.160003662109375
 30
0.0
 11
103.32501220703125
 21
32.160003662109375
 31
0.0
  0
ELLIPSE
  5
103
100
AcDbEntity
  8
0
  6
CONTINUOUS
 62
               7
100
AcDbEllipse
 10
103.32501220703125
 20
32.794998168945313
 30
0.0
 11
-0.0000000000000001
 21
-0.6349999904632568
 31
0.0
210
0.0
220
0.0
230
1.0
 40
0.700787400835704
 41
0.0000003139165088
 42
3.1415929675063019
  0
LINE
  5
104
100
AcDbEntity
  8
0
  6
CONTINUOUS
 62
               7
100
AcDbLine
 10
102.97000122070312
 20
30.889999389648437
 30
0.0
 11
103.32501220703125
 21
30.889999389648437
 31
0.0
  0
ELLIPSE
  5
105
100
AcDbEntity
  8
0
  6
CONTINUOUS
 62
               7
100
AcDbEllipse
 10
103.32501220703125
 20
31.524993896484375
 30
0.0
 11
-0.0000000000000001
 21
-0.6349999904632568
 31
0.0
210
0.0
220
0.0
230
1.0
 40
0.700787400835704
 41
0.0000003139165088
 42
3.1415929675063019
  0
LINE
  5
106
100
AcDbEntity
  8
0
  6
CONTINUOUS
 62
               7
100
AcDbLine
 10
102.97000122070312
 20
29.6199951171875
 30
0.0
 11
103.32501220703125
 21
29.6199951171875
 31
0.0
  0
ELLIPSE
  5
107
100
AcDbEntity
  8
0
  6
CONTINUOUS
 62
               7
100
AcDbEllipse
 10
103.32501220703125
 20
30.254989624023437
 30
0.0
 11
-0.0000000000000001
 21
-0.6349999904632568
 31
0.0
210
0.0
220
0.0
230
1.0
 40
0.700787400835704
 41
0.0000003139165088
 42
3.1415929675063019
  0
LINE
  5
108
100
AcDbEntity
  8
0
  6
CONTINUOUS
 62
               7
100
AcDbLine
 10
102.97000122070312
 20
28.349990844726563
 30
0.0
 11
103.32501220703125
 21
28.349990844726563
 31
0.0
  0
ELLIPSE
  5
109
100
AcDbEntity
  8
0
  6
CONTINUOUS
 62
               7
100
AcDbEllipse
 10
103.32501220703125
 20
28.9849853515625
 30
0.0
 11
-0.0000000000000001
 21
-0.6349999904632568
 31
0.0
210
0.0
220
0.0
230
1.0
 40
0.700787400835704
 41
0.0000003139165088
 42
3.1415929675063019
  0
LINE
  5
10A
100
AcDbEntity
  8
0
  6
CONTINUOUS
 62
               7
100
AcDbLine
 10
102.97000122070312
 20
27.079986572265625
 30
0.0
 11
103.32501220703125
 21
27.079986572265625
 31
0.0
  0
ELLIPSE
  5
10B
100
AcDbEntity
  8
0
  6
CONTINUOUS
 62
               7
100
AcDbEllipse
 10
103.32501220703125
 20
27.714981079101563
 30
0.0
 11
-0.0000000000000001
 21
-0.6349999904632568
 31
0.0
210
0.0
220
0.0
230
1.0
 40
0.700787400835704
 41
0.0000003139165088
 42
3.1415929675063019
  0
LINE
  5
10C
100
AcDbEntity
  8
0
  6
CONTINUOUS
 62
               7
100
AcDbLine
 10
102.97000122070312
 20
25.809982299804688
 30
0.0
 11
103.32501220703125
 21
25.809982299804688
 31
0.0
  0
ELLIPSE
  5
10D
100
AcDbEntity
  8
0
  6
CONTINUOUS
 62
               7
100
AcDbEllipse
 10
103.32501220703125
 20
26.444976806640625
 30
0.0
 11
-0.0000000000000001
 21
-0.6349999904632568
 31
0.0
210
0.0
220
0.0
230
1.0
 40
0.700787400835704
 41
0.0000003139165088
 42
3.1415929675063019
  0
LINE
  5
10E
100
AcDbEntity
  8
0
  6
CONTINUOUS
 62
               7
100
AcDbLine
 10
102.97000122070312
 20
24.53997802734375
 30
0.0
 11
103.32501220703125
 21
24.53997802734375
 31
0.0
  0
ELLIPSE
  5
10F
100
AcDbEntity
  8
0
  6
CONTINUOUS
 62
               7
100
AcDbEllipse
 10
103.32501220703125
 20
25.174972534179688
 30
0.0
 11
-0.0000000000000001
 21
-0.6349999904632568
 31
0.0
210
0.0
220
0.0
230
1.0
 40
0.700787400835704
 41
0.0000003139165088
 42
3.1415929675063019
  0
LINE
  5
110
100
AcDbEntity
  8
0
  6
CONTINUOUS
 62
               7
100
AcDbLine
 10
102.97000122070312
 20
23.269973754882813
 30
0.0
 11
103.32501220703125
 21
23.269973754882813
 31
0.0
  0
ELLIPSE
  5
111
100
AcDbEntity
  8
0
  6
CONTINUOUS
 62
               7
100
AcDbEllipse
 10
103.32501220703125
 20
23.90496826171875
 30
0.0
 11
-0.0000000000000001
 21
-0.6349999904632568
 31
0.0
210
0.0
220
0.0
230
1.0
 40
0.700787400835704
 41
0.0000003139165088
 42
3.1415929675063019
  0
LINE
  5
112
100
AcDbEntity
  8
0
  6
CONTINUOUS
 62
               7
100
AcDbLine
 10
102.97000122070312
 20
21.999969482421875
 30
0.0
 11
103.32501220703125
 21
21.999969482421875
 31
0.0
  0
ELLIPSE
  5
113
100
AcDbEntity
  8
0
  6
CONTINUOUS
 62
               7
100
AcDbEllipse
 10
103.32501220703125
 20
22.634963989257813
 30
0.0
 11
-0.0000000000000001
 21
-0.6349999904632568
 31
0.0
210
0.0
220
0.0
230
1.0
 40
0.700787400835704
 41
0.0000003139165088
 42
3.1415929675063019
  0
LINE
  5
114
100
AcDbEntity
  8
0
  6
CONTINUOUS
 62
               7
100
AcDbLine
 10
102.97000122070312
 20
20.729965209960938
 30
0.0
 11
103.32501220703125
 21
20.729965209960938
 31
0.0
  0
ELLIPSE
  5
115
100
AcDbEntity
  8
0
  6
CONTINUOUS
 62
               7
100
AcDbEllipse
 10
103.32501220703125
 20
21.364959716796875
 30
0.0
 11
-0.0000000000000001
 21
-0.6349999904632568
 31
0.0
210
0.0
220
0.0
230
1.0
 40
0.700787400835704
 41
0.0000003139165088
 42
3.1415929675063019
  0
LINE
  5
116
100
AcDbEntity
  8
0
  6
CONTINUOUS
 62
               7
100
AcDbLine
 10
102.97000122070312
 20
19.4599609375
 30
0.0
 11
103.32501220703125
 21
19.4599609375
 31
0.0
  0
ELLIPSE
  5
117
100
AcDbEntity
  8
0
  6
CONTINUOUS
 62
               7
100
AcDbEllipse
 10
103.32501220703125
 20
20.094955444335938
 30
0.0
 11
-0.0000000000000001
 21
-0.6349999904632568
 31
0.0
210
0.0
220
0.0
230
1.0
 40
0.700787400835704
 41
0.0000003139165088
 42
3.1415929675063019
  0
LINE
  5
118
100
AcDbEntity
  8
0
  6
CONTINUOUS
 62
               7
100
AcDbLine
 10
102.97000122070312
 20
18.189956665039062
 30
0.0
 11
103.32501220703125
 21
18.189956665039062
 31
0.0
  0
ELLIPSE
  5
119
100
AcDbEntity
  8
0
  6
CONTINUOUS
 62
               7
100
AcDbEllipse
 10
103.32501220703125
 20
18.824951171875
 30
0.0
 11
-0.0000000000000001
 21
-0.6349999904632568
 31
0.0
210
0.0
220
0.0
230
1.0
 40
0.700787400835704
 41
0.0000003139165088
 42
3.1415929675063019
  0
LINE
  5
11A
100
AcDbEntity
  8
0
  6
CONTINUOUS
 62
               7
100
AcDbLine
 10
102.97000122070312
 20
16.919952392578125
 30
0.0
 11
103.32501220703125
 21
16.919952392578125
 31
0.0
  0
ELLIPSE
  5
11B
100
AcDbEntity
  8
0
  6
CONTINUOUS
 62
               7
100
AcDbEllipse
 10
103.32501220703125
 20
17.554946899414063
 30
0.0
 11
-0.0000000000000001
 21
-0.6349999904632568
 31
0.0
210
0.0
220
0.0
230
1.0
 40
0.700787400835704
 41
0.0000003139165088
 42
3.1415929675063019
  0
LINE
  5
11C
100
AcDbEntity
  8
0
  6
CONTINUOUS
 62
               7
100
AcDbLine
 10
102.97000122070312
 20
15.649948120117188
 30
0.0
 11
103.32501220703125
 21
15.649948120117188
 31
0.0
  0
ELLIPSE
  5
11D
100
AcDbEntity
  8
0
  6
CONTINUOUS
 62
               7
100
AcDbEllipse
 10
103.32501220703125
 20
16.284942626953125
 30
0.0
 11
-0.0000000000000001
 21
-0.6349999904632568
 31
0.0
210
0.0
220
0.0
230
1.0
 40
0.700787400835704
 41
0.0000003139165088
 42
3.1415929675063019
  0
LINE
  5
11E
100
AcDbEntity
  8
0
  6
CONTINUOUS
 62
               7
100
AcDbLine
 10
102.97000122070312
 20
14.37994384765625
 30
0.0
 11
103.32501220703125
 21
14.37994384765625
 31
0.0
  0
ELLIPSE
  5
11F
100
AcDbEntity
  8
0
  6
CONTINUOUS
 62
               7
100
AcDbEllipse
 10
103.32501220703125
 20
15.014938354492187
 30
0.0
 11
-0.0000000000000001
 21
-0.6349999904632568
 31
0.0
210
0.0
220
0.0
230
1.0
 40
0.700787400835704
 41
0.0000003139165088
 42
3.1415929675063019
  0
LINE
  5
120
100
AcDbEntity
  8
0
  6
CONTINUOUS
 62
               7
100
AcDbLine
 10
102.97000122070312
 20
13.109939575195313
 30
0.0
 11
103.32501220703125
 21
13.109939575195313
 31
0.0
  0
ELLIPSE
  5
121
100
AcDbEntity
  8
0
  6
CONTINUOUS
 62
               7
100
AcDbEllipse
 10
103.32501220703125
 20
13.74493408203125
 30
0.0
 11
-0.0000000000000001
 21
-0.6349999904632568
 31
0.0
210
0.0
220
0.0
230
1.0
 40
0.700787400835704
 41
0.0000003139165088
 42
3.1415929675063019
  0
LINE
  5
122
100
AcDbEntity
  8
0
  6
CONTINUOUS
 62
               7
100
AcDbLine
 10
102.97000122070312
 20
11.839935302734375
 30
0.0
 11
103.32501220703125
 21
11.839935302734375
 31
0.0
  0
ELLIPSE
  5
123
100
AcDbEntity
  8
0
  6
CONTINUOUS
 62
               7
100
AcDbEllipse
 10
103.32501220703125
 20
12.474929809570313
 30
0.0
 11
-0.0000000000000001
 21
-0.6349999904632568
 31
0.0
210
0.0
220
0.0
230
1.0
 40
0.700787400835704
 41
0.0000003139165088
 42
3.1415929675063019
  0
LINE
  5
124
100
AcDbEntity
  8
0
  6
CONTINUOUS
 62
               7
100
AcDbLine
 10
102.97000122070312
 20
10.569931030273437
 30
0.0
 11
103.32501220703125
 21
10.569931030273437
 31
0.0
  0
ELLIPSE
  5
125
100
AcDbEntity
  8
0
  6
CONTINUOUS
 62
               7
100
AcDbEllipse
 10
103.32501220703125
 20
11.204925537109375
 30
0.0
 11
-0.0000000000000001
 21
-0.6349999904632568
 31
0.0
210
0.0
220
0.0
230
1.0
 40
0.700787400835704
 41
0.0000003139165088
 42
3.1415929675063019
  0
LINE
  5
126
100
AcDbEntity
  8
0
  6
CONTINUOUS
 62
               7
100
AcDbLine
 10
102.97000122070312
 20
9.2999267578125
 30
0.0
 11
103.32501220703125
 21
9.2999267578125
 31
0.0
  0
ELLIPSE
  5
127
100
AcDbEntity
  8
0
  6
CONTINUOUS
 62
               7
100
AcDbEllipse
 10
103.32501220703125
 20
9.9349212646484375
 30
0.0
 11
-0.0000000000000001
 21
-0.6349999904632568
 31
0.0
210
0.0
220
0.0
230
1.0
 40
0.700787400835704
 41
0.0000003139165088
 42
3.1415929675063019
  0
LINE
  5
128
100
AcDbEntity
  8
0
  6
CONTINUOUS
 62
               7
100
AcDbLine
 10
60.0
 20
-17.5
 30
0.0
 11
70.0
 21
-17.5
 31
0.0
  0
LINE
  5
129
100
AcDbEntity
  8
0
  6
CONTINUOUS
 62
               7
100
AcDbLine
 10
60.0
 20
-12.5
 30
0.0
 11
70.0
 21
-12.5
 31
0.0
  0
LINE
  5
12A
100
AcDbEntity
  8
0
  6
CONTINUOUS
 62
               7
100
AcDbLine
 10
60.0
 20
44.5
 30
0.0
 11
60.0
 21
-44.5
 31
0.0
  0
LINE
  5
12B
100
AcDbEntity
  8
0
  6
CONTINUOUS
 62
               7
100
AcDbLine
 10
10.5
 20
-45.0
 30
0.0
 11
59.5
 21
-45.0
 31
0.0
  0
LINE
  5
12C
100
AcDbEntity
  8
0
  6
CONTINUOUS
 62
               7
100
AcDbLine
 10
10.5
 20
45.0
 30
0.0
 11
59.5
 21
45.0
 31
0.0
  0
LINE
  5
12D
100
AcDbEntity
  8
0
  6
CONTINUOUS
 62
               7
100
AcDbLine
 10
10.0
 20
44.5
 30
0.0
 11
10.0
 21
-44.5
 31
0.0
  0
LINE
  5
12E
100
AcDbEntity
  8
0
  6
CONTINUOUS
 62
               7
100
AcDbLine
 10
13.0
 20
44.0
 30
0.0
 11
59.0
 21
44.0
 31
0.0
  0
LINE
  5
12F
100
AcDbEntity
  8
0
  6
CONTINUOUS
 62
               7
100
AcDbLine
 10
13.0
 20
-44.0
 30
0.0
 11
59.0
 21
-44.0
 31
0.0
  0
LINE
  5
130
100
AcDbEntity
  8
0
  6
CONTINUOUS
 62
               7
100
AcDbLine
 10
59.0
 20
44.0
 30
0.0
 11
59.0
 21
-44.0
 31
0.0
  0
LINE
  5
131
100
AcDbEntity
  8
0
  6
CONTINUOUS
 62
               7
100
AcDbLine
 10
13.0
 20
44.0
 30
0.0
 11
13.0
 21
-44.0
 31
0.0
  0
ARC
  5
132
100
AcDbEntity
  8
0
  6
CONTINUOUS
 62
               7
100
AcDbCircle
 10
59.5
 20
44.5
 30
0.0
 40
0.5
100
AcDbArc
 50
359.99998201391094
 51
90.000036655424012
  0
ARC
  5
133
100
AcDbEntity
  8
0
  6
CONTINUOUS
 62
               7
100
AcDbCircle
 10
10.5
 20
44.5
 30
0.0
 40
0.5
100
AcDbArc
 50
89.999982013910653
 51
180.00001866933468
  0
ARC
  5
134
100
AcDbEntity
  8
0
  6
CONTINUOUS
 62
               7
100
AcDbCircle
 10
10.5
 20
-44.5
 30
0.0
 40
0.5
100
AcDbArc
 50
180.00003597217869
 51
270.00001798608935
  0
ARC
  5
135
100
AcDbEntity
  8
0
  6
CONTINUOUS
 62
               7
100
AcDbCircle
 10
59.5
 20
-44.5
 30
0.0
 40
0.5
100
AcDbArc
 50
270.00001798608935
 51
359.99998201391094
  0
LINE
  5
136
100
AcDbEntity
  8
0
  6
CONTINUOUS
 62
               7
100
AcDbLine
 10
-12.5
 20
17.5
 30
0.0
 11
-12.5
 21
-17.5
 31
0.0
  0
LINE
  5
137
100
AcDbEntity
  8
0
  6
CONTINUOUS
 62
               7
100
AcDbLine
 10
-7.5
 20
-2.75
 30
0.0
 11
7.5
 21
-2.75
 31
0.0
  0
ARC
  5
138
100
AcDbEntity
  8
0
  6
CONTINUOUS
 62
               7
100
AcDbCircle
 10
-7.5
 20
0.0
 30
0.0
 40
2.75
100
AcDbArc
 50
89.999982013910653
 51
270.00000068324533
  0
LINE
  5
139
100
AcDbEntity
  8
0
  6
CONTINUOUS
 62
               7
100
AcDbLine
 10
60.0
 20
3.4000091552734375
 30
0.0
 11
67.970001220703125
 21
3.4000091552734375
 31
0.0
  0
LINE
  5
13A
100
AcDbEntity
  8
0
  6
CONTINUOUS
 62
               7
100
AcDbLine
 10
60.0
 20
28.800003051757813
 30
0.0
 11
67.970001220703125
 21
28.800003051757813
 31
0.0
  0
LINE
  5
13B
100
AcDbEntity
  8
0
  6
CONTINUOUS
 62
               7
100
AcDbLine
 10
96.970001220703125
 20
9.299957275390625
 30
0.0
 11
96.970001220703125
 21
7.0500030517578125
 31
0.0
  0
LINE
  5
13C
100
AcDbEntity
  8
0
  6
CONTINUOUS
 62
               7
100
AcDbLine
 10
89.970001220703125
 20
23.270004272460938
 30
0.0
 11
97.970001220703125
 21
23.270004272460938
 31
0.0
  0
LINE
  5
13D
100
AcDbEntity
  8
0
  6
CONTINUOUS
 62
               7
100
AcDbLine
 10
89.970001220703125
 20
24.540008544921875
 30
0.0
 11
97.970001220703125
 21
24.540008544921875
 31
0.0
  0
LINE
  5
13E
100
AcDbEntity
  8
0
  6
CONTINUOUS
 62
               7
100
AcDbLine
 10
89.970001220703125
 20
25.810012817382812
 30
0.0
 11
97.970001220703125
 21
25.810012817382812
 31
0.0
  0
LINE
  5
13F
100
AcDbEntity
  8
0
  6
CONTINUOUS
 62
               7
100
AcDbLine
 10
89.970001220703125
 20
27.08001708984375
 30
0.0
 11
97.970001220703125
 21
27.08001708984375
 31
0.0
  0
LINE
  5
140
100
AcDbEntity
  8
0
  6
CONTINUOUS
 62
               7
100
AcDbLine
 10
89.970001220703125
 20
28.350021362304687
 30
0.0
 11
97.970001220703125
 21
28.350021362304687
 31
0.0
  0
LINE
  5
141
100
AcDbEntity
  8
0
  6
CONTINUOUS
 62
               7
100
AcDbLine
 10
89.970001220703125
 20
29.620025634765625
 30
0.0
 11
97.970001220703125
 21
29.620025634765625
 31
0.0
  0
LINE
  5
142
100
AcDbEntity
  8
0
  6
CONTINUOUS
 62
               7
100
AcDbLine
 10
89.970001220703125
 20
30.890029907226563
 30
0.0
 11
97.970001220703125
 21
30.890029907226563
 31
0.0
  0
LINE
  5
143
100
AcDbEntity
  8
0
  6
CONTINUOUS
 62
               7
100
AcDbLine
 10
89.970001220703125
 20
32.1600341796875
 30
0.0
 11
97.970001220703125
 21
32.1600341796875
 31
0.0
  0
LINE
  5
144
100
AcDbEntity
  8
0
  6
CONTINUOUS
 62
               7
100
AcDbLine
 10
89.970001220703125
 20
33.430038452148438
 30
0.0
 11
97.970001220703125
 21
33.430038452148438
 31
0.0
  0
LINE
  5
145
100
AcDbEntity
  8
0
  6
CONTINUOUS
 62
               7
100
AcDbLine
 10
89.970001220703125
 20
34.700042724609375
 30
0.0
 11
97.631393432617188
 21
34.700042724609375
 31
0.0
  0
LINE
  5
146
100
AcDbEntity
  8
0
  6
CONTINUOUS
 62
               7
100
AcDbLine
 10
89.970001220703125
 20
20.729995727539062
 30
0.0
 11
97.970001220703125
 21
20.729995727539062
 31
0.0
  0
LINE
  5
147
100
AcDbEntity
  8
0
  6
CONTINUOUS
 62
               7
100
AcDbLine
 10
89.970001220703125
 20
19.459991455078125
 30
0.0
 11
97.970001220703125
 21
19.459991455078125
 31
0.0
  0
LINE
  5
148
100
AcDbEntity
  8
0
  6
CONTINUOUS
 62
               7
100
AcDbLine
 10
89.970001220703125
 20
18.189987182617188
 30
0.0
 11
97.970001220703125
 21
18.189987182617188
 31
0.0
  0
LINE
  5
149
100
AcDbEntity
  8
0
  6
CONTINUOUS
 62
               7
100
AcDbLine
 10
89.970001220703125
 20
16.91998291015625
 30
0.0
 11
97.970001220703125
 21
16.91998291015625
 31
0.0
  0
LINE
  5
14A
100
AcDbEntity
  8
0
  6
CONTINUOUS
 62
               7
100
AcDbLine
 10
89.970001220703125
 20
15.649978637695313
 30
0.0
 11
97.970001220703125
 21
15.649978637695313
 31
0.0
  0
LINE
  5
14B
100
AcDbEntity
  8
0
  6
CONTINUOUS
 62
               7
100
AcDbLine
 10
89.970001220703125
 20
14.379974365234375
 30
0.0
 11
97.970001220703125
 21
14.379974365234375
 31
0.0
  0
LINE
  5
14C
100
AcDbEntity
  8
0
  6
CONTINUOUS
 62
               7
100
AcDbLine
 10
89.970001220703125
 20
13.109970092773438
 30
0.0
 11
97.970001220703125
 21
13.109970092773438
 31
0.0
  0
LINE
  5
14D
100
AcDbEntity
  8
0
  6
CONTINUOUS
 62
               7
100
AcDbLine
 10
89.970001220703125
 20
11.8399658203125
 30
0.0
 11
97.970001220703125
 21
11.8399658203125
 31
0.0
  0
LINE
  5
14E
100
AcDbEntity
  8
0
  6
CONTINUOUS
 62
               7
100
AcDbLine
 10
89.970001220703125
 20
10.569961547851563
 30
0.0
 11
97.970001220703125
 21
10.569961547851563
 31
0.0
  0
LINE
  5
14F
100
AcDbEntity
  8
0
  6
CONTINUOUS
 62
               7
100
AcDbLine
 10
89.970001220703125
 20
9.299957275390625
 30
0.0
 11
97.631393432617188
 21
9.299957275390625
 31
0.0
  0
LINE
  5
150
100
AcDbEntity
  8
0
  6
CONTINUOUS
 62
               7
100
AcDbLine
 10
95.0
 20
9.299957275390625
 30
0.0
 11
95.0
 21
-0.70001220703125
 31
0.0
  0
LINE
  5
151
100
AcDbEntity
  8
0
  6
CONTINUOUS
 62
               7
100
AcDbLine
 10
95.5
 20
9.299957275390625
 30
0.0
 11
95.5
 21
-0.45001220703125
 31
0.0
  0
LINE
  5
152
100
AcDbEntity
  8
0
  6
CONTINUOUS
 62
               7
100
AcDbLine
 10
91.0
 20
9.299957275390625
 30
0.0
 11
91.0
 21
-7.5
 31
0.0
  0
LINE
  5
153
100
AcDbEntity
  8
0
  6
CONTINUOUS
 62
               7
100
AcDbLine
 10
91.300003051757813
 20
9.299957275390625
 30
0.0
 11
91.300003051757813
 21
-7.20001220703125
 31
0.0
  0
LINE
  5
154
100
AcDbEntity
  8
0
  6
CONTINUOUS
 62
               7
100
AcDbLine
 10
60.0
 20
27.529998779296875
 30
0.0
 11
67.970001220703125
 21
27.529998779296875
 31
0.0
  0
LINE
  5
155
100
AcDbEntity
  8
0
  6
CONTINUOUS
 62
               7
100
AcDbLine
 10
60.0
 20
26.259994506835938
 30
0.0
 11
67.970001220703125
 21
26.259994506835938
 31
0.0
  0
LINE
  5
156
100
AcDbEntity
  8
0
  6
CONTINUOUS
 62
               7
100
AcDbLine
 10
60.0
 20
24.989990234375
 30
0.0
 11
67.970001220703125
 21
24.989990234375
 31
0.0
  0
LINE
  5
157
100
AcDbEntity
  8
0
  6
CONTINUOUS
 62
               7
100
AcDbLine
 10
60.0
 20
23.719985961914063
 30
0.0
 11
67.970001220703125
 21
23.719985961914063
 31
0.0
  0
LINE
  5
158
100
AcDbEntity
  8
0
  6
CONTINUOUS
 62
               7
100
AcDbLine
 10
60.0
 20
22.449981689453125
 30
0.0
 11
67.970001220703125
 21
22.449981689453125
 31
0.0
  0
LINE
  5
159
100
AcDbEntity
  8
0
  6
CONTINUOUS
 62
               7
100
AcDbLine
 10
60.0
 20
21.179977416992188
 30
0.0
 11
67.970001220703125
 21
21.179977416992188
 31
0.0
  0
LINE
  5
15A
100
AcDbEntity
  8
0
  6
CONTINUOUS
 62
               7
100
AcDbLine
 10
60.0
 20
19.90997314453125
 30
0.0
 11
67.970001220703125
 21
19.90997314453125
 31
0.0
  0
LINE
  5
15B
100
AcDbEntity
  8
0
  6
CONTINUOUS
 62
               7
100
AcDbLine
 10
60.0
 20
18.639968872070313
 30
0.0
 11
67.970001220703125
 21
18.639968872070313
 31
0.0
  0
LINE
  5
15C
100
AcDbEntity
  8
0
  6
CONTINUOUS
 62
               7
100
AcDbLine
 10
60.0
 20
17.369964599609375
 30
0.0
 11
67.970001220703125
 21
17.369964599609375
 31
0.0
  0
LINE
  5
15D
100
AcDbEntity
  8
0
  6
CONTINUOUS
 62
               7
100
AcDbLine
 10
60.0
 20
16.099960327148437
 30
0.0
 11
67.970001220703125
 21
16.099960327148437
 31
0.0
  0
LINE
  5
15E
100
AcDbEntity
  8
0
  6
CONTINUOUS
 62
               7
100
AcDbLine
 10
60.0
 20
14.8299560546875
 30
0.0
 11
67.970001220703125
 21
14.8299560546875
 31
0.0
  0
LINE
  5
15F
100
AcDbEntity
  8
0
  6
CONTINUOUS
 62
               7
100
AcDbLine
 10
60.0
 20
13.559951782226563
 30
0.0
 11
67.970001220703125
 21
13.559951782226563
 31
0.0
  0
LINE
  5
160
100
AcDbEntity
  8
0
  6
CONTINUOUS
 62
               7
100
AcDbLine
 10
60.0
 20
12.289947509765625
 30
0.0
 11
67.970001220703125
 21
12.289947509765625
 31
0.0
  0
LINE
  5
161
100
AcDbEntity
  8
0
  6
CONTINUOUS
 62
               7
100
AcDbLine
 10
60.0
 20
11.019943237304688
 30
0.0
 11
67.970001220703125
 21
11.019943237304688
 31
0.0
  0
LINE
  5
162
100
AcDbEntity
  8
0
  6
CONTINUOUS
 62
               7
100
AcDbLine
 10
60.0
 20
9.74993896484375
 30
0.0
 11
67.970001220703125
 21
9.74993896484375
 31
0.0
  0
LINE
  5
163
100
AcDbEntity
  8
0
  6
CONTINUOUS
 62
               7
100
AcDbLine
 10
60.0
 20
8.4799346923828125
 30
0.0
 11
67.970001220703125
 21
8.4799346923828125
 31
0.0
  0
LINE
  5
164
100
AcDbEntity
  8
0
  6
CONTINUOUS
 62
               7
100
AcDbLine
 10
60.0
 20
7.209930419921875
 30
0.0
 11
67.970001220703125
 21
7.209930419921875
 31
0.0
  0
LINE
  5
165
100
AcDbEntity
  8
0
  6
CONTINUOUS
 62
               7
100
AcDbLine
 10
60.0
 20
5.9399261474609375
 30
0.0
 11
67.970001220703125
 21
5.9399261474609375
 31
0.0
  0
LINE
  5
166
100
AcDbEntity
  8
0
  6
CONTINUOUS
 62
               7
100
AcDbLine
 10
60.0
 20
4.669921875
 30
0.0
 11
67.970001220703125
 21
4.669921875
 31
0.0
  0
ARC
  5
167
100
AcDbEntity
  8
0
  6
CONTINUOUS
 62
               7
100
AcDbCircle
 10
67.970001220703125
 20
50.783294677734375
 30
0.0
 40
21.983291625976562
100
AcDbArc
 50
270.00001798608935
 51
300.02514708687187
  0
ARC
  5
168
100
AcDbEntity
  8
0
  6
CONTINUOUS
 62
               7
100
AcDbCircle
 10
89.970001220703125
 20
12.716644287109375
 30
0.0
 40
21.9833984375
100
AcDbArc
 50
89.999982013910653
 51
120.02500183166647
  0
ARC
  5
169
100
AcDbEntity
  8
0
  6
CONTINUOUS
 62
               7
100
AcDbCircle
 10
67.970001220703125
 20
49.513290405273438
 30
0.0
 40
21.983291625976562
100
AcDbArc
 50
270.00001798608935
 51
300.02514708687187
  0
ARC
  5
16A
100
AcDbEntity
  8
0
  6
CONTINUOUS
 62
               7
100
AcDbCircle
 10
89.970001220703125
 20
11.446640014648438
 30
0.0
 40
21.9833984375
100
AcDbArc
 50
89.999982013910653
 51
120.02500183166647
  0
ARC
  5
16B
100
AcDbEntity
  8
0
  6
CONTINUOUS
 62
               7
100
AcDbCircle
 10
67.970001220703125
 20
48.2432861328125
 30
0.0
 40
21.983291625976562
100
AcDbArc
 50
270.00001798608935
 51
300.02514708687187
  0
ARC
  5
16C
100
AcDbEntity
  8
0
  6
CONTINUOUS
 62
               7
100
AcDbCircle
 10
89.970001220703125
 20
10.1766357421875
 30
0.0
 40
21.9833984375
100
AcDbArc
 50
89.999982013910653
 51
120.02500183166647
  0
ARC
  5
16D
100
AcDbEntity
  8
0
  6
CONTINUOUS
 62
               7
100
AcDbCircle
 10
67.970001220703125
 20
46.973281860351562
 30
0.0
 40
21.983291625976562
100
AcDbArc
 50
270.00001798608935
 51
300.02514708687187
  0
ARC
  5
16E
100
AcDbEntity
  8
0
  6
CONTINUOUS
 62
               7
100
AcDbCircle
 10
89.970001220703125
 20
8.9066314697265625
 30
0.0
 40
21.9833984375
100
AcDbArc
 50
89.999982013910653
 51
120.02500183166647
  0
ARC
  5
16F
100
AcDbEntity
  8
0
  6
CONTINUOUS
 62
               7
100
AcDbCircle
 10
67.970001220703125
 20
45.703277587890625
 30
0.0
 40
21.983291625976562
100
AcDbArc
 50
270.00001798608935
 51
300.02514708687187
  0
ARC
  5
170
100
AcDbEntity
  8
0
  6
CONTINUOUS
 62
               7
100
AcDbCircle
 10
89.970001220703125
 20
7.636627197265625
 30
0.0
 40
21.9833984375
100
AcDbArc
 50
89.999982013910653
 51
120.02500183166647
  0
ARC
  5
171
100
AcDbEntity
  8
0
  6
CONTINUOUS
 62
               7
100
AcDbCircle
 10
67.970001220703125
 20
44.433273315429687
 30
0.0
 40
21.983291625976562
100
AcDbArc
 50
270.00001798608935
 51
300.02514708687187
  0
ARC
  5
172
100
AcDbEntity
  8
0
  6
CONTINUOUS
 62
               7
100
AcDbCircle
 10
89.970001220703125
 20
6.3666229248046875
 30
0.0
 40
21.9833984375
100
AcDbArc
 50
89.999982013910653
 51
120.02500183166647
  0
ARC
  5
173
100
AcDbEntity
  8
0
  6
CONTINUOUS
 62
               7
100
AcDbCircle
 10
67.970001220703125
 20
43.16326904296875
 30
0.0
 40
21.983291625976562
100
AcDbArc
 50
270.00001798608935
 51
300.02514708687187
  0
ARC
  5
174
100
AcDbEntity
  8
0
  6
CONTINUOUS
 62
               7
100
AcDbCircle
 10
89.970001220703125
 20
5.09661865234375
 30
0.0
 40
21.9833984375
100
AcDbArc
 50
89.999982013910653
 51
120.02500183166647
  0
ARC
  5
175
100
AcDbEntity
  8
0
  6
CONTINUOUS
 62
               7
100
AcDbCircle
 10
67.970001220703125
 20
41.893264770507813
 30
0.0
 40
21.983291625976562
100
AcDbArc
 50
270.00001798608935
 51
300.02514708687187
  0
ARC
  5
176
100
AcDbEntity
  8
0
  6
CONTINUOUS
 62
               7
100
AcDbCircle
 10
89.970001220703125
 20
3.8266143798828125
 30
0.0
 40
21.9833984375
100
AcDbArc
 50
89.999982013910653
 51
120.02500183166647
  0
ARC
  5
177
100
AcDbEntity
  8
0
  6
CONTINUOUS
 62
               7
100
AcDbCircle
 10
67.970001220703125
 20
40.623260498046875
 30
0.0
 40
21.983291625976562
100
AcDbArc
 50
270.00001798608935
 51
300.02514708687187
  0
ARC
  5
178
100
AcDbEntity
  8
0
  6
CONTINUOUS
 62
               7
100
AcDbCircle
 10
89.970001220703125
 20
2.556610107421875
 30
0.0
 40
21.9833984375
100
AcDbArc
 50
89.999982013910653
 51
120.02500183166647
  0
ARC
  5
179
100
AcDbEntity
  8
0
  6
CONTINUOUS
 62
               7
100
AcDbCircle
 10
67.970001220703125
 20
39.353256225585938
 30
0.0
 40
21.983291625976562
100
AcDbArc
 50
270.00001798608935
 51
300.02514708687187
  0
ARC
  5
17A
100
AcDbEntity
  8
0
  6
CONTINUOUS
 62
               7
100
AcDbCircle
 10
89.970001220703125
 20
1.2866058349609375
 30
0.0
 40
21.9833984375
100
AcDbArc
 50
89.999982013910653
 51
120.02500183166647
  0
ARC
  5
17B
100
AcDbEntity
  8
0
  6
CONTINUOUS
 62
               7
100
AcDbCircle
 10
67.970001220703125
 20
38.083251953125
 30
0.0
 40
21.983291625976562
100
AcDbArc
 50
270.00001798608935
 51
300.02514708687187
  0
ARC
  5
17C
100
AcDbEntity
  8
0
  6
CONTINUOUS
 62
               7
100
AcDbCircle
 10
89.970001220703125
 20
0.0166015625
 30
0.0
 40
21.9833984375
100
AcDbArc
 50
89.999982013910653
 51
120.02500183166647
  0
ARC
  5
17D
100
AcDbEntity
  8
0
  6
CONTINUOUS
 62
               7
100
AcDbCircle
 10
67.970001220703125
 20
36.813247680664063
 30
0.0
 40
21.983291625976562
100
AcDbArc
 50
270.00001798608935
 51
300.02514708687187
  0
ARC
  5
17E
100
AcDbEntity
  8
0
  6
CONTINUOUS
 62
               7
100
AcDbCircle
 10
89.970001220703125
 20
-1.2534027099609375
 30
0.0
 40
21.9833984375
100
AcDbArc
 50
89.999982013910653
 51
120.02500183166647
  0
ARC
  5
17F
100
AcDbEntity
  8
0
  6
CONTINUOUS
 62
               7
100
AcDbCircle
 10
67.970001220703125
 20
35.543243408203125
 30
0.0
 40
21.983291625976562
100
AcDbArc
 50
270.00001798608935
 51
300.02514708687187
  0
ARC
  5
180
100
AcDbEntity
  8
0
  6
CONTINUOUS
 62
               7
100
AcDbCircle
 10
89.970001220703125
 20
-2.523406982421875
 30
0.0
 40
21.9833984375
100
AcDbArc
 50
89.999982013910653
 51
120.02500183166647
  0
ARC
  5
181
100
AcDbEntity
  8
0
  6
CONTINUOUS
 62
               7
100
AcDbCircle
 10
67.970001220703125
 20
34.273239135742188
 30
0.0
 40
21.983291625976562
100
AcDbArc
 50
270.00001798608935
 51
300.02514708687187
  0
ARC
  5
182
100
AcDbEntity
  8
0
  6
CONTINUOUS
 62
               7
100
AcDbCircle
 10
89.970001220703125
 20
-3.7934112548828125
 30
0.0
 40
21.9833984375
100
AcDbArc
 50
89.999982013910653
 51
120.02500183166647
  0
ARC
  5
183
100
AcDbEntity
  8
0
  6
CONTINUOUS
 62
               7
100
AcDbCircle
 10
67.970001220703125
 20
33.00323486328125
 30
0.0
 40
21.983291625976562
100
AcDbArc
 50
270.00001798608935
 51
300.02514708687187
  0
ARC
  5
184
100
AcDbEntity
  8
0
  6
CONTINUOUS
 62
               7
100
AcDbCircle
 10
89.970001220703125
 20
-5.06341552734375
 30
0.0
 40
21.9833984375
100
AcDbArc
 50
89.999982013910653
 51
120.02500183166647
  0
ARC
  5
185
100
AcDbEntity
  8
0
  6
CONTINUOUS
 62
               7
100
AcDbCircle
 10
67.970001220703125
 20
31.733230590820312
 30
0.0
 40
21.983291625976562
100
AcDbArc
 50
270.00001798608935
 51
300.02514708687187
  0
ARC
  5
186
100
AcDbEntity
  8
0
  6
CONTINUOUS
 62
               7
100
AcDbCircle
 10
89.970001220703125
 20
-6.3334197998046875
 30
0.0
 40
21.9833984375
100
AcDbArc
 50
89.999982013910653
 51
120.02500183166647
  0
ARC
  5
187
100
AcDbEntity
  8
0
  6
CONTINUOUS
 62
               7
100
AcDbCircle
 10
67.970001220703125
 20
30.463226318359375
 30
0.0
 40
21.983291625976562
100
AcDbArc
 50
270.00001798608935
 51
300.02514708687187
  0
ARC
  5
188
100
AcDbEntity
  8
0
  6
CONTINUOUS
 62
               7
100
AcDbCircle
 10
89.970001220703125
 20
-7.603424072265625
 30
0.0
 40
21.9833984375
100
AcDbArc
 50
89.999982013910653
 51
120.02500183166647
  0
ARC
  5
189
100
AcDbEntity
  8
0
  6
CONTINUOUS
 62
               7
100
AcDbCircle
 10
67.970001220703125
 20
29.193222045898437
 30
0.0
 40
21.983291625976562
100
AcDbArc
 50
270.00001798608935
 51
300.02514708687187
  0
ARC
  5
18A
100
AcDbEntity
  8
0
  6
CONTINUOUS
 62
               7
100
AcDbCircle
 10
89.970001220703125
 20
-8.8734283447265625
 30
0.0
 40
21.9833984375
100
AcDbArc
 50
89.999982013910653
 51
120.02500183166647
  0
ARC
  5
18B
100
AcDbEntity
  8
0
  6
CONTINUOUS
 62
               7
100
AcDbCircle
 10
67.970001220703125
 20
27.9232177734375
 30
0.0
 40
21.983291625976562
100
AcDbArc
 50
270.00001798608935
 51
300.02514708687187
  0
ARC
  5
18C
100
AcDbEntity
  8
0
  6
CONTINUOUS
 62
               7
100
AcDbCircle
 10
89.970001220703125
 20
-10.1434326171875
 30
0.0
 40
21.9833984375
100
AcDbArc
 50
89.999982013910653
 51
120.02500183166647
  0
ARC
  5
18D
100
AcDbEntity
  8
0
  6
CONTINUOUS
 62
               7
100
AcDbCircle
 10
67.970001220703125
 20
26.653213500976563
 30
0.0
 40
21.983291625976562
100
AcDbArc
 50
270.00001798608935
 51
300.02514708687187
  0
ARC
  5
18E
100
AcDbEntity
  8
0
  6
CONTINUOUS
 62
               7
100
AcDbCircle
 10
89.970001220703125
 20
-11.413436889648438
 30
0.0
 40
21.9833984375
100
AcDbArc
 50
89.999982013910653
 51
120.02500183166647
  0
ARC
  5
18F
100
AcDbEntity
  8
0
  6
CONTINUOUS
 62
               7
100
AcDbCircle
 10
67.970001220703125
 20
25.383209228515625
 30
0.0
 40
21.983291625976562
100
AcDbArc
 50
270.00001798608935
 51
300.02514708687187
  0
ARC
  5
190
100
AcDbEntity
  8
0
  6
CONTINUOUS
 62
               7
100
AcDbCircle
 10
89.970001220703125
 20
-12.683441162109375
 30
0.0
 40
21.9833984375
100
AcDbArc
 50
89.999982013910653
 51
120.02500183166647
  0
LINE
  5
191
100
AcDbEntity
  8
0
  6
CONTINUOUS
 62
               7
100
AcDbLine
 10
48.5
 20
21.29998779296875
 30
0.0
 11
44.5
 21
21.29998779296875
 31
0.0
  0
LINE
  5
192
100
AcDbEntity
  8
0
  6
CONTINUOUS
 62
               7
100
AcDbLine
 10
48.5
 20
24.29998779296875
 30
0.0
 11
44.5
 21
24.29998779296875
 31
0.0
  0
LINE
  5
193
100
AcDbEntity
  8
0
  6
CONTINUOUS
 62
               7
100
AcDbLine
 10
44.5
 20
24.29998779296875
 30
0.0
 11
44.5
 21
21.29998779296875
 31
0.0
  0
LINE
  5
194
100
AcDbEntity
  8
0
  6
CONTINUOUS
 62
               7
100
AcDbLine
 10
48.5
 20
24.29998779296875
 30
0.0
 11
48.5
 21
21.29998779296875
 31
0.0
  0
LINE
  5
195
100
AcDbEntity
  8
0
  6
CONTINUOUS
 62
               7
100
AcDbLine
 10
48.5
 20
14.29998779296875
 30
0.0
 11
44.5
 21
14.29998779296875
 31
0.0
  0
LINE
  5
196
100
AcDbEntity
  8
0
  6
CONTINUOUS
 62
               7
100
AcDbLine
 10
48.5
 20
17.29998779296875
 30
0.0
 11
44.5
 21
17.29998779296875
 31
0.0
  0
LINE
  5
197
100
AcDbEntity
  8
0
  6
CONTINUOUS
 62
               7
100
AcDbLine
 10
44.5
 20
17.29998779296875
 30
0.0
 11
44.5
 21
14.29998779296875
 31
0.0
  0
LINE
  5
198
100
AcDbEntity
  8
0
  6
CONTINUOUS
 62
               7
100
AcDbLine
 10
48.5
 20
17.29998779296875
 30
0.0
 11
48.5
 21
14.29998779296875
 31
0.0
  0
LINE
  5
199
100
AcDbEntity
  8
0
  6
CONTINUOUS
 62
               7
100
AcDbLine
 10
49.0
 20
-11.790008544921875
 30
0.0
 11
44.0
 21
-11.790008544921875
 31
0.0
  0
LINE
  5
19A
100
AcDbEntity
  8
0
  6
CONTINUOUS
 62
               7
100
AcDbLine
 10
49.0
 20
10.209991455078125
 30
0.0
 11
44.0
 21
10.209991455078125
 31
0.0
  0
LINE
  5
19B
100
AcDbEntity
  8
0
  6
CONTINUOUS
 62
               7
100
AcDbLine
 10
44.0
 20
10.209991455078125
 30
0.0
 11
44.0
 21
-11.790008544921875
 31
0.0
  0
LINE
  5
19C
100
AcDbEntity
  8
0
  6
CONTINUOUS
 62
               7
100
AcDbLine
 10
49.0
 20
10.209991455078125
 30
0.0
 11
49.0
 21
-11.790008544921875
 31
0.0
  0
LINE
  5
19D
100
AcDbEntity
  8
0
  6
CONTINUOUS
 62
               7
100
AcDbLine
 10
58.0
 20
43.5
 30
0.0
 11
14.0
 21
43.5
 31
0.0
  0
LINE
  5
19E
100
AcDbEntity
  8
0
  6
CONTINUOUS
 62
               7
100
AcDbLine
 10
58.0
 20
-43.500015258789048
 30
0.0
 11
14.0
 21
-43.500015258789048
 31
0.0
  0
LINE
  5
19F
100
AcDbEntity
  8
0
  6
CONTINUOUS
 62
               7
100
AcDbLine
 10
58.5
 20
43.0
 30
0.0
 11
58.5
 21
-43.000015258789048
 31
0.0
  0
LINE
  5
1A0
100
AcDbEntity
  8
0
  6
CONTINUOUS
 62
               7
100
AcDbLine
 10
13.5
 20
43.0
 30
0.0
 11
13.5
 21
-43.000015258789048
 31
0.0
  0
ARC
  5
1A1
100
AcDbEntity
  8
0
  6
CONTINUOUS
 62
               7
100
AcDbCircle
 10
58.0
 20
43.0
 30
0.0
 40
0.5
100
AcDbArc
 50
359.99998201391094
 51
90.000036655424012
  0
ARC
  5
1A2
100
AcDbEntity
  8
0
  6
CONTINUOUS
 62
               7
100
AcDbCircle
 10
14.0
 20
43.0
 30
0.0
 40
0.5
100
AcDbArc
 50
90.000036655424012
 51
180.00001866933468
  0
ARC
  5
1A3
100
AcDbEntity
  8
0
  6
CONTINUOUS
 62
               7
100
AcDbCircle
 10
14.0
 20
-43.000015258789063
 30
0.0
 40
0.5
100
AcDbArc
 50
180.00003597217869
 51
270.00001798608935
  0
ARC
  5
1A4
100
AcDbEntity
  8
0
  6
CONTINUOUS
 62
               7
100
AcDbCircle
 10
58.0
 20
-43.000015258789063
 30
0.0
 40
0.5
100
AcDbArc
 50
270.00001798608935
 51
359.99998201391094
  0
LINE
  5
1A5
100
AcDbEntity
  8
0
  6
CONTINUOUS
 62
               7
100
AcDbLine
 10
32.800003051757813
 20
31.199996948242188
 30
0.0
 11
32.800003051757813
 21
-30.800018310546875
 31
0.0
  0
LINE
  5
1A6
100
AcDbEntity
  8
0
  6
CONTINUOUS
 62
               7
100
AcDbLine
 10
32.800003051757813
 20
31.199996948242188
 30
0.0
 11
22.800003051757813
 21
31.199996948242188
 31
0.0
  0
LINE
  5
1A7
100
AcDbEntity
  8
0
  6
CONTINUOUS
 62
               7
100
AcDbLine
 10
32.800003051757813
 20
-30.800018310546875
 30
0.0
 11
22.800003051757813
 21
-30.800018310546875
 31
0.0
  0
LINE
  5
1A8
100
AcDbEntity
  8
0
  6
CONTINUOUS
 62
               7
100
AcDbLine
 10
22.800003051757813
 20
31.199996948242188
 30
0.0
 11
22.800003051757813
 21
-30.800018310546875
 31
0.0
  0
LINE
  5
1A9
100
AcDbEntity
  8
0
  6
CONTINUOUS
 62
               7
100
AcDbLine
 10
33.0
 20
49.0
 30
0.0
 11
37.0
 21
49.0
 31
0.0
  0
LINE
  5
1AA
100
AcDbEntity
  8
0
  6
CONTINUOUS
 62
               7
100
AcDbLine
 10
28.999996660934812
 20
45.000005163351489
 30
0.0
 11
33.000000907292815
 21
49.000009409709492
 31
0.0
  0
LINE
  5
1AB
100
AcDbEntity
  8
0
  6
CONTINUOUS
 62
               7
100
AcDbLine
 10
37.000005153650818
 20
49.000009409709492
 30
0.0
 11
40.999998610415787
 21
45.000015952944523
 31
0.0
  0
LINE
  5
1AC
100
AcDbEntity
  8
0
  6
CONTINUOUS
 62
               7
100
AcDbLine
 10
31.350006103515625
 20
46.0
 30
0.0
 11
33.350006103515625
 21
46.0
 31
0.0
  0
ARC
  5
1AD
100
AcDbEntity
  8
0
  6
CONTINUOUS
 62
               7
100
AcDbCircle
 10
34.850006103515625
 20
46.0
 30
0.0
 40
1.5
100
AcDbArc
 50
0.0
 51
180.00001866933468
  0
LINE
  5
1AE
100
AcDbEntity
  8
0
  6
CONTINUOUS
 62
               7
100
AcDbLine
 10
31.350006103515625
 20
46.0
 30
0.0
 11
31.350006103515625
 21
45.0
 31
0.0
  0
LINE
  5
1AF
100
AcDbEntity
  8
0
  6
CONTINUOUS
 62
               7
100
AcDbLine
 10
38.350006103515625
 20
46.0
 30
0.0
 11
38.350006103515625
 21
45.0
 31
0.0
  0
LINE
  5
1B0
100
AcDbEntity
  8
0
  6
CONTINUOUS
 62
               7
100
AcDbLine
 10
36.350006103515625
 20
46.0
 30
0.0
 11
38.350006103515625
 21
46.0
 31
0.0
  0
LINE
  5
1B1
100
AcDbEntity
  8
0
  6
CONTINUOUS
 62
               7
100
AcDbLine
 10
-7.5
 20
2.75
 30
0.0
 11
7.5
 21
2.75
 31
0.0
  0
ARC
  5
1B2
100
AcDbEntity
  8
0
  6
CONTINUOUS
 62
               7
100
AcDbCircle
 10
7.5
 20
0.0
 30
0.0
 40
2.75
100
AcDbArc
 50
270.00001798608935
 51
335.3800230611771
  0
ARC
  5
1B3
100
AcDbEntity
  8
0
  6
CONTINUOUS
 62
               7
100
AcDbCircle
 10
7.5
 20
0.0
 30
0.0
 40
2.75
100
AcDbArc
 50
24.619976938822902
 51
89.999982013910653
  0
ARC
  5
1B4
100
AcDbEntity
  8
0
  6
CONTINUOUS
 62
               7
100
AcDbCircle
 10
57.5
 20
0.0
 30
0.0
 40
2.75
100
AcDbArc
 50
335.380022671343
 51
24.619977328657079
  0
ARC
  5
1B5
100
AcDbEntity
  8
0
  6
CONTINUOUS
 62
               7
100
AcDbCircle
 10
67.5
 20
0.0
 30
0.0
 40
2.75
100
AcDbArc
 50
89.999982013910653
 51
270.00000068324533
  0
LINE
  5
1B6
100
AcDbEntity
  8
0
  6
CONTINUOUS
 62
               7
100
AcDbLine
 10
67.5
 20
2.75
 30
0.0
 11
70.0
 21
2.75
 31
0.0
  0
LINE
  5
1B7
100
AcDbEntity
  8
0
  6
CONTINUOUS
 62
               7
100
AcDbLine
 10
67.5
 20
-2.75
 30
0.0
 11
70.0
 21
-2.75
 31
0.0
  0
LINE
  5
1B8
100
AcDbEntity
  8
0
  6
CONTINUOUS
 62
               7
100
AcDbLine
 10
89.0
 20
-30.5
 30
0.0
 11
90.5
 21
-30.5
 31
0.0
  0
LINE
  5
1B9
100
AcDbEntity
  8
0
  6
CONTINUOUS
 62
               7
100
AcDbLine
 10
84.000000000000114
 20
33.873886363681663
 30
0.0
 11
84.000000000000114
 21
61.999999999999943
 31
0.0
  0
LINE
  5
1BA
100
AcDbEntity
  8
0
  6
CONTINUOUS
 62
               7
100
AcDbLine
 10
89.000000000000114
 20
62.499999999999943
 30
0.0
 11
84.500000000000114
 21
62.499999999999943
 31
0.0
  0
ARC
  5
1BB
100
AcDbEntity
  8
0
  6
CONTINUOUS
 62
               7
100
AcDbCircle
 10
84.500000000000114
 20
61.999999999999943
 30
0.0
 40
0.5
100
AcDbArc
 50
90.0
 51
180.0
  0
LINE
  5
1BC
100
AcDbEntity
  8
0
  6
CONTINUOUS
 62
               7
100
AcDbLine
 10
89.0
 20
-30.5
 30
0.0
 11
89.0
 21
9.2785465551650361
 31
0.0
  0
LINE
  5
1BD
100
AcDbEntity
  8
0
  6
CONTINUOUS
 62
               7
100
AcDbLine
 10
70.0
 20
3.4938461571792629
 30
0.0
 11
70.0
 21
-28.379549805998806
 31
0.0
  0
ARC
  5
1BE
100
AcDbEntity
  8
0
  6
CONTINUOUS
 62
               7
100
AcDbCircle
 10
70.500000000000114
 20
28.816993123628379
 30
0.0
 40
0.5
100
AcDbArc
 50
94.999999999999943
 51
171.08323619482928
  0
LINE
  5
1BF
100
AcDbEntity
  8
0
  6
CONTINUOUS
 62
               7
100
AcDbLine
 10
73.907507747422983
 20
29.617021341176269
 30
0.0
 11
70.456422128626286
 21
29.315090472674228
 31
0.0
  0
CIRCLE
  5
1C0
100
AcDbEntity
  8
0
  6
CONTINUOUS
 62
               7
100
AcDbCircle
 10
78.000000000000114
 20
-0.0000000000000568
 30
0.0
 40
4.0
  0
LINE
  5
1C1
100
AcDbEntity
  8
0
  6
CONTINUOUS
 62
               7
100
AcDbLine
 10
76.37364911370662
 20
-1.626357095370679
 30
0.0
 11
79.626334051922299
 21
1.6263275686641805
 31
0.0
  0
LINE
  5
1C2
100
AcDbEntity
  8
0
  6
CONTINUOUS
 62
               7
100
AcDbLine
 10
76.373728939837861
 20
1.6264083852506133
 30
0.0
 11
79.626415901102405
 21
-1.6262783018329401
 31
0.0
  0
LINE
  5
1C3
100
AcDbEntity
  8
0
  6
CONTINUOUS
 62
               7
100
AcDbLine
 10
89.0
 20
-30.5
 30
0.0
 11
70.456422128626173
 21
-28.877647155044656
 31
0.0
  0
ARC
  5
1C4
100
AcDbEntity
  8
0
  6
CONTINUOUS
 62
               7
100
AcDbCircle
 10
70.5
 20
-28.379549805998806
 30
0.0
 40
0.5
100
AcDbArc
 50
180.0
 51
265.00000000000023
  0
LINE
  5
1C5
100
AcDbEntity
  8
0
  6
CONTINUOUS
 62
               7
100
AcDbLine
 10
89.0
 20
34.678632004383786
 30
0.0
 11
89.000000000000114
 21
62.499999999999943
 31
0.0
  0
LINE
  5
1C6
100
AcDbEntity
  8
0
  6
CONTINUOUS
 62
               7
100
AcDbLine
 10
110.0
 20
-30.5
 30
0.0
 11
110.0
 21
62.5
 31
0.0
  0
LINE
  5
1C7
100
AcDbEntity
  8
0
  6
CONTINUOUS
 62
               7
100
AcDbLine
 10
171.0
 20
-30.5
 30
0.0
 11
189.54357787137383
 21
-28.877647155044656
 31
0.0
  0
LINE
  5
1C8
100
AcDbEntity
  8
0
  6
CONTINUOUS
 62
               7
100
AcDbLine
 10
175.5
 20
62.5
 30
0.0
 11
171.0
 21
62.5
 31
0.0
  0
LINE
  5
1C9
100
AcDbEntity
  8
0
  6
CONTINUOUS
 62
               7
100
AcDbLine
 10
190.0
 20
17.5
 30
0.0
 11
212.5
 21
17.5
 31
0.0
  0
LINE
  5
1CA
100
AcDbEntity
  8
0
  6
CONTINUOUS
 62
               7
100
AcDbLine
 10
190.0
 20
12.5
 30
0.0
 11
212.5
 21
12.5
 31
0.0
  0
LINE
  5
1CB
100
AcDbEntity
  8
0
  6
CONTINUOUS
 62
               7
100
AcDbLine
 10
190.0
 20
-17.5
 30
0.0
 11
212.5
 21
-17.5
 31
0.0
  0
LINE
  5
1CC
100
AcDbEntity
  8
0
  6
CONTINUOUS
 62
               7
100
AcDbLine
 10
190.0
 20
-12.5
 30
0.0
 11
212.5
 21
-12.5
 31
0.0
  0
LINE
  5
1CD
100
AcDbEntity
  8
0
  6
CONTINUOUS
 62
               7
100
AcDbLine
 10
192.5
 20
2.75
 30
0.0
 11
207.5
 21
2.75
 31
0.0
  0
ARC
  5
1CE
100
AcDbEntity
  8
0
  6
CONTINUOUS
 62
               7
100
AcDbCircle
 10
207.5
 20
0.0
 30
0.0
 40
2.75
100
AcDbArc
 50
270.00001798608935
 51
89.999982013910653
  0
LINE
  5
1CF
100
AcDbEntity
  8
0
  6
CONTINUOUS
 62
               7
100
AcDbLine
 10
212.5
 20
17.5
 30
0.0
 11
212.5
 21
-17.5
 31
0.0
  0
LINE
  5
1D0
100
AcDbEntity
  8
0
  6
CONTINUOUS
 62
               7
100
AcDbLine
 10
192.5
 20
-2.75
 30
0.0
 11
207.5
 21
-2.75
 31
0.0
  0
ARC
  5
1D1
100
AcDbEntity
  8
0
  6
CONTINUOUS
 62
               7
100
AcDbCircle
 10
192.5
 20
0.0
 30
0.0
 40
2.75
100
AcDbArc
 50
89.999982013910653
 51
155.38002807013342
  0
ARC
  5
1D2
100
AcDbEntity
  8
0
  6
CONTINUOUS
 62
               7
100
AcDbCircle
 10
192.5
 20
0.0
 30
0.0
 40
2.75
100
AcDbArc
 50
204.61997192986658
 51
270.00001798608935
  0
LINE
  5
1D3
100
AcDbEntity
  8
0
  6
CONTINUOUS
 62
               2
100
AcDbLine
 10
200.0
 20
-4.0
 30
0.0
 11
200.0
 21
4.0
 31
0.0
  0
LINE
  5
1D4
100
AcDbEntity
  8
0
  6
CONTINUOUS
 62
               7
100
AcDbLine
 10
176.0
 20
30.958165587008693
 30
0.0
 11
176.0
 21
62.0
 31
0.0
  0
ARC
  5
1D5
100
AcDbEntity
  8
0
  6
CONTINUOUS
 62
               7
100
AcDbCircle
 10
175.5
 20
62.0
 30
0.0
 40
0.5
100
AcDbArc
 50
0.0
 51
90.0
  0
LINE
  5
1D6
100
AcDbEntity
  8
0
  6
CONTINUOUS
 62
               7
100
AcDbLine
 10
176.45642212862617
 20
30.460068237962787
 30
0.0
 11
189.54357787137383
 21
29.315090472674228
 31
0.0
  0
ARC
  5
1D7
100
AcDbEntity
  8
0
  6
CONTINUOUS
 62
               7
100
AcDbCircle
 10
176.5
 20
30.958165587008693
 30
0.0
 40
0.5
100
AcDbArc
 50
180.0
 51
265.00000000000028
  0
LINE
  5
1D8
100
AcDbEntity
  8
0
  6
CONTINUOUS
 62
               7
100
AcDbLine
 10
190.0
 20
28.816993123628322
 30
0.0
 11
190.0
 21
-28.379549805998806
 31
0.0
  0
ARC
  5
1D9
100
AcDbEntity
  8
0
  6
CONTINUOUS
 62
               7
100
AcDbCircle
 10
189.5
 20
28.816993123628322
 30
0.0
 40
0.5
100
AcDbArc
 50
0.0
 51
85.000000000000114
  0
CIRCLE
  5
1DA
100
AcDbEntity
  8
0
  6
CONTINUOUS
 62
               7
100
AcDbCircle
 10
182.0
 20
0.0
 30
0.0
 40
4.0
  0
LINE
  5
1DB
100
AcDbEntity
  8
0
  6
CONTINUOUS
 62
               7
100
AcDbLine
 10
180.37370885850487
 20
1.6263965841317258
 30
0.0
 11
183.62639379672055
 21
-1.6262880799031336
 31
0.0
  0
LINE
  5
1DC
100
AcDbEntity
  8
0
  6
CONTINUOUS
 62
               7
100
AcDbLine
 10
180.37367219074713
 20
-1.6263560838469857
 30
0.0
 11
183.62635712896281
 21
1.6263285801878737
 31
0.0
  0
ARC
  5
1DD
100
AcDbEntity
  8
0
  6
CONTINUOUS
 62
               7
100
AcDbCircle
 10
189.5
 20
-28.379549805998806
 30
0.0
 40
0.5
100
AcDbArc
 50
274.99999999999977
 51
0.0
  0
LINE
  5
1DE
100
AcDbEntity
  8
0
  6
CONTINUOUS
 62
               7
100
AcDbLine
 10
171.0
 20
-30.5
 30
0.0
 11
171.0
 21
62.5
 31
0.0
  0
ENDBLK
  5
1DF
100
AcDbEntity
  8
0
100
AcDbBlockEnd
  0
BLOCK
  5
1E0
100
AcDbEntity
  8
0
100
AcDbBlockBegin
  2
F10MSJ-2
 70
               0
 10
0.0
 20
0.0
 30
0.0
  3
F10MSJ-2
  1

  0
LINE
  5
1E2
100
AcDbEntity
  8
0
  6
DASHED
 62
               2
100
AcDbLine
 10
6.5
 20
-17.049999999999955
 30
0.0
 11
6.4113270459830574
 21
-16.429289321881356
 31
0.0
  0
LINE
  5
1E3
100
AcDbEntity
  8
0
  6
DASHED
 62
               2
100
AcDbLine
 10
3.20001220703125
 20
-28.699996948242188
 30
0.0
 11
3.20001220703125
 21
-30.5
 31
0.0
  0
LINE
  5
1E4
100
AcDbEntity
  8
0
  6
DASHED
 62
               2
100
AcDbLine
 10
3.20001220703125
 20
-28.70001220703125
 30
0.0
 11
3.0
 21
-28.5
 31
0.0
  0
LINE
  5
1E5
100
AcDbEntity
  8
0
  6
DASHED
 62
               2
100
AcDbLine
 10
3.20001220703125
 20
-30.5
 30
0.0
 11
3.5000000000013642
 21
-30.5
 31
0.0
  0
LINE
  5
1E6
100
AcDbEntity
  8
0
  6
DASHED
 62
               2
100
AcDbLine
 10
6.5
 20
-17.049999999999955
 30
0.0
 11
6.5
 21
-14.5
 31
0.0
  0
LINE
  5
1E7
100
AcDbEntity
  8
0
  6
DASHED
 62
               2
100
AcDbLine
 10
6.5
 20
14.5
 30
0.0
 11
6.5
 21
16.429289321881356
 31
0.0
  0
LINE
  5
1E8
100
AcDbEntity
  8
0
  6
DASHED
 62
               2
100
AcDbLine
 10
0.0
 20
-14.5
 30
0.0
 11
6.5
 21
-14.5
 31
0.0
  0
LINE
  5
1E9
100
AcDbEntity
  8
0
  6
DASHED
 62
               2
100
AcDbLine
 10
0.0
 20
14.5
 30
0.0
 11
6.5
 21
14.5
 31
0.0
  0
LINE
  5
1EA
100
AcDbEntity
  8
0
  6
DASHED
 62
               2
100
AcDbLine
 10
0.0
 20
-14.5
 30
0.0
 11
0.0
 21
14.5
 31
0.0
  0
ARC
  5
1EB
100
AcDbEntity
  8
0
  6
DASHED
 62
               2
100
AcDbCircle
 10
4.0
 20
59.5
 30
0.0
 40
3.0
100
AcDbArc
 50
89.999963344575988
 51
179.99994535848663
  0
LINE
  5
1EC
100
AcDbEntity
  8
0
  6
DASHED
 62
               2
100
AcDbLine
 10
1.0000000000001137
 20
-23.5
 30
0.0
 11
1.0000000000001137
 21
-21.03099977800747
 31
0.0
  0
LINE
  5
1ED
100
AcDbEntity
  8
0
  6
DASHED
 62
               2
100
AcDbLine
 10
1.0000000000001137
 20
-23.5
 30
0.0
 11
3.0
 21
-25.5
 31
0.0
  0
LINE
  5
1EE
100
AcDbEntity
  8
0
  6
DASHED
 62
               2
100
AcDbLine
 10
2.8500000000000227
 20
20.168330610420696
 30
0.0
 11
1.0
 21
21.03099977800747
 31
0.0
  0
LINE
  5
1EF
100
AcDbEntity
  8
0
  6
DASHED
 62
               2
100
AcDbLine
 10
2.8500000000000227
 20
-20.168330610420696
 30
0.0
 11
1.0
 21
-21.03099977800747
 31
0.0
  0
LINE
  5
1F0
100
AcDbEntity
  8
0
  6
DASHED
 62
               2
100
AcDbLine
 10
1.0
 20
59.500000000000057
 30
0.0
 11
1.0
 21
21.03099977800747
 31
0.0
  0
LINE
  5
1F1
100
AcDbEntity
  8
0
  6
DASHED
 62
               2
100
AcDbLine
 10
2.8500000000000227
 20
20.168330610420725
 30
0.0
 11
2.8500000000000227
 21
18.0
 31
0.0
  0
LINE
  5
1F2
100
AcDbEntity
  8
0
  6
DASHED
 62
               2
100
AcDbLine
 10
5.916352299152436
 20
16.0
 30
0.0
 11
4.8500000000000227
 21
16.0
 31
0.0
  0
ARC
  5
1F3
100
AcDbEntity
  8
0
  6
DASHED
 62
               2
100
AcDbCircle
 10
4.8500000000000227
 20
18.0
 30
0.0
 40
2.0
100
AcDbArc
 50
180.0
 51
270.0
  0
ARC
  5
1F4
100
AcDbEntity
  8
0
  6
DASHED
 62
               2
100
AcDbCircle
 10
5.916352299152436
 20
16.5
 30
0.0
 40
0.5
100
AcDbArc
 50
270.0
 51
351.86989764584399
  0
LINE
  5
1F5
100
AcDbEntity
  8
0
  6
DASHED
 62
               2
100
AcDbLine
 10
5.916352299152436
 20
-16.0
 30
0.0
 11
4.8500000000000227
 21
-16.0
 31
0.0
  0
ARC
  5
1F6
100
AcDbEntity
  8
0
  6
DASHED
 62
               2
100
AcDbCircle
 10
4.8500000000000227
 20
-18.0
 30
0.0
 40
2.0
100
AcDbArc
 50
90.0
 51
180.0
  0
LINE
  5
1F7
100
AcDbEntity
  8
0
  6
DASHED
 62
               2
100
AcDbLine
 10
2.8500000000000227
 20
-18.0
 30
0.0
 11
2.8500000000000227
 21
-20.168330610420696
 31
0.0
  0
ARC
  5
1F8
100
AcDbEntity
  8
0
  6
DASHED
 62
               2
100
AcDbCircle
 10
5.916352299152436
 20
-16.5
 30
0.0
 40
0.5
100
AcDbArc
 50
8.1301023541559339
 51
90.000000000000014
  0
LINE
  5
1F9
100
AcDbEntity
  8
0
  6
DASHED
 62
               2
100
AcDbLine
 10
6.5
 20
17.049999999999841
 30
0.0
 11
6.4113270459830574
 21
16.429289321881356
 31
0.0
  0
LINE
  5
1FA
100
AcDbEntity
  8
0
  6
DASHED
 62
               2
100
AcDbLine
 10
3.0
 20
-28.5
 30
0.0
 11
3.0
 21
-25.5
 31
0.0
  0
LINE
  5
1FB
100
AcDbEntity
  8
0
  6
DASHED
 62
               2
100
AcDbLine
 10
4.0
 20
62.5
 30
0.0
 11
45.000000000001364
 21
62.5
 31
0.0
  0
LINE
  5
1FC
100
AcDbEntity
  8
0
  6
CONTINUOUS
 62
               2
100
AcDbLine
 10
-1.9847869873033233
 20
0.0
 30
0.0
 11
6.1062107948334301
 21
0.0
 31
0.0
  0
ARC
  5
1FD
100
AcDbEntity
  8
0
  6
DASHED
 62
               2
100
AcDbCircle
 10
73.800003051759177
 20
-44.5
 30
0.0
 40
0.5
100
AcDbArc
 50
270.00001798608935
 51
359.99998201391094
  0
ARC
  5
1FE
100
AcDbEntity
  8
0
  6
DASHED
 62
               2
100
AcDbCircle
 10
73.800003051759177
 20
44.5
 30
0.0
 40
0.5
100
AcDbArc
 50
359.99998201391094
 51
90.000036655424012
  0
LINE
  5
1FF
100
AcDbEntity
  8
0
  6
DASHED
 62
               2
100
AcDbLine
 10
74.300003051759177
 20
44.5
 30
0.0
 11
74.300003051759177
 21
-44.5
 31
0.0
  0
LINE
  5
200
100
AcDbEntity
  8
0
  6
DASHED
 62
               2
100
AcDbLine
 10
73.800003051759177
 20
-45.0
 30
0.0
 11
66.000000000001364
 21
-45.0
 31
0.0
  0
LINE
  5
201
100
AcDbEntity
  8
0
  6
DASHED
 62
               2
100
AcDbLine
 10
73.800003051759177
 20
45.0
 30
0.0
 11
66.000000000001364
 21
45.0
 31
0.0
  0
ARC
  5
202
100
AcDbEntity
  8
0
  6
DASHED
 62
               2
100
AcDbCircle
 10
10.500000000001364
 20
-32.0
 30
0.0
 40
3.0
100
AcDbArc
 50
150.00002466469778
 51
210.00001267397155
  0
LINE
  5
203
100
AcDbEntity
  8
0
  6
DASHED
 62
               2
100
AcDbLine
 10
3.5000000000013642
 20
-33.5
 30
0.0
 11
3.5000000000013642
 21
-45.0
 31
0.0
  0
LINE
  5
204
100
AcDbEntity
  8
0
  6
DASHED
 62
               2
100
AcDbLine
 10
3.5000000000013642
 20
-33.5
 30
0.0
 11
7.9019165039076142
 21
-33.5
 31
0.0
  0
LINE
  5
205
100
AcDbEntity
  8
0
  6
DASHED
 62
               2
100
AcDbLine
 10
3.5000000000013642
 20
-30.5
 30
0.0
 11
7.9019165039076142
 21
-30.5
 31
0.0
  0
LINE
  5
206
100
AcDbEntity
  8
0
  6
DASHED
 62
               2
100
AcDbLine
 10
45.000000000001364
 20
62.5
 30
0.0
 11
45.000000000001364
 21
49.699996948242188
 31
0.0
  0
LINE
  5
207
100
AcDbEntity
  8
0
  6
DASHED
 62
               2
100
AcDbLine
 10
42.500000000001364
 20
-48.5
 30
0.0
 11
43.000000000001364
 21
-48.5
 31
0.0
  0
LINE
  5
208
100
AcDbEntity
  8
0
  6
DASHED
 62
               2
100
AcDbLine
 10
41.000000000001364
 20
-47.0
 30
0.0
 11
41.000000000001364
 21
-45.0
 31
0.0
  0
LINE
  5
209
100
AcDbEntity
  8
0
  6
DASHED
 62
               2
100
AcDbLine
 10
66.000000000001364
 20
-47.0
 30
0.0
 11
66.000000000001364
 21
-45.0
 31
0.0
  0
LINE
  5
20A
100
AcDbEntity
  8
0
  6
DASHED
 62
               2
100
AcDbLine
 10
44.199996948243552
 20
-49.699996948242188
 30
0.0
 11
62.800003051759177
 21
-49.699996948242188
 31
0.0
  0
ARC
  5
20B
100
AcDbEntity
  8
0
  6
DASHED
 62
               2
100
AcDbCircle
 10
42.500000000001364
 20
-47.0
 30
0.0
 40
1.5
100
AcDbArc
 50
179.99998201391065
 51
270.00001866933468
  0
ARC
  5
20C
100
AcDbEntity
  8
0
  6
DASHED
 62
               2
100
AcDbCircle
 10
64.500000000001364
 20
-47.0
 30
0.0
 40
1.5
100
AcDbArc
 50
270.00001866933468
 51
0.0000006832453318
  0
ARC
  5
20D
100
AcDbEntity
  8
0
  6
DASHED
 62
               2
100
AcDbCircle
 10
44.199996948243552
 20
-48.5
 30
0.0
 40
1.1999998092651367
100
AcDbArc
 50
179.99998201391065
 51
270.00001866933468
  0
ARC
  5
20E
100
AcDbEntity
  8
0
  6
DASHED
 62
               2
100
AcDbCircle
 10
62.800003051759177
 20
-48.5
 30
0.0
 40
1.1999998092651367
100
AcDbArc
 50
270.00001866933468
 51
0.0000006832453318
  0
LINE
  5
20F
100
AcDbEntity
  8
0
  6
DASHED
 62
               2
100
AcDbLine
 10
64.000000000001364
 20
-48.5
 30
0.0
 11
64.500000000001364
 21
-48.5
 31
0.0
  0
LINE
  5
210
100
AcDbEntity
  8
0
  6
DASHED
 62
               2
100
AcDbLine
 10
66.000000000001364
 20
47.0
 30
0.0
 11
66.000000000001364
 21
45.0
 31
0.0
  0
LINE
  5
211
100
AcDbEntity
  8
0
  6
DASHED
 62
               2
100
AcDbLine
 10
45.000000000001364
 20
49.699996948242188
 30
0.0
 11
62.800003051759177
 21
49.699996948242188
 31
0.0
  0
ARC
  5
212
100
AcDbEntity
  8
0
  6
DASHED
 62
               2
100
AcDbCircle
 10
64.500000000001364
 20
47.0
 30
0.0
 40
1.5
100
AcDbArc
 50
359.99999931675467
 51
89.999981330665321
  0
ARC
  5
213
100
AcDbEntity
  8
0
  6
DASHED
 62
               2
100
AcDbCircle
 10
62.800003051759177
 20
48.5
 30
0.0
 40
1.1999998092651367
100
AcDbArc
 50
359.99999931675467
 51
89.999981330665321
  0
LINE
  5
214
100
AcDbEntity
  8
0
  6
DASHED
 62
               2
100
AcDbLine
 10
64.000000000001364
 20
48.5
 30
0.0
 11
64.500000000001364
 21
48.5
 31
0.0
  0
LINE
  5
215
100
AcDbEntity
  8
0
  6
DASHED
 62
               2
100
AcDbLine
 10
41.000000000001364
 20
-45.0
 30
0.0
 11
3.5000000000013642
 21
-45.0
 31
0.0
  0
LINE
  5
216
100
AcDbEntity
  8
0
  6
CONTINUOUS
 62
               4
100
AcDbLine
 10
9.4500000029815965
 20
-45.0
 30
0.0
 11
9.5500000029816192
 21
-45.099999999999994
 31
0.0
  0
LINE
  5
217
100
AcDbEntity
  8
0
  6
CONTINUOUS
 62
               4
100
AcDbLine
 10
17.550000002981619
 20
-45.0
 30
0.0
 11
17.450000002981596
 21
-45.099999999999994
 31
0.0
  0
LINE
  5
218
100
AcDbEntity
  8
0
  6
CONTINUOUS
 62
               4
100
AcDbLine
 10
20.450007632376128
 20
-45.0
 30
0.0
 11
20.55000763237615
 21
-45.099999999999994
 31
0.0
  0
LINE
  5
219
100
AcDbEntity
  8
0
  6
CONTINUOUS
 62
               4
100
AcDbLine
 10
28.55000763237615
 20
-45.0
 30
0.0
 11
28.450007632376128
 21
-45.099999999999994
 31
0.0
  0
ARC
  5
21A
100
AcDbEntity
  8
0
  6
CONTINUOUS
 62
               4
100
AcDbCircle
 10
19.80000763237615
 20
-46.800000000000011
 30
0.0
 40
0.2
100
AcDbArc
 50
180.0
 51
270.0
  0
ARC
  5
21B
100
AcDbEntity
  8
0
  6
CONTINUOUS
 62
               4
100
AcDbCircle
 10
29.200007632376128
 20
-46.800000000000011
 30
0.0
 40
0.2
100
AcDbArc
 50
270.0
 51
0.0
  0
LINE
  5
21C
100
AcDbEntity
  8
0
  6
CONTINUOUS
 62
               4
100
AcDbLine
 10
29.200007632376128
 20
-47.0
 30
0.0
 11
19.800007644297011
 21
-47.0
 31
0.0
  0
LINE
  5
21D
100
AcDbEntity
  8
0
  6
CONTINUOUS
 62
               4
100
AcDbLine
 10
21.000007632376082
 20
-46.0
 30
0.0
 11
21.000007632376082
 21
-45.099999999999994
 31
0.0
  0
LINE
  5
21E
100
AcDbEntity
  8
0
  6
CONTINUOUS
 62
               4
100
AcDbLine
 10
29.400007632376173
 20
-46.0
 30
0.0
 11
19.600007626415618
 21
-46.0
 31
0.0
  0
LINE
  5
21F
100
AcDbEntity
  8
0
  6
CONTINUOUS
 62
               4
100
AcDbLine
 10
28.450007632376128
 20
-45.099999999999994
 30
0.0
 11
20.55000763237615
 21
-45.099999999999994
 31
0.0
  0
LINE
  5
220
100
AcDbEntity
  8
0
  6
CONTINUOUS
 62
               4
100
AcDbLine
 10
28.000007632376082
 20
-46.0
 30
0.0
 11
28.000007632376082
 21
-45.099999999999994
 31
0.0
  0
LINE
  5
221
100
AcDbEntity
  8
0
  6
CONTINUOUS
 62
               4
100
AcDbLine
 10
29.400007632376173
 20
-46.800000000000011
 30
0.0
 11
29.400007632376173
 21
-46.0
 31
0.0
  0
LINE
  5
222
100
AcDbEntity
  8
0
  6
CONTINUOUS
 62
               4
100
AcDbLine
 10
19.600007632376105
 20
-46.800000000000011
 30
0.0
 11
19.600007632376105
 21
-46.0
 31
0.0
  0
LINE
  5
223
100
AcDbEntity
  8
0
  6
CONTINUOUS
 62
               4
100
AcDbLine
 10
17.000000002981551
 20
-46.0
 30
0.0
 11
17.000000002981551
 21
-45.099999999999994
 31
0.0
  0
LINE
  5
224
100
AcDbEntity
  8
0
  6
CONTINUOUS
 62
               4
100
AcDbLine
 10
17.450000002981596
 20
-45.099999999999994
 30
0.0
 11
9.5500000029816192
 21
-45.099999999999994
 31
0.0
  0
LINE
  5
225
100
AcDbEntity
  8
0
  6
CONTINUOUS
 62
               4
100
AcDbLine
 10
18.400000002981642
 20
-46.800000000000011
 30
0.0
 11
18.400000002981642
 21
-46.0
 31
0.0
  0
ARC
  5
226
100
AcDbEntity
  8
0
  6
CONTINUOUS
 62
               4
100
AcDbCircle
 10
18.200000002981596
 20
-46.800000000000011
 30
0.0
 40
0.2
100
AcDbArc
 50
270.0
 51
0.0
  0
LINE
  5
227
100
AcDbEntity
  8
0
  6
CONTINUOUS
 62
               4
100
AcDbLine
 10
18.400000002981642
 20
-46.0
 30
0.0
 11
8.5999999970210865
 21
-46.0
 31
0.0
  0
LINE
  5
228
100
AcDbEntity
  8
0
  6
CONTINUOUS
 62
               4
100
AcDbLine
 10
10.000000002981551
 20
-46.0
 30
0.0
 11
10.000000002981551
 21
-45.099999999999994
 31
0.0
  0
ARC
  5
229
100
AcDbEntity
  8
0
  6
CONTINUOUS
 62
               4
100
AcDbCircle
 10
8.8000000029816192
 20
-46.800000000000011
 30
0.0
 40
0.2
100
AcDbArc
 50
180.0
 51
270.0
  0
LINE
  5
22A
100
AcDbEntity
  8
0
  6
CONTINUOUS
 62
               4
100
AcDbLine
 10
8.6000000029815737
 20
-46.800000000000011
 30
0.0
 11
8.6000000029815737
 21
-46.0
 31
0.0
  0
LINE
  5
22B
100
AcDbEntity
  8
0
  6
CONTINUOUS
 62
               4
100
AcDbLine
 10
18.200000002981596
 20
-47.0
 30
0.0
 11
8.80000001490248
 21
-47.0
 31
0.0
  0
LINE
  5
22C
100
AcDbEntity
  8
0
  6
CONTINUOUS
 62
             200
100
AcDbLine
 10
13.500000008942038
 20
-45.099999999999994
 30
0.0
 11
13.500000008942038
 21
-49.47818859858473
 31
0.0
  0
LINE
  5
22D
100
AcDbEntity
  8
0
  6
CONTINUOUS
 62
             200
100
AcDbLine
 10
24.500007638336569
 20
-45.099999999999994
 30
0.0
 11
24.500007638336569
 21
-49.47818859858473
 31
0.0
  0
ENDBLK
  5
22E
100
AcDbEntity
  8
0
100
AcDbBlockEnd
  0
BLOCK
  5
22F
100
AcDbEntity
  8
0
100
AcDbBlockBegin
  2
F10MSJ-3
 70
               0
 10
0.0
 20
0.0
 30
0.0
  3
F10MSJ-3
  1

  0
LINE
  5
230
100
AcDbEntity
  8
0
  6
CONTINUOUS
 62
             200
100
AcDbLine
 10
5.25
 20
59.000000000000028
 30
0.0
 11
5.25
 21
63.816482543945341
 31
0.0
  0
LINE
  5
231
100
AcDbEntity
  8
0
  6
CONTINUOUS
 62
               7
100
AcDbLine
 10
0.0
 20
3.0
 30
0.0
 11
10.5
 21
3.0
 31
0.0
  0
LINE
  5
232
100
AcDbEntity
  8
0
  6
CONTINUOUS
 62
               2
100
AcDbLine
 10
5.25
 20
-0.829620361328125
 30
0.0
 11
5.25
 21
59.000000000000028
 31
0.0
  0
LINE
  5
233
100
AcDbEntity
  8
0
  6
CONTINUOUS
 62
               7
100
AcDbLine
 10
10.5
 20
1.0
 30
0.0
 11
0.0
 21
1.0
 31
0.0
  0
ARC
  5
234
100
AcDbEntity
  8
0
  6
CONTINUOUS
 62
               4
100
AcDbCircle
 10
9.8499908447265625
 20
61.600006103515653
 30
0.0
 40
0.3999999761581421
100
AcDbArc
 50
0.0
 51
89.999982013910653
  0
ARC
  5
235
100
AcDbEntity
  8
0
  6
CONTINUOUS
 62
               4
100
AcDbCircle
 10
0.649993896484375
 20
61.600006103515653
 30
0.0
 40
0.3999999761581421
100
AcDbArc
 50
89.999982013910653
 51
179.99996402782131
  0
ARC
  5
236
100
AcDbEntity
  8
0
  6
CONTINUOUS
 62
               7
100
AcDbCircle
 10
9.04998779296875
 20
31.800003051757841
 30
0.0
 40
1.3999996185302734
100
AcDbArc
 50
179.99998133066532
 51
270.00001798608935
  0
ARC
  5
237
100
AcDbEntity
  8
0
  6
CONTINUOUS
 62
               7
100
AcDbCircle
 10
1.45001220703125
 20
6.1999969482421875
 30
0.0
 40
1.3999996185302734
100
AcDbArc
 50
0.0
 51
89.999982013910653
  0
ARC
  5
238
100
AcDbEntity
  8
0
  6
CONTINUOUS
 62
               7
100
AcDbCircle
 10
2.0500030517578125
 20
52.200012207031278
 30
0.0
 40
1.5999984741210938
100
AcDbArc
 50
270.00001798608935
 51
89.999982013910653
  0
ARC
  5
239
100
AcDbEntity
  8
0
  6
CONTINUOUS
 62
               7
100
AcDbCircle
 10
8.4499969482421875
 20
36.800003051757841
 30
0.0
 40
1.5999994277954102
100
AcDbArc
 50
89.999982013910653
 51
179.99996402782131
  0
CIRCLE
  5
23A
100
AcDbEntity
  8
0
  6
CONTINUOUS
 62
               7
100
AcDbCircle
 10
2.0500030517578125
 20
52.200012207031278
 30
0.0
 40
1.25
  0
CIRCLE
  5
23B
100
AcDbEntity
  8
0
  6
CONTINUOUS
 62
               7
100
AcDbCircle
 10
8.4499969482421875
 20
36.800003051757841
 30
0.0
 40
1.25
  0
ARC
  5
23C
100
AcDbEntity
  8
0
  6
CONTINUOUS
 62
               7
100
AcDbCircle
 10
9.850006103515625
 20
35.400009155273466
 30
0.0
 40
0.3999999761581421
100
AcDbArc
 50
270.00001798608935
 51
0.0
  0
ARC
  5
23D
100
AcDbEntity
  8
0
  6
CONTINUOUS
 62
               7
100
AcDbCircle
 10
9.850006103515625
 20
58.600006103515653
 30
0.0
 40
0.3999999761581421
100
AcDbArc
 50
0.0
 51
89.999982013910653
  0
ARC
  5
23E
100
AcDbEntity
  8
0
  6
CONTINUOUS
 62
               7
100
AcDbCircle
 10
0.649993896484375
 20
58.600006103515653
 30
0.0
 40
0.3999999761581421
100
AcDbArc
 50
89.999982013910653
 51
179.99996402782131
  0
ARC
  5
23F
100
AcDbEntity
  8
0
  6
CONTINUOUS
 62
               7
100
AcDbCircle
 10
0.649993896484375
 20
35.400009155273466
 30
0.0
 40
0.3999999761581421
100
AcDbArc
 50
179.99998133066532
 51
270.00001798608935
  0
LINE
  5
240
100
AcDbEntity
  8
0
  6
CONTINUOUS
 62
               4
100
AcDbLine
 10
3.29998779296875
 20
63.000000000000028
 30
0.0
 11
3.29998779296875
 21
62.000000000000028
 31
0.0
  0
LINE
  5
241
100
AcDbEntity
  8
0
  6
CONTINUOUS
 62
               4
100
AcDbLine
 10
7.1999969482421875
 20
63.000000000000028
 30
0.0
 11
7.1999969482421875
 21
62.000000000000028
 31
0.0
  0
LINE
  5
242
100
AcDbEntity
  8
0
  6
CONTINUOUS
 62
               4
100
AcDbLine
 10
3.29998779296875
 20
63.000000000000028
 30
0.0
 11
7.1999969482421875
 21
63.000000000000028
 31
0.0
  0
LINE
  5
243
100
AcDbEntity
  8
0
  6
CONTINUOUS
 62
               4
100
AcDbLine
 10
0.649993896484375
 20
62.000000000000028
 30
0.0
 11
9.8499908447265625
 21
62.000000000000028
 31
0.0
  0
LINE
  5
244
100
AcDbEntity
  8
0
  6
CONTINUOUS
 62
               7
100
AcDbLine
 10
10.5
 20
35.000000000000028
 30
0.0
 11
10.5
 21
1.0
 31
0.0
  0
LINE
  5
245
100
AcDbEntity
  8
0
  6
CONTINUOUS
 62
               7
100
AcDbLine
 10
9.04998779296875
 20
30.400009155273466
 30
0.0
 11
10.5
 21
30.400009155273466
 31
0.0
  0
LINE
  5
246
100
AcDbEntity
  8
0
  6
CONTINUOUS
 62
               7
100
AcDbLine
 10
7.649993896484375
 20
31.800003051757841
 30
0.0
 11
7.649993896484375
 21
35.000000000000028
 31
0.0
  0
LINE
  5
247
100
AcDbEntity
  8
0
  6
CONTINUOUS
 62
               7
100
AcDbLine
 10
2.850006103515625
 20
3.0
 30
0.0
 11
2.850006103515625
 21
6.1999969482421875
 31
0.0
  0
LINE
  5
248
100
AcDbEntity
  8
0
  6
CONTINUOUS
 62
               7
100
AcDbLine
 10
0.0
 20
7.600006103515625
 30
0.0
 11
1.45001220703125
 21
7.600006103515625
 31
0.0
  0
LINE
  5
249
100
AcDbEntity
  8
0
  6
CONTINUOUS
 62
               7
100
AcDbLine
 10
0.0
 20
35.000000000000028
 30
0.0
 11
0.0
 21
1.0
 31
0.0
  0
LINE
  5
24A
100
AcDbEntity
  8
0
  6
CONTINUOUS
 62
               7
100
AcDbLine
 10
0.25
 20
35.000000000000028
 30
0.0
 11
0.25
 21
59.600006103515653
 31
0.0
  0
LINE
  5
24B
100
AcDbEntity
  8
0
  6
CONTINUOUS
 62
               7
100
AcDbLine
 10
10.25
 20
35.000000000000028
 30
0.0
 11
10.25
 21
59.599985117672105
 31
0.0
  0
LINE
  5
24C
100
AcDbEntity
  8
0
  6
CONTINUOUS
 62
               7
100
AcDbLine
 10
10.25
 20
59.600006103515653
 30
0.0
 11
0.25
 21
59.600006103515653
 31
0.0
  0
LINE
  5
24D
100
AcDbEntity
  8
0
  6
CONTINUOUS
 62
               7
100
AcDbLine
 10
10.25
 20
59.000000000000028
 30
0.0
 11
0.25
 21
59.000000000000028
 31
0.0
  0
LINE
  5
24E
100
AcDbEntity
  8
0
  6
CONTINUOUS
 62
               7
100
AcDbLine
 10
0.6499924190229649
 20
60.000021872790995
 30
0.0
 11
0.2499905445401964
 21
59.60001858216495
 31
0.0
  0
LINE
  5
24F
100
AcDbEntity
  8
0
  6
CONTINUOUS
 62
               7
100
AcDbLine
 10
10.25000556046416
 20
59.599985117672105
 30
0.0
 11
9.850002505861994
 21
59.999987228178753
 31
0.0
  0
LINE
  5
250
100
AcDbEntity
  8
0
  6
CONTINUOUS
 62
               7
100
AcDbLine
 10
0.649993896484375
 20
60.000000000000028
 30
0.0
 11
9.850006103515625
 21
60.000000000000028
 31
0.0
  0
LINE
  5
251
100
AcDbEntity
  8
0
  6
CONTINUOUS
 62
               7
100
AcDbLine
 10
7.8489703219020157
 20
37.401051779811525
 30
0.0
 11
9.0510605623494484
 21
36.198961640692715
 31
0.0
  0
LINE
  5
252
100
AcDbEntity
  8
0
  6
CONTINUOUS
 62
               7
100
AcDbLine
 10
1.4489712406029867
 20
52.801038296750477
 30
0.0
 11
2.6510506914564758
 21
51.598958947224702
 31
0.0
  0
LINE
  5
253
100
AcDbEntity
  8
0
  6
CONTINUOUS
 62
               7
100
AcDbLine
 10
1.448988200493659
 20
51.598918418812929
 30
0.0
 11
2.6510784409410917
 21
52.801008557931738
 31
0.0
  0
LINE
  5
254
100
AcDbEntity
  8
0
  6
CONTINUOUS
 62
               7
100
AcDbLine
 10
7.8489859836699907
 20
36.198909783207483
 30
0.0
 11
9.0510654345234798
 21
37.400989132733258
 31
0.0
  0
LINE
  5
255
100
AcDbEntity
  8
0
  6
CONTINUOUS
 62
               7
100
AcDbLine
 10
8.4499969482421875
 20
38.400009155273466
 30
0.0
 11
10.25
 21
38.400009155273466
 31
0.0
  0
LINE
  5
256
100
AcDbEntity
  8
0
  6
CONTINUOUS
 62
               7
100
AcDbLine
 10
6.850006103515625
 20
36.800003051757841
 30
0.0
 11
6.850006103515625
 21
35.000000000000028
 31
0.0
  0
LINE
  5
257
100
AcDbEntity
  8
0
  6
CONTINUOUS
 62
               7
100
AcDbLine
 10
0.25
 20
50.600006103515653
 30
0.0
 11
2.0500030517578125
 21
50.600006103515653
 31
0.0
  0
LINE
  5
258
100
AcDbEntity
  8
0
  6
CONTINUOUS
 62
               7
100
AcDbLine
 10
0.25
 20
53.800003051757841
 30
0.0
 11
2.0500030517578125
 21
53.800003051757841
 31
0.0
  0
LINE
  5
259
100
AcDbEntity
  8
0
  6
CONTINUOUS
 62
               7
100
AcDbLine
 10
0.0
 20
35.000000000000028
 30
0.0
 11
10.5
 21
35.000000000000028
 31
0.0
  0
LINE
  5
25A
100
AcDbEntity
  8
0
  6
CONTINUOUS
 62
               4
100
AcDbLine
 10
10.25
 20
3.600006103515625
 30
0.0
 11
10.25
 21
29.80000114440918
 31
0.0
  0
LINE
  5
25B
100
AcDbEntity
  8
0
  6
CONTINUOUS
 62
               4
100
AcDbLine
 10
3.4499969482421875
 20
3.20001220703125
 30
0.0
 11
9.8499908447265625
 21
3.20001220703125
 31
0.0
  0
LINE
  5
25C
100
AcDbEntity
  8
0
  6
CONTINUOUS
 62
               4
100
AcDbLine
 10
0.6499977111816406
 20
34.800003051757813
 30
0.0
 11
7.0499954223632812
 21
34.800003051757813
 31
0.0
  0
LINE
  5
25D
100
AcDbEntity
  8
0
  6
CONTINUOUS
 62
               4
100
AcDbLine
 10
7.4500007629394531
 20
31.799999237060547
 30
0.0
 11
7.4500007629394531
 21
34.400003433227539
 31
0.0
  0
LINE
  5
25E
100
AcDbEntity
  8
0
  6
CONTINUOUS
 62
               4
100
AcDbLine
 10
3.0500030517578125
 20
6.1999969482421875
 30
0.0
 11
3.0500030517578125
 21
3.600006103515625
 31
0.0
  0
LINE
  5
25F
100
AcDbEntity
  8
0
  6
CONTINUOUS
 62
               4
100
AcDbLine
 10
1.4499969482421875
 20
7.8000030517578125
 30
0.0
 11
0.6499977111816406
 21
7.8000030517578125
 31
0.0
  0
LINE
  5
260
100
AcDbEntity
  8
0
  6
CONTINUOUS
 62
               4
100
AcDbLine
 10
9.0499916076660156
 20
30.200006484985352
 30
0.0
 11
9.8499946594238281
 21
30.200006484985352
 31
0.0
  0
LINE
  5
261
100
AcDbEntity
  8
0
  6
CONTINUOUS
 62
               4
100
AcDbLine
 10
7.648950965482527
 20
5.3989596978930194
 30
0.0
 11
8.851033113734502
 21
6.6010417448170529
 31
0.0
  0
LINE
  5
262
100
AcDbEntity
  8
0
  6
CONTINUOUS
 62
               4
100
AcDbLine
 10
7.6489551801668654
 20
6.6010523658226248
 30
0.0
 11
8.8510346310203545
 21
5.3989730162968499
 31
0.0
  0
LINE
  5
263
100
AcDbEntity
  8
0
  6
CONTINUOUS
 62
               4
100
AcDbLine
 10
0.25
 20
8.20001220703125
 30
0.0
 11
0.25
 21
34.400003433227539
 31
0.0
  0
LINE
  5
264
100
AcDbEntity
  8
0
  6
CONTINUOUS
 62
               4
100
AcDbLine
 10
1.6489662180941309
 20
32.60104831568276
 30
0.0
 11
2.8510483663461059
 21
31.398966268758727
 31
0.0
  0
LINE
  5
265
100
AcDbEntity
  8
0
  6
CONTINUOUS
 62
               4
100
AcDbLine
 10
1.6489562177351331
 20
31.398959661628282
 30
0.0
 11
2.8510383659871081
 21
32.601041708552316
 31
0.0
  0
LINE
  5
266
100
AcDbEntity
  8
0
  6
CONTINUOUS
 62
             200
100
AcDbLine
 10
-0.75
 20
24.5
 30
0.0
 11
11.25
 21
24.5
 31
0.0
  0
LINE
  5
267
100
AcDbEntity
  8
0
  6
CONTINUOUS
 62
             200
100
AcDbLine
 10
-0.75
 20
13.5
 30
0.0
 11
11.25
 21
13.5
 31
0.0
  0
ARC
  5
268
100
AcDbEntity
  8
0
  6
CONTINUOUS
 62
               4
100
AcDbCircle
 10
0.6499977111816406
 20
8.20001220703125
 30
0.0
 40
0.4000000357627869
100
AcDbArc
 50
179.99996402782131
 51
270.00000068324533
  0
ARC
  5
269
100
AcDbEntity
  8
0
  6
CONTINUOUS
 62
               4
100
AcDbCircle
 10
0.6499977111816406
 20
34.400003433227539
 30
0.0
 40
0.4000000357627869
100
AcDbArc
 50
89.999982013910653
 51
179.99996402782131
  0
ARC
  5
26A
100
AcDbEntity
  8
0
  6
CONTINUOUS
 62
               4
100
AcDbCircle
 10
7.0499954223632812
 20
34.400003433227539
 30
0.0
 40
0.4000000357627869
100
AcDbArc
 50
0.0
 51
89.999982013910653
  0
ARC
  5
26B
100
AcDbEntity
  8
0
  6
CONTINUOUS
 62
               4
100
AcDbCircle
 10
9.8499946594238281
 20
29.80000114440918
 30
0.0
 40
0.4000000357627869
100
AcDbArc
 50
0.0
 51
89.999982013910653
  0
ARC
  5
26C
100
AcDbEntity
  8
0
  6
CONTINUOUS
 62
               4
100
AcDbCircle
 10
9.8499946594238281
 20
3.600006103515625
 30
0.0
 40
0.4000000357627869
100
AcDbArc
 50
270.00001798608935
 51
0.0
  0
ARC
  5
26D
100
AcDbEntity
  8
0
  6
CONTINUOUS
 62
               4
100
AcDbCircle
 10
3.4499969482421875
 20
3.600006103515625
 30
0.0
 40
0.4000000357627869
100
AcDbArc
 50
179.99996402782131
 51
270.00000068324533
  0
ARC
  5
26E
100
AcDbEntity
  8
0
  6
CONTINUOUS
 62
               4
100
AcDbCircle
 10
9.0499954223632812
 20
31.799999237060547
 30
0.0
 40
1.5999994277954102
100
AcDbArc
 50
179.99996402782131
 51
270.00000068324533
  0
ARC
  5
26F
100
AcDbEntity
  8
0
  6
CONTINUOUS
 62
               4
100
AcDbCircle
 10
1.4499969482421875
 20
6.20001220703125
 30
0.0
 40
1.5999994277954102
100
AcDbArc
 50
0.0
 51
89.999982013910653
  0
CIRCLE
  5
270
100
AcDbEntity
  8
0
  6
CONTINUOUS
 62
               4
100
AcDbCircle
 10
8.2499961853027344
 20
6.0
 30
0.0
 40
1.3999996185302734
  0
CIRCLE
  5
271
100
AcDbEntity
  8
0
  6
CONTINUOUS
 62
               4
100
AcDbCircle
 10
2.25
 20
32.0
 30
0.0
 40
1.3999996185302734
  0
CIRCLE
  5
272
100
AcDbEntity
  8
0
  6
CONTINUOUS
 62
               4
100
AcDbCircle
 10
8.2499961853027344
 20
6.0
 30
0.0
 40
1.25
  0
CIRCLE
  5
273
100
AcDbEntity
  8
0
  6
CONTINUOUS
 62
               4
100
AcDbCircle
 10
2.25
 20
32.0
 30
0.0
 40
1.25
  0
CIRCLE
  5
274
100
AcDbEntity
  8
0
  6
CONTINUOUS
 62
               4
100
AcDbCircle
 10
5.25
 20
24.5
 30
0.0
 40
5.0
  0
ARC
  5
275
100
AcDbEntity
  8
0
  6
CONTINUOUS
 62
               4
100
AcDbCircle
 10
5.25
 20
24.5
 30
0.0
 40
4.9000000000000004
100
AcDbArc
 50
10.399137031557654
 51
169.60086296844239
  0
CIRCLE
  5
276
100
AcDbEntity
  8
0
  6
CONTINUOUS
 62
               4
100
AcDbCircle
 10
5.25
 20
24.5
 30
0.0
 40
3.0500000000000003
  0
CIRCLE
  5
277
100
AcDbEntity
  8
0
  6
CONTINUOUS
 62
               4
100
AcDbCircle
 10
5.25
 20
24.5
 30
0.0
 40
2.0500000000000003
  0
LINE
  5
278
100
AcDbEntity
  8
0
  6
CONTINUOUS
 62
               4
100
AcDbLine
 10
9.75
 20
25.199999999999989
 30
0.0
 11
10.069513529120002
 21
25.384471222047125
 31
0.0
  0
LINE
  5
279
100
AcDbEntity
  8
0
  6
CONTINUOUS
 62
               4
100
AcDbLine
 10
9.75
 20
23.800000000000011
 30
0.0
 11
10.069513529120002
 21
23.615528777952875
 31
0.0
  0
ARC
  5
27A
100
AcDbEntity
  8
0
  6
CONTINUOUS
 62
               4
100
AcDbCircle
 10
5.25
 20
24.5
 30
0.0
 40
4.9000000000000004
100
AcDbArc
 50
190.39913703155764
 51
349.60086296844236
  0
LINE
  5
27B
100
AcDbEntity
  8
0
  6
CONTINUOUS
 62
               4
100
AcDbLine
 10
9.75
 20
23.800000000000011
 30
0.0
 11
9.75
 21
25.199999999999989
 31
0.0
  0
LINE
  5
27C
100
AcDbEntity
  8
0
  6
CONTINUOUS
 62
               4
100
AcDbLine
 10
0.75
 20
25.199999999999989
 30
0.0
 11
0.4304864708799983
 21
25.384471222047125
 31
0.0
  0
LINE
  5
27D
100
AcDbEntity
  8
0
  6
CONTINUOUS
 62
               4
100
AcDbLine
 10
0.75
 20
23.800000000000011
 30
0.0
 11
0.75
 21
25.199999999999989
 31
0.0
  0
LINE
  5
27E
100
AcDbEntity
  8
0
  6
CONTINUOUS
 62
               4
100
AcDbLine
 10
0.75
 20
23.800000000000011
 30
0.0
 11
0.4304864708799983
 21
23.615528777952875
 31
0.0
  0
CIRCLE
  5
27F
100
AcDbEntity
  8
0
  6
CONTINUOUS
 62
               4
100
AcDbCircle
 10
5.25
 20
13.5
 30
0.0
 40
5.0
  0
ARC
  5
280
100
AcDbEntity
  8
0
  6
CONTINUOUS
 62
               4
100
AcDbCircle
 10
5.25
 20
13.5
 30
0.0
 40
4.9000000000000004
100
AcDbArc
 50
10.399137031557654
 51
169.60086296844239
  0
CIRCLE
  5
281
100
AcDbEntity
  8
0
  6
CONTINUOUS
 62
               4
100
AcDbCircle
 10
5.25
 20
13.5
 30
0.0
 40
3.0500000000000003
  0
CIRCLE
  5
282
100
AcDbEntity
  8
0
  6
CONTINUOUS
 62
               4
100
AcDbCircle
 10
5.25
 20
13.5
 30
0.0
 40
2.0500000000000003
  0
LINE
  5
283
100
AcDbEntity
  8
0
  6
CONTINUOUS
 62
               4
100
AcDbLine
 10
0.75
 20
14.199999999999989
 30
0.0
 11
0.4304864708799983
 21
14.384471222047125
 31
0.0
  0
LINE
  5
284
100
AcDbEntity
  8
0
  6
CONTINUOUS
 62
               4
100
AcDbLine
 10
0.75
 20
12.800000000000011
 30
0.0
 11
0.75
 21
14.199999999999989
 31
0.0
  0
LINE
  5
285
100
AcDbEntity
  8
0
  6
CONTINUOUS
 62
               4
100
AcDbLine
 10
0.75
 20
12.800000000000011
 30
0.0
 11
0.4304864708799983
 21
12.615528777952875
 31
0.0
  0
ARC
  5
286
100
AcDbEntity
  8
0
  6
CONTINUOUS
 62
               4
100
AcDbCircle
 10
5.25
 20
13.5
 30
0.0
 40
4.9000000000000004
100
AcDbArc
 50
190.39913703155764
 51
349.60086296844236
  0
LINE
  5
287
100
AcDbEntity
  8
0
  6
CONTINUOUS
 62
               4
100
AcDbLine
 10
9.75
 20
12.800000000000011
 30
0.0
 11
10.069513529120002
 21
12.615528777952875
 31
0.0
  0
LINE
  5
288
100
AcDbEntity
  8
0
  6
CONTINUOUS
 62
               4
100
AcDbLine
 10
9.75
 20
12.800000000000011
 30
0.0
 11
9.75
 21
14.199999999999989
 31
0.0
  0
LINE
  5
289
100
AcDbEntity
  8
0
  6
CONTINUOUS
 62
               4
100
AcDbLine
 10
9.75
 20
14.199999999999989
 30
0.0
 11
10.069513529120002
 21
14.384471222047125
 31
0.0
  0
ARC
  5
28A
100
AcDbEntity
  8
0
  6
CONTINUOUS
 62
               7
100
AcDbCircle
 10
6.4000000000000341
 20
19.22387452764815
 30
0.0
 40
0.4
100
AcDbArc
 50
102.29604620064622
 51
180.0
  0
LINE
  5
28B
100
AcDbEntity
  8
0
  6
CONTINUOUS
 62
               7
100
AcDbLine
 10
6.0
 20
18.77612547235185
 30
0.0
 11
6.0
 21
19.22387452764815
 31
0.0
  0
ARC
  5
28C
100
AcDbEntity
  8
0
  6
CONTINUOUS
 62
               7
100
AcDbCircle
 10
6.4000000000000341
 20
18.77612547235185
 30
0.0
 40
0.4
100
AcDbArc
 50
180.0
 51
257.70395379935377
  0
ARC
  5
28D
100
AcDbEntity
  8
0
  6
CONTINUOUS
 62
               7
100
AcDbCircle
 10
4.0999999999999659
 20
18.77612547235185
 30
0.0
 40
0.4
100
AcDbArc
 50
282.29604620064623
 51
0.0
  0
LINE
  5
28E
100
AcDbEntity
  8
0
  6
CONTINUOUS
 62
               7
100
AcDbLine
 10
4.5
 20
18.77612547235185
 30
0.0
 11
4.5
 21
19.22387452764815
 31
0.0
  0
ARC
  5
28F
100
AcDbEntity
  8
0
  6
CONTINUOUS
 62
               7
100
AcDbCircle
 10
4.0999999999999659
 20
19.22387452764815
 30
0.0
 40
0.4
100
AcDbArc
 50
0.0
 51
77.703953799353798
  0
LINE
  5
290
100
AcDbEntity
  8
0
  6
CONTINUOUS
 62
               4
100
AcDbLine
 10
0.25
 20
59.600006103515653
 30
0.0
 11
0.25
 21
61.600006103515653
 31
0.0
  0
LINE
  5
291
100
AcDbEntity
  8
0
  6
CONTINUOUS
 62
               4
100
AcDbLine
 10
10.25
 20
59.599985117672105
 30
0.0
 11
10.25
 21
61.600006103515653
 31
0.0
  0
LINE
  5
292
100
AcDbEntity
  8
0
  6
CONTINUOUS
 62
               7
100
AcDbLine
 10
10.5
 20
0.0
 30
0.0
 11
0.0
 21
0.0
 31
0.0
  0
ENDBLK
  5
293
100
AcDbEntity
  8
0
100
AcDbBlockEnd
  0
BLOCK
  5
294
100
AcDbEntity
  8
0
100
AcDbBlockBegin
  2
F10MSJ-4
 70
               0
 10
0.0
 20
0.0
 30
0.0
  3
F10MSJ-4
  1

  0
LINE
  5
295
100
AcDbEntity
  8
0
  6
CONTINUOUS
 62
               2
100
AcDbLine
 10
5.2500038146972656
 20
-35.592966353863289
 30
0.0
 11
5.2500038146972656
 21
68.99999228434217
 31
0.0
  0
LINE
  5
296
100
AcDbEntity
  8
0
  6
CONTINUOUS
 62
               7
100
AcDbLine
 10
0.0
 20
-30.300010767415642
 30
0.0
 11
0.0
 21
62.499992284342177
 31
0.0
  0
LINE
  5
297
100
AcDbEntity
  8
0
  6
CONTINUOUS
 62
               7
100
AcDbLine
 10
10.5
 20
-25.50000771565783
 30
0.0
 11
10.25
 21
-25.50000771565783
 31
0.0
  0
LINE
  5
298
100
AcDbEntity
  8
0
  6
CONTINUOUS
 62
               7
100
AcDbLine
 10
10.25
 20
21.499992284342184
 30
0.0
 11
10.5
 21
21.499992284342184
 31
0.0
  0
LINE
  5
299
100
AcDbEntity
  8
0
  6
CONTINUOUS
 62
               7
100
AcDbLine
 10
10.5
 20
-30.300010767415642
 30
0.0
 11
10.5
 21
62.499992284342177
 31
0.0
  0
LINE
  5
29A
100
AcDbEntity
  8
0
  6
CONTINUOUS
 62
               7
100
AcDbLine
 10
10.25
 20
49.499992284342177
 30
0.0
 11
10.5
 21
49.499992284342177
 31
0.0
  0
LINE
  5
29B
100
AcDbEntity
  8
0
  6
CONTINUOUS
 62
               7
100
AcDbLine
 10
10.199996948242187
 20
59.499992284342177
 30
0.0
 11
10.5
 21
59.499992284342177
 31
0.0
  0
LINE
  5
29C
100
AcDbEntity
  8
0
  6
CONTINUOUS
 62
               7
100
AcDbLine
 10
10.199996948242187
 20
60.499992284342177
 30
0.0
 11
10.5
 21
60.499992284342177
 31
0.0
  0
LINE
  5
29D
100
AcDbEntity
  8
0
  6
CONTINUOUS
 62
               7
100
AcDbLine
 10
10.199996948242187
 20
60.999992284342177
 30
0.0
 11
10.5
 21
60.999992284342177
 31
0.0
  0
LINE
  5
29E
100
AcDbEntity
  8
0
  6
CONTINUOUS
 62
               7
100
AcDbLine
 10
10.25
 20
-30.300010767415642
 30
0.0
 11
10.5
 21
-30.300010767415642
 31
0.0
  0
LINE
  5
29F
100
AcDbEntity
  8
0
  6
CONTINUOUS
 62
               7
100
AcDbLine
 10
10.5
 20
62.499992284342177
 30
0.0
 11
10.199996948242187
 21
62.499992284342177
 31
0.0
  0
LINE
  5
2A0
100
AcDbEntity
  8
0
  6
CONTINUOUS
 62
               7
100
AcDbLine
 10
0.2500038146972656
 20
21.999992284342184
 30
0.0
 11
10.250003814697266
 21
21.999992284342184
 31
0.0
  0
LINE
  5
2A1
100
AcDbEntity
  8
0
  6
CONTINUOUS
 62
               7
100
AcDbLine
 10
0.25
 20
23.999977025553122
 30
0.0
 11
10.25
 21
23.999977025553122
 31
0.0
  0
LINE
  5
2A2
100
AcDbEntity
  8
0
  6
CONTINUOUS
 62
               7
100
AcDbLine
 10
2.75
 20
30.199989232584372
 30
0.0
 11
7.75
 21
30.199989232584372
 31
0.0
  0
LINE
  5
2A3
100
AcDbEntity
  8
0
  6
CONTINUOUS
 62
               4
100
AcDbLine
 10
0.25
 20
57.499992284342177
 30
0.0
 11
10.25
 21
57.499992284342177
 31
0.0
  0
LINE
  5
2A4
100
AcDbEntity
  8
0
  6
CONTINUOUS
 62
               7
100
AcDbLine
 10
0.25
 20
33.499992284342184
 30
0.0
 11
2.1160535896449488
 21
33.499992284342184
 31
0.0
  0
LINE
  5
2A5
100
AcDbEntity
  8
0
  6
CONTINUOUS
 62
               7
100
AcDbLine
 10
3.323211669921875
 20
29.899986180826559
 30
0.0
 11
7.176788330078125
 21
29.899986180826559
 31
0.0
  0
LINE
  5
2A6
100
AcDbEntity
  8
0
  6
CONTINUOUS
 62
               7
100
AcDbLine
 10
3.323211669921875
 20
30.499977025553122
 30
0.0
 11
7.176788330078125
 21
30.499977025553122
 31
0.0
  0
LINE
  5
2A7
100
AcDbEntity
  8
0
  6
CONTINUOUS
 62
               4
100
AcDbLine
 10
0.2999992370605469
 20
57.50000754313124
 30
0.0
 11
0.2999992370605469
 21
66.000007543131233
 31
0.0
  0
LINE
  5
2A8
100
AcDbEntity
  8
0
  6
CONTINUOUS
 62
               7
100
AcDbLine
 10
10.5
 20
61.499992284342177
 30
0.0
 11
10.199996948242187
 21
61.499992284342177
 31
0.0
  0
LINE
  5
2A9
100
AcDbEntity
  8
0
  6
CONTINUOUS
 62
               4
100
AcDbLine
 10
10.199996948242187
 20
61.999992284342177
 30
0.0
 11
0.2999992370605469
 21
61.999992284342177
 31
0.0
  0
LINE
  5
2AA
100
AcDbEntity
  8
0
  6
CONTINUOUS
 62
               4
100
AcDbLine
 10
10.199996948242187
 20
57.499992284342177
 30
0.0
 11
10.199996948242187
 21
65.99999228434217
 31
0.0
  0
LINE
  5
2AB
100
AcDbEntity
  8
0
  6
CONTINUOUS
 62
               7
100
AcDbLine
 10
10.250003814697266
 20
-32.099998560384392
 30
0.0
 11
10.250003814697266
 21
-17.300007906392693
 31
0.0
  0
LINE
  5
2AC
100
AcDbEntity
  8
0
  6
CONTINUOUS
 62
               7
100
AcDbLine
 10
0.2500038146972656
 20
-32.099998560384392
 30
0.0
 11
0.2500038146972656
 21
-14.650016870931253
 31
0.0
  0
LINE
  5
2AD
100
AcDbEntity
  8
0
  6
CONTINUOUS
 62
               7
100
AcDbLine
 10
0.25
 20
14.499992284342184
 30
0.0
 11
10.25
 21
14.499992284342184
 31
0.0
  0
LINE
  5
2AE
100
AcDbEntity
  8
0
  6
CONTINUOUS
 62
               7
100
AcDbLine
 10
0.2499961853027344
 20
-17.500003900960564
 30
0.0
 11
10.249996185302734
 21
-17.500003900960564
 31
0.0
  0
LINE
  5
2AF
100
AcDbEntity
  8
0
  6
CONTINUOUS
 62
               7
100
AcDbLine
 10
0.2499961853027344
 20
-25.50000771565783
 30
0.0
 11
10.249996185302734
 21
-25.50000771565783
 31
0.0
  0
LINE
  5
2B0
100
AcDbEntity
  8
0
  6
CONTINUOUS
 62
               7
100
AcDbLine
 10
0.6499977111816406
 20
-32.50000771565783
 30
0.0
 11
9.8499984741210937
 21
-32.50000771565783
 31
0.0
  0
LINE
  5
2B1
100
AcDbEntity
  8
0
  6
CONTINUOUS
 62
               4
100
AcDbLine
 10
0.8489671520407001
 20
-14.901053542217355
 30
0.0
 11
2.0510476476099484
 21
-13.698972540008967
 31
0.0
  0
LINE
  5
2B2
100
AcDbEntity
  8
0
  6
CONTINUOUS
 62
               4
100
AcDbLine
 10
8.4489569686924142
 20
10.698949798149116
 30
0.0
 11
9.6510351372303376
 21
11.901028979963613
 31
0.0
  0
LINE
  5
2B3
100
AcDbEntity
  8
0
  6
CONTINUOUS
 62
               4
100
AcDbLine
 10
8.4489654819149109
 20
11.901039748044425
 30
0.0
 11
9.6510475288389443
 21
10.698957701120392
 31
0.0
  0
LINE
  5
2B4
100
AcDbEntity
  8
0
  6
CONTINUOUS
 62
               4
100
AcDbLine
 10
0.8489659948448889
 20
-13.698962271280593
 30
0.0
 11
2.0510474687472424
 21
-14.901043542527177
 31
0.0
  0
LINE
  5
2B5
100
AcDbEntity
  8
0
  6
CONTINUOUS
 62
               7
100
AcDbLine
 10
0.2500038146972656
 20
-13.949997034505472
 30
0.0
 11
0.2500038146972656
 21
-12.700007524922952
 31
0.0
  0
LINE
  5
2B6
100
AcDbEntity
  8
0
  6
CONTINUOUS
 62
               7
100
AcDbLine
 10
10.250003814697266
 20
11.649976644083395
 30
0.0
 11
10.250003814697266
 21
33.499992284342184
 31
0.0
  0
LINE
  5
2B7
100
AcDbEntity
  8
0
  6
CONTINUOUS
 62
               4
100
AcDbLine
 10
1.6489588367425085
 20
10.898950920839653
 30
0.0
 11
2.8510397026775536
 21
12.101032800053545
 31
0.0
  0
LINE
  5
2B8
100
AcDbEntity
  8
0
  6
CONTINUOUS
 62
               4
100
AcDbLine
 10
7.648958630494576
 20
-15.101048904841718
 30
0.0
 11
8.8510405097084686
 21
-13.898968038906659
 31
0.0
  0
LINE
  5
2B9
100
AcDbEntity
  8
0
  6
CONTINUOUS
 62
               4
100
AcDbLine
 10
7.6489594734324555
 20
-13.898967828172189
 30
0.0
 11
8.8510406782964992
 21
-15.101048019757968
 31
0.0
  0
LINE
  5
2BA
100
AcDbEntity
  8
0
  6
CONTINUOUS
 62
               4
100
AcDbLine
 10
1.6489593420656092
 20
12.101034295825983
 30
0.0
 11
2.8510413889896427
 21
10.898952248901949
 31
0.0
  0
LINE
  5
2BB
100
AcDbEntity
  8
0
  6
CONTINUOUS
 62
               4
100
AcDbLine
 10
3.0500001907348633
 20
-17.300007906392693
 30
0.0
 11
10.25
 21
-17.300007906392693
 31
0.0
  0
LINE
  5
2BC
100
AcDbEntity
  8
0
  6
CONTINUOUS
 62
               4
100
AcDbLine
 10
0.25
 20
14.299992475077048
 30
0.0
 11
7.4499998092651367
 21
14.299992475077048
 31
0.0
  0
LINE
  5
2BD
100
AcDbEntity
  8
0
  6
CONTINUOUS
 62
               4
100
AcDbLine
 10
3.0500001907348633
 20
-14.300007906392679
 30
0.0
 11
3.0500001907348633
 21
-17.300007906392693
 31
0.0
  0
LINE
  5
2BE
100
AcDbEntity
  8
0
  6
CONTINUOUS
 62
               4
100
AcDbLine
 10
7.4499998092651367
 20
14.299992475077048
 30
0.0
 11
7.4499998092651367
 21
11.299992475077048
 31
0.0
  0
LINE
  5
2BF
100
AcDbEntity
  8
0
  6
CONTINUOUS
 62
               4
100
AcDbLine
 10
9.0499992370605469
 20
9.699992093607321
 30
0.0
 11
10.25
 21
9.699992093607321
 31
0.0
  0
LINE
  5
2C0
100
AcDbEntity
  8
0
  6
CONTINUOUS
 62
               4
100
AcDbLine
 10
0.25
 20
-12.700007524922952
 30
0.0
 11
1.4500007629394531
 21
-12.700007524922952
 31
0.0
  0
LINE
  5
2C1
100
AcDbEntity
  8
0
  6
CONTINUOUS
 62
               7
100
AcDbLine
 10
7.7500038146972656
 20
30.199989232584372
 30
0.0
 11
8.7500038146972656
 21
30.199989232584372
 31
0.0
  0
LINE
  5
2C2
100
AcDbEntity
  8
0
  6
CONTINUOUS
 62
               7
100
AcDbLine
 10
5.2500038146972656
 20
26.699989232584372
 30
0.0
 11
5.2500038146972656
 21
27.699989232584372
 31
0.0
  0
LINE
  5
2C3
100
AcDbEntity
  8
0
  6
CONTINUOUS
 62
               7
100
AcDbLine
 10
5.2499964861552826
 20
27.199970310528911
 30
0.0
 11
6.2499958856777766
 21
26.932010630877372
 31
0.0
  0
LINE
  5
2C4
100
AcDbEntity
  8
0
  6
CONTINUOUS
 62
               7
100
AcDbLine
 10
5.2500009536743164
 20
-17.999992456868767
 30
0.0
 11
5.2500009536743164
 21
-18.999992456868767
 31
0.0
  0
CIRCLE
  5
2C5
100
AcDbEntity
  8
0
  6
CONTINUOUS
 62
               7
100
AcDbCircle
 10
5.2500038146972656
 20
30.199989232584372
 30
0.0
 40
2.0
  0
CIRCLE
  5
2C6
100
AcDbEntity
  8
0
  6
CONTINUOUS
 62
               7
100
AcDbCircle
 10
5.2500038146972656
 20
30.199989232584372
 30
0.0
 40
1.9499998092651367
  0
ARC
  5
2C7
100
AcDbEntity
  8
0
  6
CONTINUOUS
 62
               4
100
AcDbCircle
 10
9.7000045776367187
 20
65.99999228434217
 30
0.0
 40
0.5
100
AcDbArc
 50
359.99995901886496
 51
89.999982013910653
  0
ARC
  5
2C8
100
AcDbEntity
  8
0
  6
CONTINUOUS
 62
               4
100
AcDbCircle
 10
0.8000030517578125
 20
66.000007543131233
 30
0.0
 40
0.5
100
AcDbArc
 50
89.999982013910653
 51
179.99996402782131
  0
ARC
  5
2C9
100
AcDbEntity
  8
0
  6
CONTINUOUS
 62
               7
100
AcDbCircle
 10
9.8499984741210937
 20
-32.099998560384392
 30
0.0
 40
0.4000000357627869
100
AcDbArc
 50
270.00001798608935
 51
0.00001366037834
  0
ARC
  5
2CA
100
AcDbEntity
  8
0
  6
CONTINUOUS
 62
               7
100
AcDbCircle
 10
0.6499977111816406
 20
-32.099998560384392
 30
0.0
 40
0.4000000357627869
100
AcDbArc
 50
179.99996402782131
 51
269.99994604173196
  0
ARC
  5
2CB
100
AcDbEntity
  8
0
  6
CONTINUOUS
 62
               7
100
AcDbCircle
 10
9.8500022888183594
 20
14.899986180826559
 30
0.0
 40
0.4000000357627869
100
AcDbArc
 50
270.00001798608935
 51
0.0
  0
ARC
  5
2CC
100
AcDbEntity
  8
0
  6
CONTINUOUS
 62
               7
100
AcDbCircle
 10
0.6500015258789063
 20
14.899986180826559
 30
0.0
 40
0.4000000357627869
100
AcDbArc
 50
179.99996402782131
 51
270.00000068324533
  0
CIRCLE
  5
2CD
100
AcDbEntity
  8
0
  6
CONTINUOUS
 62
               4
100
AcDbCircle
 10
9.0499992370605469
 20
11.299991521402731
 30
0.0
 40
1.25
  0
CIRCLE
  5
2CE
100
AcDbEntity
  8
0
  6
CONTINUOUS
 62
               4
100
AcDbCircle
 10
1.4500007629394531
 20
-14.300006952718363
 30
0.0
 40
1.25
  0
CIRCLE
  5
2CF
100
AcDbEntity
  8
0
  6
CONTINUOUS
 62
               4
100
AcDbCircle
 10
2.25
 20
11.499992284342184
 30
0.0
 40
1.25
  0
CIRCLE
  5
2D0
100
AcDbEntity
  8
0
  6
CONTINUOUS
 62
               4
100
AcDbCircle
 10
8.25
 20
-14.500007715657816
 30
0.0
 40
1.25
  0
CIRCLE
  5
2D1
100
AcDbEntity
  8
0
  6
CONTINUOUS
 62
               4
100
AcDbCircle
 10
2.25
 20
11.499992284342184
 30
0.0
 40
1.3999996185302734
  0
CIRCLE
  5
2D2
100
AcDbEntity
  8
0
  6
CONTINUOUS
 62
               4
100
AcDbCircle
 10
8.25
 20
-14.500007715657816
 30
0.0
 40
1.3999996185302734
  0
ARC
  5
2D3
100
AcDbEntity
  8
0
  6
CONTINUOUS
 62
               4
100
AcDbCircle
 10
1.4500007629394531
 20
-14.300007906392679
 30
0.0
 40
1.5999994277954102
100
AcDbArc
 50
0.0
 51
89.999982013910653
  0
ARC
  5
2D4
100
AcDbEntity
  8
0
  6
CONTINUOUS
 62
               4
100
AcDbCircle
 10
9.0499992370605469
 20
11.299992475077048
 30
0.0
 40
1.5999994277954102
100
AcDbArc
 50
179.99996402782131
 51
270.00000068324533
  0
ARC
  5
2D5
100
AcDbEntity
  8
0
  6
CONTINUOUS
 62
               7
100
AcDbCircle
 10
5.3500041961669922
 20
30.199989232584372
 30
0.0
 40
3.0
100
AcDbArc
 50
268.08980532053351
 51
0.0
  0
ARC
  5
2D6
100
AcDbEntity
  8
0
  6
CONTINUOUS
 62
               7
100
AcDbCircle
 10
5.2500038146972656
 20
30.199989232584372
 30
0.0
 40
3.0
100
AcDbArc
 50
266.17746163595666
 51
3.822566595416411
  0
ARC
  5
2D7
100
AcDbEntity
  8
0
  6
CONTINUOUS
 62
               7
100
AcDbCircle
 10
5.1500034332275391
 20
30.199989232584372
 30
0.0
 40
3.0
100
AcDbArc
 50
271.91023065164512
 51
0.0
  0
LINE
  5
2D8
100
AcDbEntity
  8
0
  6
CONTINUOUS
 62
               7
100
AcDbLine
 10
0.2500076293945313
 20
49.499992284342177
 30
0.0
 11
0.0000076293945313
 21
49.499992284342177
 31
0.0
  0
LINE
  5
2D9
100
AcDbEntity
  8
0
  6
CONTINUOUS
 62
               7
100
AcDbLine
 10
0.3000106811523438
 20
59.499992284342177
 30
0.0
 11
0.0000076293945313
 21
59.499992284342177
 31
0.0
  0
LINE
  5
2DA
100
AcDbEntity
  8
0
  6
CONTINUOUS
 62
               7
100
AcDbLine
 10
0.3000106811523438
 20
60.499992284342177
 30
0.0
 11
0.0000076293945313
 21
60.499992284342177
 31
0.0
  0
LINE
  5
2DB
100
AcDbEntity
  8
0
  6
CONTINUOUS
 62
               7
100
AcDbLine
 10
0.3000106811523438
 20
60.999992284342177
 30
0.0
 11
0.0000076293945313
 21
60.999992284342177
 31
0.0
  0
LINE
  5
2DC
100
AcDbEntity
  8
0
  6
CONTINUOUS
 62
               7
100
AcDbLine
 10
0.2500076293945313
 20
21.499992284342184
 30
0.0
 11
0.0000076293945313
 21
21.499992284342184
 31
0.0
  0
LINE
  5
2DD
100
AcDbEntity
  8
0
  6
CONTINUOUS
 62
               7
100
AcDbLine
 10
0.0000076293945313
 20
-25.50000771565783
 30
0.0
 11
0.2500076293945313
 21
-25.50000771565783
 31
0.0
  0
LINE
  5
2DE
100
AcDbEntity
  8
0
  6
CONTINUOUS
 62
               7
100
AcDbLine
 10
0.2500076293945313
 20
-30.300010767415642
 30
0.0
 11
0.0000076293945313
 21
-30.300010767415642
 31
0.0
  0
LINE
  5
2DF
100
AcDbEntity
  8
0
  6
CONTINUOUS
 62
               4
100
AcDbLine
 10
0.8000032087160207
 20
66.500007543131204
 30
0.0
 11
9.700004734594927
 21
66.499992284342142
 31
0.0
  0
LINE
  5
2E0
100
AcDbEntity
  8
0
  6
CONTINUOUS
 62
               7
100
AcDbLine
 10
0.2999992370605469
 20
62.499992284342177
 30
0.0
 11
0.0
 21
62.499992284342177
 31
0.0
  0
LINE
  5
2E1
100
AcDbEntity
  8
0
  6
CONTINUOUS
 62
               7
100
AcDbLine
 10
0.2999992370605469
 20
61.499992284342177
 30
0.0
 11
0.0000076293945313
 21
61.499992284342177
 31
0.0
  0
LINE
  5
2E2
100
AcDbEntity
  8
0
  6
CONTINUOUS
 62
               7
100
AcDbLine
 10
10.250003814697266
 20
-19.500004854634881
 30
0.0
 11
9.9500007629394531
 21
-19.500004854634881
 31
0.0
  0
LINE
  5
2E3
100
AcDbEntity
  8
0
  6
CONTINUOUS
 62
               7
100
AcDbLine
 10
9.9500007629394531
 20
-23.500020113423943
 30
0.0
 11
10.250003814697266
 21
-23.500020113423943
 31
0.0
  0
LINE
  5
2E4
100
AcDbEntity
  8
0
  6
CONTINUOUS
 62
               7
100
AcDbLine
 10
0.5500068664550781
 20
-19.500004854634881
 30
0.0
 11
0.2500038146972656
 21
-19.500004854634881
 31
0.0
  0
LINE
  5
2E5
100
AcDbEntity
  8
0
  6
CONTINUOUS
 62
               7
100
AcDbLine
 10
0.2500038146972656
 20
-23.500020113423943
 30
0.0
 11
0.5500068664550781
 21
-23.500020113423943
 31
0.0
  0
LINE
  5
2E6
100
AcDbEntity
  8
0
  6
CONTINUOUS
 62
               7
100
AcDbLine
 10
0.5500068664550781
 20
-25.500020113423943
 30
0.0
 11
0.5500068664550781
 21
-17.500020113423943
 31
0.0
  0
LINE
  5
2E7
100
AcDbEntity
  8
0
  6
CONTINUOUS
 62
               7
100
AcDbLine
 10
9.9500007629394531
 20
-25.500020113423943
 30
0.0
 11
9.9500007629394531
 21
-17.500020113423943
 31
0.0
  0
LINE
  5
2E8
100
AcDbEntity
  8
0
  6
CONTINUOUS
 62
               7
100
AcDbLine
 10
0.9500007629394531
 20
-25.100010958150506
 30
0.0
 11
9.5500068664550781
 21
-25.100010958150506
 31
0.0
  0
LINE
  5
2E9
100
AcDbEntity
  8
0
  6
CONTINUOUS
 62
               7
100
AcDbLine
 10
0.9500007629394531
 20
-25.100010958150506
 30
0.0
 11
0.9500007629394531
 21
-17.900014009908318
 31
0.0
  0
LINE
  5
2EA
100
AcDbEntity
  8
0
  6
CONTINUOUS
 62
               7
100
AcDbLine
 10
0.9500007629394531
 20
-17.900014009908318
 30
0.0
 11
9.5500068664550781
 21
-17.900014009908318
 31
0.0
  0
LINE
  5
2EB
100
AcDbEntity
  8
0
  6
CONTINUOUS
 62
               7
100
AcDbLine
 10
9.5500068664550781
 20
-25.100010958150506
 30
0.0
 11
9.5500068664550781
 21
-17.900014009908318
 31
0.0
  0
LINE
  5
2EC
100
AcDbEntity
  8
0
  6
CONTINUOUS
 62
               7
100
AcDbLine
 10
9.549982264816208
 20
-17.900001887860981
 30
0.0
 11
9.9499848810883122
 21
-17.499999339024271
 31
0.0
  0
LINE
  5
2ED
100
AcDbEntity
  8
0
  6
CONTINUOUS
 62
               7
100
AcDbLine
 10
9.5500248162734351
 20
-25.100005215471811
 30
0.0
 11
9.9500165755180205
 21
-25.499997042149971
 31
0.0
  0
LINE
  5
2EE
100
AcDbEntity
  8
0
  6
CONTINUOUS
 62
               7
100
AcDbLine
 10
0.9499854757432331
 20
-25.100004490542688
 30
0.0
 11
0.5499936490650725
 21
-25.499996249787273
 31
0.0
  0
LINE
  5
2EF
100
AcDbEntity
  8
0
  6
CONTINUOUS
 62
               7
100
AcDbLine
 10
0.9500184514381544
 20
-17.89999037334519
 30
0.0
 11
0.550026692193569
 21
-17.49999854666703
 31
0.0
  0
LINE
  5
2F0
100
AcDbEntity
  8
0
  6
CONTINUOUS
 62
               7
100
AcDbLine
 10
0.2500038146972656
 20
14.299992475077048
 30
0.0
 11
0.2500038146972656
 21
33.499992284342184
 31
0.0
  0
LINE
  5
2F1
100
AcDbEntity
  8
0
  6
CONTINUOUS
 62
               4
100
AcDbLine
 10
10.250003814697266
 20
-17.300007906392693
 30
0.0
 11
10.250003814697266
 21
9.699992093607321
 31
0.0
  0
LINE
  5
2F2
100
AcDbEntity
  8
0
  6
CONTINUOUS
 62
               4
100
AcDbLine
 10
0.2500038146972656
 20
-12.700007524922952
 30
0.0
 11
0.2500038146972656
 21
14.299992475077048
 31
0.0
  0
LINE
  5
2F3
100
AcDbEntity
  8
0
  6
CONTINUOUS
 62
               7
100
AcDbLine
 10
10.250003814697266
 20
9.699992093607321
 30
0.0
 11
10.250003814697266
 21
10.950006398722067
 31
0.0
  0
LINE
  5
2F4
100
AcDbEntity
  8
0
  6
CONTINUOUS
 62
               4
100
AcDbLine
 10
0.2500038146972656
 20
33.499992284342184
 30
0.0
 11
0.2500038146972656
 21
57.50000754313124
 31
0.0
  0
LINE
  5
2F5
100
AcDbEntity
  8
0
  6
CONTINUOUS
 62
               7
100
AcDbLine
 10
2.1160535896449488
 20
33.499992284342184
 30
0.0
 11
8.8788045159872553
 21
33.499992284342184
 31
0.0
  0
LINE
  5
2F6
100
AcDbEntity
  8
0
  6
CONTINUOUS
 62
               4
100
AcDbLine
 10
10.250003814697266
 20
33.499992284342184
 30
0.0
 11
10.250003814697266
 21
57.499992284342177
 31
0.0
  0
LINE
  5
2F7
100
AcDbEntity
  8
0
  6
CONTINUOUS
 62
               7
100
AcDbLine
 10
8.8788045159872553
 20
33.499992284342184
 30
0.0
 11
10.25
 21
33.499992284342184
 31
0.0
  0
ENDBLK
  5
2F8
100
AcDbEntity
  8
0
100
AcDbBlockEnd
  0
BLOCK
  5
2F9
100
AcDbEntity
  8
0
100
AcDbBlockBegin
  2
F10MSJ-5
 70
               0
 10
0.0
 20
0.0
 30
0.0
  3
F10MSJ-5
  1

  0
LINE
  5
2FA
100
AcDbEntity
  8
0
  6
CONTINUOUS
 62
               2
100
AcDbLine
 10
-6.5199999999999818
 20
0.0
 30
0.0
 11
6.7800000000000011
 21
0.0
 31
0.0
  0
LINE
  5
2FB
100
AcDbEntity
  8
0
  6
CONTINUOUS
 62
               4
100
AcDbLine
 10
57.0
 20
58.949999913736946
 30
0.0
 11
54.899999999999991
 21
58.949999913736946
 31
0.0
  0
LINE
  5
2FC
100
AcDbEntity
  8
0
  6
CONTINUOUS
 62
               4
100
AcDbLine
 10
57.0
 20
59.899999913736963
 30
0.0
 11
57.0
 21
58.949999913736946
 31
0.0
  0
LINE
  5
2FD
100
AcDbEntity
  8
0
  6
CONTINUOUS
 62
               4
100
AcDbLine
 10
57.0
 20
59.899999913736963
 30
0.0
 11
54.899999999999991
 21
59.899999913736963
 31
0.0
  0
LINE
  5
2FE
100
AcDbEntity
  8
0
  6
CONTINUOUS
 62
               4
100
AcDbLine
 10
54.899999999999991
 20
59.899999913736963
 30
0.0
 11
54.899999999999991
 21
58.949999913736946
 31
0.0
  0
ARC
  5
2FF
100
AcDbEntity
  8
0
  6
CONTINUOUS
 62
               4
100
AcDbCircle
 10
60.501123948313889
 20
61.679394315853983
 30
0.0
 40
1.4988865337462252
100
AcDbArc
 50
0.2142776266259147
 51
24.039904443234679
  0
LINE
  5
300
100
AcDbEntity
  8
0
  6
CONTINUOUS
 62
               4
100
AcDbLine
 10
49.75
 20
57.999999913736957
 30
0.0
 11
47.25
 21
57.999999913736957
 31
0.0
  0
LINE
  5
301
100
AcDbEntity
  8
0
  6
CONTINUOUS
 62
               4
100
AcDbLine
 10
49.75
 20
57.999999913736957
 30
0.0
 11
49.75
 21
57.499999913736957
 31
0.0
  0
LINE
  5
302
100
AcDbEntity
  8
0
  6
CONTINUOUS
 62
               7
100
AcDbLine
 10
47.25
 20
57.999999913736957
 30
0.0
 11
47.25
 21
57.499999913736957
 31
0.0
  0
LINE
  5
303
100
AcDbEntity
  8
0
  6
CONTINUOUS
 62
               4
100
AcDbLine
 10
62.0
 20
61.684999913736931
 30
0.0
 11
62.0
 21
57.499999913736957
 31
0.0
  0
LINE
  5
304
100
AcDbEntity
  8
0
  6
CONTINUOUS
 62
               4
100
AcDbLine
 10
62.0
 20
57.499999913736957
 30
0.0
 11
45.0
 21
57.499999913736957
 31
0.0
  0
LINE
  5
305
100
AcDbEntity
  8
0
  6
CONTINUOUS
 62
               4
100
AcDbLine
 10
62.0
 20
57.499999913736957
 30
0.0
 11
62.0
 21
49.699996948242188
 31
0.0
  0
ARC
  5
306
100
AcDbEntity
  8
0
  6
CONTINUOUS
 62
               4
100
AcDbCircle
 10
32.498459549981703
 20
66.001540363755225
 30
0.0
 40
0.4984619302958243
100
AcDbArc
 50
89.822932465398097
 51
180.17706753460234
  0
ARC
  5
307
100
AcDbEntity
  8
0
  6
CONTINUOUS
 62
               4
100
AcDbCircle
 10
59.675687863874501
 20
66.00267102581455
 30
0.0
 40
0.4973293636201366
100
AcDbArc
 50
24.005903588636848
 51
90.079246697133883
  0
LINE
  5
308
100
AcDbEntity
  8
0
  6
CONTINUOUS
 62
               4
100
AcDbLine
 10
59.674999999999997
 20
66.499999913736957
 30
0.0
 11
32.496919099966703
 21
66.499999913736957
 31
0.0
  0
LINE
  5
309
100
AcDbEntity
  8
0
  6
CONTINUOUS
 62
               4
100
AcDbLine
 10
60.129999999999995
 20
66.204999913736941
 30
0.0
 11
61.870000000000005
 21
62.289999913736949
 31
0.0
  0
LINE
  5
30A
100
AcDbEntity
  8
0
  6
CONTINUOUS
 62
               4
100
AcDbLine
 10
32.0
 20
65.999999913736957
 30
0.0
 11
32.0
 21
62.5
 31
0.0
  0
ARC
  5
30B
100
AcDbEntity
  8
0
  6
DASHED
 62
               2
100
AcDbCircle
 10
62.798470128159707
 20
48.49847012815971
 30
0.0
 40
1.2015308458098004
100
AcDbArc
 50
0.0729529530056469
 51
89.927047046993678
  0
ARC
  5
30C
100
AcDbEntity
  8
0
  6
DASHED
 62
               2
100
AcDbCircle
 10
64.498468607662176
 20
46.998468607662161
 30
0.0
 40
1.5015321732611955
100
AcDbArc
 50
0.0584352000646074
 51
89.941564799935392
  0
ARC
  5
30D
100
AcDbEntity
  8
0
  6
DASHED
 62
               2
100
AcDbCircle
 10
62.800247132730547
 20
-48.500247132730522
 30
0.0
 40
1.1997528927224428
100
AcDbArc
 50
269.98819785088637
 51
0.011802149112902
  0
ARC
  5
30E
100
AcDbEntity
  8
0
  6
DASHED
 62
               2
100
AcDbCircle
 10
44.198467127072604
 20
-48.501532872927413
 30
0.0
 40
1.1984681073658274
100
AcDbArc
 50
179.92671713775522
 51
270.07328286224481
  0
ARC
  5
30F
100
AcDbEntity
  8
0
  6
DASHED
 62
               2
100
AcDbCircle
 10
64.500245800330759
 20
-47.000245800330731
 30
0.0
 40
1.4997542198118277
100
AcDbArc
 50
269.99060958026877
 51
0.0093904197306561
  0
ARC
  5
310
100
AcDbEntity
  8
0
  6
DASHED
 62
               2
100
AcDbCircle
 10
42.498468648197218
 20
-47.001531351802782
 30
0.0
 40
1.4984694306752973
100
AcDbArc
 50
179.94144691328017
 51
270.05855308671983
  0
ARC
  5
311
100
AcDbEntity
  8
0
  6
DASHED
 62
               2
100
AcDbCircle
 10
10.498715666173325
 20
-32.0
 30
0.0
 40
3.0005538011531523
100
AcDbArc
 50
150.00610521671547
 51
209.99389478328453
  0
ARC
  5
312
100
AcDbEntity
  8
0
  6
DASHED
 62
               2
100
AcDbCircle
 10
4.0002469728813708
 20
59.499753027118636
 30
0.0
 40
3.000246983046468
100
AcDbArc
 50
90.004716446296811
 51
179.99528355370319
  0
LINE
  5
313
100
AcDbEntity
  8
0
  6
DASHED
 62
               2
100
AcDbLine
 10
41.0
 20
-45.0
 30
0.0
 11
3.5
 21
-45.0
 31
0.0
  0
LINE
  5
314
100
AcDbEntity
  8
0
  6
DASHED
 62
               2
100
AcDbLine
 10
35.0
 20
62.500000000000007
 30
0.0
 11
45.0
 21
62.500000000000007
 31
0.0
  0
LINE
  5
315
100
AcDbEntity
  8
0
  6
DASHED
 62
               2
100
AcDbLine
 10
64.000000000000014
 20
48.5
 30
0.0
 11
64.500000000000014
 21
48.5
 31
0.0
  0
LINE
  5
316
100
AcDbEntity
  8
0
  6
DASHED
 62
               2
100
AcDbLine
 10
45.0
 20
49.70000000000001
 30
0.0
 11
62.800000000000011
 21
49.70000000000001
 31
0.0
  0
LINE
  5
317
100
AcDbEntity
  8
0
  6
DASHED
 62
               2
100
AcDbLine
 10
66.000000000000014
 20
47.0
 30
0.0
 11
66.000000000000014
 21
45.0
 31
0.0
  0
LINE
  5
318
100
AcDbEntity
  8
0
  6
DASHED
 62
               2
100
AcDbLine
 10
64.000000000000014
 20
-48.5
 30
0.0
 11
64.500000000000014
 21
-48.5
 31
0.0
  0
LINE
  5
319
100
AcDbEntity
  8
0
  6
DASHED
 62
               2
100
AcDbLine
 10
44.200000000000017
 20
-49.699999999999989
 30
0.0
 11
62.800000000000011
 21
-49.699999999999989
 31
0.0
  0
LINE
  5
31A
100
AcDbEntity
  8
0
  6
DASHED
 62
               2
100
AcDbLine
 10
66.000000000000014
 20
-47.0
 30
0.0
 11
66.000000000000014
 21
-45.0
 31
0.0
  0
LINE
  5
31B
100
AcDbEntity
  8
0
  6
DASHED
 62
               2
100
AcDbLine
 10
41.0
 20
-47.0
 30
0.0
 11
41.0
 21
-45.0
 31
0.0
  0
LINE
  5
31C
100
AcDbEntity
  8
0
  6
DASHED
 62
               2
100
AcDbLine
 10
42.5
 20
-48.5
 30
0.0
 11
43.0
 21
-48.5
 31
0.0
  0
LINE
  5
31D
100
AcDbEntity
  8
0
  6
DASHED
 62
               2
100
AcDbLine
 10
6.1899999999999977
 20
15.5
 30
0.0
 11
6.5
 21
15.5
 31
0.0
  0
LINE
  5
31E
100
AcDbEntity
  8
0
  6
DASHED
 62
               2
100
AcDbLine
 10
6.1000000000000227
 20
15.0
 30
0.0
 11
6.1899999999999977
 21
15.5
 31
0.0
  0
LINE
  5
31F
100
AcDbEntity
  8
0
  6
DASHED
 62
               2
100
AcDbLine
 10
4.2000000000000171
 20
15.5
 30
0.0
 11
4.7000000000000171
 21
15.0
 31
0.0
  0
LINE
  5
320
100
AcDbEntity
  8
0
  6
DASHED
 62
               2
100
AcDbLine
 10
4.7000000000000171
 20
15.0
 30
0.0
 11
6.1000000000000227
 21
15.0
 31
0.0
  0
LINE
  5
321
100
AcDbEntity
  8
0
  6
DASHED
 62
               2
100
AcDbLine
 10
74.300000000000011
 20
45.0
 30
0.0
 11
74.300000000000011
 21
-45.0
 31
0.0
  0
LINE
  5
322
100
AcDbEntity
  8
0
  6
DASHED
 62
               2
100
AcDbLine
 10
74.300000000000011
 20
-45.0
 30
0.0
 11
66.000000000000014
 21
-45.0
 31
0.0
  0
LINE
  5
323
100
AcDbEntity
  8
0
  6
DASHED
 62
               2
100
AcDbLine
 10
74.300000000000011
 20
45.0
 30
0.0
 11
66.000000000000014
 21
45.0
 31
0.0
  0
LINE
  5
324
100
AcDbEntity
  8
0
  6
DASHED
 62
               2
100
AcDbLine
 10
3.5
 20
-33.5
 30
0.0
 11
3.5
 21
-45.0
 31
0.0
  0
LINE
  5
325
100
AcDbEntity
  8
0
  6
DASHED
 62
               2
100
AcDbLine
 10
3.5
 20
-33.5
 30
0.0
 11
7.9000000000000057
 21
-33.5
 31
0.0
  0
LINE
  5
326
100
AcDbEntity
  8
0
  6
DASHED
 62
               2
100
AcDbLine
 10
3.2000000000000171
 20
-30.5
 30
0.0
 11
7.9000000000000057
 21
-30.5
 31
0.0
  0
LINE
  5
327
100
AcDbEntity
  8
0
  6
DASHED
 62
               2
100
AcDbLine
 10
45.0
 20
62.500000000000007
 30
0.0
 11
45.0
 21
49.70000000000001
 31
0.0
  0
LINE
  5
328
100
AcDbEntity
  8
0
  6
DASHED
 62
               2
100
AcDbLine
 10
3.2000000000000171
 20
-28.699999999999989
 30
0.0
 11
3.2000000000000171
 21
-30.5
 31
0.0
  0
LINE
  5
329
100
AcDbEntity
  8
0
  6
DASHED
 62
               2
100
AcDbLine
 10
2.0
 20
17.5
 30
0.0
 11
4.0
 21
15.5
 31
0.0
  0
LINE
  5
32A
100
AcDbEntity
  8
0
  6
DASHED
 62
               2
100
AcDbLine
 10
2.0
 20
17.5
 30
0.0
 11
2.0
 21
20.100000000000009
 31
0.0
  0
LINE
  5
32B
100
AcDbEntity
  8
0
  6
DASHED
 62
               2
100
AcDbLine
 10
4.0
 20
15.5
 30
0.0
 11
4.2000000000000171
 21
15.5
 31
0.0
  0
LINE
  5
32C
100
AcDbEntity
  8
0
  6
DASHED
 62
               2
100
AcDbLine
 10
0.0
 20
-14.5
 30
0.0
 11
0.0
 21
14.5
 31
0.0
  0
LINE
  5
32D
100
AcDbEntity
  8
0
  6
DASHED
 62
               2
100
AcDbLine
 10
0.0
 20
14.5
 30
0.0
 11
6.5
 21
14.5
 31
0.0
  0
LINE
  5
32E
100
AcDbEntity
  8
0
  6
DASHED
 62
               2
100
AcDbLine
 10
0.0
 20
-14.5
 30
0.0
 11
6.5
 21
-14.5
 31
0.0
  0
LINE
  5
32F
100
AcDbEntity
  8
0
  6
DASHED
 62
               2
100
AcDbLine
 10
6.5
 20
14.5
 30
0.0
 11
6.5
 21
15.5
 31
0.0
  0
LINE
  5
330
100
AcDbEntity
  8
0
  6
DASHED
 62
               2
100
AcDbLine
 10
6.5
 20
-15.5
 30
0.0
 11
6.5
 21
-14.5
 31
0.0
  0
LINE
  5
331
100
AcDbEntity
  8
0
  6
DASHED
 62
               2
100
AcDbLine
 10
1.0
 20
20.570000000000007
 30
0.0
 11
2.0
 21
20.100000000000009
 31
0.0
  0
LINE
  5
332
100
AcDbEntity
  8
0
  6
DASHED
 62
               2
100
AcDbLine
 10
1.5
 20
-15.5
 30
0.0
 11
1.0
 21
-16.0
 31
0.0
  0
LINE
  5
333
100
AcDbEntity
  8
0
  6
DASHED
 62
               2
100
AcDbLine
 10
1.0
 20
20.570000000000007
 30
0.0
 11
1.0
 21
59.500000000000007
 31
0.0
  0
LINE
  5
334
100
AcDbEntity
  8
0
  6
DASHED
 62
               2
100
AcDbLine
 10
1.5
 20
-15.5
 30
0.0
 11
6.5
 21
-15.5
 31
0.0
  0
LINE
  5
335
100
AcDbEntity
  8
0
  6
DASHED
 62
               2
100
AcDbLine
 10
3.0
 20
-28.5
 30
0.0
 11
3.2000000000000171
 21
-28.699999999999989
 31
0.0
  0
LINE
  5
336
100
AcDbEntity
  8
0
  6
DASHED
 62
               2
100
AcDbLine
 10
3.0
 20
-28.5
 30
0.0
 11
3.0
 21
-25.5
 31
0.0
  0
LINE
  5
337
100
AcDbEntity
  8
0
  6
DASHED
 62
               2
100
AcDbLine
 10
1.0
 20
-23.5
 30
0.0
 11
3.0
 21
-25.5
 31
0.0
  0
LINE
  5
338
100
AcDbEntity
  8
0
  6
DASHED
 62
               2
100
AcDbLine
 10
4.0
 20
62.500000000000007
 30
0.0
 11
35.0
 21
62.500000000000007
 31
0.0
  0
LINE
  5
339
100
AcDbEntity
  8
0
  6
DASHED
 62
               2
100
AcDbLine
 10
1.0
 20
-23.5
 30
0.0
 11
1.0
 21
-16.0
 31
0.0
  0
ENDBLK
  5
33A
100
AcDbEntity
  8
0
100
AcDbBlockEnd
  0
BLOCK
  5
33B
100
AcDbEntity
  8
0
100
AcDbBlockBegin
  2
F10MSJ-6
 70
               0
 10
0.0
 20
0.0
 30
0.0
  3
F10MSJ-6
  1

  0
LINE
  5
33C
100
AcDbEntity
  8
0
  6
CONTINUOUS
 62
             200
100
AcDbLine
 10
5.25
 20
59.600021362304688
 30
0.0
 11
5.25
 21
63.816497802734375
 31
0.0
  0
LINE
  5
33D
100
AcDbEntity
  8
0
  6
CONTINUOUS
 62
               7
100
AcDbLine
 10
0.0
 20
0.0
 30
0.0
 11
10.5
 21
0.0
 31
0.0
  0
LINE
  5
33E
100
AcDbEntity
  8
0
  6
CONTINUOUS
 62
               7
100
AcDbLine
 10
0.0
 20
7.6000213623046875
 30
0.0
 11
1.45001220703125
 21
7.6000213623046875
 31
0.0
  0
LINE
  5
33F
100
AcDbEntity
  8
0
  6
CONTINUOUS
 62
               7
100
AcDbLine
 10
2.850006103515625
 20
3.0000152587890625
 30
0.0
 11
2.850006103515625
 21
6.20001220703125
 31
0.0
  0
LINE
  5
340
100
AcDbEntity
  8
0
  6
CONTINUOUS
 62
               7
100
AcDbLine
 10
7.649993896484375
 20
31.800018310546875
 30
0.0
 11
7.649993896484375
 21
35.000015258789063
 31
0.0
  0
LINE
  5
341
100
AcDbEntity
  8
0
  6
CONTINUOUS
 62
               7
100
AcDbLine
 10
9.04998779296875
 20
30.4000244140625
 30
0.0
 11
10.5
 21
30.4000244140625
 31
0.0
  0
LINE
  5
342
100
AcDbEntity
  8
0
  6
CONTINUOUS
 62
               7
100
AcDbLine
 10
10.5
 20
35.000015258789063
 30
0.0
 11
10.5
 21
1.0000152587890625
 31
0.0
  0
LINE
  5
343
100
AcDbEntity
  8
0
  6
CONTINUOUS
 62
               2
100
AcDbLine
 10
5.25
 20
-0.8296051025390625
 30
0.0
 11
5.25
 21
59.600021362304688
 31
0.0
  0
ARC
  5
344
100
AcDbEntity
  8
0
  6
CONTINUOUS
 62
               7
100
AcDbCircle
 10
1.45001220703125
 20
6.20001220703125
 30
0.0
 40
1.3999996185302734
100
AcDbArc
 50
0.0
 51
89.999982013910653
  0
ARC
  5
345
100
AcDbEntity
  8
0
  6
CONTINUOUS
 62
               7
100
AcDbCircle
 10
9.04998779296875
 20
31.800018310546875
 30
0.0
 40
1.3999996185302734
100
AcDbArc
 50
179.99996402782131
 51
270.00000068324533
  0
LINE
  5
346
100
AcDbEntity
  8
0
  6
CONTINUOUS
 62
               7
100
AcDbLine
 10
10.5
 20
1.0000152587890625
 30
0.0
 11
0.0
 21
1.0000152587890625
 31
0.0
  0
LINE
  5
347
100
AcDbEntity
  8
0
  6
CONTINUOUS
 62
               7
100
AcDbLine
 10
0.0
 20
3.0000152587890625
 30
0.0
 11
10.5
 21
3.0000152587890625
 31
0.0
  0
LINE
  5
348
100
AcDbEntity
  8
0
  6
CONTINUOUS
 62
               7
100
AcDbLine
 10
0.0
 20
35.000015258789063
 30
0.0
 11
10.5
 21
35.000015258789063
 31
0.0
  0
LINE
  5
349
100
AcDbEntity
  8
0
  6
CONTINUOUS
 62
               4
100
AcDbLine
 10
10.25
 20
3.6000213623046875
 30
0.0
 11
10.25
 21
29.800016403198242
 31
0.0
  0
LINE
  5
34A
100
AcDbEntity
  8
0
  6
CONTINUOUS
 62
               4
100
AcDbLine
 10
3.4499969482421875
 20
3.2000274658203125
 30
0.0
 11
9.8499908447265625
 21
3.2000274658203125
 31
0.0
  0
LINE
  5
34B
100
AcDbEntity
  8
0
  6
CONTINUOUS
 62
               4
100
AcDbLine
 10
0.6499977111816406
 20
34.800018310546875
 30
0.0
 11
7.0499954223632812
 21
34.800018310546875
 31
0.0
  0
LINE
  5
34C
100
AcDbEntity
  8
0
  6
CONTINUOUS
 62
               4
100
AcDbLine
 10
7.4500007629394531
 20
31.800014495849609
 30
0.0
 11
7.4500007629394531
 21
34.400018692016602
 31
0.0
  0
LINE
  5
34D
100
AcDbEntity
  8
0
  6
CONTINUOUS
 62
               4
100
AcDbLine
 10
3.0500030517578125
 20
6.20001220703125
 30
0.0
 11
3.0500030517578125
 21
3.6000213623046875
 31
0.0
  0
LINE
  5
34E
100
AcDbEntity
  8
0
  6
CONTINUOUS
 62
               4
100
AcDbLine
 10
1.4499969482421875
 20
7.800018310546875
 30
0.0
 11
0.6499977111816406
 21
7.800018310546875
 31
0.0
  0
LINE
  5
34F
100
AcDbEntity
  8
0
  6
CONTINUOUS
 62
               4
100
AcDbLine
 10
9.0499916076660156
 20
30.200021743774414
 30
0.0
 11
9.8499946594238281
 21
30.200021743774414
 31
0.0
  0
LINE
  5
350
100
AcDbEntity
  8
0
  6
CONTINUOUS
 62
               4
100
AcDbLine
 10
7.6489498639510884
 20
5.3989760926575627
 30
0.0
 11
8.8510330918646787
 21
6.6010583072911686
 31
0.0
  0
LINE
  5
351
100
AcDbEntity
  8
0
  6
CONTINUOUS
 62
               4
100
AcDbLine
 10
7.6489542476600718
 20
6.6010681068710255
 30
0.0
 11
8.8510335971858467
 21
5.3989887573452506
 31
0.0
  0
LINE
  5
352
100
AcDbEntity
  8
0
  6
CONTINUOUS
 62
               4
100
AcDbLine
 10
0.25
 20
8.2000274658203125
 30
0.0
 11
0.25
 21
34.400018692016602
 31
0.0
  0
LINE
  5
353
100
AcDbEntity
  8
0
  6
CONTINUOUS
 62
               4
100
AcDbLine
 10
1.6489664231783081
 20
32.601063318783531
 30
0.0
 11
2.8510479634626336
 21
31.39898076521979
 31
0.0
  0
LINE
  5
354
100
AcDbEntity
  8
0
  6
CONTINUOUS
 62
               4
100
AcDbLine
 10
1.6489558012925727
 20
31.398975202717679
 30
0.0
 11
2.8510383548563141
 21
32.601056743002005
 31
0.0
  0
ARC
  5
355
100
AcDbEntity
  8
0
  6
CONTINUOUS
 62
               4
100
AcDbCircle
 10
0.6499977111816406
 20
8.2000274658203125
 30
0.0
 40
0.4000000357627869
100
AcDbArc
 50
179.99996402782131
 51
270.00000068324533
  0
ARC
  5
356
100
AcDbEntity
  8
0
  6
CONTINUOUS
 62
               4
100
AcDbCircle
 10
0.6499977111816406
 20
34.400018692016602
 30
0.0
 40
0.4000000357627869
100
AcDbArc
 50
89.999982013910653
 51
179.99996402782131
  0
ARC
  5
357
100
AcDbEntity
  8
0
  6
CONTINUOUS
 62
               4
100
AcDbCircle
 10
7.0499954223632812
 20
34.400018692016602
 30
0.0
 40
0.4000000357627869
100
AcDbArc
 50
0.0
 51
89.999982013910653
  0
ARC
  5
358
100
AcDbEntity
  8
0
  6
CONTINUOUS
 62
               4
100
AcDbCircle
 10
9.8499946594238281
 20
29.800016403198242
 30
0.0
 40
0.4000000357627869
100
AcDbArc
 50
0.0
 51
89.999982013910653
  0
ARC
  5
359
100
AcDbEntity
  8
0
  6
CONTINUOUS
 62
               4
100
AcDbCircle
 10
9.8499946594238281
 20
3.6000213623046875
 30
0.0
 40
0.4000000357627869
100
AcDbArc
 50
270.00001798608935
 51
0.0
  0
ARC
  5
35A
100
AcDbEntity
  8
0
  6
CONTINUOUS
 62
               4
100
AcDbCircle
 10
3.4499969482421875
 20
3.6000213623046875
 30
0.0
 40
0.4000000357627869
100
AcDbArc
 50
179.99996402782131
 51
270.00000068324533
  0
ARC
  5
35B
100
AcDbEntity
  8
0
  6
CONTINUOUS
 62
               4
100
AcDbCircle
 10
9.0499954223632812
 20
31.800014495849609
 30
0.0
 40
1.5999994277954102
100
AcDbArc
 50
179.99996402782131
 51
270.00000068324533
  0
ARC
  5
35C
100
AcDbEntity
  8
0
  6
CONTINUOUS
 62
               4
100
AcDbCircle
 10
1.4499969482421875
 20
6.2000274658203125
 30
0.0
 40
1.5999994277954102
100
AcDbArc
 50
0.0
 51
89.999982013910653
  0
CIRCLE
  5
35D
100
AcDbEntity
  8
0
  6
CONTINUOUS
 62
               4
100
AcDbCircle
 10
8.2499961853027344
 20
6.0000152587890625
 30
0.0
 40
1.3999996185302734
  0
CIRCLE
  5
35E
100
AcDbEntity
  8
0
  6
CONTINUOUS
 62
               4
100
AcDbCircle
 10
2.25
 20
32.000015258789063
 30
0.0
 40
1.3999996185302734
  0
CIRCLE
  5
35F
100
AcDbEntity
  8
0
  6
CONTINUOUS
 62
               4
100
AcDbCircle
 10
8.2499961853027344
 20
6.0000152587890625
 30
0.0
 40
1.25
  0
CIRCLE
  5
360
100
AcDbEntity
  8
0
  6
CONTINUOUS
 62
               4
100
AcDbCircle
 10
2.25
 20
32.000015258789063
 30
0.0
 40
1.25
  0
LINE
  5
361
100
AcDbEntity
  8
0
  6
CONTINUOUS
 62
             200
100
AcDbLine
 10
1.75
 20
13.100021362304688
 30
0.0
 11
8.75
 21
13.100021362304688
 31
0.0
  0
LINE
  5
362
100
AcDbEntity
  8
0
  6
CONTINUOUS
 62
             200
100
AcDbLine
 10
1.75
 20
24.900015830993652
 30
0.0
 11
8.75
 21
24.900015830993652
 31
0.0
  0
CIRCLE
  5
363
100
AcDbEntity
  8
0
  6
CONTINUOUS
 62
               4
100
AcDbCircle
 10
5.25
 20
13.100021362304688
 30
0.0
 40
2.0669994354248047
  0
CIRCLE
  5
364
100
AcDbEntity
  8
0
  6
CONTINUOUS
 62
               4
100
AcDbCircle
 10
5.25
 20
24.900015830993652
 30
0.0
 40
2.0669994354248047
  0
CIRCLE
  5
365
100
AcDbEntity
  8
0
  6
CONTINUOUS
 62
               4
100
AcDbCircle
 10
5.25
 20
13.100021362304688
 30
0.0
 40
2.5
  0
CIRCLE
  5
366
100
AcDbEntity
  8
0
  6
CONTINUOUS
 62
               4
100
AcDbCircle
 10
5.25
 20
24.900015830993652
 30
0.0
 40
2.5
  0
LINE
  5
367
100
AcDbEntity
  8
0
  6
CONTINUOUS
 62
               7
100
AcDbLine
 10
0.0
 20
35.000015258789063
 30
0.0
 11
0.0
 21
1.0000152587890625
 31
0.0
  0
ARC
  5
368
100
AcDbEntity
  8
0
  6
CONTINUOUS
 62
               4
100
AcDbCircle
 10
9.8499908447265625
 20
61.600021362304687
 30
0.0
 40
0.3999999761581421
100
AcDbArc
 50
0.0
 51
89.999982013910653
  0
ARC
  5
369
100
AcDbEntity
  8
0
  6
CONTINUOUS
 62
               4
100
AcDbCircle
 10
0.649993896484375
 20
61.600021362304687
 30
0.0
 40
0.3999999761581421
100
AcDbArc
 50
89.999982013910653
 51
179.99996402782131
  0
ARC
  5
36A
100
AcDbEntity
  8
0
  6
CONTINUOUS
 62
               7
100
AcDbCircle
 10
2.0500030517578125
 20
52.200027465820313
 30
0.0
 40
1.5999984741210938
100
AcDbArc
 50
270.00001798608935
 51
89.999982013910653
  0
ARC
  5
36B
100
AcDbEntity
  8
0
  6
CONTINUOUS
 62
               7
100
AcDbCircle
 10
8.4499969482421875
 20
36.800018310546875
 30
0.0
 40
1.5999994277954102
100
AcDbArc
 50
89.999982013910653
 51
179.99996402782131
  0
CIRCLE
  5
36C
100
AcDbEntity
  8
0
  6
CONTINUOUS
 62
               7
100
AcDbCircle
 10
2.0500030517578125
 20
52.200027465820313
 30
0.0
 40
1.25
  0
CIRCLE
  5
36D
100
AcDbEntity
  8
0
  6
CONTINUOUS
 62
               7
100
AcDbCircle
 10
8.4499969482421875
 20
36.800018310546875
 30
0.0
 40
1.25
  0
ARC
  5
36E
100
AcDbEntity
  8
0
  6
CONTINUOUS
 62
               7
100
AcDbCircle
 10
9.850006103515625
 20
35.4000244140625
 30
0.0
 40
0.3999999761581421
100
AcDbArc
 50
270.00001798608935
 51
0.0
  0
ARC
  5
36F
100
AcDbEntity
  8
0
  6
CONTINUOUS
 62
               7
100
AcDbCircle
 10
9.850006103515625
 20
58.600021362304688
 30
0.0
 40
0.3999999761581421
100
AcDbArc
 50
0.0
 51
89.999982013910653
  0
ARC
  5
370
100
AcDbEntity
  8
0
  6
CONTINUOUS
 62
               7
100
AcDbCircle
 10
0.649993896484375
 20
58.600021362304688
 30
0.0
 40
0.3999999761581421
100
AcDbArc
 50
89.999982013910653
 51
179.99996402782131
  0
ARC
  5
371
100
AcDbEntity
  8
0
  6
CONTINUOUS
 62
               7
100
AcDbCircle
 10
0.649993896484375
 20
35.4000244140625
 30
0.0
 40
0.3999999761581421
100
AcDbArc
 50
179.99998133066532
 51
270.00001798608935
  0
LINE
  5
372
100
AcDbEntity
  8
0
  6
CONTINUOUS
 62
               4
100
AcDbLine
 10
3.29998779296875
 20
63.000015258789062
 30
0.0
 11
3.29998779296875
 21
62.000015258789063
 31
0.0
  0
LINE
  5
373
100
AcDbEntity
  8
0
  6
CONTINUOUS
 62
               4
100
AcDbLine
 10
7.1999969482421875
 20
63.000015258789062
 30
0.0
 11
7.1999969482421875
 21
62.000015258789063
 31
0.0
  0
LINE
  5
374
100
AcDbEntity
  8
0
  6
CONTINUOUS
 62
               4
100
AcDbLine
 10
3.29998779296875
 20
63.000015258789062
 30
0.0
 11
7.1999969482421875
 21
63.000015258789062
 31
0.0
  0
LINE
  5
375
100
AcDbEntity
  8
0
  6
CONTINUOUS
 62
               4
100
AcDbLine
 10
0.649993896484375
 20
62.000015258789063
 30
0.0
 11
9.8499908447265625
 21
62.000015258789063
 31
0.0
  0
LINE
  5
376
100
AcDbEntity
  8
0
  6
CONTINUOUS
 62
               7
100
AcDbLine
 10
0.25
 20
35.000015258789063
 30
0.0
 11
0.25
 21
59.600033840953984
 31
0.0
  0
LINE
  5
377
100
AcDbEntity
  8
0
  6
CONTINUOUS
 62
               7
100
AcDbLine
 10
10.25
 20
35.000015258789063
 30
0.0
 11
10.25
 21
59.600021362304688
 31
0.0
  0
LINE
  5
378
100
AcDbEntity
  8
0
  6
CONTINUOUS
 62
               7
100
AcDbLine
 10
10.25
 20
59.600021362304688
 30
0.0
 11
0.25
 21
59.600021362304688
 31
0.0
  0
LINE
  5
379
100
AcDbEntity
  8
0
  6
CONTINUOUS
 62
               7
100
AcDbLine
 10
10.25
 20
59.000015258789063
 30
0.0
 11
0.25
 21
59.000015258789063
 31
0.0
  0
LINE
  5
37A
100
AcDbEntity
  8
0
  6
CONTINUOUS
 62
               7
100
AcDbLine
 10
0.6499924190229649
 20
60.000037131580029
 30
0.0
 11
0.2499905445401964
 21
59.600033840953984
 31
0.0
  0
LINE
  5
37B
100
AcDbEntity
  8
0
  6
CONTINUOUS
 62
               7
100
AcDbLine
 10
10.25000556046416
 20
59.600000376461139
 30
0.0
 11
9.850002505861994
 21
60.000002486967787
 31
0.0
  0
LINE
  5
37C
100
AcDbEntity
  8
0
  6
CONTINUOUS
 62
               7
100
AcDbLine
 10
0.649993896484375
 20
60.000015258789063
 30
0.0
 11
9.850006103515625
 21
60.000015258789063
 31
0.0
  0
LINE
  5
37D
100
AcDbEntity
  8
0
  6
CONTINUOUS
 62
               7
100
AcDbLine
 10
7.8489703219020157
 20
37.401067038600559
 30
0.0
 11
9.0510605623494484
 21
36.19897689948175
 31
0.0
  0
LINE
  5
37E
100
AcDbEntity
  8
0
  6
CONTINUOUS
 62
               7
100
AcDbLine
 10
1.4489712406029867
 20
52.801053555539511
 30
0.0
 11
2.6510506914564758
 21
51.598974206013736
 31
0.0
  0
LINE
  5
37F
100
AcDbEntity
  8
0
  6
CONTINUOUS
 62
               7
100
AcDbLine
 10
1.448988200493659
 20
51.598933677601963
 30
0.0
 11
2.6510784409410917
 21
52.801023816720772
 31
0.0
  0
LINE
  5
380
100
AcDbEntity
  8
0
  6
CONTINUOUS
 62
               7
100
AcDbLine
 10
7.8489859836699907
 20
36.198925041996517
 30
0.0
 11
9.0510654345234798
 21
37.401004391522292
 31
0.0
  0
LINE
  5
381
100
AcDbEntity
  8
0
  6
CONTINUOUS
 62
               7
100
AcDbLine
 10
8.4499969482421875
 20
38.4000244140625
 30
0.0
 11
10.25
 21
38.4000244140625
 31
0.0
  0
LINE
  5
382
100
AcDbEntity
  8
0
  6
CONTINUOUS
 62
               7
100
AcDbLine
 10
6.850006103515625
 20
36.800018310546875
 30
0.0
 11
6.850006103515625
 21
35.000015258789063
 31
0.0
  0
LINE
  5
383
100
AcDbEntity
  8
0
  6
CONTINUOUS
 62
               7
100
AcDbLine
 10
0.25
 20
50.600021362304688
 30
0.0
 11
2.0500030517578125
 21
50.600021362304688
 31
0.0
  0
LINE
  5
384
100
AcDbEntity
  8
0
  6
CONTINUOUS
 62
               7
100
AcDbLine
 10
0.25
 20
53.800018310546875
 30
0.0
 11
2.0500030517578125
 21
53.800018310546875
 31
0.0
  0
LINE
  5
385
100
AcDbEntity
  8
0
  6
CONTINUOUS
 62
               4
100
AcDbLine
 10
0.25
 20
59.600033840953984
 30
0.0
 11
0.25
 21
61.600021362304687
 31
0.0
  0
LINE
  5
386
100
AcDbEntity
  8
0
  6
CONTINUOUS
 62
               4
100
AcDbLine
 10
10.25
 20
59.600021362304688
 30
0.0
 11
10.25
 21
61.600021362304687
 31
0.0
  0
ENDBLK
  5
387
100
AcDbEntity
  8
0
100
AcDbBlockEnd
  0
BLOCK
  5
388
100
AcDbEntity
  8
0
100
AcDbBlockBegin
  2
F10MSJ-7
 70
               0
 10
0.0
 20
0.0
 30
0.0
  3
F10MSJ-7
  1

  0
LINE
  5
389
100
AcDbEntity
  8
0
  6
CONTINUOUS
 62
               7
100
AcDbLine
 10
0.0
 20
-25.379658970579555
 30
0.0
 11
0.0
 21
62.5
 31
0.0
  0
LINE
  5
38A
100
AcDbEntity
  8
0
  6
CONTINUOUS
 62
               7
100
AcDbLine
 10
0.0
 20
61.0
 30
0.0
 11
19.0
 21
61.0
 31
0.0
  0
LINE
  5
38B
100
AcDbEntity
  8
0
  6
CONTINUOUS
 62
               7
100
AcDbLine
 10
0.0
 20
-17.5
 30
0.0
 11
19.0
 21
-17.5
 31
0.0
  0
LINE
  5
38C
100
AcDbEntity
  8
0
  6
CONTINUOUS
 62
               7
100
AcDbLine
 10
0.0
 20
62.5
 30
0.0
 11
19.0
 21
62.5
 31
0.0
  0
LINE
  5
38D
100
AcDbEntity
  8
0
  6
CONTINUOUS
 62
               7
100
AcDbLine
 10
0.0
 20
61.5
 30
0.0
 11
19.0
 21
61.5
 31
0.0
  0
LINE
  5
38E
100
AcDbEntity
  8
0
  6
CONTINUOUS
 62
               7
100
AcDbLine
 10
0.0
 20
35.5
 30
0.0
 11
19.0
 21
35.5
 31
0.0
  0
LINE
  5
38F
100
AcDbEntity
  8
0
  6
CONTINUOUS
 62
               4
100
AcDbLine
 10
0.5
 20
35.299972534179687
 30
0.0
 11
18.5
 21
35.299972534179687
 31
0.0
  0
LINE
  5
390
100
AcDbEntity
  8
0
  6
CONTINUOUS
 62
               4
100
AcDbLine
 10
0.5
 20
-17.300018310546875
 30
0.0
 11
18.5
 21
-17.300018310546875
 31
0.0
  0
LINE
  5
391
100
AcDbEntity
  8
0
  6
CONTINUOUS
 62
               4
100
AcDbLine
 10
16.0
 20
31.999984741210937
 30
0.0
 11
18.5
 21
31.999984741210937
 31
0.0
  0
LINE
  5
392
100
AcDbEntity
  8
0
  6
CONTINUOUS
 62
               4
100
AcDbLine
 10
16.0
 20
25.999984741210937
 30
0.0
 11
18.5
 21
25.999984741210937
 31
0.0
  0
LINE
  5
393
100
AcDbEntity
  8
0
  6
CONTINUOUS
 62
               4
100
AcDbLine
 10
0.5
 20
-14.000015258789063
 30
0.0
 11
3.0
 21
-14.000015258789063
 31
0.0
  0
LINE
  5
394
100
AcDbEntity
  8
0
  6
CONTINUOUS
 62
               4
100
AcDbLine
 10
0.5
 20
-8.0000152587890625
 30
0.0
 11
3.0
 21
-8.0000152587890625
 31
0.0
  0
LINE
  5
395
100
AcDbEntity
  8
0
  6
CONTINUOUS
 62
               4
100
AcDbLine
 10
6.0
 20
31.0
 30
0.0
 11
6.0
 21
35.29998779296875
 31
0.0
  0
LINE
  5
396
100
AcDbEntity
  8
0
  6
CONTINUOUS
 62
               4
100
AcDbLine
 10
3.0
 20
27.999984741210937
 30
0.0
 11
0.5
 21
27.999984741210937
 31
0.0
  0
LINE
  5
397
100
AcDbEntity
  8
0
  6
CONTINUOUS
 62
               4
100
AcDbLine
 10
0.5
 20
-15.300018310546875
 30
0.0
 11
13.0
 21
-15.300018310546875
 31
0.0
  0
LINE
  5
398
100
AcDbEntity
  8
0
  6
CONTINUOUS
 62
               4
100
AcDbLine
 10
6.0
 20
33.299972534179687
 30
0.0
 11
18.5
 21
33.299972534179687
 31
0.0
  0
LINE
  5
399
100
AcDbEntity
  8
0
  6
CONTINUOUS
 62
               4
100
AcDbLine
 10
18.5
 20
-17.300018310546875
 30
0.0
 11
18.5
 21
-14.260955810546875
 31
0.0
  0
LINE
  5
39A
100
AcDbEntity
  8
0
  6
CONTINUOUS
 62
               4
100
AcDbLine
 10
0.5
 20
-17.300018310546875
 30
0.0
 11
0.5
 21
-14.000015258789063
 31
0.0
  0
LINE
  5
39B
100
AcDbEntity
  8
0
  6
CONTINUOUS
 62
               4
100
AcDbLine
 10
16.0
 20
-10.000015258789062
 30
0.0
 11
18.5
 21
-10.000015258789062
 31
0.0
  0
LINE
  5
39C
100
AcDbEntity
  8
0
  6
CONTINUOUS
 62
               4
100
AcDbLine
 10
13.0
 20
-13.0
 30
0.0
 11
13.0
 21
-17.300018310546875
 31
0.0
  0
LINE
  5
39D
100
AcDbEntity
  8
0
  6
CONTINUOUS
 62
               4
100
AcDbLine
 10
0.5
 20
-8.0000152587890625
 30
0.0
 11
0.5
 21
29.739044189453125
 31
0.0
  0
LINE
  5
39E
100
AcDbEntity
  8
0
  6
CONTINUOUS
 62
               4
100
AcDbLine
 10
18.5
 20
31.999984741210937
 30
0.0
 11
18.5
 21
35.299972534179687
 31
0.0
  0
LINE
  5
39F
100
AcDbEntity
  8
0
  6
CONTINUOUS
 62
               4
100
AcDbLine
 10
0.5
 20
32.260955810546875
 30
0.0
 11
0.5
 21
35.299972534179687
 31
0.0
  0
LINE
  5
3A0
100
AcDbEntity
  8
0
  6
CONTINUOUS
 62
               4
100
AcDbLine
 10
18.5
 20
-11.739044189453125
 30
0.0
 11
18.5
 21
25.999984741210937
 31
0.0
  0
LINE
  5
3A1
100
AcDbEntity
  8
0
  6
CONTINUOUS
 62
               4
100
AcDbLine
 10
14.939383665093374
 20
-14.060685042053592
 30
0.0
 11
17.060704151162099
 21
-11.939364734798801
 31
0.0
  0
LINE
  5
3A2
100
AcDbEntity
  8
0
  6
CONTINUOUS
 62
               4
100
AcDbLine
 10
14.939399938894439
 20
-11.93927293384786
 30
0.0
 11
17.060714851352714
 21
-14.060588025119614
 31
0.0
  0
LINE
  5
3A3
100
AcDbEntity
  8
0
  6
CONTINUOUS
 62
               4
100
AcDbLine
 10
0.199999988079071
 20
-29.0
 30
0.0
 11
0.199999988079071
 21
-28.5
 31
0.0
  0
LINE
  5
3A4
100
AcDbEntity
  8
0
  6
CONTINUOUS
 62
               4
100
AcDbLine
 10
1.9394144187672282
 20
32.06074920447827
 30
0.0
 11
4.0607347260220195
 21
29.939428718409545
 31
0.0
  0
LINE
  5
3A5
100
AcDbEntity
  8
0
  6
CONTINUOUS
 62
               4
100
AcDbLine
 10
1.9393064334190058
 20
29.939277753512215
 30
0.0
 11
4.0606269194877314
 21
32.060598060767006
 31
0.0
  0
LINE
  5
3A6
100
AcDbEntity
  8
0
  6
CONTINUOUS
 62
               7
100
AcDbLine
 10
0.0
 20
-25.5
 30
0.0
 11
11.029720407829757
 21
-25.5
 31
0.0
  0
LINE
  5
3A7
100
AcDbEntity
  8
0
  6
CONTINUOUS
 62
             200
100
AcDbLine
 10
9.5
 20
-58.84859561920166
 30
0.0
 11
9.5
 21
-24.084901816352158
 31
0.0
  0
ARC
  5
3A8
100
AcDbEntity
  8
0
  6
CONTINUOUS
 62
               4
100
AcDbCircle
 10
16.0
 20
29.0
 30
0.0
 40
3.0
100
AcDbArc
 50
89.999982013910653
 51
269.99994604173196
  0
ARC
  5
3A9
100
AcDbEntity
  8
0
  6
CONTINUOUS
 62
               4
100
AcDbCircle
 10
3.0
 20
-11.0
 30
0.0
 40
3.0
100
AcDbArc
 50
269.99996334457597
 51
89.999982013910653
  0
ARC
  5
3AA
100
AcDbEntity
  8
0
  6
CONTINUOUS
 62
               4
100
AcDbCircle
 10
3.0
 20
31.0
 30
0.0
 40
3.0
100
AcDbArc
 50
270.00001798608935
 51
0.00001366037834
  0
ARC
  5
3AB
100
AcDbEntity
  8
0
  6
CONTINUOUS
 62
               4
100
AcDbCircle
 10
16.0
 20
-13.0
 30
0.0
 40
3.0
100
AcDbArc
 50
89.999982013910653
 51
179.99996402782131
  0
CIRCLE
  5
3AC
100
AcDbEntity
  8
0
  6
CONTINUOUS
 62
               4
100
AcDbCircle
 10
16.0
 20
-13.0
 30
0.0
 40
2.7999992370605469
  0
CIRCLE
  5
3AD
100
AcDbEntity
  8
0
  6
CONTINUOUS
 62
               4
100
AcDbCircle
 10
3.0
 20
31.0
 30
0.0
 40
2.7999992370605469
  0
LINE
  5
3AE
100
AcDbEntity
  8
0
  6
CONTINUOUS
 62
               7
100
AcDbLine
 10
19.0
 20
-25.5
 30
0.0
 11
19.0
 21
62.5
 31
0.0
  0
LINE
  5
3AF
100
AcDbEntity
  8
0
  6
CONTINUOUS
 62
               4
100
AcDbLine
 10
18.5
 20
-44.199999800000001
 30
0.0
 11
18.5
 21
-25.5
 31
0.0
  0
LINE
  5
3B0
100
AcDbEntity
  8
0
  6
CONTINUOUS
 62
               4
100
AcDbLine
 10
0.5
 20
-28.5
 30
0.0
 11
0.5
 21
-25.5
 31
0.0
  0
ARC
  5
3B1
100
AcDbEntity
  8
0
  6
CONTINUOUS
 62
               4
100
AcDbCircle
 10
1.699999988079071
 20
-28.999992370605469
 30
0.0
 40
1.5
100
AcDbArc
 50
180.00001798608935
 51
269.99998633962167
  0
LINE
  5
3B2
100
AcDbEntity
  8
0
  6
CONTINUOUS
 62
               4
100
AcDbLine
 10
5.6999992728233337
 20
-28.999992370605469
 30
0.0
 11
5.6999992728233337
 21
-28.499992370605469
 31
0.0
  0
LINE
  5
3B3
100
AcDbEntity
  8
0
  6
CONTINUOUS
 62
               4
100
AcDbLine
 10
18.5
 20
-30.405259999999998
 30
0.0
 11
16.0
 21
-30.405259999999998
 31
0.0
  0
LINE
  5
3B4
100
AcDbEntity
  8
0
  6
CONTINUOUS
 62
               4
100
AcDbLine
 10
0.5
 20
-44.199999800000001
 30
0.0
 11
18.5
 21
-44.199999800000001
 31
0.0
  0
LINE
  5
3B5
100
AcDbEntity
  8
0
  6
CONTINUOUS
 62
               4
100
AcDbLine
 10
0.5
 20
-44.199999999999989
 30
0.0
 11
0.5
 21
-33.003294400000016
 31
0.0
  0
LINE
  5
3B6
100
AcDbEntity
  8
0
  6
CONTINUOUS
 62
               4
100
AcDbLine
 10
18.5
 20
-49.300000000000011
 30
0.0
 11
0.5
 21
-49.300000000000011
 31
0.0
  0
LINE
  5
3B7
100
AcDbEntity
  8
0
  6
CONTINUOUS
 62
               4
100
AcDbLine
 10
18.5
 20
-50.5
 30
0.0
 11
0.5
 21
-50.5
 31
0.0
  0
LINE
  5
3B8
100
AcDbEntity
  8
0
  6
CONTINUOUS
 62
               4
100
AcDbLine
 10
18.5
 20
-52.864913000000001
 30
0.0
 11
0.5
 21
-52.864913000000001
 31
0.0
  0
LINE
  5
3B9
100
AcDbEntity
  8
0
  6
CONTINUOUS
 62
               4
100
AcDbLine
 10
17.746409599999993
 20
-53.299999000000014
 30
0.0
 11
1.2535904000000073
 21
-53.299999000000014
 31
0.0
  0
LINE
  5
3BA
100
AcDbEntity
  8
0
  6
CONTINUOUS
 62
               4
100
AcDbLine
 10
16.600000000000023
 20
-54.900000000000034
 30
0.0
 11
2.3999999999999773
 21
-54.900000000000034
 31
0.0
  0
LINE
  5
3BB
100
AcDbEntity
  8
0
  6
CONTINUOUS
 62
               4
100
AcDbLine
 10
3.5
 20
-55.400000000000034
 30
0.0
 11
3.5
 21
-55.0
 31
0.0
  0
LINE
  5
3BC
100
AcDbEntity
  8
0
  6
CONTINUOUS
 62
               4
100
AcDbLine
 10
18.5
 20
-44.59999959999999
 30
0.0
 11
0.5
 21
-44.59999959999999
 31
0.0
  0
LINE
  5
3BD
100
AcDbEntity
  8
0
  6
CONTINUOUS
 62
               4
100
AcDbLine
 10
0.6999999999999318
 20
-44.400000000000034
 30
0.0
 11
0.5
 21
-44.199999800000001
 31
0.0
  0
LINE
  5
3BE
100
AcDbEntity
  8
0
  6
CONTINUOUS
 62
               4
100
AcDbLine
 10
17.800000000000068
 20
-50.300000000000011
 30
0.0
 11
17.800000000000068
 21
-49.400000000000034
 31
0.0
  0
LINE
  5
3BF
100
AcDbEntity
  8
0
  6
CONTINUOUS
 62
               4
100
AcDbLine
 10
1.1999999999999318
 20
-50.300000000000011
 30
0.0
 11
1.1999999999999318
 21
-49.400000000000034
 31
0.0
  0
LINE
  5
3C0
100
AcDbEntity
  8
0
  6
CONTINUOUS
 62
               4
100
AcDbLine
 10
18.300000000000068
 20
-44.400000000000034
 30
0.0
 11
18.5
 21
-44.199999800000001
 31
0.0
  0
LINE
  5
3C1
100
AcDbEntity
  8
0
  6
CONTINUOUS
 62
               4
100
AcDbLine
 10
18.5
 20
-49.300000000000011
 30
0.0
 11
18.399999999999977
 21
-49.400000000000034
 31
0.0
  0
LINE
  5
3C2
100
AcDbEntity
  8
0
  6
CONTINUOUS
 62
               4
100
AcDbLine
 10
0.5
 20
-49.300000000000011
 30
0.0
 11
0.6000000000000227
 21
-49.400000000000034
 31
0.0
  0
LINE
  5
3C3
100
AcDbEntity
  8
0
  6
CONTINUOUS
 62
               4
100
AcDbLine
 10
18.300000000000068
 20
-44.399999400000013
 30
0.0
 11
18.5
 21
-44.59999959999999
 31
0.0
  0
LINE
  5
3C4
100
AcDbEntity
  8
0
  6
CONTINUOUS
 62
               4
100
AcDbLine
 10
18.5
 20
-49.300000000000011
 30
0.0
 11
18.5
 21
-44.59999959999999
 31
0.0
  0
LINE
  5
3C5
100
AcDbEntity
  8
0
  6
CONTINUOUS
 62
               4
100
AcDbLine
 10
0.5
 20
-49.300000000000011
 30
0.0
 11
0.5
 21
-44.59999959999999
 31
0.0
  0
LINE
  5
3C6
100
AcDbEntity
  8
0
  6
CONTINUOUS
 62
               4
100
AcDbLine
 10
18.300000000000068
 20
-44.399999600000001
 30
0.0
 11
0.6999999999999318
 21
-44.399999600000001
 31
0.0
  0
LINE
  5
3C7
100
AcDbEntity
  8
0
  6
CONTINUOUS
 62
               4
100
AcDbLine
 10
0.6999999999999318
 20
-44.399999400000013
 30
0.0
 11
0.5
 21
-44.59999959999999
 31
0.0
  0
LINE
  5
3C8
100
AcDbEntity
  8
0
  6
CONTINUOUS
 62
               4
100
AcDbLine
 10
18.5
 20
-52.864913999999999
 30
0.0
 11
18.5
 21
-50.5
 31
0.0
  0
LINE
  5
3C9
100
AcDbEntity
  8
0
  6
CONTINUOUS
 62
               4
100
AcDbLine
 10
0.6999999999999318
 20
-50.300000000000011
 30
0.0
 11
0.5
 21
-50.5
 31
0.0
  0
LINE
  5
3CA
100
AcDbEntity
  8
0
  6
CONTINUOUS
 62
               4
100
AcDbLine
 10
0.5
 20
-52.864913999999999
 30
0.0
 11
0.5
 21
-50.5
 31
0.0
  0
LINE
  5
3CB
100
AcDbEntity
  8
0
  6
CONTINUOUS
 62
               4
100
AcDbLine
 10
0.6999999999999318
 20
-50.300000000000011
 30
0.0
 11
18.300000000000068
 21
-50.300000000000011
 31
0.0
  0
LINE
  5
3CC
100
AcDbEntity
  8
0
  6
CONTINUOUS
 62
               4
100
AcDbLine
 10
17.746409599999993
 20
-53.299999000000014
 30
0.0
 11
17.399999200000025
 21
-53.899999000000037
 31
0.0
  0
LINE
  5
3CD
100
AcDbEntity
  8
0
  6
CONTINUOUS
 62
               4
100
AcDbLine
 10
1.2535904000000073
 20
-53.299999000000014
 30
0.0
 11
1.6000007999999752
 21
-53.899999000000037
 31
0.0
  0
LINE
  5
3CE
100
AcDbEntity
  8
0
  6
CONTINUOUS
 62
               4
100
AcDbLine
 10
0.5
 20
-52.864913000000001
 30
0.0
 11
1.2535904000000073
 21
-53.299999000000014
 31
0.0
  0
LINE
  5
3CF
100
AcDbEntity
  8
0
  6
CONTINUOUS
 62
               4
100
AcDbLine
 10
18.5
 20
-52.864913000000001
 30
0.0
 11
17.746409599999993
 21
-53.299999000000014
 31
0.0
  0
LINE
  5
3D0
100
AcDbEntity
  8
0
  6
CONTINUOUS
 62
               4
100
AcDbLine
 10
18.300000000000068
 20
-50.300000000000011
 30
0.0
 11
18.5
 21
-50.5
 31
0.0
  0
LINE
  5
3D1
100
AcDbEntity
  8
0
  6
CONTINUOUS
 62
               4
100
AcDbLine
 10
17.399999999999977
 20
-53.899999000000037
 30
0.0
 11
1.6000007999999752
 21
-53.899999000000037
 31
0.0
  0
LINE
  5
3D2
100
AcDbEntity
  8
0
  6
CONTINUOUS
 62
               4
100
AcDbLine
 10
0.6000000000000227
 20
-49.400000000000034
 30
0.0
 11
18.399999999999977
 21
-49.400000000000034
 31
0.0
  0
LINE
  5
3D3
100
AcDbEntity
  8
0
  6
CONTINUOUS
 62
               4
100
AcDbLine
 10
16.600000000000023
 20
-54.900000000000034
 30
0.0
 11
16.600000000000023
 21
-53.899999000000037
 31
0.0
  0
LINE
  5
3D4
100
AcDbEntity
  8
0
  6
CONTINUOUS
 62
               4
100
AcDbLine
 10
16.5
 20
-55.0
 30
0.0
 11
2.5
 21
-55.0
 31
0.0
  0
LINE
  5
3D5
100
AcDbEntity
  8
0
  6
CONTINUOUS
 62
               4
100
AcDbLine
 10
16.5
 20
-55.0
 30
0.0
 11
16.600000000000023
 21
-54.900000000000034
 31
0.0
  0
LINE
  5
3D6
100
AcDbEntity
  8
0
  6
CONTINUOUS
 62
               4
100
AcDbLine
 10
2.5
 20
-55.0
 30
0.0
 11
2.3999999999999773
 21
-54.900000000000034
 31
0.0
  0
LINE
  5
3D7
100
AcDbEntity
  8
0
  6
CONTINUOUS
 62
               4
100
AcDbLine
 10
2.3999999999999773
 20
-54.900000000000034
 30
0.0
 11
2.3999999999999773
 21
-53.899999000000037
 31
0.0
  0
LINE
  5
3D8
100
AcDbEntity
  8
0
  6
CONTINUOUS
 62
               4
100
AcDbLine
 10
15.5
 20
-55.400000000000034
 30
0.0
 11
15.5
 21
-55.0
 31
0.0
  0
LINE
  5
3D9
100
AcDbEntity
  8
0
  6
CONTINUOUS
 62
               4
100
AcDbLine
 10
17.899999999999977
 20
-56.800680999999997
 30
0.0
 11
17.899999999999977
 21
-55.900000000000034
 31
0.0
  0
LINE
  5
3DA
100
AcDbEntity
  8
0
  6
CONTINUOUS
 62
               4
100
AcDbLine
 10
1.1000000000000227
 20
-55.900000000000034
 30
0.0
 11
17.899999999999977
 21
-55.900000000000034
 31
0.0
  0
LINE
  5
3DB
100
AcDbEntity
  8
0
  6
CONTINUOUS
 62
               4
100
AcDbLine
 10
17.600000000000023
 20
-57.099999999999966
 30
0.0
 11
1.3999999999999773
 21
-57.099999999999966
 31
0.0
  0
LINE
  5
3DC
100
AcDbEntity
  8
0
  6
CONTINUOUS
 62
               4
100
AcDbLine
 10
1.1000000000000227
 20
-56.800680999999997
 30
0.0
 11
1.1000000000000227
 21
-55.900000000000034
 31
0.0
  0
ARC
  5
3DD
100
AcDbEntity
  8
0
  6
CONTINUOUS
 62
               4
100
AcDbCircle
 10
3.0
 20
-55.400000000000034
 30
0.0
 40
0.5
100
AcDbArc
 50
270.0
 51
0.0000000000002036
  0
ARC
  5
3DE
100
AcDbEntity
  8
0
  6
CONTINUOUS
 62
               4
100
AcDbCircle
 10
17.600000000000023
 20
-56.800000000000011
 30
0.0
 40
0.3
100
AcDbArc
 50
270.0
 51
0.0000000000002036
  0
ARC
  5
3DF
100
AcDbEntity
  8
0
  6
CONTINUOUS
 62
               4
100
AcDbCircle
 10
16.0
 20
-55.400000000000034
 30
0.0
 40
0.5
100
AcDbArc
 50
180.0000000000006
 51
270.0000000000008
  0
ARC
  5
3E0
100
AcDbEntity
  8
0
  6
CONTINUOUS
 62
               4
100
AcDbCircle
 10
1.3999999999999773
 20
-56.800000000000011
 30
0.0
 40
0.3
100
AcDbArc
 50
180.0000000000006
 51
270.0000000000008
  0
LINE
  5
3E1
100
AcDbEntity
  8
0
  6
CONTINUOUS
 62
               4
100
AcDbLine
 10
0.5
 20
-33.5
 30
0.0
 11
5.7788395000000037
 21
-33.5
 31
0.0
  0
ARC
  5
3E2
100
AcDbEntity
  8
0
  6
CONTINUOUS
 62
               4
100
AcDbCircle
 10
9.5
 20
-47.190523132503984
 30
0.0
 40
14.187228732503996
100
AcDbArc
 50
74.794046190114372
 51
105.20595380988573
  0
LINE
  5
3E3
100
AcDbEntity
  8
0
  6
CONTINUOUS
 62
               4
100
AcDbLine
 10
13.221160499999996
 20
-33.5
 30
0.0
 11
18.5
 21
-33.5
 31
0.0
  0
LINE
  5
3E4
100
AcDbEntity
  8
0
  6
CONTINUOUS
 62
               4
100
AcDbLine
 10
4.1999996304512024
 20
-30.499992370605412
 30
0.0
 11
1.6999996304512024
 21
-30.499992370605412
 31
0.0
  0
LINE
  5
3E5
100
AcDbEntity
  8
0
  6
CONTINUOUS
 62
               4
100
AcDbLine
 10
0.5
 20
-32.714619000000027
 30
0.0
 11
3.0
 21
-32.714619000000027
 31
0.0
  0
SPLINE
  5
3E6
100
AcDbEntity
  8
0
  6
CONTINUOUS
 62
               4
100
AcDbSpline
210
0.0
220
0.0
230
1.0
 70
               0
 71
               3
 72
               0
 73
               0
 74
              37
 44
0.000001
 12
0.9881349170157096
 22
0.1535883647102109
 32
0.0
 13
0.2801395722747448
 23
0.9599592804102282
 33
0.0
 11
3.0
 21
-32.714619000000027
 31
0.0
 11
3.1302398577344119
 21
-32.692751586939401
 31
0.0
 11
3.2599173558237493
 21
-32.667718873458874
 31
0.0
 11
3.3889651660224938
 21
-32.63952158910498
 31
0.0
 11
3.5172778052325384
 21
-32.608166030370796
 31
0.0
 11
3.6139410460203534
 21
-32.582315062510176
 31
0.0
 11
3.7101068666709196
 21
-32.554674645789959
 31
0.0
 11
3.8057432960188544
 21
-32.525268176043774
 31
0.0
 11
3.9008272593215452
 21
-32.494117293121292
 31
0.0
 11
4.0180533636654427
 21
-32.453036979776776
 31
0.0
 11
4.1342978208930488
 21
-32.409253059125476
 31
0.0
 11
4.2494734348505698
 21
-32.362714174877944
 31
0.0
 11
4.3634765014079449
 21
-32.313375455399637
 31
0.0
 11
4.462624520774809
 21
-32.267656189143537
 31
0.0
 11
4.560695606328208
 21
-32.219671576845336
 31
0.0
 11
4.6575823093016124
 21
-32.169362112203615
 31
0.0
 11
4.7531888443261323
 21
-32.116662429365363
 31
0.0
 11
4.8319687747774793
 21
-32.070774034302261
 31
0.0
 11
4.9096945716192062
 21
-32.023124141633417
 31
0.0
 11
4.9862842214293588
 21
-31.973657623471674
 31
0.0
 11
5.0616404188675688
 21
-31.922329805906713
 31
0.0
 11
5.1408962491644727
 21
-31.865212032178452
 31
0.0
 11
5.2184621357829242
 21
-31.805819050378464
 31
0.0
 11
5.2941619477743052
 21
-31.744074200232738
 31
0.0
 11
5.3678155252729312
 21
-31.679904037124516
 31
0.0
 11
5.43344578320733
 21
-31.618823217651236
 31
0.0
 11
5.4970267144213807
 21
-31.555613217438875
 31
0.0
 11
5.5583954500864001
 21
-31.490241016167321
 31
0.0
 11
5.6173679769605087
 21
-31.422697800405444
 31
0.0
 11
5.672861489249895
 21
-31.354094007937032
 31
0.0
 11
5.7255506941689198
 21
-31.283314708637455
 31
0.0
 11
5.7751192398465374
 21
-31.210310704287039
 31
0.0
 11
5.8212262817083911
 21
-31.135074842327299
 31
0.0
 11
5.8754520535667476
 21
-31.034228771677206
 31
0.0
 11
5.9233058967023595
 21
-30.930172979099414
 31
0.0
 11
5.9648055892750369
 21
-30.823494228557013
 31
0.0
 11
6.0
 21
-30.714619000000027
 31
0.0
  0
SPLINE
  5
3E7
100
AcDbEntity
  8
0
  6
CONTINUOUS
 62
               4
100
AcDbSpline
210
0.0
220
0.0
230
1.0
 70
               0
 71
               3
 72
               0
 73
               0
 74
              41
 44
0.000001
 12
-0.9936236052884185
 22
-0.1127480865187748
 32
0.0
 13
0.7599872673059157
 23
-0.6499379612954506
 33
0.0
 11
16.0
 21
-30.405259999999998
 31
0.0
 11
15.81640499118264
 21
-30.428115638214511
 31
0.0
 11
15.633331319357541
 21
-30.454887788310128
 31
0.0
 11
15.450808936674271
 21
-30.48547173510455
 31
0.0
 11
15.268943176445305
 21
-30.519750906513366
 31
0.0
 11
15.05933737594134
 21
-30.56399135212618
 31
0.0
 11
14.850893121055897
 21
-30.613411459068978
 31
0.0
 11
14.643840508943942
 21
-30.668380349308208
 31
0.0
 11
14.438441986908629
 21
-30.729250661799654
 31
0.0
 11
14.26469404999804
 21
-30.786240077632247
 31
0.0
 11
14.092821473806435
 21
-30.848630907258013
 31
0.0
 11
13.923328250321184
 21
-30.917251023262807
 31
0.0
 11
13.756820751981422
 21
-30.992856464834915
 31
0.0
 11
13.61534147612093
 21
-31.06493912962793
 31
0.0
 11
13.477979920824547
 21
-31.14457671243726
 31
0.0
 11
13.346029145592624
 21
-31.233517206565132
 31
0.0
 11
13.221659739295546
 21
-31.332700983361235
 31
0.0
 11
13.153125707611714
 21
-31.396275476593637
 31
0.0
 11
13.089453927867822
 21
-31.464729307816238
 31
0.0
 11
13.032863048854281
 21
-31.5381684201203
 31
0.0
 11
12.985002130548423
 21
-31.617439092808866
 31
0.0
 11
12.950082170544103
 21
-31.696205670373821
 31
0.0
 11
12.924484319855331
 21
-31.778569215423762
 31
0.0
 11
12.907801686703801
 21
-31.863664161466271
 31
0.0
 11
12.899999999999977
 21
-31.949999999999989
 31
0.0
 11
12.904367017208338
 21
-32.081499565114562
 31
0.0
 11
12.926084964073349
 21
-32.211459636108337
 31
0.0
 11
12.962795291958052
 21
-32.338578348905216
 31
0.0
 11
13.011996617826185
 21
-32.461369983469979
 31
0.0
 11
13.069847186614844
 21
-32.576379857278049
 31
0.0
 11
13.136346474074863
 21
-32.686592681645998
 31
0.0
 11
13.210313537613368
 21
-32.79145004557212
 31
0.0
 11
13.29096870466276
 21
-32.891261395972151
 31
0.0
 11
13.375474390135802
 21
-32.984130085802349
 31
0.0
 11
13.464709561685762
 21
-33.072465567961707
 31
0.0
 11
13.55801601257282
 21
-33.156614798409187
 31
0.0
 11
13.654673841562726
 21
-33.236868925146325
 31
0.0
 11
13.738732522077914
 21
-33.302446336339607
 31
0.0
 11
13.823515774004935
 21
-33.367117072800021
 31
0.0
 11
13.907682980906928
 21
-33.43242551626367
 31
0.0
 11
13.990000000000009
 21
-33.5
 31
0.0
  0
LINE
  5
3E8
100
AcDbEntity
  8
0
  6
CONTINUOUS
 62
               4
100
AcDbLine
 10
6.0
 20
-30.714619000000027
 30
0.0
 11
6.0
 21
-28.5
 31
0.0
  0
ARC
  5
3E9
100
AcDbEntity
  8
0
  6
CONTINUOUS
 62
               4
100
AcDbCircle
 10
4.199999988079071
 20
-28.999992370605469
 30
0.0
 40
1.5
100
AcDbArc
 50
269.99998633962167
 51
0.0
  0
LINE
  5
3EA
100
AcDbEntity
  8
0
  6
CONTINUOUS
 62
               4
100
AcDbLine
 10
0.5
 20
-33.003294400000016
 30
0.0
 11
0.5
 21
-29.89999238650006
 31
0.0
  0
ARC
  5
3EB
100
AcDbEntity
  8
0
  6
CONTINUOUS
 62
               7
100
AcDbCircle
 10
16.0
 20
29.0
 30
0.0
 40
2.7999992370605469
100
AcDbArc
 50
89.999982013910653
 51
270.00000068324533
  0
LINE
  5
3EC
100
AcDbEntity
  8
0
  6
CONTINUOUS
 62
               7
100
AcDbLine
 10
18.5
 20
26.199996948242188
 30
0.0
 11
18.5
 21
31.800003051757813
 31
0.0
  0
LINE
  5
3ED
100
AcDbEntity
  8
0
  6
CONTINUOUS
 62
               7
100
AcDbLine
 10
16.0
 20
26.199996948242188
 30
0.0
 11
18.5
 21
26.199996948242188
 31
0.0
  0
LINE
  5
3EE
100
AcDbEntity
  8
0
  6
CONTINUOUS
 62
               7
100
AcDbLine
 10
16.0
 20
31.800003051757813
 30
0.0
 11
18.5
 21
31.800003051757813
 31
0.0
  0
ARC
  5
3EF
100
AcDbEntity
  8
0
  6
CONTINUOUS
 62
               7
100
AcDbCircle
 10
3.0
 20
-11.0
 30
0.0
 40
2.7999992370605469
100
AcDbArc
 50
270.00001798608935
 51
89.999982013910653
  0
LINE
  5
3F0
100
AcDbEntity
  8
0
  6
CONTINUOUS
 62
               7
100
AcDbLine
 10
0.5
 20
-13.800003051757812
 30
0.0
 11
0.5
 21
-8.20001220703125
 31
0.0
  0
LINE
  5
3F1
100
AcDbEntity
  8
0
  6
CONTINUOUS
 62
               7
100
AcDbLine
 10
0.5
 20
-13.800003051757812
 30
0.0
 11
3.0
 21
-13.800003051757812
 31
0.0
  0
LINE
  5
3F2
100
AcDbEntity
  8
0
  6
CONTINUOUS
 62
               7
100
AcDbLine
 10
0.5
 20
-8.20001220703125
 30
0.0
 11
3.0
 21
-8.20001220703125
 31
0.0
  0
LINE
  5
3F3
100
AcDbEntity
  8
0
  6
CONTINUOUS
 62
               7
100
AcDbLine
 10
11.029720407829757
 20
-25.5
 30
0.0
 11
19.0
 21
-25.5
 31
0.0
  0
LINE
  5
3F4
100
AcDbEntity
  8
0
  6
CONTINUOUS
 62
               4
100
AcDbLine
 10
18.5
 20
-28.5
 30
0.0
 11
0.199999988079071
 21
-28.5
 31
0.0
  0
LINE
  5
3F5
100
AcDbEntity
  8
0
  6
CONTINUOUS
 62
               2
100
AcDbLine
 10
9.5
 20
-24.084901816352158
 30
0.0
 11
9.5
 21
64.833328247070313
 31
0.0
  0
ENDBLK
  5
3F6
100
AcDbEntity
  8
0
100
AcDbBlockEnd
  0
BLOCK
  5
3F7
100
AcDbEntity
  8
0
100
AcDbBlockBegin
  2
F10MSJ-8
 70
               0
 10
0.0
 20
0.0
 30
0.0
  3
F10MSJ-8
  1

  0
LINE
  5
3F8
100
AcDbEntity
  8
0
  6
CONTINUOUS
 62
               2
100
AcDbLine
 10
-6.5199999999999818
 20
0.0
 30
0.0
 11
6.7800000000000011
 21
0.0
 31
0.0
  0
LINE
  5
3F9
100
AcDbEntity
  8
0
  6
CONTINUOUS
 62
               7
100
AcDbLine
 10
56.000000000000057
 20
49.70000000000001
 30
0.0
 11
56.000000000000057
 21
61.0
 31
0.0
  0
LINE
  5
3FA
100
AcDbEntity
  8
0
  6
CONTINUOUS
 62
               7
100
AcDbLine
 10
56.000000000000057
 20
61.0
 30
0.0
 11
45.0
 21
61.0
 31
0.0
  0
LINE
  5
3FB
100
AcDbEntity
  8
0
  6
CONTINUOUS
 62
               4
100
AcDbLine
 10
28.900000000000034
 20
-49.400000000000006
 30
0.0
 11
11.10000000000008
 21
-49.400000000000006
 31
0.0
  0
LINE
  5
3FC
100
AcDbEntity
  8
0
  6
CONTINUOUS
 62
               4
100
AcDbLine
 10
11.199999999999989
 20
-50.300000000000011
 30
0.0
 11
11.000000000000057
 21
-50.5
 31
0.0
  0
LINE
  5
3FD
100
AcDbEntity
  8
0
  6
CONTINUOUS
 62
               4
100
AcDbLine
 10
11.000000000000057
 20
-52.864913000000001
 30
0.0
 11
11.753590400000064
 21
-53.299999000000014
 31
0.0
  0
LINE
  5
3FE
100
AcDbEntity
  8
0
  6
CONTINUOUS
 62
               4
100
AcDbLine
 10
29.000000000000057
 20
-52.864913000000001
 30
0.0
 11
28.24640960000005
 21
-53.299999000000014
 31
0.0
  0
LINE
  5
3FF
100
AcDbEntity
  8
0
  6
CONTINUOUS
 62
               4
100
AcDbLine
 10
28.800000000000125
 20
-50.300000000000011
 30
0.0
 11
11.199999999999989
 21
-50.300000000000011
 31
0.0
  0
LINE
  5
400
100
AcDbEntity
  8
0
  6
CONTINUOUS
 62
               4
100
AcDbLine
 10
11.000000000000057
 20
-52.864913000000001
 30
0.0
 11
29.000000000000057
 21
-52.864913000000001
 31
0.0
  0
LINE
  5
401
100
AcDbEntity
  8
0
  6
CONTINUOUS
 62
               4
100
AcDbLine
 10
11.000000000000057
 20
-50.5
 30
0.0
 11
29.000000000000057
 21
-50.5
 31
0.0
  0
LINE
  5
402
100
AcDbEntity
  8
0
  6
CONTINUOUS
 62
               4
100
AcDbLine
 10
11.000000000000057
 20
-49.300000000000011
 30
0.0
 11
29.000000000000057
 21
-49.300000000000011
 31
0.0
  0
LINE
  5
403
100
AcDbEntity
  8
0
  6
CONTINUOUS
 62
               4
100
AcDbLine
 10
11.753590400000064
 20
-53.299999000000014
 30
0.0
 11
28.24640960000005
 21
-53.299999000000014
 31
0.0
  0
LINE
  5
404
100
AcDbEntity
  8
0
  6
CONTINUOUS
 62
               4
100
AcDbLine
 10
12.900000000000034
 20
-54.900000000000006
 30
0.0
 11
27.10000000000008
 21
-54.900000000000006
 31
0.0
  0
LINE
  5
405
100
AcDbEntity
  8
0
  6
CONTINUOUS
 62
               4
100
AcDbLine
 10
26.000000000000057
 20
-55.400000000000006
 30
0.0
 11
26.000000000000057
 21
-55.0
 31
0.0
  0
LINE
  5
406
100
AcDbEntity
  8
0
  6
CONTINUOUS
 62
               4
100
AcDbLine
 10
11.699999999999989
 20
-50.300000000000011
 30
0.0
 11
11.699999999999989
 21
-49.400000000000006
 31
0.0
  0
LINE
  5
407
100
AcDbEntity
  8
0
  6
CONTINUOUS
 62
               4
100
AcDbLine
 10
28.300000000000125
 20
-50.300000000000011
 30
0.0
 11
28.300000000000125
 21
-49.400000000000006
 31
0.0
  0
LINE
  5
408
100
AcDbEntity
  8
0
  6
CONTINUOUS
 62
               4
100
AcDbLine
 10
11.753590400000064
 20
-53.299999000000014
 30
0.0
 11
12.100000800000032
 21
-53.899999000000008
 31
0.0
  0
LINE
  5
409
100
AcDbEntity
  8
0
  6
CONTINUOUS
 62
               4
100
AcDbLine
 10
28.24640960000005
 20
-53.299999000000014
 30
0.0
 11
27.899999200000082
 21
-53.899999000000008
 31
0.0
  0
LINE
  5
40A
100
AcDbEntity
  8
0
  6
CONTINUOUS
 62
               4
100
AcDbLine
 10
12.10000000000008
 20
-53.899999000000008
 30
0.0
 11
27.899999200000082
 21
-53.899999000000008
 31
0.0
  0
LINE
  5
40B
100
AcDbEntity
  8
0
  6
CONTINUOUS
 62
               4
100
AcDbLine
 10
12.900000000000034
 20
-54.900000000000006
 30
0.0
 11
12.900000000000034
 21
-53.899999000000008
 31
0.0
  0
LINE
  5
40C
100
AcDbEntity
  8
0
  6
CONTINUOUS
 62
               4
100
AcDbLine
 10
13.000000000000057
 20
-55.0
 30
0.0
 11
27.000000000000057
 21
-55.0
 31
0.0
  0
LINE
  5
40D
100
AcDbEntity
  8
0
  6
CONTINUOUS
 62
               4
100
AcDbLine
 10
13.000000000000057
 20
-55.0
 30
0.0
 11
12.900000000000034
 21
-54.900000000000006
 31
0.0
  0
LINE
  5
40E
100
AcDbEntity
  8
0
  6
CONTINUOUS
 62
               4
100
AcDbLine
 10
27.000000000000057
 20
-55.0
 30
0.0
 11
27.10000000000008
 21
-54.900000000000006
 31
0.0
  0
LINE
  5
40F
100
AcDbEntity
  8
0
  6
CONTINUOUS
 62
               4
100
AcDbLine
 10
27.10000000000008
 20
-54.900000000000006
 30
0.0
 11
27.10000000000008
 21
-53.899999000000008
 31
0.0
  0
LINE
  5
410
100
AcDbEntity
  8
0
  6
CONTINUOUS
 62
               4
100
AcDbLine
 10
14.000000000000057
 20
-55.400000000000006
 30
0.0
 11
14.000000000000057
 21
-55.0
 31
0.0
  0
LINE
  5
411
100
AcDbEntity
  8
0
  6
CONTINUOUS
 62
               4
100
AcDbLine
 10
11.60000000000008
 20
-56.800680999999997
 30
0.0
 11
11.60000000000008
 21
-55.900000000000006
 31
0.0
  0
LINE
  5
412
100
AcDbEntity
  8
0
  6
CONTINUOUS
 62
               4
100
AcDbLine
 10
28.400000000000034
 20
-55.900000000000006
 30
0.0
 11
11.60000000000008
 21
-55.900000000000006
 31
0.0
  0
LINE
  5
413
100
AcDbEntity
  8
0
  6
CONTINUOUS
 62
               4
100
AcDbLine
 10
11.900000000000034
 20
-57.099999999999994
 30
0.0
 11
28.10000000000008
 21
-57.099999999999994
 31
0.0
  0
LINE
  5
414
100
AcDbEntity
  8
0
  6
CONTINUOUS
 62
               4
100
AcDbLine
 10
28.400000000000034
 20
-56.800680999999997
 30
0.0
 11
28.400000000000034
 21
-55.900000000000006
 31
0.0
  0
ARC
  5
415
100
AcDbEntity
  8
0
  6
CONTINUOUS
 62
               4
100
AcDbCircle
 10
26.500000000000057
 20
-55.400000000000006
 30
0.0
 40
0.5
100
AcDbArc
 50
179.9999999999998
 51
270.0
  0
ARC
  5
416
100
AcDbEntity
  8
0
  6
CONTINUOUS
 62
               4
100
AcDbCircle
 10
11.900000000000034
 20
-56.800000000000011
 30
0.0
 40
0.3
100
AcDbArc
 50
179.9999999999998
 51
270.0
  0
ARC
  5
417
100
AcDbEntity
  8
0
  6
CONTINUOUS
 62
               4
100
AcDbCircle
 10
13.500000000000057
 20
-55.400000000000006
 30
0.0
 40
0.5
100
AcDbArc
 50
269.9999999999992
 51
359.99999999999937
  0
ARC
  5
418
100
AcDbEntity
  8
0
  6
CONTINUOUS
 62
               4
100
AcDbCircle
 10
28.10000000000008
 20
-56.800000000000011
 30
0.0
 40
0.3
100
AcDbArc
 50
269.9999999999992
 51
359.99999999999937
  0
LINE
  5
419
100
AcDbEntity
  8
0
  6
CONTINUOUS
 62
               4
100
AcDbLine
 10
29.000000000000057
 20
-49.300000000000011
 30
0.0
 11
29.000000000000057
 21
-45.0
 31
0.0
  0
LINE
  5
41A
100
AcDbEntity
  8
0
  6
DASHED
 62
               4
100
AcDbLine
 10
11.000000000000057
 20
-49.300000000000011
 30
0.0
 11
11.000000000000057
 21
-45.0
 31
0.0
  0
LINE
  5
41B
100
AcDbEntity
  8
0
  6
CONTINUOUS
 62
               4
100
AcDbLine
 10
11.000000000000057
 20
-49.300000000000011
 30
0.0
 11
11.10000000000008
 21
-49.400000000000006
 31
0.0
  0
LINE
  5
41C
100
AcDbEntity
  8
0
  6
CONTINUOUS
 62
               4
100
AcDbLine
 10
29.000000000000057
 20
-49.300000000000011
 30
0.0
 11
28.900000000000034
 21
-49.400000000000006
 31
0.0
  0
LINE
  5
41D
100
AcDbEntity
  8
0
  6
CONTINUOUS
 62
               4
100
AcDbLine
 10
11.000000000000057
 20
-52.864913999999999
 30
0.0
 11
11.000000000000057
 21
-50.5
 31
0.0
  0
LINE
  5
41E
100
AcDbEntity
  8
0
  6
CONTINUOUS
 62
               4
100
AcDbLine
 10
28.800000000000125
 20
-50.300000000000011
 30
0.0
 11
29.000000000000057
 21
-50.5
 31
0.0
  0
LINE
  5
41F
100
AcDbEntity
  8
0
  6
CONTINUOUS
 62
               4
100
AcDbLine
 10
29.000000000000057
 20
-52.864913999999999
 30
0.0
 11
29.000000000000057
 21
-50.5
 31
0.0
  0
LINE
  5
420
100
AcDbEntity
  8
0
  6
CONTINUOUS
 62
               4
100
AcDbLine
 10
43.405319835617263
 20
-49.400000000000006
 30
0.0
 11
30.10000000000008
 21
-49.400000000000006
 31
0.0
  0
LINE
  5
421
100
AcDbEntity
  8
0
  6
CONTINUOUS
 62
               4
100
AcDbLine
 10
30.199999999999989
 20
-50.300000000000011
 30
0.0
 11
30.000000000000057
 21
-50.5
 31
0.0
  0
LINE
  5
422
100
AcDbEntity
  8
0
  6
CONTINUOUS
 62
               4
100
AcDbLine
 10
30.000000000000057
 20
-52.864913000000001
 30
0.0
 11
30.753590400000064
 21
-53.299999000000014
 31
0.0
  0
LINE
  5
423
100
AcDbEntity
  8
0
  6
CONTINUOUS
 62
               4
100
AcDbLine
 10
48.000000000000057
 20
-52.864913000000001
 30
0.0
 11
47.24640960000005
 21
-53.299999000000014
 31
0.0
  0
LINE
  5
424
100
AcDbEntity
  8
0
  6
CONTINUOUS
 62
               4
100
AcDbLine
 10
47.800000000000125
 20
-50.300000000000011
 30
0.0
 11
30.199999999999989
 21
-50.300000000000011
 31
0.0
  0
LINE
  5
425
100
AcDbEntity
  8
0
  6
CONTINUOUS
 62
               4
100
AcDbLine
 10
30.000000000000057
 20
-52.864913000000001
 30
0.0
 11
48.000000000000057
 21
-52.864913000000001
 31
0.0
  0
LINE
  5
426
100
AcDbEntity
  8
0
  6
CONTINUOUS
 62
               4
100
AcDbLine
 10
30.000000000000057
 20
-50.5
 30
0.0
 11
48.000000000000057
 21
-50.5
 31
0.0
  0
LINE
  5
427
100
AcDbEntity
  8
0
  6
CONTINUOUS
 62
               4
100
AcDbLine
 10
30.000000000000057
 20
-49.300000000000011
 30
0.0
 11
43.304724406063109
 21
-49.300000000000011
 31
0.0
  0
LINE
  5
428
100
AcDbEntity
  8
0
  6
CONTINUOUS
 62
               4
100
AcDbLine
 10
30.753590400000064
 20
-53.299999000000014
 30
0.0
 11
47.24640960000005
 21
-53.299999000000014
 31
0.0
  0
LINE
  5
429
100
AcDbEntity
  8
0
  6
CONTINUOUS
 62
               4
100
AcDbLine
 10
31.900000000000034
 20
-54.900000000000006
 30
0.0
 11
46.10000000000008
 21
-54.900000000000006
 31
0.0
  0
LINE
  5
42A
100
AcDbEntity
  8
0
  6
CONTINUOUS
 62
               4
100
AcDbLine
 10
45.000000000000057
 20
-55.400000000000006
 30
0.0
 11
45.000000000000057
 21
-55.0
 31
0.0
  0
LINE
  5
42B
100
AcDbEntity
  8
0
  6
CONTINUOUS
 62
               4
100
AcDbLine
 10
30.699999999999989
 20
-50.300000000000011
 30
0.0
 11
30.699999999999989
 21
-49.400000000000006
 31
0.0
  0
LINE
  5
42C
100
AcDbEntity
  8
0
  6
CONTINUOUS
 62
               4
100
AcDbLine
 10
47.300000000000125
 20
-50.300000000000011
 30
0.0
 11
47.300000000000125
 21
-49.699999999999989
 31
0.0
  0
LINE
  5
42D
100
AcDbEntity
  8
0
  6
CONTINUOUS
 62
               4
100
AcDbLine
 10
30.753590400000064
 20
-53.299999000000014
 30
0.0
 11
31.100000800000032
 21
-53.899999000000008
 31
0.0
  0
LINE
  5
42E
100
AcDbEntity
  8
0
  6
CONTINUOUS
 62
               4
100
AcDbLine
 10
47.24640960000005
 20
-53.299999000000014
 30
0.0
 11
46.899999200000082
 21
-53.899999000000008
 31
0.0
  0
LINE
  5
42F
100
AcDbEntity
  8
0
  6
CONTINUOUS
 62
               4
100
AcDbLine
 10
31.10000000000008
 20
-53.899999000000008
 30
0.0
 11
46.899999200000082
 21
-53.899999000000008
 31
0.0
  0
LINE
  5
430
100
AcDbEntity
  8
0
  6
CONTINUOUS
 62
               4
100
AcDbLine
 10
31.900000000000034
 20
-54.900000000000006
 30
0.0
 11
31.900000000000034
 21
-53.899999000000008
 31
0.0
  0
LINE
  5
431
100
AcDbEntity
  8
0
  6
CONTINUOUS
 62
               4
100
AcDbLine
 10
32.000000000000057
 20
-55.0
 30
0.0
 11
46.000000000000057
 21
-55.0
 31
0.0
  0
LINE
  5
432
100
AcDbEntity
  8
0
  6
CONTINUOUS
 62
               4
100
AcDbLine
 10
32.000000000000057
 20
-55.0
 30
0.0
 11
31.900000000000034
 21
-54.900000000000006
 31
0.0
  0
LINE
  5
433
100
AcDbEntity
  8
0
  6
CONTINUOUS
 62
               4
100
AcDbLine
 10
46.000000000000057
 20
-55.0
 30
0.0
 11
46.10000000000008
 21
-54.900000000000006
 31
0.0
  0
LINE
  5
434
100
AcDbEntity
  8
0
  6
CONTINUOUS
 62
               4
100
AcDbLine
 10
46.10000000000008
 20
-54.900000000000006
 30
0.0
 11
46.10000000000008
 21
-53.899999000000008
 31
0.0
  0
LINE
  5
435
100
AcDbEntity
  8
0
  6
CONTINUOUS
 62
               4
100
AcDbLine
 10
33.000000000000057
 20
-55.400000000000006
 30
0.0
 11
33.000000000000057
 21
-55.0
 31
0.0
  0
LINE
  5
436
100
AcDbEntity
  8
0
  6
CONTINUOUS
 62
               4
100
AcDbLine
 10
30.60000000000008
 20
-56.800680999999997
 30
0.0
 11
30.60000000000008
 21
-55.900000000000006
 31
0.0
  0
LINE
  5
437
100
AcDbEntity
  8
0
  6
CONTINUOUS
 62
               4
100
AcDbLine
 10
47.400000000000034
 20
-55.900000000000006
 30
0.0
 11
30.60000000000008
 21
-55.900000000000006
 31
0.0
  0
LINE
  5
438
100
AcDbEntity
  8
0
  6
CONTINUOUS
 62
               4
100
AcDbLine
 10
30.900000000000034
 20
-57.099999999999994
 30
0.0
 11
47.10000000000008
 21
-57.099999999999994
 31
0.0
  0
LINE
  5
439
100
AcDbEntity
  8
0
  6
CONTINUOUS
 62
               4
100
AcDbLine
 10
47.400000000000034
 20
-56.800680999999997
 30
0.0
 11
47.400000000000034
 21
-55.900000000000006
 31
0.0
  0
ARC
  5
43A
100
AcDbEntity
  8
0
  6
CONTINUOUS
 62
               4
100
AcDbCircle
 10
45.500000000000057
 20
-55.400000000000006
 30
0.0
 40
0.5
100
AcDbArc
 50
179.9999999999998
 51
270.0
  0
ARC
  5
43B
100
AcDbEntity
  8
0
  6
CONTINUOUS
 62
               4
100
AcDbCircle
 10
30.900000000000034
 20
-56.800000000000011
 30
0.0
 40
0.3
100
AcDbArc
 50
179.9999999999998
 51
270.0
  0
ARC
  5
43C
100
AcDbEntity
  8
0
  6
CONTINUOUS
 62
               4
100
AcDbCircle
 10
32.500000000000057
 20
-55.400000000000006
 30
0.0
 40
0.5
100
AcDbArc
 50
269.9999999999992
 51
359.99999999999937
  0
ARC
  5
43D
100
AcDbEntity
  8
0
  6
CONTINUOUS
 62
               4
100
AcDbCircle
 10
47.10000000000008
 20
-56.800000000000011
 30
0.0
 40
0.3
100
AcDbArc
 50
269.9999999999992
 51
359.99999999999937
  0
LINE
  5
43E
100
AcDbEntity
  8
0
  6
CONTINUOUS
 62
               4
100
AcDbLine
 10
30.000000000000057
 20
-49.300000000000011
 30
0.0
 11
30.000000000000057
 21
-45.0
 31
0.0
  0
LINE
  5
43F
100
AcDbEntity
  8
0
  6
CONTINUOUS
 62
               4
100
AcDbLine
 10
30.000000000000057
 20
-49.300000000000011
 30
0.0
 11
30.10000000000008
 21
-49.400000000000006
 31
0.0
  0
LINE
  5
440
100
AcDbEntity
  8
0
  6
CONTINUOUS
 62
               4
100
AcDbLine
 10
30.000000000000057
 20
-52.864913999999999
 30
0.0
 11
30.000000000000057
 21
-50.5
 31
0.0
  0
LINE
  5
441
100
AcDbEntity
  8
0
  6
CONTINUOUS
 62
               4
100
AcDbLine
 10
47.800000000000125
 20
-50.300000000000011
 30
0.0
 11
48.000000000000057
 21
-50.5
 31
0.0
  0
LINE
  5
442
100
AcDbEntity
  8
0
  6
CONTINUOUS
 62
               4
100
AcDbLine
 10
48.000000000000057
 20
-52.864913999999999
 30
0.0
 11
48.000000000000057
 21
-50.5
 31
0.0
  0
LINE
  5
443
100
AcDbEntity
  8
0
  6
CONTINUOUS
 62
             200
100
AcDbLine
 10
20.000000000000057
 20
-61.883890721591797
 30
0.0
 11
20.000000000000057
 21
-39.81439776324703
 31
0.0
  0
LINE
  5
444
100
AcDbEntity
  8
0
  6
CONTINUOUS
 62
             200
100
AcDbLine
 10
39.000000000000057
 20
-61.883890721591797
 30
0.0
 11
39.000000000000057
 21
-39.81439776324703
 31
0.0
  0
LINE
  5
445
100
AcDbEntity
  8
0
  6
DASHED
 62
               2
100
AcDbLine
 10
1.0
 20
-23.5
 30
0.0
 11
1.0
 21
-16.0
 31
0.0
  0
LINE
  5
446
100
AcDbEntity
  8
0
  6
DASHED
 62
               2
100
AcDbLine
 10
4.0
 20
62.500000000000007
 30
0.0
 11
35.0
 21
62.500000000000007
 31
0.0
  0
LINE
  5
447
100
AcDbEntity
  8
0
  6
DASHED
 62
               2
100
AcDbLine
 10
1.0
 20
-23.5
 30
0.0
 11
3.0
 21
-25.5
 31
0.0
  0
LINE
  5
448
100
AcDbEntity
  8
0
  6
DASHED
 62
               2
100
AcDbLine
 10
3.0
 20
-28.5
 30
0.0
 11
3.0
 21
-25.5
 31
0.0
  0
LINE
  5
449
100
AcDbEntity
  8
0
  6
DASHED
 62
               2
100
AcDbLine
 10
3.0
 20
-28.5
 30
0.0
 11
3.2000000000000171
 21
-28.699999999999989
 31
0.0
  0
LINE
  5
44A
100
AcDbEntity
  8
0
  6
DASHED
 62
               2
100
AcDbLine
 10
1.5
 20
-15.5
 30
0.0
 11
6.5
 21
-15.5
 31
0.0
  0
LINE
  5
44B
100
AcDbEntity
  8
0
  6
DASHED
 62
               2
100
AcDbLine
 10
1.0
 20
20.570000000000007
 30
0.0
 11
1.0
 21
59.500000000000007
 31
0.0
  0
LINE
  5
44C
100
AcDbEntity
  8
0
  6
DASHED
 62
               2
100
AcDbLine
 10
1.5
 20
-15.5
 30
0.0
 11
1.0
 21
-16.0
 31
0.0
  0
LINE
  5
44D
100
AcDbEntity
  8
0
  6
DASHED
 62
               2
100
AcDbLine
 10
1.0
 20
20.570000000000007
 30
0.0
 11
2.0
 21
20.100000000000009
 31
0.0
  0
LINE
  5
44E
100
AcDbEntity
  8
0
  6
DASHED
 62
               2
100
AcDbLine
 10
6.5
 20
-15.5
 30
0.0
 11
6.5
 21
-14.5
 31
0.0
  0
LINE
  5
44F
100
AcDbEntity
  8
0
  6
DASHED
 62
               2
100
AcDbLine
 10
6.5
 20
14.5
 30
0.0
 11
6.5
 21
15.5
 31
0.0
  0
LINE
  5
450
100
AcDbEntity
  8
0
  6
DASHED
 62
               2
100
AcDbLine
 10
0.0
 20
-14.5
 30
0.0
 11
6.5
 21
-14.5
 31
0.0
  0
LINE
  5
451
100
AcDbEntity
  8
0
  6
DASHED
 62
               2
100
AcDbLine
 10
0.0
 20
14.5
 30
0.0
 11
6.5
 21
14.5
 31
0.0
  0
LINE
  5
452
100
AcDbEntity
  8
0
  6
DASHED
 62
               2
100
AcDbLine
 10
0.0
 20
-14.5
 30
0.0
 11
0.0
 21
14.5
 31
0.0
  0
LINE
  5
453
100
AcDbEntity
  8
0
  6
DASHED
 62
               2
100
AcDbLine
 10
4.0
 20
15.5
 30
0.0
 11
4.2000000000000171
 21
15.5
 31
0.0
  0
LINE
  5
454
100
AcDbEntity
  8
0
  6
DASHED
 62
               2
100
AcDbLine
 10
2.0
 20
17.5
 30
0.0
 11
2.0
 21
20.100000000000009
 31
0.0
  0
LINE
  5
455
100
AcDbEntity
  8
0
  6
DASHED
 62
               2
100
AcDbLine
 10
2.0
 20
17.5
 30
0.0
 11
4.0
 21
15.5
 31
0.0
  0
LINE
  5
456
100
AcDbEntity
  8
0
  6
DASHED
 62
               2
100
AcDbLine
 10
3.2000000000000171
 20
-28.699999999999989
 30
0.0
 11
3.2000000000000171
 21
-30.5
 31
0.0
  0
LINE
  5
457
100
AcDbEntity
  8
0
  6
DASHED
 62
               2
100
AcDbLine
 10
45.0
 20
62.500000000000007
 30
0.0
 11
45.0
 21
49.70000000000001
 31
0.0
  0
LINE
  5
458
100
AcDbEntity
  8
0
  6
DASHED
 62
               2
100
AcDbLine
 10
3.2000000000000171
 20
-30.5
 30
0.0
 11
7.9000000000000057
 21
-30.5
 31
0.0
  0
LINE
  5
459
100
AcDbEntity
  8
0
  6
DASHED
 62
               2
100
AcDbLine
 10
3.5
 20
-33.5
 30
0.0
 11
7.9000000000000057
 21
-33.5
 31
0.0
  0
LINE
  5
45A
100
AcDbEntity
  8
0
  6
DASHED
 62
               2
100
AcDbLine
 10
3.5
 20
-33.5
 30
0.0
 11
3.5
 21
-45.0
 31
0.0
  0
LINE
  5
45B
100
AcDbEntity
  8
0
  6
DASHED
 62
               2
100
AcDbLine
 10
74.300000000000011
 20
45.0
 30
0.0
 11
66.000000000000014
 21
45.0
 31
0.0
  0
LINE
  5
45C
100
AcDbEntity
  8
0
  6
DASHED
 62
               2
100
AcDbLine
 10
74.300000000000011
 20
-45.0
 30
0.0
 11
66.000000000000014
 21
-45.0
 31
0.0
  0
LINE
  5
45D
100
AcDbEntity
  8
0
  6
DASHED
 62
               2
100
AcDbLine
 10
74.300000000000011
 20
45.0
 30
0.0
 11
74.300000000000011
 21
-45.0
 31
0.0
  0
LINE
  5
45E
100
AcDbEntity
  8
0
  6
DASHED
 62
               2
100
AcDbLine
 10
4.7000000000000171
 20
15.0
 30
0.0
 11
6.1000000000000227
 21
15.0
 31
0.0
  0
LINE
  5
45F
100
AcDbEntity
  8
0
  6
DASHED
 62
               2
100
AcDbLine
 10
4.2000000000000171
 20
15.5
 30
0.0
 11
4.7000000000000171
 21
15.0
 31
0.0
  0
LINE
  5
460
100
AcDbEntity
  8
0
  6
DASHED
 62
               2
100
AcDbLine
 10
6.1000000000000227
 20
15.0
 30
0.0
 11
6.1899999999999977
 21
15.5
 31
0.0
  0
LINE
  5
461
100
AcDbEntity
  8
0
  6
DASHED
 62
               2
100
AcDbLine
 10
6.1899999999999977
 20
15.5
 30
0.0
 11
6.5
 21
15.5
 31
0.0
  0
LINE
  5
462
100
AcDbEntity
  8
0
  6
DASHED
 62
               2
100
AcDbLine
 10
42.5
 20
-48.5
 30
0.0
 11
43.0
 21
-48.5
 31
0.0
  0
LINE
  5
463
100
AcDbEntity
  8
0
  6
DASHED
 62
               2
100
AcDbLine
 10
41.0
 20
-47.0
 30
0.0
 11
41.0
 21
-45.0
 31
0.0
  0
LINE
  5
464
100
AcDbEntity
  8
0
  6
DASHED
 62
               2
100
AcDbLine
 10
66.000000000000014
 20
-47.0
 30
0.0
 11
66.000000000000014
 21
-45.0
 31
0.0
  0
LINE
  5
465
100
AcDbEntity
  8
0
  6
DASHED
 62
               2
100
AcDbLine
 10
44.200000000000017
 20
-49.699999999999989
 30
0.0
 11
62.800000000000011
 21
-49.699999999999989
 31
0.0
  0
LINE
  5
466
100
AcDbEntity
  8
0
  6
DASHED
 62
               2
100
AcDbLine
 10
64.000000000000014
 20
-48.5
 30
0.0
 11
64.500000000000014
 21
-48.5
 31
0.0
  0
LINE
  5
467
100
AcDbEntity
  8
0
  6
DASHED
 62
               2
100
AcDbLine
 10
66.000000000000014
 20
47.0
 30
0.0
 11
66.000000000000014
 21
45.0
 31
0.0
  0
LINE
  5
468
100
AcDbEntity
  8
0
  6
DASHED
 62
               2
100
AcDbLine
 10
45.0
 20
49.70000000000001
 30
0.0
 11
62.800000000000011
 21
49.70000000000001
 31
0.0
  0
LINE
  5
469
100
AcDbEntity
  8
0
  6
DASHED
 62
               2
100
AcDbLine
 10
64.000000000000014
 20
48.5
 30
0.0
 11
64.500000000000014
 21
48.5
 31
0.0
  0
LINE
  5
46A
100
AcDbEntity
  8
0
  6
DASHED
 62
               2
100
AcDbLine
 10
35.0
 20
62.500000000000007
 30
0.0
 11
45.0
 21
62.500000000000007
 31
0.0
  0
LINE
  5
46B
100
AcDbEntity
  8
0
  6
DASHED
 62
               2
100
AcDbLine
 10
41.0
 20
-45.0
 30
0.0
 11
3.5
 21
-45.0
 31
0.0
  0
ARC
  5
46C
100
AcDbEntity
  8
0
  6
DASHED
 62
               2
100
AcDbCircle
 10
4.0002469728813708
 20
59.499753027118636
 30
0.0
 40
3.000246983046468
100
AcDbArc
 50
90.004716446296811
 51
179.99528355370319
  0
ARC
  5
46D
100
AcDbEntity
  8
0
  6
DASHED
 62
               2
100
AcDbCircle
 10
10.498715666173325
 20
-32.0
 30
0.0
 40
3.0005538011531523
100
AcDbArc
 50
150.00610521671547
 51
209.99389478328453
  0
ARC
  5
46E
100
AcDbEntity
  8
0
  6
DASHED
 62
               2
100
AcDbCircle
 10
42.498468648197218
 20
-47.001531351802782
 30
0.0
 40
1.4984694306752973
100
AcDbArc
 50
179.94144691328017
 51
270.05855308671983
  0
ARC
  5
46F
100
AcDbEntity
  8
0
  6
DASHED
 62
               2
100
AcDbCircle
 10
64.500245800330759
 20
-47.000245800330731
 30
0.0
 40
1.4997542198118277
100
AcDbArc
 50
269.99060958026877
 51
0.0093904197306561
  0
ARC
  5
470
100
AcDbEntity
  8
0
  6
DASHED
 62
               2
100
AcDbCircle
 10
44.198467127072604
 20
-48.501532872927413
 30
0.0
 40
1.1984681073658274
100
AcDbArc
 50
179.92671713775522
 51
270.07328286224481
  0
ARC
  5
471
100
AcDbEntity
  8
0
  6
DASHED
 62
               2
100
AcDbCircle
 10
62.800247132730547
 20
-48.500247132730522
 30
0.0
 40
1.1997528927224428
100
AcDbArc
 50
269.98819785088637
 51
0.011802149112902
  0
ARC
  5
472
100
AcDbEntity
  8
0
  6
DASHED
 62
               2
100
AcDbCircle
 10
64.498468607662176
 20
46.998468607662161
 30
0.0
 40
1.5015321732611955
100
AcDbArc
 50
0.0584352000646074
 51
89.941564799935392
  0
ARC
  5
473
100
AcDbEntity
  8
0
  6
DASHED
 62
               2
100
AcDbCircle
 10
62.798470128159707
 20
48.49847012815971
 30
0.0
 40
1.2015308458098004
100
AcDbArc
 50
0.0729529530056469
 51
89.927047046993678
  0
ENDBLK
  5
474
100
AcDbEntity
  8
0
100
AcDbBlockEnd
  0
BLOCK
  5
475
100
AcDbEntity
  8
0
100
AcDbBlockBegin
  2
F10MSJ-9
 70
               0
 10
0.0
 20
0.0
 30
0.0
  3
F10MSJ-9
  1

  0
LINE
  5
476
100
AcDbEntity
  8
0
  6
CONTINUOUS
 62
             200
100
AcDbLine
 10
9.5
 20
53.863604631978717
 30
0.0
 11
9.5
 21
61.865722656249943
 31
0.0
  0
LINE
  5
477
100
AcDbEntity
  8
0
  6
CONTINUOUS
 62
               7
100
AcDbLine
 10
0.0
 20
0.0
 30
0.0
 11
19.0
 21
0.0
 31
0.0
  0
LINE
  5
478
100
AcDbEntity
  8
0
  6
CONTINUOUS
 62
               7
100
AcDbLine
 10
19.0
 20
1.0
 30
0.0
 11
0.0
 21
1.0
 31
0.0
  0
LINE
  5
479
100
AcDbEntity
  8
0
  6
CONTINUOUS
 62
             200
100
AcDbLine
 10
-1.0
 20
38.999984741210881
 30
0.0
 11
20.0
 21
38.999984741210881
 31
0.0
  0
LINE
  5
47A
100
AcDbEntity
  8
0
  6
CONTINUOUS
 62
               2
100
AcDbLine
 10
9.5
 20
-0.829620361328125
 30
0.0
 11
9.5
 21
53.863604631978717
 31
0.0
  0
LINE
  5
47B
100
AcDbEntity
  8
0
  6
CONTINUOUS
 62
               7
100
AcDbLine
 10
0.0
 20
55.999999999999943
 30
0.0
 11
0.0
 21
1.0
 31
0.0
  0
LINE
  5
47C
100
AcDbEntity
  8
0
  6
CONTINUOUS
 62
               7
100
AcDbLine
 10
0.0
 20
55.999999999999943
 30
0.0
 11
19.0
 21
55.999999999999943
 31
0.0
  0
LINE
  5
47D
100
AcDbEntity
  8
0
  6
CONTINUOUS
 62
               7
100
AcDbLine
 10
19.0
 20
55.999999999999943
 30
0.0
 11
19.0
 21
1.0
 31
0.0
  0
LINE
  5
47E
100
AcDbEntity
  8
0
  6
CONTINUOUS
 62
               4
100
AcDbLine
 10
18.5
 20
3.199981689453125
 30
0.0
 11
18.5
 21
6.3543548583984375
 31
0.0
  0
LINE
  5
47F
100
AcDbEntity
  8
0
  6
CONTINUOUS
 62
               4
100
AcDbLine
 10
0.5
 20
3.199981689453125
 30
0.0
 11
0.5
 21
6.4999847412109375
 31
0.0
  0
LINE
  5
480
100
AcDbEntity
  8
0
  6
CONTINUOUS
 62
               4
100
AcDbLine
 10
0.5
 20
55.799987792968693
 30
0.0
 11
18.5
 21
55.799987792968693
 31
0.0
  0
LINE
  5
481
100
AcDbEntity
  8
0
  6
CONTINUOUS
 62
               4
100
AcDbLine
 10
0.5
 20
3.199981689453125
 30
0.0
 11
18.5
 21
3.199981689453125
 31
0.0
  0
LINE
  5
482
100
AcDbEntity
  8
0
  6
CONTINUOUS
 62
               4
100
AcDbLine
 10
16.0
 20
52.499984741210881
 30
0.0
 11
18.5
 21
52.499984741210881
 31
0.0
  0
LINE
  5
483
100
AcDbEntity
  8
0
  6
CONTINUOUS
 62
               4
100
AcDbLine
 10
16.0
 20
46.499984741210881
 30
0.0
 11
18.5
 21
46.499984741210881
 31
0.0
  0
LINE
  5
484
100
AcDbEntity
  8
0
  6
CONTINUOUS
 62
               4
100
AcDbLine
 10
0.5
 20
6.4999847412109375
 30
0.0
 11
3.0
 21
6.4999847412109375
 31
0.0
  0
LINE
  5
485
100
AcDbEntity
  8
0
  6
CONTINUOUS
 62
               4
100
AcDbLine
 10
0.5
 20
12.499984741210938
 30
0.0
 11
3.0
 21
12.499984741210938
 31
0.0
  0
LINE
  5
486
100
AcDbEntity
  8
0
  6
CONTINUOUS
 62
               4
100
AcDbLine
 10
13.0
 20
7.5
 30
0.0
 11
13.0
 21
3.199981689453125
 31
0.0
  0
LINE
  5
487
100
AcDbEntity
  8
0
  6
CONTINUOUS
 62
               4
100
AcDbLine
 10
6.0
 20
51.499999999999943
 30
0.0
 11
6.0
 21
55.799987792968693
 31
0.0
  0
LINE
  5
488
100
AcDbEntity
  8
0
  6
CONTINUOUS
 62
               4
100
AcDbLine
 10
3.0
 20
48.499999999999943
 30
0.0
 11
0.5
 21
48.499999999999943
 31
0.0
  0
LINE
  5
489
100
AcDbEntity
  8
0
  6
CONTINUOUS
 62
               4
100
AcDbLine
 10
16.0
 20
10.5
 30
0.0
 11
18.5
 21
10.5
 31
0.0
  0
LINE
  5
48A
100
AcDbEntity
  8
0
  6
CONTINUOUS
 62
               4
100
AcDbLine
 10
4.060724828862817
 20
50.439377918905848
 30
0.0
 11
1.9394120317932675
 21
52.560706093973749
 31
0.0
  0
LINE
  5
48B
100
AcDbEntity
  8
0
  6
CONTINUOUS
 62
               4
100
AcDbLine
 10
1.9393030792713262
 20
50.439376836524389
 30
0.0
 11
4.0606228348923423
 21
52.560692300616438
 31
0.0
  0
LINE
  5
48C
100
AcDbEntity
  8
0
  6
CONTINUOUS
 62
               4
100
AcDbLine
 10
14.939416204314512
 20
6.4392384468337696
 30
0.0
 11
17.060732220034879
 21
8.560563224436919
 31
0.0
  0
LINE
  5
48D
100
AcDbEntity
  8
0
  6
CONTINUOUS
 62
               4
100
AcDbLine
 10
17.060665456177048
 20
6.4393208043884442
 30
0.0
 11
14.93935701139344
 21
8.5606313949283503
 31
0.0
  0
LINE
  5
48E
100
AcDbEntity
  8
0
  6
CONTINUOUS
 62
               4
100
AcDbLine
 10
0.5
 20
12.499984741210938
 30
0.0
 11
0.5
 21
50.354354858398381
 31
0.0
  0
LINE
  5
48F
100
AcDbEntity
  8
0
  6
CONTINUOUS
 62
               4
100
AcDbLine
 10
0.5
 20
52.645645141601506
 30
0.0
 11
0.5
 21
55.799987792968693
 31
0.0
  0
LINE
  5
490
100
AcDbEntity
  8
0
  6
CONTINUOUS
 62
               4
100
AcDbLine
 10
18.5
 20
52.499984741210881
 30
0.0
 11
18.5
 21
55.799987792968693
 31
0.0
  0
LINE
  5
491
100
AcDbEntity
  8
0
  6
CONTINUOUS
 62
               4
100
AcDbLine
 10
18.5
 20
8.6456451416015625
 30
0.0
 11
18.5
 21
46.499984741210881
 31
0.0
  0
LINE
  5
492
100
AcDbEntity
  8
0
  6
CONTINUOUS
 62
               7
100
AcDbLine
 10
13.25
 20
56.499999999999943
 30
0.0
 11
13.25
 21
55.999999999999943
 31
0.0
  0
LINE
  5
493
100
AcDbEntity
  8
0
  6
CONTINUOUS
 62
               7
100
AcDbLine
 10
18.75
 20
56.499999999999943
 30
0.0
 11
18.75
 21
55.999999999999943
 31
0.0
  0
LINE
  5
494
100
AcDbEntity
  8
0
  6
CONTINUOUS
 62
               4
100
AcDbLine
 10
0.5
 20
57.999999999999943
 30
0.0
 11
17.25
 21
57.999999999999943
 31
0.0
  0
LINE
  5
495
100
AcDbEntity
  8
0
  6
CONTINUOUS
 62
               4
100
AcDbLine
 10
0.5
 20
57.999999999999943
 30
0.0
 11
0.5
 21
55.999999999999943
 31
0.0
  0
LINE
  5
496
100
AcDbEntity
  8
0
  6
CONTINUOUS
 62
               4
100
AcDbLine
 10
13.0
 20
57.999999999999943
 30
0.0
 11
13.0
 21
55.999999999999943
 31
0.0
  0
CIRCLE
  5
497
100
AcDbEntity
  8
0
  6
CONTINUOUS
 62
               4
100
AcDbCircle
 10
3.0
 20
51.499999999999943
 30
0.0
 40
2.75
  0
ARC
  5
498
100
AcDbEntity
  8
0
  6
CONTINUOUS
 62
               4
100
AcDbCircle
 10
16.0
 20
49.499999999999943
 30
0.0
 40
3.0
100
AcDbArc
 50
89.999982013910653
 51
269.99994604173196
  0
ARC
  5
499
100
AcDbEntity
  8
0
  6
CONTINUOUS
 62
               4
100
AcDbCircle
 10
3.0
 20
9.5
 30
0.0
 40
3.0
100
AcDbArc
 50
269.99996334457597
 51
89.999982013910653
  0
ARC
  5
49A
100
AcDbEntity
  8
0
  6
CONTINUOUS
 62
               4
100
AcDbCircle
 10
3.0
 20
51.499999999999943
 30
0.0
 40
3.0
100
AcDbArc
 50
270.00001798608935
 51
0.00001366037834
  0
ARC
  5
49B
100
AcDbEntity
  8
0
  6
CONTINUOUS
 62
               4
100
AcDbCircle
 10
16.0
 20
7.5
 30
0.0
 40
3.0
100
AcDbArc
 50
89.999982013910653
 51
179.99996402782131
  0
CIRCLE
  5
49C
100
AcDbEntity
  8
0
  6
CONTINUOUS
 62
               4
100
AcDbCircle
 10
16.0
 20
7.5
 30
0.0
 40
2.75
  0
ARC
  5
49D
100
AcDbEntity
  8
0
  6
CONTINUOUS
 62
               4
100
AcDbCircle
 10
17.25
 20
56.499999999999943
 30
0.0
 40
1.5
100
AcDbArc
 50
0.0
 51
89.999982013910653
  0
ARC
  5
49E
100
AcDbEntity
  8
0
  6
CONTINUOUS
 62
               4
100
AcDbCircle
 10
14.75
 20
56.499999999999943
 30
0.0
 40
1.5
100
AcDbArc
 50
89.999982013910653
 51
179.99996402782131
  0
LINE
  5
49F
100
AcDbEntity
  8
0
  6
CONTINUOUS
 62
               4
100
AcDbLine
 10
0.5
 20
47.139730703366467
 30
0.0
 11
5.7788394724801719
 21
47.139730703366467
 31
0.0
  0
CIRCLE
  5
4A0
100
AcDbEntity
  8
0
  6
CONTINUOUS
 62
               4
100
AcDbCircle
 10
9.5
 20
38.999984741210881
 30
0.0
 40
4.0499999999999998
  0
CIRCLE
  5
4A1
100
AcDbEntity
  8
0
  6
CONTINUOUS
 62
               4
100
AcDbCircle
 10
9.5
 20
38.999984741210881
 30
0.0
 40
5.0499999999999998
  0
ARC
  5
4A2
100
AcDbEntity
  8
0
  6
CONTINUOUS
 62
               4
100
AcDbCircle
 10
9.5
 20
38.999984741210881
 30
0.0
 40
8.4000000000000004
100
AcDbArc
 50
7.1848403149542639
 51
172.81515968504576
  0
CIRCLE
  5
4A3
100
AcDbEntity
  8
0
  6
CONTINUOUS
 62
               4
100
AcDbCircle
 10
9.5
 20
38.999984741210881
 30
0.0
 40
8.9499999999999993
  0
LINE
  5
4A4
100
AcDbEntity
  8
0
  6
CONTINUOUS
 62
               4
100
AcDbLine
 10
1.6000000000000227
 20
38.199984741210869
 30
0.0
 11
1.6000000000000227
 21
39.799984735250405
 31
0.0
  0
LINE
  5
4A5
100
AcDbEntity
  8
0
  6
CONTINUOUS
 62
               4
100
AcDbLine
 10
17.399999999999977
 20
38.199984741210869
 30
0.0
 11
17.399999999999977
 21
39.799984735250405
 31
0.0
  0
LINE
  5
4A6
100
AcDbEntity
  8
0
  6
CONTINUOUS
 62
               4
100
AcDbLine
 10
17.399999999999977
 20
39.799984741210892
 30
0.0
 11
17.834041755690464
 21
40.050578865698299
 31
0.0
  0
LINE
  5
4A7
100
AcDbEntity
  8
0
  6
CONTINUOUS
 62
               4
100
AcDbLine
 10
1.6000000000000227
 20
39.799984741210892
 30
0.0
 11
1.165958244309536
 21
40.050578865698299
 31
0.0
  0
ARC
  5
4A8
100
AcDbEntity
  8
0
  6
CONTINUOUS
 62
               4
100
AcDbCircle
 10
9.5
 20
19.999984741210881
 30
0.0
 40
8.4000000000000004
100
AcDbArc
 50
187.18484031495424
 51
352.81515968504578
  0
CIRCLE
  5
4A9
100
AcDbEntity
  8
0
  6
CONTINUOUS
 62
               4
100
AcDbCircle
 10
9.5
 20
19.999984741210881
 30
0.0
 40
8.9499999999999993
  0
ARC
  5
4AA
100
AcDbEntity
  8
0
  6
CONTINUOUS
 62
               4
100
AcDbCircle
 10
9.5
 20
38.999984741210881
 30
0.0
 40
8.4000000000000004
100
AcDbArc
 50
187.18484031495424
 51
352.81515968504578
  0
ARC
  5
4AB
100
AcDbEntity
  8
0
  6
CONTINUOUS
 62
               4
100
AcDbCircle
 10
9.5
 20
19.999984741210881
 30
0.0
 40
8.4000000000000004
100
AcDbArc
 50
7.1848403149542639
 51
172.81515968504576
  0
CIRCLE
  5
4AC
100
AcDbEntity
  8
0
  6
CONTINUOUS
 62
               4
100
AcDbCircle
 10
9.5
 20
19.999984741210881
 30
0.0
 40
5.0499999999999998
  0
CIRCLE
  5
4AD
100
AcDbEntity
  8
0
  6
CONTINUOUS
 62
               4
100
AcDbCircle
 10
9.5
 20
19.999984741210881
 30
0.0
 40
4.0499999999999998
  0
LINE
  5
4AE
100
AcDbEntity
  8
0
  6
CONTINUOUS
 62
               4
100
AcDbLine
 10
10.25
 20
29.190196925921327
 30
0.0
 11
10.25
 21
29.809772556500434
 31
0.0
  0
LINE
  5
4AF
100
AcDbEntity
  8
0
  6
CONTINUOUS
 62
               4
100
AcDbLine
 10
8.75
 20
29.190196925921327
 30
0.0
 11
8.75
 21
29.809772556500434
 31
0.0
  0
ARC
  5
4B0
100
AcDbEntity
  8
0
  6
CONTINUOUS
 62
               4
100
AcDbCircle
 10
8.4499999999999318
 20
29.809772556500434
 30
0.0
 40
0.3
100
AcDbArc
 50
0.0
 51
83.482105791022747
  0
ARC
  5
4B1
100
AcDbEntity
  8
0
  6
CONTINUOUS
 62
               4
100
AcDbCircle
 10
8.4499999999999318
 20
29.190196925921327
 30
0.0
 40
0.3
100
AcDbArc
 50
276.51789420897717
 51
0.0
  0
ARC
  5
4B2
100
AcDbEntity
  8
0
  6
CONTINUOUS
 62
               4
100
AcDbCircle
 10
10.549999999999955
 20
29.809772556500434
 30
0.0
 40
0.3
100
AcDbArc
 50
96.517894208978589
 51
180.0
  0
ARC
  5
4B3
100
AcDbEntity
  8
0
  6
CONTINUOUS
 62
               4
100
AcDbCircle
 10
10.549999999999955
 20
29.190196925921327
 30
0.0
 40
0.3
100
AcDbArc
 50
180.0
 51
263.48210579102283
  0
LINE
  5
4B4
100
AcDbEntity
  8
0
  6
CONTINUOUS
 62
               4
100
AcDbLine
 10
17.399999999999977
 20
38.199984741210869
 30
0.0
 11
17.834041755690464
 21
37.949390616723463
 31
0.0
  0
LINE
  5
4B5
100
AcDbEntity
  8
0
  6
CONTINUOUS
 62
               4
100
AcDbLine
 10
1.6000000000000227
 20
38.199984741210869
 30
0.0
 11
1.165958244309536
 21
37.949390616723463
 31
0.0
  0
LINE
  5
4B6
100
AcDbEntity
  8
0
  6
CONTINUOUS
 62
               4
100
AcDbLine
 10
1.6000000000000227
 20
19.199984741210869
 30
0.0
 11
1.165958244309536
 21
18.949390616723463
 31
0.0
  0
LINE
  5
4B7
100
AcDbEntity
  8
0
  6
CONTINUOUS
 62
               4
100
AcDbLine
 10
1.6000000000000227
 20
20.799984741210892
 30
0.0
 11
1.165958244309536
 21
21.050578865698299
 31
0.0
  0
LINE
  5
4B8
100
AcDbEntity
  8
0
  6
CONTINUOUS
 62
               4
100
AcDbLine
 10
1.6000000000000227
 20
19.199984741210869
 30
0.0
 11
1.6000000000000227
 21
20.799984735250405
 31
0.0
  0
LINE
  5
4B9
100
AcDbEntity
  8
0
  6
CONTINUOUS
 62
               4
100
AcDbLine
 10
17.399999999999977
 20
19.199984741210869
 30
0.0
 11
17.834041755690464
 21
18.949390616723463
 31
0.0
  0
LINE
  5
4BA
100
AcDbEntity
  8
0
  6
CONTINUOUS
 62
               4
100
AcDbLine
 10
17.399999999999977
 20
20.799984741210892
 30
0.0
 11
17.834041755690464
 21
21.050578865698299
 31
0.0
  0
LINE
  5
4BB
100
AcDbEntity
  8
0
  6
CONTINUOUS
 62
               4
100
AcDbLine
 10
17.399999999999977
 20
19.199984741210869
 30
0.0
 11
17.399999999999977
 21
20.799984735250405
 31
0.0
  0
LINE
  5
4BC
100
AcDbEntity
  8
0
  6
CONTINUOUS
 62
               4
100
AcDbLine
 10
13.221160531044006
 20
11.860238779055294
 30
0.0
 11
18.5
 21
11.860238779055294
 31
0.0
  0
LINE
  5
4BD
100
AcDbEntity
  8
0
  6
CONTINUOUS
 62
               4
100
AcDbLine
 10
13.221160527519828
 20
47.139730703366467
 30
0.0
 11
14.148214148469265
 21
47.139730703366467
 31
0.0
  0
LINE
  5
4BE
100
AcDbEntity
  8
0
  6
CONTINUOUS
 62
               4
100
AcDbLine
 10
4.851834472360224
 20
11.860238779055294
 30
0.0
 11
5.7788394689559937
 21
11.860238779055294
 31
0.0
  0
LINE
  5
4BF
100
AcDbEntity
  8
0
  6
CONTINUOUS
 62
             200
100
AcDbLine
 10
-1.0
 20
19.999984741210881
 30
0.0
 11
20.0
 21
19.999984741210881
 31
0.0
  0
ENDBLK
  5
4C0
100
AcDbEntity
  8
0
100
AcDbBlockEnd
  0
BLOCK
  5
4C1
100
AcDbEntity
  8
0
100
AcDbBlockBegin
  2
F10MSJ-10
 70
               0
 10
0.0
 20
0.0
 30
0.0
  3
F10MSJ-10
  1

  0
LINE
  5
4C2
100
AcDbEntity
  8
0
  6
CONTINUOUS
 62
             200
100
AcDbLine
 10
9.5
 20
-40.598320007324219
 30
0.0
 11
9.5
 21
-25.5
 31
0.0
  0
LINE
  5
4C4
100
AcDbEntity
  8
0
  6
CENTER
 62
               2
100
AcDbLine
 10
9.5
 20
-25.5
 30
0.0
 11
9.5
 21
64.829999999999998
 31
0.0
  0
LINE
  5
4C5
100
AcDbEntity
  8
0
  6
CONTINUOUS
 62
               7
100
AcDbLine
 10
0.0
 20
61.0
 30
0.0
 11
19.0
 21
61.0
 31
0.0
  0
LINE
  5
4C6
100
AcDbEntity
  8
0
  6
CONTINUOUS
 62
               7
100
AcDbLine
 10
0.0
 20
-17.5
 30
0.0
 11
19.0
 21
-17.5
 31
0.0
  0
LINE
  5
4C7
100
AcDbEntity
  8
0
  6
CONTINUOUS
 62
               7
100
AcDbLine
 10
0.0
 20
62.5
 30
0.0
 11
19.0
 21
62.5
 31
0.0
  0
LINE
  5
4C8
100
AcDbEntity
  8
0
  6
CONTINUOUS
 62
               7
100
AcDbLine
 10
0.0
 20
61.5
 30
0.0
 11
19.0
 21
61.5
 31
0.0
  0
LINE
  5
4C9
100
AcDbEntity
  8
0
  6
CONTINUOUS
 62
               7
100
AcDbLine
 10
0.0
 20
35.5
 30
0.0
 11
19.0
 21
35.5
 31
0.0
  0
LINE
  5
4CA
100
AcDbEntity
  8
0
  6
CONTINUOUS
 62
               4
100
AcDbLine
 10
0.5
 20
35.299972534179687
 30
0.0
 11
18.5
 21
35.299972534179687
 31
0.0
  0
LINE
  5
4CB
100
AcDbEntity
  8
0
  6
CONTINUOUS
 62
               4
100
AcDbLine
 10
0.5
 20
-17.300018310546875
 30
0.0
 11
18.5
 21
-17.300018310546875
 31
0.0
  0
LINE
  5
4CC
100
AcDbEntity
  8
0
  6
CONTINUOUS
 62
               4
100
AcDbLine
 10
16.0
 20
31.999984741210937
 30
0.0
 11
18.5
 21
31.999984741210937
 31
0.0
  0
LINE
  5
4CD
100
AcDbEntity
  8
0
  6
CONTINUOUS
 62
               4
100
AcDbLine
 10
16.0
 20
25.999984741210937
 30
0.0
 11
18.5
 21
25.999984741210937
 31
0.0
  0
LINE
  5
4CE
100
AcDbEntity
  8
0
  6
CONTINUOUS
 62
               4
100
AcDbLine
 10
0.5
 20
-14.000015258789063
 30
0.0
 11
3.0
 21
-14.000015258789063
 31
0.0
  0
LINE
  5
4CF
100
AcDbEntity
  8
0
  6
CONTINUOUS
 62
               4
100
AcDbLine
 10
0.5
 20
-8.0000152587890625
 30
0.0
 11
3.0
 21
-8.0000152587890625
 31
0.0
  0
LINE
  5
4D0
100
AcDbEntity
  8
0
  6
CONTINUOUS
 62
               4
100
AcDbLine
 10
6.0
 20
31.0
 30
0.0
 11
6.0
 21
35.29998779296875
 31
0.0
  0
LINE
  5
4D1
100
AcDbEntity
  8
0
  6
CONTINUOUS
 62
               4
100
AcDbLine
 10
3.0
 20
27.999984741210937
 30
0.0
 11
0.5
 21
27.999984741210937
 31
0.0
  0
LINE
  5
4D2
100
AcDbEntity
  8
0
  6
CONTINUOUS
 62
               4
100
AcDbLine
 10
0.5
 20
-15.300018310546875
 30
0.0
 11
13.0
 21
-15.300018310546875
 31
0.0
  0
LINE
  5
4D3
100
AcDbEntity
  8
0
  6
CONTINUOUS
 62
               4
100
AcDbLine
 10
6.0
 20
33.299972534179687
 30
0.0
 11
18.5
 21
33.299972534179687
 31
0.0
  0
LINE
  5
4D4
100
AcDbEntity
  8
0
  6
CONTINUOUS
 62
               4
100
AcDbLine
 10
18.5
 20
-17.300018310546875
 30
0.0
 11
18.5
 21
-14.260955810546875
 31
0.0
  0
LINE
  5
4D5
100
AcDbEntity
  8
0
  6
CONTINUOUS
 62
               4
100
AcDbLine
 10
0.5
 20
-17.300018310546875
 30
0.0
 11
0.5
 21
-14.000015258789063
 31
0.0
  0
LINE
  5
4D6
100
AcDbEntity
  8
0
  6
CONTINUOUS
 62
               4
100
AcDbLine
 10
16.0
 20
-10.000015258789062
 30
0.0
 11
18.5
 21
-10.000015258789062
 31
0.0
  0
LINE
  5
4D7
100
AcDbEntity
  8
0
  6
CONTINUOUS
 62
               4
100
AcDbLine
 10
13.0
 20
-13.0
 30
0.0
 11
13.0
 21
-17.300018310546875
 31
0.0
  0
LINE
  5
4D8
100
AcDbEntity
  8
0
  6
CONTINUOUS
 62
               4
100
AcDbLine
 10
0.5
 20
-8.0000152587890625
 30
0.0
 11
0.5
 21
29.739044189453125
 31
0.0
  0
LINE
  5
4D9
100
AcDbEntity
  8
0
  6
CONTINUOUS
 62
               4
100
AcDbLine
 10
18.5
 20
31.999984741210937
 30
0.0
 11
18.5
 21
35.299972534179687
 31
0.0
  0
LINE
  5
4DA
100
AcDbEntity
  8
0
  6
CONTINUOUS
 62
               4
100
AcDbLine
 10
0.5
 20
32.260955810546875
 30
0.0
 11
0.5
 21
35.299972534179687
 31
0.0
  0
LINE
  5
4DB
100
AcDbEntity
  8
0
  6
CONTINUOUS
 62
               4
100
AcDbLine
 10
18.5
 20
-11.739044189453125
 30
0.0
 11
18.5
 21
25.999984741210937
 31
0.0
  0
LINE
  5
4DC
100
AcDbEntity
  8
0
  6
CONTINUOUS
 62
               4
100
AcDbLine
 10
14.939372701802313
 20
-14.060674921698592
 30
0.0
 11
17.060693187871038
 21
-11.939354614443801
 31
0.0
  0
LINE
  5
4DD
100
AcDbEntity
  8
0
  6
CONTINUOUS
 62
               4
100
AcDbLine
 10
14.939394370399896
 20
-11.939268208289832
 30
0.0
 11
17.060714677654687
 21
-14.060588694358557
 31
0.0
  0
LINE
  5
4DE
100
AcDbEntity
  8
0
  6
CONTINUOUS
 62
               7
100
AcDbLine
 10
18.5
 20
-28.5
 30
0.0
 11
0.25
 21
-28.5
 31
0.0
  0
LINE
  5
4DF
100
AcDbEntity
  8
0
  6
CONTINUOUS
 62
               7
100
AcDbLine
 10
5.75
 20
-29.000001907348633
 30
0.0
 11
5.75
 21
-28.500001907348633
 31
0.0
  0
LINE
  5
4E0
100
AcDbEntity
  8
0
  6
CONTINUOUS
 62
               7
100
AcDbLine
 10
0.25
 20
-29.000003814697266
 30
0.0
 11
0.25
 21
-28.500003814697266
 31
0.0
  0
LINE
  5
4E1
100
AcDbEntity
  8
0
  6
CONTINUOUS
 62
               4
100
AcDbLine
 10
4.25
 20
-30.500001907348633
 30
0.0
 11
1.75
 21
-30.500001907348633
 31
0.0
  0
LINE
  5
4E2
100
AcDbEntity
  8
0
  6
CONTINUOUS
 62
               4
100
AcDbLine
 10
18.5
 20
-37.000001907348633
 30
0.0
 11
18.5
 21
-25.5
 31
0.0
  0
LINE
  5
4E3
100
AcDbEntity
  8
0
  6
CONTINUOUS
 62
               7
100
AcDbLine
 10
0.5
 20
-28.5
 30
0.0
 11
0.5
 21
-25.5
 31
0.0
  0
LINE
  5
4E4
100
AcDbEntity
  8
0
  6
CONTINUOUS
 62
               4
100
AcDbLine
 10
6.0
 20
-32.500001907348633
 30
0.0
 11
6.0
 21
-28.5
 31
0.0
  0
LINE
  5
4E5
100
AcDbEntity
  8
0
  6
CONTINUOUS
 62
               4
100
AcDbLine
 10
1.9394034554752579
 20
32.060737745646293
 30
0.0
 11
4.0607237627300492
 21
29.939417259577567
 31
0.0
  0
LINE
  5
4E6
100
AcDbEntity
  8
0
  6
CONTINUOUS
 62
               4
100
AcDbLine
 10
1.9393109801688979
 20
29.939293943012899
 30
0.0
 11
4.0606314662376235
 21
32.06061425026769
 31
0.0
  0
LINE
  5
4E7
100
AcDbEntity
  8
0
  6
CONTINUOUS
 62
               7
100
AcDbLine
 10
0.0
 20
-25.5
 30
0.0
 11
19.0
 21
-25.5
 31
0.0
  0
LINE
  5
4E8
100
AcDbEntity
  8
0
  6
CONTINUOUS
 62
               4
100
AcDbLine
 10
0.5
 20
-29.829158782958984
 30
0.0
 11
0.5
 21
-37.000001907348633
 31
0.0
  0
LINE
  5
4E9
100
AcDbEntity
  8
0
  6
CONTINUOUS
 62
               4
100
AcDbLine
 10
1.0
 20
-37.500001907348633
 30
0.0
 11
18.0
 21
-37.500001907348633
 31
0.0
  0
ARC
  5
4EA
100
AcDbEntity
  8
0
  6
CONTINUOUS
 62
               4
100
AcDbCircle
 10
16.0
 20
29.0
 30
0.0
 40
3.0
100
AcDbArc
 50
89.999982013910653
 51
269.99994604173196
  0
ARC
  5
4EB
100
AcDbEntity
  8
0
  6
CONTINUOUS
 62
               4
100
AcDbCircle
 10
3.0
 20
-11.0
 30
0.0
 40
3.0
100
AcDbArc
 50
269.99996334457597
 51
89.999982013910653
  0
ARC
  5
4EC
100
AcDbEntity
  8
0
  6
CONTINUOUS
 62
               4
100
AcDbCircle
 10
3.0
 20
31.0
 30
0.0
 40
3.0
100
AcDbArc
 50
270.00001798608935
 51
0.00001366037834
  0
ARC
  5
4ED
100
AcDbEntity
  8
0
  6
CONTINUOUS
 62
               4
100
AcDbCircle
 10
16.0
 20
-13.0
 30
0.0
 40
3.0
100
AcDbArc
 50
89.999982013910653
 51
179.99996402782131
  0
CIRCLE
  5
4EE
100
AcDbEntity
  8
0
  6
CONTINUOUS
 62
               4
100
AcDbCircle
 10
16.0
 20
-13.0
 30
0.0
 40
2.7999992370605469
  0
ARC
  5
4EF
100
AcDbEntity
  8
0
  6
CONTINUOUS
 62
               4
100
AcDbCircle
 10
1.75
 20
-29.000003814697266
 30
0.0
 40
1.5
100
AcDbArc
 50
180.00003597217869
 51
270.00001798608935
  0
ARC
  5
4F0
100
AcDbEntity
  8
0
  6
CONTINUOUS
 62
               4
100
AcDbCircle
 10
4.25
 20
-29.000001907348633
 30
0.0
 40
1.5
100
AcDbArc
 50
270.00001798608935
 51
359.99995901886496
  0
CIRCLE
  5
4F1
100
AcDbEntity
  8
0
  6
CONTINUOUS
 62
               4
100
AcDbCircle
 10
3.0
 20
31.0
 30
0.0
 40
2.7999992370605469
  0
ARC
  5
4F2
100
AcDbEntity
  8
0
  6
CONTINUOUS
 62
               4
100
AcDbCircle
 10
1.0
 20
-37.000001907348633
 30
0.0
 40
0.5
100
AcDbArc
 50
179.99998133066532
 51
270.00001798608935
  0
ARC
  5
4F3
100
AcDbEntity
  8
0
  6
CONTINUOUS
 62
               4
100
AcDbCircle
 10
18.0
 20
-37.000001907348633
 30
0.0
 40
0.5
100
AcDbArc
 50
270.00001798608935
 51
0.0
  0
LINE
  5
4F4
100
AcDbEntity
  8
0
  6
CONTINUOUS
 62
               4
100
AcDbLine
 10
18.5
 20
-32.500001907348633
 30
0.0
 11
0.5
 21
-32.500001907348633
 31
0.0
  0
LINE
  5
4F5
100
AcDbEntity
  8
0
  6
CONTINUOUS
 62
               7
100
AcDbLine
 10
19.0
 20
-25.5
 30
0.0
 11
19.0
 21
62.5
 31
0.0
  0
LINE
  5
4F6
100
AcDbEntity
  8
0
  6
CONTINUOUS
 62
               7
100
AcDbLine
 10
0.0
 20
-25.5
 30
0.0
 11
0.0
 21
62.5
 31
0.0
  0
LINE
  5
4F7
100
AcDbEntity
  8
0
  6
CONTINUOUS
 62
               2
100
AcDbLine
 10
9.5
 20
-25.5
 30
0.0
 11
9.5
 21
64.833328247070313
 31
0.0
  0
ENDBLK
  5
4F8
100
AcDbEntity
  8
0
100
AcDbBlockEnd
  0
BLOCK
  5
4F9
100
AcDbEntity
  8
0
100
AcDbBlockBegin
  2
F10MSJ-11
 70
               0
 10
0.0
 20
0.0
 30
0.0
  3
F10MSJ-11
  1

  0
LINE
  5
4FA
100
AcDbEntity
  8
0
  6
CONTINUOUS
 62
               2
100
AcDbLine
 10
-6.5199999999999818
 20
0.0
 30
0.0
 11
6.7800000000000011
 21
0.0
 31
0.0
  0
ARC
  5
4FB
100
AcDbEntity
  8
0
  6
DASHED
 62
               2
100
AcDbCircle
 10
62.800247132730561
 20
-48.500247132730522
 30
0.0
 40
1.1997528927224428
100
AcDbArc
 50
269.98819785088637
 51
0.011802149112902
  0
ARC
  5
4FC
100
AcDbEntity
  8
0
  6
DASHED
 62
               2
100
AcDbCircle
 10
44.198467127072576
 20
-48.501532872927413
 30
0.0
 40
1.1984681073658274
100
AcDbArc
 50
179.92671713775522
 51
270.07328286224481
  0
LINE
  5
4FD
100
AcDbEntity
  8
0
  6
CONTINUOUS
 62
               7
100
AcDbLine
 10
56.000000000000028
 20
49.70000000000001
 30
0.0
 11
56.000000000000028
 21
61.0
 31
0.0
  0
LINE
  5
4FE
100
AcDbEntity
  8
0
  6
CONTINUOUS
 62
               7
100
AcDbLine
 10
56.000000000000028
 20
61.0
 30
0.0
 11
44.999999999999972
 21
61.0
 31
0.0
  0
LINE
  5
4FF
100
AcDbEntity
  8
0
  6
DASHED
 62
               2
100
AcDbLine
 10
1.0
 20
-23.5
 30
0.0
 11
1.0
 21
-16.0
 31
0.0
  0
LINE
  5
500
100
AcDbEntity
  8
0
  6
DASHED
 62
               2
100
AcDbLine
 10
4.0
 20
62.500000000000007
 30
0.0
 11
44.999999999999972
 21
62.500000000000007
 31
0.0
  0
LINE
  5
501
100
AcDbEntity
  8
0
  6
DASHED
 62
               2
100
AcDbLine
 10
1.0
 20
-23.5
 30
0.0
 11
3.0
 21
-25.5
 31
0.0
  0
LINE
  5
502
100
AcDbEntity
  8
0
  6
DASHED
 62
               2
100
AcDbLine
 10
3.0
 20
-28.5
 30
0.0
 11
3.0
 21
-25.5
 31
0.0
  0
LINE
  5
503
100
AcDbEntity
  8
0
  6
DASHED
 62
               2
100
AcDbLine
 10
3.0
 20
-28.5
 30
0.0
 11
3.2000000000000171
 21
-28.699999999999989
 31
0.0
  0
LINE
  5
504
100
AcDbEntity
  8
0
  6
DASHED
 62
               2
100
AcDbLine
 10
1.5
 20
-15.5
 30
0.0
 11
6.5
 21
-15.5
 31
0.0
  0
LINE
  5
505
100
AcDbEntity
  8
0
  6
DASHED
 62
               2
100
AcDbLine
 10
1.0
 20
20.570000000000007
 30
0.0
 11
1.0
 21
59.500000000000007
 31
0.0
  0
LINE
  5
506
100
AcDbEntity
  8
0
  6
DASHED
 62
               2
100
AcDbLine
 10
1.5
 20
-15.5
 30
0.0
 11
1.0
 21
-16.0
 31
0.0
  0
LINE
  5
507
100
AcDbEntity
  8
0
  6
DASHED
 62
               2
100
AcDbLine
 10
1.0
 20
20.570000000000007
 30
0.0
 11
2.0
 21
20.100000000000009
 31
0.0
  0
LINE
  5
508
100
AcDbEntity
  8
0
  6
DASHED
 62
               2
100
AcDbLine
 10
6.5
 20
-15.5
 30
0.0
 11
6.5
 21
-14.5
 31
0.0
  0
LINE
  5
509
100
AcDbEntity
  8
0
  6
DASHED
 62
               2
100
AcDbLine
 10
6.5
 20
14.5
 30
0.0
 11
6.5
 21
15.5
 31
0.0
  0
LINE
  5
50A
100
AcDbEntity
  8
0
  6
DASHED
 62
               2
100
AcDbLine
 10
0.0
 20
-14.5
 30
0.0
 11
6.5
 21
-14.5
 31
0.0
  0
LINE
  5
50B
100
AcDbEntity
  8
0
  6
DASHED
 62
               2
100
AcDbLine
 10
0.0
 20
14.5
 30
0.0
 11
6.5
 21
14.5
 31
0.0
  0
LINE
  5
50C
100
AcDbEntity
  8
0
  6
DASHED
 62
               2
100
AcDbLine
 10
0.0
 20
-14.5
 30
0.0
 11
0.0
 21
14.5
 31
0.0
  0
LINE
  5
50D
100
AcDbEntity
  8
0
  6
DASHED
 62
               2
100
AcDbLine
 10
4.0
 20
15.5
 30
0.0
 11
4.2000000000000171
 21
15.5
 31
0.0
  0
LINE
  5
50E
100
AcDbEntity
  8
0
  6
DASHED
 62
               2
100
AcDbLine
 10
2.0
 20
17.5
 30
0.0
 11
2.0
 21
20.100000000000009
 31
0.0
  0
LINE
  5
50F
100
AcDbEntity
  8
0
  6
DASHED
 62
               2
100
AcDbLine
 10
2.0
 20
17.5
 30
0.0
 11
4.0
 21
15.5
 31
0.0
  0
LINE
  5
510
100
AcDbEntity
  8
0
  6
DASHED
 62
               2
100
AcDbLine
 10
3.2000000000000171
 20
-28.699999999999989
 30
0.0
 11
3.2000000000000171
 21
-30.5
 31
0.0
  0
LINE
  5
511
100
AcDbEntity
  8
0
  6
DASHED
 62
               2
100
AcDbLine
 10
44.999999999999972
 20
62.500000000000007
 30
0.0
 11
44.999999999999972
 21
49.70000000000001
 31
0.0
  0
LINE
  5
512
100
AcDbEntity
  8
0
  6
DASHED
 62
               2
100
AcDbLine
 10
3.2000000000000171
 20
-30.5
 30
0.0
 11
7.9000000000000057
 21
-30.5
 31
0.0
  0
LINE
  5
513
100
AcDbEntity
  8
0
  6
DASHED
 62
               2
100
AcDbLine
 10
3.5
 20
-33.5
 30
0.0
 11
7.9000000000000057
 21
-33.5
 31
0.0
  0
LINE
  5
514
100
AcDbEntity
  8
0
  6
DASHED
 62
               2
100
AcDbLine
 10
3.5
 20
-33.5
 30
0.0
 11
3.5
 21
-45.0
 31
0.0
  0
LINE
  5
515
100
AcDbEntity
  8
0
  6
DASHED
 62
               2
100
AcDbLine
 10
74.30000000000004
 20
45.0
 30
0.0
 11
66.000000000000028
 21
45.0
 31
0.0
  0
LINE
  5
516
100
AcDbEntity
  8
0
  6
DASHED
 62
               2
100
AcDbLine
 10
74.30000000000004
 20
-45.0
 30
0.0
 11
66.000000000000028
 21
-45.0
 31
0.0
  0
LINE
  5
517
100
AcDbEntity
  8
0
  6
DASHED
 62
               2
100
AcDbLine
 10
74.30000000000004
 20
45.0
 30
0.0
 11
74.30000000000004
 21
-45.0
 31
0.0
  0
LINE
  5
518
100
AcDbEntity
  8
0
  6
DASHED
 62
               2
100
AcDbLine
 10
4.7000000000000171
 20
15.0
 30
0.0
 11
6.1000000000000227
 21
15.0
 31
0.0
  0
LINE
  5
519
100
AcDbEntity
  8
0
  6
DASHED
 62
               2
100
AcDbLine
 10
4.2000000000000171
 20
15.5
 30
0.0
 11
4.7000000000000171
 21
15.0
 31
0.0
  0
LINE
  5
51A
100
AcDbEntity
  8
0
  6
DASHED
 62
               2
100
AcDbLine
 10
6.1000000000000227
 20
15.0
 30
0.0
 11
6.1899999999999977
 21
15.5
 31
0.0
  0
LINE
  5
51B
100
AcDbEntity
  8
0
  6
DASHED
 62
               2
100
AcDbLine
 10
6.1899999999999977
 20
15.5
 30
0.0
 11
6.5
 21
15.5
 31
0.0
  0
LINE
  5
51C
100
AcDbEntity
  8
0
  6
DASHED
 62
               2
100
AcDbLine
 10
42.499999999999972
 20
-48.5
 30
0.0
 11
42.999999999999972
 21
-48.5
 31
0.0
  0
LINE
  5
51D
100
AcDbEntity
  8
0
  6
DASHED
 62
               2
100
AcDbLine
 10
40.999999999999972
 20
-47.0
 30
0.0
 11
40.999999999999972
 21
-45.0
 31
0.0
  0
LINE
  5
51E
100
AcDbEntity
  8
0
  6
DASHED
 62
               2
100
AcDbLine
 10
66.000000000000028
 20
-47.0
 30
0.0
 11
66.000000000000028
 21
-45.0
 31
0.0
  0
LINE
  5
51F
100
AcDbEntity
  8
0
  6
DASHED
 62
               2
100
AcDbLine
 10
64.000000000000028
 20
-48.5
 30
0.0
 11
64.500000000000028
 21
-48.5
 31
0.0
  0
LINE
  5
520
100
AcDbEntity
  8
0
  6
DASHED
 62
               2
100
AcDbLine
 10
66.000000000000028
 20
47.0
 30
0.0
 11
66.000000000000028
 21
45.0
 31
0.0
  0
LINE
  5
521
100
AcDbEntity
  8
0
  6
DASHED
 62
               2
100
AcDbLine
 10
44.999999999999972
 20
49.70000000000001
 30
0.0
 11
62.80000000000004
 21
49.70000000000001
 31
0.0
  0
LINE
  5
522
100
AcDbEntity
  8
0
  6
DASHED
 62
               2
100
AcDbLine
 10
64.000000000000028
 20
48.5
 30
0.0
 11
64.500000000000028
 21
48.5
 31
0.0
  0
LINE
  5
523
100
AcDbEntity
  8
0
  6
DASHED
 62
               2
100
AcDbLine
 10
40.999999999999972
 20
-45.0
 30
0.0
 11
3.5
 21
-45.0
 31
0.0
  0
ARC
  5
524
100
AcDbEntity
  8
0
  6
DASHED
 62
               2
100
AcDbCircle
 10
4.0002469728813708
 20
59.499753027118636
 30
0.0
 40
3.000246983046468
100
AcDbArc
 50
90.004716446296811
 51
179.99528355370319
  0
ARC
  5
525
100
AcDbEntity
  8
0
  6
DASHED
 62
               2
100
AcDbCircle
 10
10.498715666173325
 20
-32.0
 30
0.0
 40
3.0005538011531523
100
AcDbArc
 50
150.00610521671547
 51
209.99389478328453
  0
ARC
  5
526
100
AcDbEntity
  8
0
  6
DASHED
 62
               2
100
AcDbCircle
 10
42.498468648197189
 20
-47.001531351802782
 30
0.0
 40
1.4984694306752973
100
AcDbArc
 50
179.94144691328017
 51
270.05855308671983
  0
ARC
  5
527
100
AcDbEntity
  8
0
  6
DASHED
 62
               2
100
AcDbCircle
 10
64.500245800330759
 20
-47.000245800330731
 30
0.0
 40
1.4997542198118277
100
AcDbArc
 50
269.99060958026877
 51
0.0093904197306561
  0
ARC
  5
528
100
AcDbEntity
  8
0
  6
DASHED
 62
               2
100
AcDbCircle
 10
64.498468607662147
 20
46.998468607662161
 30
0.0
 40
1.5015321732611955
100
AcDbArc
 50
0.0584352000646074
 51
89.941564799935392
  0
ARC
  5
529
100
AcDbEntity
  8
0
  6
DASHED
 62
               2
100
AcDbCircle
 10
62.798470128159721
 20
48.49847012815971
 30
0.0
 40
1.2015308458098004
100
AcDbArc
 50
0.0729529530056469
 51
89.927047046993678
  0
LINE
  5
52A
100
AcDbEntity
  8
0
  6
DASHED
 62
               2
100
AcDbLine
 10
44.200000000000017
 20
-49.699999999999989
 30
0.0
 11
62.80000000000004
 21
-49.699999999999989
 31
0.0
  0
ENDBLK
  5
52B
100
AcDbEntity
  8
0
100
AcDbBlockEnd
  0
BLOCK
  5
52C
100
AcDbEntity
  8
0
100
AcDbBlockBegin
  2
F10MSJ-12
 70
               0
 10
0.0
 20
0.0
 30
0.0
  3
F10MSJ-12
  1

  0
LINE
  5
52D
100
AcDbEntity
  8
0
  6
CONTINUOUS
 62
               7
100
AcDbLine
 10
47.79998474121237
 20
-49.700000000000017
 30
0.0
 11
47.999984741212302
 21
-49.900000000000006
 31
0.0
  0
LINE
  5
52E
100
AcDbEntity
  8
0
  6
CONTINUOUS
 62
               7
100
AcDbLine
 10
6.5
 20
-17.049999999999955
 30
0.0
 11
6.4113270459830574
 21
-16.429289321881356
 31
0.0
  0
LINE
  5
52F
100
AcDbEntity
  8
0
  6
CONTINUOUS
 62
               7
100
AcDbLine
 10
35.0
 20
45.0
 30
0.0
 11
35.0
 21
62.5
 31
0.0
  0
LINE
  5
530
100
AcDbEntity
  8
0
  6
CONTINUOUS
 62
               7
100
AcDbLine
 10
3.20001220703125
 20
-28.699996948242188
 30
0.0
 11
3.20001220703125
 21
-30.5
 31
0.0
  0
LINE
  5
531
100
AcDbEntity
  8
0
  6
CONTINUOUS
 62
               7
100
AcDbLine
 10
3.5000000000013642
 20
-29.000000000001364
 30
0.0
 11
3.0
 21
-28.5
 31
0.0
  0
LINE
  5
532
100
AcDbEntity
  8
0
  6
CONTINUOUS
 62
               7
100
AcDbLine
 10
3.20001220703125
 20
-30.5
 30
0.0
 11
3.5000000000013642
 21
-30.5
 31
0.0
  0
LINE
  5
533
100
AcDbEntity
  8
0
  6
CONTINUOUS
 62
               7
100
AcDbLine
 10
6.5
 20
-17.5
 30
0.0
 11
7.5
 21
-17.5
 31
0.0
  0
LINE
  5
534
100
AcDbEntity
  8
0
  6
CONTINUOUS
 62
               7
100
AcDbLine
 10
6.5
 20
-17.5
 30
0.0
 11
6.5
 21
-14.5
 31
0.0
  0
LINE
  5
535
100
AcDbEntity
  8
0
  6
CONTINUOUS
 62
               7
100
AcDbLine
 10
6.5
 20
14.5
 30
0.0
 11
6.5
 21
17.5
 31
0.0
  0
LINE
  5
536
100
AcDbEntity
  8
0
  6
CONTINUOUS
 62
               7
100
AcDbLine
 10
2.0
 20
12.5
 30
0.0
 11
7.5
 21
12.5
 31
0.0
  0
LINE
  5
537
100
AcDbEntity
  8
0
  6
CONTINUOUS
 62
               7
100
AcDbLine
 10
2.0
 20
-12.5
 30
0.0
 11
7.5
 21
-12.5
 31
0.0
  0
LINE
  5
538
100
AcDbEntity
  8
0
  6
CONTINUOUS
 62
               7
100
AcDbLine
 10
0.0
 20
-14.5
 30
0.0
 11
6.5
 21
-14.5
 31
0.0
  0
LINE
  5
539
100
AcDbEntity
  8
0
  6
CONTINUOUS
 62
               7
100
AcDbLine
 10
0.0
 20
14.5
 30
0.0
 11
6.5
 21
14.5
 31
0.0
  0
LINE
  5
53A
100
AcDbEntity
  8
0
  6
CONTINUOUS
 62
               7
100
AcDbLine
 10
0.0
 20
-14.5
 30
0.0
 11
0.0
 21
14.5
 31
0.0
  0
LINE
  5
53B
100
AcDbEntity
  8
0
  6
CONTINUOUS
 62
               7
100
AcDbLine
 10
2.0
 20
-12.5
 30
0.0
 11
2.0
 21
12.5
 31
0.0
  0
ARC
  5
53C
100
AcDbEntity
  8
0
  6
CONTINUOUS
 62
               7
100
AcDbCircle
 10
4.0
 20
59.5
 30
0.0
 40
3.0
100
AcDbArc
 50
89.999963344575988
 51
179.99994535848663
  0
LINE
  5
53D
100
AcDbEntity
  8
0
  6
CONTINUOUS
 62
               7
100
AcDbLine
 10
1.0000000000001137
 20
-23.5
 30
0.0
 11
1.0000000000001137
 21
-21.03099977800747
 31
0.0
  0
LINE
  5
53E
100
AcDbEntity
  8
0
  6
CONTINUOUS
 62
               7
100
AcDbLine
 10
1.0000000000001137
 20
-23.5
 30
0.0
 11
3.0
 21
-25.5
 31
0.0
  0
LINE
  5
53F
100
AcDbEntity
  8
0
  6
CONTINUOUS
 62
               7
100
AcDbLine
 10
3.5000000000013642
 20
19.86523063261933
 30
0.0
 11
1.0
 21
21.03099977800747
 31
0.0
  0
LINE
  5
540
100
AcDbEntity
  8
0
  6
CONTINUOUS
 62
               7
100
AcDbLine
 10
3.5000000000013642
 20
-19.86523063261933
 30
0.0
 11
1.0
 21
-21.03099977800747
 31
0.0
  0
LINE
  5
541
100
AcDbEntity
  8
0
  6
CONTINUOUS
 62
               7
100
AcDbLine
 10
1.0
 20
59.500000000000057
 30
0.0
 11
1.0
 21
21.03099977800747
 31
0.0
  0
LINE
  5
542
100
AcDbEntity
  8
0
  6
CONTINUOUS
 62
               7
100
AcDbLine
 10
2.8500000000000227
 20
20.168330610420725
 30
0.0
 11
2.8500000000000227
 21
18.0
 31
0.0
  0
LINE
  5
543
100
AcDbEntity
  8
0
  6
CONTINUOUS
 62
               7
100
AcDbLine
 10
5.916352299152436
 20
16.0
 30
0.0
 11
4.8500000000000227
 21
16.0
 31
0.0
  0
ARC
  5
544
100
AcDbEntity
  8
0
  6
CONTINUOUS
 62
               7
100
AcDbCircle
 10
4.8500000000000227
 20
18.0
 30
0.0
 40
2.0
100
AcDbArc
 50
180.0
 51
270.0
  0
ARC
  5
545
100
AcDbEntity
  8
0
  6
CONTINUOUS
 62
               7
100
AcDbCircle
 10
5.916352299152436
 20
16.5
 30
0.0
 40
0.5
100
AcDbArc
 50
270.0
 51
351.86989764584399
  0
LINE
  5
546
100
AcDbEntity
  8
0
  6
CONTINUOUS
 62
               7
100
AcDbLine
 10
5.916352299152436
 20
-16.0
 30
0.0
 11
4.8500000000000227
 21
-16.0
 31
0.0
  0
ARC
  5
547
100
AcDbEntity
  8
0
  6
CONTINUOUS
 62
               7
100
AcDbCircle
 10
4.8500000000000227
 20
-18.0
 30
0.0
 40
2.0
100
AcDbArc
 50
90.0
 51
180.0
  0
LINE
  5
548
100
AcDbEntity
  8
0
  6
CONTINUOUS
 62
               7
100
AcDbLine
 10
2.8500000000000227
 20
-18.0
 30
0.0
 11
2.8500000000000227
 21
-20.168330610420696
 31
0.0
  0
ARC
  5
549
100
AcDbEntity
  8
0
  6
CONTINUOUS
 62
               7
100
AcDbCircle
 10
5.916352299152436
 20
-16.5
 30
0.0
 40
0.5
100
AcDbArc
 50
8.1301023541559339
 51
90.000000000000014
  0
LINE
  5
54A
100
AcDbEntity
  8
0
  6
CONTINUOUS
 62
               7
100
AcDbLine
 10
6.6071432931082654
 20
-17.800003051757812
 30
0.0
 11
6.5642857142856883
 21
-17.5
 31
0.0
  0
LINE
  5
54B
100
AcDbEntity
  8
0
  6
CONTINUOUS
 62
               7
100
AcDbLine
 10
6.5
 20
17.049999999999841
 30
0.0
 11
6.4113270459830574
 21
16.429289321881356
 31
0.0
  0
LINE
  5
54C
100
AcDbEntity
  8
0
  6
CONTINUOUS
 62
               7
100
AcDbLine
 10
3.0
 20
-28.5
 30
0.0
 11
3.0
 21
-25.5
 31
0.0
  0
LINE
  5
54D
100
AcDbEntity
  8
0
  6
CONTINUOUS
 62
               7
100
AcDbLine
 10
1.0
 20
30.5
 30
0.0
 11
5.5000000000013642
 21
30.5
 31
0.0
  0
LINE
  5
54E
100
AcDbEntity
  8
0
  6
CONTINUOUS
 62
               7
100
AcDbLine
 10
4.0
 20
62.5
 30
0.0
 11
35.0
 21
62.5
 31
0.0
  0
LINE
  5
54F
100
AcDbEntity
  8
0
  6
CONTINUOUS
 62
               7
100
AcDbLine
 10
7.3999938964857392
 20
35.5
 30
0.0
 11
7.3999938964857392
 21
28.5
 31
0.0
  0
LINE
  5
550
100
AcDbEntity
  8
0
  6
CONTINUOUS
 62
               7
100
AcDbLine
 10
5.5000000000013642
 20
35.5
 30
0.0
 11
5.5000000000013642
 21
28.5
 31
0.0
  0
LINE
  5
551
100
AcDbEntity
  8
0
  6
CONTINUOUS
 62
               2
100
AcDbLine
 10
-1.9847869873033233
 20
0.0
 30
0.0
 11
76.818511962891989
 21
0.0
 31
0.0
  0
ARC
  5
552
100
AcDbEntity
  8
0
  6
CONTINUOUS
 62
               7
100
AcDbCircle
 10
73.800003051759177
 20
-44.5
 30
0.0
 40
0.5
100
AcDbArc
 50
270.00001798608935
 51
359.99998201391094
  0
ARC
  5
553
100
AcDbEntity
  8
0
  6
CONTINUOUS
 62
               7
100
AcDbCircle
 10
73.800003051759177
 20
44.5
 30
0.0
 40
0.5
100
AcDbArc
 50
359.99998201391094
 51
90.000036655424012
  0
LINE
  5
554
100
AcDbEntity
  8
0
  6
CONTINUOUS
 62
               7
100
AcDbLine
 10
74.300003051759177
 20
44.5
 30
0.0
 11
74.300003051759177
 21
-44.5
 31
0.0
  0
LINE
  5
555
100
AcDbEntity
  8
0
  6
CONTINUOUS
 62
               7
100
AcDbLine
 10
63.500000000001364
 20
7.0
 30
0.0
 11
63.500000000001364
 21
-7.0
 31
0.0
  0
LINE
  5
556
100
AcDbEntity
  8
0
  6
CONTINUOUS
 62
               7
100
AcDbLine
 10
15.500000000001364
 20
-27.0
 30
0.0
 11
10.500000000001364
 21
-27.0
 31
0.0
  0
LINE
  5
557
100
AcDbEntity
  8
0
  6
CONTINUOUS
 62
               7
100
AcDbLine
 10
15.500000000001364
 20
27.0
 30
0.0
 11
10.500000000001364
 21
27.0
 31
0.0
  0
LINE
  5
558
100
AcDbEntity
  8
0
  6
CONTINUOUS
 62
               7
100
AcDbLine
 10
63.500000000001364
 20
-7.0
 30
0.0
 11
68.500000000001364
 21
-7.0
 31
0.0
  0
LINE
  5
559
100
AcDbEntity
  8
0
  6
CONTINUOUS
 62
               7
100
AcDbLine
 10
63.500000000001364
 20
7.0
 30
0.0
 11
68.500000000001364
 21
7.0
 31
0.0
  0
LINE
  5
55A
100
AcDbEntity
  8
0
  6
CONTINUOUS
 62
               7
100
AcDbLine
 10
68.500000000001364
 20
45.0
 30
0.0
 11
68.500000000001364
 21
-45.0
 31
0.0
  0
LINE
  5
55B
100
AcDbEntity
  8
0
  6
CONTINUOUS
 62
               7
100
AcDbLine
 10
15.500000000001364
 20
-27.0
 30
0.0
 11
15.500000000001364
 21
-45.0
 31
0.0
  0
LINE
  5
55C
100
AcDbEntity
  8
0
  6
CONTINUOUS
 62
               7
100
AcDbLine
 10
15.500000000001364
 20
45.0
 30
0.0
 11
15.500000000001364
 21
27.0
 31
0.0
  0
LINE
  5
55D
100
AcDbEntity
  8
0
  6
CONTINUOUS
 62
               7
100
AcDbLine
 10
73.800003051759177
 20
-45.0
 30
0.0
 11
3.5000000000013642
 21
-45.0
 31
0.0
  0
LINE
  5
55E
100
AcDbEntity
  8
0
  6
CONTINUOUS
 62
               7
100
AcDbLine
 10
73.800003051759177
 20
45.0
 30
0.0
 11
3.5000000000013642
 21
45.0
 31
0.0
  0
LINE
  5
55F
100
AcDbEntity
  8
0
  6
CONTINUOUS
 62
               7
100
AcDbLine
 10
10.500000000001364
 20
27.0
 30
0.0
 11
10.500000000001364
 21
-27.0
 31
0.0
  0
ARC
  5
560
100
AcDbEntity
  8
0
  6
CONTINUOUS
 62
               7
100
AcDbCircle
 10
10.500000000001364
 20
-32.0
 30
0.0
 40
3.0
100
AcDbArc
 50
150.00002466469778
 51
210.00001267397155
  0
LINE
  5
561
100
AcDbEntity
  8
0
  6
CONTINUOUS
 62
               7
100
AcDbLine
 10
3.5000000000013642
 20
28.5
 30
0.0
 11
3.5000000000013642
 21
17.5
 31
0.0
  0
LINE
  5
562
100
AcDbEntity
  8
0
  6
CONTINUOUS
 62
               7
100
AcDbLine
 10
3.5000000000013642
 20
-33.5
 30
0.0
 11
3.5000000000013642
 21
-45.0
 31
0.0
  0
LINE
  5
563
100
AcDbEntity
  8
0
  6
CONTINUOUS
 62
               7
100
AcDbLine
 10
7.5000000000013642
 20
35.5
 30
0.0
 11
7.5000000000013642
 21
28.5
 31
0.0
  0
CIRCLE
  5
564
100
AcDbEntity
  8
0
  6
CONTINUOUS
 62
               7
100
AcDbCircle
 10
10.500000000001364
 20
32.0
 30
0.0
 40
1.6000003814697266
  0
CIRCLE
  5
565
100
AcDbEntity
  8
0
  6
CONTINUOUS
 62
               7
100
AcDbCircle
 10
10.500000000001364
 20
-32.0
 30
0.0
 40
1.6000003814697266
  0
ARC
  5
566
100
AcDbEntity
  8
0
  6
CONTINUOUS
 62
               7
100
AcDbCircle
 10
10.500000000001364
 20
-32.0
 30
0.0
 40
3.5
100
AcDbArc
 50
270.00001798608935
 51
89.999982013910653
  0
ARC
  5
567
100
AcDbEntity
  8
0
  6
CONTINUOUS
 62
               7
100
AcDbCircle
 10
10.500000000001364
 20
32.0
 30
0.0
 40
3.5
100
AcDbArc
 50
270.00001798608935
 51
89.999982013910653
  0
LINE
  5
568
100
AcDbEntity
  8
0
  6
CONTINUOUS
 62
               7
100
AcDbLine
 10
3.5000000000013642
 20
-35.5
 30
0.0
 11
10.500000000001364
 21
-35.5
 31
0.0
  0
LINE
  5
569
100
AcDbEntity
  8
0
  6
CONTINUOUS
 62
               7
100
AcDbLine
 10
3.5000000000013642
 20
-28.5
 30
0.0
 11
10.500000000001364
 21
-28.5
 31
0.0
  0
LINE
  5
56A
100
AcDbEntity
  8
0
  6
CONTINUOUS
 62
               7
100
AcDbLine
 10
3.5000000000013642
 20
35.5
 30
0.0
 11
10.500000000001364
 21
35.5
 31
0.0
  0
LINE
  5
56B
100
AcDbEntity
  8
0
  6
CONTINUOUS
 62
               7
100
AcDbLine
 10
3.5000000000013642
 20
28.5
 30
0.0
 11
10.500000000001364
 21
28.5
 31
0.0
  0
LINE
  5
56C
100
AcDbEntity
  8
0
  6
CONTINUOUS
 62
               7
100
AcDbLine
 10
3.5000000000013642
 20
-33.5
 30
0.0
 11
7.9019165039076142
 21
-33.5
 31
0.0
  0
LINE
  5
56D
100
AcDbEntity
  8
0
  6
CONTINUOUS
 62
               7
100
AcDbLine
 10
3.5000000000013642
 20
-30.5
 30
0.0
 11
7.9019165039076142
 21
-30.5
 31
0.0
  0
LINE
  5
56E
100
AcDbEntity
  8
0
  6
CONTINUOUS
 62
               7
100
AcDbLine
 10
3.5000000000013642
 20
-17.800003051757812
 30
0.0
 11
3.5000000000013642
 21
-30.5
 31
0.0
  0
LINE
  5
56F
100
AcDbEntity
  8
0
  6
CONTINUOUS
 62
               7
100
AcDbLine
 10
7.5000000000013642
 20
17.5
 30
0.0
 11
7.5000000000013642
 21
-17.800003051757812
 31
0.0
  0
LINE
  5
570
100
AcDbEntity
  8
0
  6
CONTINUOUS
 62
               7
100
AcDbLine
 10
3.5000000000013642
 20
-17.800003051757812
 30
0.0
 11
7.5000000000013642
 21
-17.800003051757812
 31
0.0
  0
LINE
  5
571
100
AcDbEntity
  8
0
  6
CONTINUOUS
 62
               7
100
AcDbLine
 10
3.5000000000013642
 20
17.5
 30
0.0
 11
7.5000000000013642
 21
17.5
 31
0.0
  0
LINE
  5
572
100
AcDbEntity
  8
0
  6
CONTINUOUS
 62
               7
100
AcDbLine
 10
3.5000000000013642
 20
45.0
 30
0.0
 11
3.5000000000013642
 21
35.5
 31
0.0
  0
ARC
  5
573
100
AcDbEntity
  8
0
  6
CONTINUOUS
 62
               7
100
AcDbCircle
 10
34.500000000001364
 20
62.0
 30
0.0
 40
0.5
100
AcDbArc
 50
0.0
 51
89.999982013910653
  0
LINE
  5
574
100
AcDbEntity
  8
0
  6
CONTINUOUS
 62
               7
100
AcDbLine
 10
36.600006103516989
 20
51.5
 30
0.0
 11
36.600006103516989
 21
45.0
 31
0.0
  0
LINE
  5
575
100
AcDbEntity
  8
0
  6
CONTINUOUS
 62
               7
100
AcDbLine
 10
35.000000000001364
 20
51.5
 30
0.0
 11
36.600006103516989
 21
51.5
 31
0.0
  0
LINE
  5
576
100
AcDbEntity
  8
0
  6
CONTINUOUS
 62
               7
100
AcDbLine
 10
35.000000000001364
 20
51.199996948242188
 30
0.0
 11
36.600006103516989
 21
51.199996948242188
 31
0.0
  0
LINE
  5
577
100
AcDbEntity
  8
0
  6
CONTINUOUS
 62
               7
100
AcDbLine
 10
38.500000000001364
 20
57.5
 30
0.0
 11
38.500000000001364
 21
45.0
 31
0.0
  0
LINE
  5
578
100
AcDbEntity
  8
0
  6
CONTINUOUS
 62
               7
100
AcDbLine
 10
42.500000000001364
 20
57.5
 30
0.0
 11
42.500000000001364
 21
48.499984741210937
 31
0.0
  0
LINE
  5
579
100
AcDbEntity
  8
0
  6
CONTINUOUS
 62
               7
100
AcDbLine
 10
38.500000000001364
 20
57.5
 30
0.0
 11
42.500000000001364
 21
57.5
 31
0.0
  0
LINE
  5
57A
100
AcDbEntity
  8
0
  6
CONTINUOUS
 62
               7
100
AcDbLine
 10
45.000000000001364
 20
62.5
 30
0.0
 11
45.000000000001364
 21
49.699996948242188
 31
0.0
  0
LINE
  5
57B
100
AcDbEntity
  8
0
  6
CONTINUOUS
 62
               7
100
AcDbLine
 10
35.000000000001364
 20
62.5
 30
0.0
 11
45.000000000001364
 21
62.5
 31
0.0
  0
CIRCLE
  5
57C
100
AcDbEntity
  8
0
  6
CONTINUOUS
 62
               7
100
AcDbCircle
 10
50.500000000001364
 20
-16.0
 30
0.0
 40
12.5
  0
CIRCLE
  5
57D
100
AcDbEntity
  8
0
  6
CONTINUOUS
 62
               7
100
AcDbCircle
 10
50.500000000001364
 20
16.0
 30
0.0
 40
12.5
  0
LINE
  5
57E
100
AcDbEntity
  8
0
  6
CONTINUOUS
 62
               7
100
AcDbLine
 10
42.500000000001364
 20
-48.5
 30
0.0
 11
43.000000000001364
 21
-48.5
 31
0.0
  0
LINE
  5
57F
100
AcDbEntity
  8
0
  6
CONTINUOUS
 62
               7
100
AcDbLine
 10
41.000000000001364
 20
-47.0
 30
0.0
 11
41.000000000001364
 21
-45.0
 31
0.0
  0
LINE
  5
580
100
AcDbEntity
  8
0
  6
CONTINUOUS
 62
               7
100
AcDbLine
 10
66.000000000001364
 20
-47.0
 30
0.0
 11
66.000000000001364
 21
-45.0
 31
0.0
  0
LINE
  5
581
100
AcDbEntity
  8
0
  6
CONTINUOUS
 62
               7
100
AcDbLine
 10
44.199996948243552
 20
-49.699996948242188
 30
0.0
 11
62.800003051759177
 21
-49.699996948242188
 31
0.0
  0
ARC
  5
582
100
AcDbEntity
  8
0
  6
CONTINUOUS
 62
               7
100
AcDbCircle
 10
42.500000000001364
 20
-47.0
 30
0.0
 40
1.5
100
AcDbArc
 50
179.99998201391065
 51
270.00001866933468
  0
ARC
  5
583
100
AcDbEntity
  8
0
  6
CONTINUOUS
 62
               7
100
AcDbCircle
 10
64.500000000001364
 20
-47.0
 30
0.0
 40
1.5
100
AcDbArc
 50
270.00001866933468
 51
0.0000006832453318
  0
ARC
  5
584
100
AcDbEntity
  8
0
  6
CONTINUOUS
 62
               7
100
AcDbCircle
 10
44.199996948243552
 20
-48.5
 30
0.0
 40
1.1999998092651367
100
AcDbArc
 50
179.99998201391065
 51
270.00001866933468
  0
ARC
  5
585
100
AcDbEntity
  8
0
  6
CONTINUOUS
 62
               7
100
AcDbCircle
 10
62.800003051759177
 20
-48.5
 30
0.0
 40
1.1999998092651367
100
AcDbArc
 50
270.00001866933468
 51
0.0000006832453318
  0
LINE
  5
586
100
AcDbEntity
  8
0
  6
CONTINUOUS
 62
               7
100
AcDbLine
 10
64.000000000001364
 20
-48.5
 30
0.0
 11
64.500000000001364
 21
-48.5
 31
0.0
  0
LINE
  5
587
100
AcDbEntity
  8
0
  6
CONTINUOUS
 62
               7
100
AcDbLine
 10
42.500000000001364
 20
48.5
 30
0.0
 11
43.000000000001364
 21
48.5
 31
0.0
  0
LINE
  5
588
100
AcDbEntity
  8
0
  6
CONTINUOUS
 62
               7
100
AcDbLine
 10
41.000000000001364
 20
47.0
 30
0.0
 11
41.000000000001364
 21
45.0
 31
0.0
  0
LINE
  5
589
100
AcDbEntity
  8
0
  6
CONTINUOUS
 62
               7
100
AcDbLine
 10
66.000000000001364
 20
47.0
 30
0.0
 11
66.000000000001364
 21
45.0
 31
0.0
  0
LINE
  5
58A
100
AcDbEntity
  8
0
  6
CONTINUOUS
 62
               7
100
AcDbLine
 10
44.199996948243552
 20
49.699996948242188
 30
0.0
 11
62.800003051759177
 21
49.699996948242188
 31
0.0
  0
ARC
  5
58B
100
AcDbEntity
  8
0
  6
CONTINUOUS
 62
               7
100
AcDbCircle
 10
42.500000000001364
 20
47.0
 30
0.0
 40
1.5
100
AcDbArc
 50
89.999981330665321
 51
180.00001798608935
  0
ARC
  5
58C
100
AcDbEntity
  8
0
  6
CONTINUOUS
 62
               7
100
AcDbCircle
 10
64.500000000001364
 20
47.0
 30
0.0
 40
1.5
100
AcDbArc
 50
359.99999931675467
 51
89.999981330665321
  0
ARC
  5
58D
100
AcDbEntity
  8
0
  6
CONTINUOUS
 62
               7
100
AcDbCircle
 10
44.199996948243552
 20
48.5
 30
0.0
 40
1.1999998092651367
100
AcDbArc
 50
89.999981330665321
 51
180.00001798608935
  0
ARC
  5
58E
100
AcDbEntity
  8
0
  6
CONTINUOUS
 62
               7
100
AcDbCircle
 10
62.800003051759177
 20
48.5
 30
0.0
 40
1.1999998092651367
100
AcDbArc
 50
359.99999931675467
 51
89.999981330665321
  0
LINE
  5
58F
100
AcDbEntity
  8
0
  6
CONTINUOUS
 62
               7
100
AcDbLine
 10
64.000000000001364
 20
48.5
 30
0.0
 11
64.500000000001364
 21
48.5
 31
0.0
  0
ENDBLK
  5
590
100
AcDbEntity
  8
0
100
AcDbBlockEnd
  0
BLOCK
  5
591
100
AcDbEntity
  8
0
100
AcDbBlockBegin
  2
F10MSJ-13
 70
               0
 10
0.0
 20
0.0
 30
0.0
  3
F10MSJ-13
  1

  0
LINE
  5
592
100
AcDbEntity
  8
0
  6
CONTINUOUS
 62
             200
100
AcDbLine
 10
9.5
 20
53.79998779296875
 30
0.0
 11
9.5
 21
61.860000000000014
 31
0.0
  0
LINE
  5
593
100
AcDbEntity
  8
0
  6
CONTINUOUS
 62
               7
100
AcDbLine
 10
0.0
 20
0.0
 30
0.0
 11
19.0
 21
0.0
 31
0.0
  0
LINE
  5
594
100
AcDbEntity
  8
0
  6
CENTER
 62
               2
100
AcDbLine
 10
9.5
 20
-0.8300000000000125
 30
0.0
 11
9.5
 21
53.79998779296875
 31
0.0
  0
LINE
  5
595
100
AcDbEntity
  8
0
  6
CONTINUOUS
 62
               7
100
AcDbLine
 10
0.0
 20
3.0
 30
0.0
 11
19.0
 21
3.0
 31
0.0
  0
ARC
  5
596
100
AcDbEntity
  8
0
  6
CONTINUOUS
 62
               4
100
AcDbCircle
 10
17.25
 20
56.5
 30
0.0
 40
1.5
100
AcDbArc
 50
0.0
 51
89.999982013910653
  0
CIRCLE
  5
597
100
AcDbEntity
  8
0
  6
CONTINUOUS
 62
               4
100
AcDbCircle
 10
16.0
 20
7.5
 30
0.0
 40
2.75
  0
CIRCLE
  5
598
100
AcDbEntity
  8
0
  6
CONTINUOUS
 62
               4
100
AcDbCircle
 10
3.0
 20
51.5
 30
0.0
 40
2.75
  0
LINE
  5
599
100
AcDbEntity
  8
0
  6
CONTINUOUS
 62
             200
100
AcDbLine
 10
-1.0
 20
19.999984741210937
 30
0.0
 11
20.0
 21
19.999984741210937
 31
0.0
  0
LINE
  5
59A
100
AcDbEntity
  8
0
  6
CONTINUOUS
 62
             200
100
AcDbLine
 10
-1.0
 20
38.999984741210938
 30
0.0
 11
20.0
 21
38.999984741210938
 31
0.0
  0
LINE
  5
59B
100
AcDbEntity
  8
0
  6
CONTINUOUS
 62
               7
100
AcDbLine
 10
19.0
 20
1.0
 30
0.0
 11
0.0
 21
1.0
 31
0.0
  0
LINE
  5
59C
100
AcDbEntity
  8
0
  6
CONTINUOUS
 62
               7
100
AcDbLine
 10
0.0
 20
56.0
 30
0.0
 11
19.0
 21
56.0
 31
0.0
  0
LINE
  5
59D
100
AcDbEntity
  8
0
  6
CONTINUOUS
 62
               2
100
AcDbLine
 10
9.5
 20
-0.829620361328125
 30
0.0
 11
9.5
 21
61.865707397460938
 31
0.0
  0
LINE
  5
59E
100
AcDbEntity
  8
0
  6
CONTINUOUS
 62
               4
100
AcDbLine
 10
18.5
 20
3.199981689453125
 30
0.0
 11
18.5
 21
6.3543548583984375
 31
0.0
  0
LINE
  5
59F
100
AcDbEntity
  8
0
  6
CONTINUOUS
 62
               4
100
AcDbLine
 10
0.5
 20
3.199981689453125
 30
0.0
 11
0.5
 21
6.4999847412109375
 31
0.0
  0
LINE
  5
5A0
100
AcDbEntity
  8
0
  6
CONTINUOUS
 62
               4
100
AcDbLine
 10
0.5
 20
55.79998779296875
 30
0.0
 11
18.5
 21
55.79998779296875
 31
0.0
  0
LINE
  5
5A1
100
AcDbEntity
  8
0
  6
CONTINUOUS
 62
               4
100
AcDbLine
 10
0.5
 20
3.199981689453125
 30
0.0
 11
18.5
 21
3.199981689453125
 31
0.0
  0
LINE
  5
5A2
100
AcDbEntity
  8
0
  6
CONTINUOUS
 62
               4
100
AcDbLine
 10
16.0
 20
52.499984741210937
 30
0.0
 11
18.5
 21
52.499984741210937
 31
0.0
  0
LINE
  5
5A3
100
AcDbEntity
  8
0
  6
CONTINUOUS
 62
               4
100
AcDbLine
 10
16.0
 20
46.499984741210937
 30
0.0
 11
18.5
 21
46.499984741210937
 31
0.0
  0
LINE
  5
5A4
100
AcDbEntity
  8
0
  6
CONTINUOUS
 62
               4
100
AcDbLine
 10
0.5
 20
6.4999847412109375
 30
0.0
 11
3.0
 21
6.4999847412109375
 31
0.0
  0
LINE
  5
5A5
100
AcDbEntity
  8
0
  6
CONTINUOUS
 62
               4
100
AcDbLine
 10
0.5
 20
12.499984741210938
 30
0.0
 11
3.0
 21
12.499984741210938
 31
0.0
  0
LINE
  5
5A6
100
AcDbEntity
  8
0
  6
CONTINUOUS
 62
               4
100
AcDbLine
 10
13.0
 20
7.5
 30
0.0
 11
13.0
 21
3.199981689453125
 31
0.0
  0
LINE
  5
5A7
100
AcDbEntity
  8
0
  6
CONTINUOUS
 62
               4
100
AcDbLine
 10
6.0
 20
51.5
 30
0.0
 11
6.0
 21
55.79998779296875
 31
0.0
  0
LINE
  5
5A8
100
AcDbEntity
  8
0
  6
CONTINUOUS
 62
               4
100
AcDbLine
 10
3.0
 20
48.5
 30
0.0
 11
0.5
 21
48.5
 31
0.0
  0
LINE
  5
5A9
100
AcDbEntity
  8
0
  6
CONTINUOUS
 62
               4
100
AcDbLine
 10
16.0
 20
10.5
 30
0.0
 11
18.5
 21
10.5
 31
0.0
  0
LINE
  5
5AA
100
AcDbEntity
  8
0
  6
CONTINUOUS
 62
               4
100
AcDbLine
 10
0.5
 20
5.199981689453125
 30
0.0
 11
13.0
 21
5.199981689453125
 31
0.0
  0
LINE
  5
5AB
100
AcDbEntity
  8
0
  6
CONTINUOUS
 62
               4
100
AcDbLine
 10
6.0
 20
53.79998779296875
 30
0.0
 11
18.5
 21
53.79998779296875
 31
0.0
  0
LINE
  5
5AC
100
AcDbEntity
  8
0
  6
CONTINUOUS
 62
               4
100
AcDbLine
 10
4.0607124327356132
 20
50.439385033842143
 30
0.0
 11
1.9393996356660637
 21
52.560713208910045
 31
0.0
  0
LINE
  5
5AD
100
AcDbEntity
  8
0
  6
CONTINUOUS
 62
               4
100
AcDbLine
 10
1.9393160553920552
 20
50.439369031424803
 30
0.0
 11
4.0606364853632613
 21
52.560685169865735
 31
0.0
  0
LINE
  5
5AE
100
AcDbEntity
  8
0
  6
CONTINUOUS
 62
               4
100
AcDbLine
 10
14.939418517305057
 20
6.439247205459651
 30
0.0
 11
17.060734533025425
 21
8.5605719830628004
 31
0.0
  0
LINE
  5
5AF
100
AcDbEntity
  8
0
  6
CONTINUOUS
 62
               4
100
AcDbLine
 10
17.060664776710837
 20
6.4393038955840893
 30
0.0
 11
14.939356331927229
 21
8.5606144861239954
 31
0.0
  0
LINE
  5
5B0
100
AcDbEntity
  8
0
  6
CONTINUOUS
 62
               4
100
AcDbLine
 10
0.5
 20
12.499984741210938
 30
0.0
 11
0.5
 21
50.354354858398438
 31
0.0
  0
LINE
  5
5B1
100
AcDbEntity
  8
0
  6
CONTINUOUS
 62
               4
100
AcDbLine
 10
0.5
 20
52.645645141601563
 30
0.0
 11
0.5
 21
55.79998779296875
 31
0.0
  0
LINE
  5
5B2
100
AcDbEntity
  8
0
  6
CONTINUOUS
 62
               4
100
AcDbLine
 10
18.5
 20
52.499984741210937
 30
0.0
 11
18.5
 21
55.79998779296875
 31
0.0
  0
LINE
  5
5B3
100
AcDbEntity
  8
0
  6
CONTINUOUS
 62
               4
100
AcDbLine
 10
18.5
 20
8.6456451416015625
 30
0.0
 11
18.5
 21
46.499984741210937
 31
0.0
  0
LINE
  5
5B4
100
AcDbEntity
  8
0
  6
CONTINUOUS
 62
               4
100
AcDbLine
 10
13.25
 20
56.5
 30
0.0
 11
13.25
 21
56.0
 31
0.0
  0
LINE
  5
5B5
100
AcDbEntity
  8
0
  6
CONTINUOUS
 62
               4
100
AcDbLine
 10
0.5
 20
58.0
 30
0.0
 11
17.25
 21
58.0
 31
0.0
  0
LINE
  5
5B6
100
AcDbEntity
  8
0
  6
CONTINUOUS
 62
               4
100
AcDbLine
 10
0.5
 20
58.0
 30
0.0
 11
0.5
 21
56.0
 31
0.0
  0
LINE
  5
5B7
100
AcDbEntity
  8
0
  6
CONTINUOUS
 62
               4
100
AcDbLine
 10
13.0
 20
58.0
 30
0.0
 11
13.0
 21
56.0
 31
0.0
  0
ARC
  5
5B8
100
AcDbEntity
  8
0
  6
CONTINUOUS
 62
               4
100
AcDbCircle
 10
16.0
 20
49.5
 30
0.0
 40
3.0
100
AcDbArc
 50
89.999982013910653
 51
269.99994604173196
  0
ARC
  5
5B9
100
AcDbEntity
  8
0
  6
CONTINUOUS
 62
               4
100
AcDbCircle
 10
3.0
 20
9.5
 30
0.0
 40
3.0
100
AcDbArc
 50
269.99996334457597
 51
89.999982013910653
  0
ARC
  5
5BA
100
AcDbEntity
  8
0
  6
CONTINUOUS
 62
               4
100
AcDbCircle
 10
3.0
 20
51.5
 30
0.0
 40
3.0
100
AcDbArc
 50
270.00001798608935
 51
0.00001366037834
  0
ARC
  5
5BB
100
AcDbEntity
  8
0
  6
CONTINUOUS
 62
               4
100
AcDbCircle
 10
16.0
 20
7.5
 30
0.0
 40
3.0
100
AcDbArc
 50
89.999982013910653
 51
179.99996402782131
  0
ARC
  5
5BC
100
AcDbEntity
  8
0
  6
CONTINUOUS
 62
               4
100
AcDbCircle
 10
14.75
 20
56.5
 30
0.0
 40
1.5
100
AcDbArc
 50
89.999982013910653
 51
179.99996402782131
  0
CIRCLE
  5
5BD
100
AcDbEntity
  8
0
  6
CONTINUOUS
 62
               4
100
AcDbCircle
 10
9.5
 20
38.999984741210938
 30
0.0
 40
9.0
  0
CIRCLE
  5
5BE
100
AcDbEntity
  8
0
  6
CONTINUOUS
 62
               4
100
AcDbCircle
 10
9.5
 20
19.999984741210937
 30
0.0
 40
9.0
  0
CIRCLE
  5
5BF
100
AcDbEntity
  8
0
  6
CONTINUOUS
 62
               4
100
AcDbCircle
 10
9.5
 20
38.999984741210938
 30
0.0
 40
5.6799993515014648
  0
CIRCLE
  5
5C0
100
AcDbEntity
  8
0
  6
CONTINUOUS
 62
               4
100
AcDbCircle
 10
9.5
 20
38.999984741210938
 30
0.0
 40
6.5
  0
CIRCLE
  5
5C1
100
AcDbEntity
  8
0
  6
CONTINUOUS
 62
               4
100
AcDbCircle
 10
9.5
 20
19.999984741210937
 30
0.0
 40
6.5
  0
CIRCLE
  5
5C2
100
AcDbEntity
  8
0
  6
CONTINUOUS
 62
               4
100
AcDbCircle
 10
9.5
 20
19.999984741210937
 30
0.0
 40
5.6799993515014648
  0
LINE
  5
5C3
100
AcDbEntity
  8
0
  6
CONTINUOUS
 62
               7
100
AcDbLine
 10
0.0
 20
56.0
 30
0.0
 11
0.0
 21
1.0
 31
0.0
  0
LINE
  5
5C4
100
AcDbEntity
  8
0
  6
CONTINUOUS
 62
               7
100
AcDbLine
 10
19.0
 20
56.0
 30
0.0
 11
19.0
 21
1.0
 31
0.0
  0
LINE
  5
5C5
100
AcDbEntity
  8
0
  6
CONTINUOUS
 62
               4
100
AcDbLine
 10
18.75
 20
56.5
 30
0.0
 11
18.75
 21
56.0
 31
0.0
  0
ENDBLK
  5
5C6
100
AcDbEntity
  8
0
100
AcDbBlockEnd
  0
BLOCK
  5
5C7
100
AcDbEntity
  8
0
100
AcDbBlockBegin
  2
F10MSJ-14
 70
               0
 10
0.0
 20
0.0
 30
0.0
  3
F10MSJ-14
  1

  0
LINE
  5
5C8
100
AcDbEntity
  8
0
  6
CONTINUOUS
 62
               2
100
AcDbLine
 10
0.0
 20
14.679453746566963
 30
0.0
 11
0.0
 21
-4.4319606876770763
 31
0.0
  0
LINE
  5
5C9
100
AcDbEntity
  8
0
  6
CONTINUOUS
 62
               7
100
AcDbLine
 10
120.5
 20
1.0
 30
0.0
 11
89.0
 21
1.0
 31
0.0
  0
LINE
  5
5CA
100
AcDbEntity
  8
0
  6
CONTINUOUS
 62
               7
100
AcDbLine
 10
-12.5
 20
0.0
 30
0.0
 11
120.5
 21
0.0
 31
0.0
  0
LINE
  5
5CB
100
AcDbEntity
  8
0
  6
CONTINUOUS
 62
               7
100
AcDbLine
 10
89.0
 20
5.0
 30
0.0
 11
110.0
 21
5.0
 31
0.0
  0
LINE
  5
5CC
100
AcDbEntity
  8
0
  6
CONTINUOUS
 62
               7
100
AcDbLine
 10
89.0
 20
35.0
 30
0.0
 11
120.5
 21
35.0
 31
0.0
  0
LINE
  5
5CD
100
AcDbEntity
  8
0
  6
CONTINUOUS
 62
               7
100
AcDbLine
 10
89.0
 20
45.0
 30
0.0
 11
110.0
 21
45.0
 31
0.0
  0
LINE
  5
5CE
100
AcDbEntity
  8
0
  6
CONTINUOUS
 62
               7
100
AcDbLine
 10
89.0
 20
3.0
 30
0.0
 11
120.5
 21
3.0
 31
0.0
  0
LINE
  5
5CF
100
AcDbEntity
  8
0
  6
CONTINUOUS
 62
               7
100
AcDbLine
 10
6.5
 20
40.0
 30
0.0
 11
6.5
 21
39.5
 31
0.0
  0
ARC
  5
5D0
100
AcDbEntity
  8
0
  6
CONTINUOUS
 62
               7
100
AcDbCircle
 10
6.5
 20
41.199996948242188
 30
0.0
 40
1.1999998092651367
100
AcDbArc
 50
180.00001866933468
 51
270.00000068324533
  0
ARC
  5
5D1
100
AcDbEntity
  8
0
  6
CONTINUOUS
 62
               7
100
AcDbCircle
 10
6.5
 20
59.800003051757813
 30
0.0
 40
1.1999998092651367
100
AcDbArc
 50
89.999982013910653
 51
180.00001866933468
  0
ARC
  5
5D2
100
AcDbEntity
  8
0
  6
CONTINUOUS
 62
               7
100
AcDbCircle
 10
8.0
 20
39.5
 30
0.0
 40
1.5
100
AcDbArc
 50
180.00001866933468
 51
270.00000068324533
  0
ARC
  5
5D3
100
AcDbEntity
  8
0
  6
CONTINUOUS
 62
               7
100
AcDbCircle
 10
8.0
 20
61.5
 30
0.0
 40
1.5
100
AcDbArc
 50
89.999982013910653
 51
180.00001866933468
  0
LINE
  5
5D4
100
AcDbEntity
  8
0
  6
CONTINUOUS
 62
               7
100
AcDbLine
 10
5.3000030517578125
 20
59.800003051757813
 30
0.0
 11
5.3000030517578125
 21
41.199996948242188
 31
0.0
  0
LINE
  5
5D5
100
AcDbEntity
  8
0
  6
CONTINUOUS
 62
               7
100
AcDbLine
 10
8.0
 20
38.0
 30
0.0
 11
10.0
 21
38.0
 31
0.0
  0
LINE
  5
5D6
100
AcDbEntity
  8
0
  6
CONTINUOUS
 62
               7
100
AcDbLine
 10
8.0
 20
63.0
 30
0.0
 11
10.0
 21
63.0
 31
0.0
  0
LINE
  5
5D7
100
AcDbEntity
  8
0
  6
CONTINUOUS
 62
               7
100
AcDbLine
 10
6.5
 20
61.5
 30
0.0
 11
6.5
 21
61.0
 31
0.0
  0
CIRCLE
  5
5D8
100
AcDbEntity
  8
0
  6
CONTINUOUS
 62
               7
100
AcDbCircle
 10
25.0
 20
53.5
 30
0.0
 40
12.5
  0
LINE
  5
5D9
100
AcDbEntity
  8
0
  6
CONTINUOUS
 62
               7
100
AcDbLine
 10
89.0
 20
45.0
 30
0.0
 11
89.0
 21
1.0
 31
0.0
  0
LINE
  5
5DA
100
AcDbEntity
  8
0
  6
CONTINUOUS
 62
               7
100
AcDbLine
 10
95.899993896484375
 20
31.100006103515625
 30
0.0
 11
103.09999084472656
 21
31.100006103515625
 31
0.0
  0
LINE
  5
5DB
100
AcDbEntity
  8
0
  6
CONTINUOUS
 62
               7
100
AcDbLine
 10
95.899993896484375
 20
28.900009155273437
 30
0.0
 11
103.09999084472656
 21
28.900009155273437
 31
0.0
  0
LINE
  5
5DC
100
AcDbEntity
  8
0
  6
CONTINUOUS
 62
               7
100
AcDbLine
 10
96.0
 20
31.0
 30
0.0
 11
103.0
 21
31.0
 31
0.0
  0
LINE
  5
5DD
100
AcDbEntity
  8
0
  6
CONTINUOUS
 62
               7
100
AcDbLine
 10
96.0
 20
29.0
 30
0.0
 11
103.0
 21
29.0
 31
0.0
  0
LINE
  5
5DE
100
AcDbEntity
  8
0
  6
CONTINUOUS
 62
               7
100
AcDbLine
 10
103.09999084472656
 20
31.100006103515625
 30
0.0
 11
103.09999084472656
 21
28.900009155273437
 31
0.0
  0
LINE
  5
5DF
100
AcDbEntity
  8
0
  6
CONTINUOUS
 62
               7
100
AcDbLine
 10
95.899993896484375
 20
31.100006103515625
 30
0.0
 11
95.899993896484375
 21
28.900009155273437
 31
0.0
  0
LINE
  5
5E0
100
AcDbEntity
  8
0
  6
CONTINUOUS
 62
               7
100
AcDbLine
 10
96.0
 20
31.0
 30
0.0
 11
96.0
 21
29.0
 31
0.0
  0
LINE
  5
5E1
100
AcDbEntity
  8
0
  6
CONTINUOUS
 62
               7
100
AcDbLine
 10
103.0
 20
31.0
 30
0.0
 11
103.0
 21
29.0
 31
0.0
  0
LINE
  5
5E2
100
AcDbEntity
  8
0
  6
CONTINUOUS
 62
               7
100
AcDbLine
 10
91.5
 20
36.5
 30
0.0
 11
107.5
 21
36.5
 31
0.0
  0
LINE
  5
5E3
100
AcDbEntity
  8
0
  6
CONTINUOUS
 62
               7
100
AcDbLine
 10
90.5
 20
45.0
 30
0.0
 11
90.5
 21
35.0
 31
0.0
  0
LINE
  5
5E4
100
AcDbEntity
  8
0
  6
CONTINUOUS
 62
               7
100
AcDbLine
 10
108.5
 20
45.0
 30
0.0
 11
108.5
 21
35.0
 31
0.0
  0
LINE
  5
5E5
100
AcDbEntity
  8
0
  6
CONTINUOUS
 62
               7
100
AcDbLine
 10
107.5
 20
43.5
 30
0.0
 11
107.5
 21
36.5
 31
0.0
  0
LINE
  5
5E6
100
AcDbEntity
  8
0
  6
CONTINUOUS
 62
               7
100
AcDbLine
 10
91.5
 20
43.5
 30
0.0
 11
91.5
 21
36.5
 31
0.0
  0
LINE
  5
5E7
100
AcDbEntity
  8
0
  6
CONTINUOUS
 62
               7
100
AcDbLine
 10
90.5
 20
43.5
 30
0.0
 11
108.5
 21
43.5
 31
0.0
  0
LINE
  5
5E8
100
AcDbEntity
  8
0
  6
CONTINUOUS
 62
               7
100
AcDbLine
 10
98.5
 20
43.5
 30
0.0
 11
98.5
 21
36.5
 31
0.0
  0
LINE
  5
5E9
100
AcDbEntity
  8
0
  6
CONTINUOUS
 62
               7
100
AcDbLine
 10
100.5
 20
43.5
 30
0.0
 11
100.5
 21
36.5
 31
0.0
  0
LINE
  5
5EA
100
AcDbEntity
  8
0
  6
CONTINUOUS
 62
               7
100
AcDbLine
 10
91.5
 20
42.5
 30
0.0
 11
98.5
 21
42.5
 31
0.0
  0
LINE
  5
5EB
100
AcDbEntity
  8
0
  6
CONTINUOUS
 62
               7
100
AcDbLine
 10
100.5
 20
42.5
 30
0.0
 11
107.5
 21
42.5
 31
0.0
  0
LINE
  5
5EC
100
AcDbEntity
  8
0
  6
CONTINUOUS
 62
               7
100
AcDbLine
 10
92.050003051757812
 20
37.300003051757813
 30
0.0
 11
97.949996948242188
 21
37.300003051757813
 31
0.0
  0
LINE
  5
5ED
100
AcDbEntity
  8
0
  6
CONTINUOUS
 62
               7
100
AcDbLine
 10
92.050003051757812
 20
37.300003051757813
 30
0.0
 11
92.050003051757812
 21
36.5
 31
0.0
  0
LINE
  5
5EE
100
AcDbEntity
  8
0
  6
CONTINUOUS
 62
               7
100
AcDbLine
 10
92.849990844726563
 20
37.300003051757813
 30
0.0
 11
92.849990844726563
 21
36.5
 31
0.0
  0
LINE
  5
5EF
100
AcDbEntity
  8
0
  6
CONTINUOUS
 62
               7
100
AcDbLine
 10
97.149993896484375
 20
37.300003051757813
 30
0.0
 11
97.149993896484375
 21
36.5
 31
0.0
  0
LINE
  5
5F0
100
AcDbEntity
  8
0
  6
CONTINUOUS
 62
               7
100
AcDbLine
 10
97.949996948242188
 20
37.300003051757813
 30
0.0
 11
97.949996948242188
 21
36.5
 31
0.0
  0
LINE
  5
5F1
100
AcDbEntity
  8
0
  6
CONTINUOUS
 62
               7
100
AcDbLine
 10
101.05000305175781
 20
37.300003051757813
 30
0.0
 11
101.05000305175781
 21
36.5
 31
0.0
  0
LINE
  5
5F2
100
AcDbEntity
  8
0
  6
CONTINUOUS
 62
               7
100
AcDbLine
 10
101.84999084472656
 20
37.300003051757813
 30
0.0
 11
101.84999084472656
 21
36.5
 31
0.0
  0
LINE
  5
5F3
100
AcDbEntity
  8
0
  6
CONTINUOUS
 62
               7
100
AcDbLine
 10
106.14999389648437
 20
37.300003051757813
 30
0.0
 11
106.14999389648437
 21
36.5
 31
0.0
  0
LINE
  5
5F4
100
AcDbEntity
  8
0
  6
CONTINUOUS
 62
               7
100
AcDbLine
 10
106.94999694824219
 20
37.300003051757813
 30
0.0
 11
106.94999694824219
 21
36.5
 31
0.0
  0
LINE
  5
5F5
100
AcDbEntity
  8
0
  6
CONTINUOUS
 62
               7
100
AcDbLine
 10
101.05000305175781
 20
37.300003051757813
 30
0.0
 11
106.94999694824219
 21
37.300003051757813
 31
0.0
  0
LINE
  5
5F6
100
AcDbEntity
  8
0
  6
CONTINUOUS
 62
               7
100
AcDbLine
 10
97.949996948242188
 20
38.0
 30
0.0
 11
92.050003051757812
 21
38.0
 31
0.0
  0
LINE
  5
5F7
100
AcDbEntity
  8
0
  6
CONTINUOUS
 62
               7
100
AcDbLine
 10
94.650026983384123
 20
37.300003531453513
 30
0.0
 11
94.462460409563391
 21
38.000010820859643
 31
0.0
  0
LINE
  5
5F8
100
AcDbEntity
  8
0
  6
CONTINUOUS
 62
               7
100
AcDbLine
 10
95.35001272923455
 20
38.000000476875357
 30
0.0
 11
95.537575310591819
 21
37.300007926326543
 31
0.0
  0
LINE
  5
5F9
100
AcDbEntity
  8
0
  6
CONTINUOUS
 62
               7
100
AcDbLine
 10
97.949996948242188
 20
38.0
 30
0.0
 11
97.949996948242188
 21
37.300003051757813
 31
0.0
  0
LINE
  5
5FA
100
AcDbEntity
  8
0
  6
CONTINUOUS
 62
               7
100
AcDbLine
 10
92.050003051757812
 20
38.0
 30
0.0
 11
92.050003051757812
 21
37.300003051757813
 31
0.0
  0
LINE
  5
5FB
100
AcDbEntity
  8
0
  6
CONTINUOUS
 62
               7
100
AcDbLine
 10
106.94999694824219
 20
38.0
 30
0.0
 11
101.05000305175781
 21
38.0
 31
0.0
  0
LINE
  5
5FC
100
AcDbEntity
  8
0
  6
CONTINUOUS
 62
               7
100
AcDbLine
 10
103.65002468815783
 20
37.300000184724013
 30
0.0
 11
103.46246206360593
 21
37.999992735272826
 31
0.0
  0
LINE
  5
5FD
100
AcDbEntity
  8
0
  6
CONTINUOUS
 62
               7
100
AcDbLine
 10
104.35002108475601
 20
38.000015300108316
 30
0.0
 11
104.5375876153812
 21
37.300008010702186
 31
0.0
  0
LINE
  5
5FE
100
AcDbEntity
  8
0
  6
CONTINUOUS
 62
               7
100
AcDbLine
 10
106.94999694824219
 20
38.0
 30
0.0
 11
106.94999694824219
 21
37.300003051757813
 31
0.0
  0
LINE
  5
5FF
100
AcDbEntity
  8
0
  6
CONTINUOUS
 62
               7
100
AcDbLine
 10
101.05000305175781
 20
38.0
 30
0.0
 11
101.05000305175781
 21
37.300003051757813
 31
0.0
  0
LINE
  5
600
100
AcDbEntity
  8
0
  6
CONTINUOUS
 62
               7
100
AcDbLine
 10
97.800003051757813
 20
39.171829223632813
 30
0.0
 11
97.800003051757813
 21
38.0
 31
0.0
  0
LINE
  5
601
100
AcDbEntity
  8
0
  6
CONTINUOUS
 62
               7
100
AcDbLine
 10
92.199996948242187
 20
39.171829223632813
 30
0.0
 11
92.199996948242187
 21
38.0
 31
0.0
  0
LINE
  5
602
100
AcDbEntity
  8
0
  6
CONTINUOUS
 62
               7
100
AcDbLine
 10
106.80000305175781
 20
39.171829223632813
 30
0.0
 11
106.80000305175781
 21
38.0
 31
0.0
  0
LINE
  5
603
100
AcDbEntity
  8
0
  6
CONTINUOUS
 62
               7
100
AcDbLine
 10
101.19999694824219
 20
39.171829223632813
 30
0.0
 11
101.19999694824219
 21
38.0
 31
0.0
  0
LINE
  5
604
100
AcDbEntity
  8
0
  6
CONTINUOUS
 62
               7
100
AcDbLine
 10
95.5
 20
54.0
 30
0.0
 11
95.5
 21
45.0
 31
0.0
  0
LINE
  5
605
100
AcDbEntity
  8
0
  6
CONTINUOUS
 62
               7
100
AcDbLine
 10
104.0
 20
54.0
 30
0.0
 11
104.0
 21
45.0
 31
0.0
  0
LINE
  5
606
100
AcDbEntity
  8
0
  6
CONTINUOUS
 62
               7
100
AcDbLine
 10
97.75
 20
63.5
 30
0.0
 11
97.75
 21
54.199996948242187
 31
0.0
  0
LINE
  5
607
100
AcDbEntity
  8
0
  6
CONTINUOUS
 62
               7
100
AcDbLine
 10
101.75
 20
63.5
 30
0.0
 11
101.75
 21
54.199996948242187
 31
0.0
  0
LINE
  5
608
100
AcDbEntity
  8
0
  6
CONTINUOUS
 62
               7
100
AcDbLine
 10
95.5
 20
54.0
 30
0.0
 11
98.25
 21
54.0
 31
0.0
  0
LINE
  5
609
100
AcDbEntity
  8
0
  6
CONTINUOUS
 62
               7
100
AcDbLine
 10
98.25
 20
54.199996948242187
 30
0.0
 11
98.25
 21
45.0
 31
0.0
  0
LINE
  5
60A
100
AcDbEntity
  8
0
  6
CONTINUOUS
 62
               7
100
AcDbLine
 10
101.25
 20
54.199996948242187
 30
0.0
 11
101.25
 21
45.0
 31
0.0
  0
LINE
  5
60B
100
AcDbEntity
  8
0
  6
CONTINUOUS
 62
               7
100
AcDbLine
 10
101.25
 20
54.0
 30
0.0
 11
104.0
 21
54.0
 31
0.0
  0
LINE
  5
60C
100
AcDbEntity
  8
0
  6
CONTINUOUS
 62
               7
100
AcDbLine
 10
101.25
 20
54.199996948242187
 30
0.0
 11
101.75
 21
54.199996948242187
 31
0.0
  0
LINE
  5
60D
100
AcDbEntity
  8
0
  6
CONTINUOUS
 62
               7
100
AcDbLine
 10
97.75
 20
54.199996948242187
 30
0.0
 11
98.25
 21
54.199996948242187
 31
0.0
  0
LINE
  5
60E
100
AcDbEntity
  8
0
  6
CONTINUOUS
 62
               7
100
AcDbLine
 10
97.75
 20
60.5
 30
0.0
 11
101.75
 21
60.5
 31
0.0
  0
LINE
  5
60F
100
AcDbEntity
  8
0
  6
CONTINUOUS
 62
               7
100
AcDbLine
 10
97.75
 20
63.5
 30
0.0
 11
101.75
 21
63.5
 31
0.0
  0
LINE
  5
610
100
AcDbEntity
  8
0
  6
CONTINUOUS
 62
               7
100
AcDbLine
 10
98.25
 20
45.5
 30
0.0
 11
101.25
 21
45.5
 31
0.0
  0
LINE
  5
611
100
AcDbEntity
  8
0
  6
CONTINUOUS
 62
               7
100
AcDbLine
 10
95.5
 20
53.5
 30
0.0
 11
98.25
 21
53.5
 31
0.0
  0
LINE
  5
612
100
AcDbEntity
  8
0
  6
CONTINUOUS
 62
               7
100
AcDbLine
 10
101.25
 20
53.5
 30
0.0
 11
104.0
 21
53.5
 31
0.0
  0
LINE
  5
613
100
AcDbEntity
  8
0
  6
CONTINUOUS
 62
               7
100
AcDbLine
 10
97.75
 20
56.800003051757812
 30
0.0
 11
101.75
 21
56.800003051757812
 31
0.0
  0
ARC
  5
614
100
AcDbEntity
  8
0
  6
CONTINUOUS
 62
               7
100
AcDbCircle
 10
95.0
 20
35.400009155273438
 30
0.0
 40
5.0
100
AcDbArc
 50
60.50760766838912
 51
119.49230171791883
  0
ARC
  5
615
100
AcDbEntity
  8
0
  6
CONTINUOUS
 62
               7
100
AcDbCircle
 10
97.133331298828125
 20
39.171829223632813
 30
0.0
 40
0.6666666865348816
100
AcDbArc
 50
359.99998633962167
 51
60.50760766838912
  0
ARC
  5
616
100
AcDbEntity
  8
0
  6
CONTINUOUS
 62
               7
100
AcDbCircle
 10
92.866668701171875
 20
39.171829223632813
 30
0.0
 40
0.6666666865348816
100
AcDbArc
 50
119.49235635943219
 51
179.99996402782131
  0
ARC
  5
617
100
AcDbEntity
  8
0
  6
CONTINUOUS
 62
               7
100
AcDbCircle
 10
104.0
 20
35.400009155273438
 30
0.0
 40
5.0
100
AcDbArc
 50
60.50760766838912
 51
119.49230171791883
  0
ARC
  5
618
100
AcDbEntity
  8
0
  6
CONTINUOUS
 62
               7
100
AcDbCircle
 10
106.13333129882812
 20
39.171829223632813
 30
0.0
 40
0.6666666865348816
100
AcDbArc
 50
359.99998633962167
 51
60.50760766838912
  0
ARC
  5
619
100
AcDbEntity
  8
0
  6
CONTINUOUS
 62
               7
100
AcDbCircle
 10
101.86666870117187
 20
39.171829223632813
 30
0.0
 40
0.6666666865348816
100
AcDbArc
 50
119.49235635943219
 51
179.99996402782131
  0
LINE
  5
61A
100
AcDbEntity
  8
0
  6
CONTINUOUS
 62
               7
100
AcDbLine
 10
-12.5
 20
7.5
 30
0.0
 11
10.0
 21
7.5
 31
0.0
  0
LINE
  5
61B
100
AcDbEntity
  8
0
  6
CONTINUOUS
 62
               7
100
AcDbLine
 10
-12.5
 20
6.5
 30
0.0
 11
10.0
 21
6.5
 31
0.0
  0
LINE
  5
61C
100
AcDbEntity
  8
0
  6
CONTINUOUS
 62
               7
100
AcDbLine
 10
96.970001220703125
 20
60.0
 30
0.0
 11
96.970001220703125
 21
54.0
 31
0.0
  0
LINE
  5
61D
100
AcDbEntity
  8
0
  6
CONTINUOUS
 62
               7
100
AcDbLine
 10
102.97000122070312
 20
60.899993896484375
 30
0.0
 11
102.97000122070312
 21
54.0
 31
0.0
  0
LINE
  5
61E
100
AcDbEntity
  8
0
  6
CONTINUOUS
 62
               7
100
AcDbLine
 10
101.75
 20
60.899993896484375
 30
0.0
 11
102.97000122070312
 21
60.899993896484375
 31
0.0
  0
LINE
  5
61F
100
AcDbEntity
  8
0
  6
CONTINUOUS
 62
               7
100
AcDbLine
 10
96.970001220703125
 20
60.0
 30
0.0
 11
97.75
 21
60.0
 31
0.0
  0
LINE
  5
620
100
AcDbEntity
  8
0
  6
CONTINUOUS
 62
               7
100
AcDbLine
 10
103.77000427246094
 20
54.499984741210938
 30
0.0
 11
103.77000427246094
 21
54.0
 31
0.0
  0
ARC
  5
621
100
AcDbEntity
  8
0
  6
CONTINUOUS
 62
               7
100
AcDbCircle
 10
102.97000122070312
 20
54.499984741210938
 30
0.0
 40
0.800000011920929
100
AcDbArc
 50
0.0
 51
89.999982013910653
  0
LINE
  5
622
100
AcDbEntity
  8
0
  6
CONTINUOUS
 62
               7
100
AcDbLine
 10
97.75
 20
59.5
 30
0.0
 11
101.75
 21
59.5
 31
0.0
  0
LINE
  5
623
100
AcDbEntity
  8
0
  6
CONTINUOUS
 62
               7
100
AcDbLine
 10
10.0
 20
3.5
 30
0.0
 11
60.0
 21
3.5
 31
0.0
  0
LINE
  5
624
100
AcDbEntity
  8
0
  6
CONTINUOUS
 62
               7
100
AcDbLine
 10
39.0
 20
10.5
 30
0.0
 11
49.0
 21
10.5
 31
0.0
  0
LINE
  5
625
100
AcDbEntity
  8
0
  6
CONTINUOUS
 62
               7
100
AcDbLine
 10
56.0
 20
10.5
 30
0.0
 11
56.0
 21
6.5
 31
0.0
  0
LINE
  5
626
100
AcDbEntity
  8
0
  6
CONTINUOUS
 62
               7
100
AcDbLine
 10
50.0
 20
10.5
 30
0.0
 11
50.0
 21
6.5
 31
0.0
  0
LINE
  5
627
100
AcDbEntity
  8
0
  6
CONTINUOUS
 62
               7
100
AcDbLine
 10
20.0
 20
10.5
 30
0.0
 11
20.0
 21
6.5
 31
0.0
  0
LINE
  5
628
100
AcDbEntity
  8
0
  6
CONTINUOUS
 62
               7
100
AcDbLine
 10
14.0
 20
10.5
 30
0.0
 11
14.0
 21
6.5
 31
0.0
  0
LINE
  5
629
100
AcDbEntity
  8
0
  6
CONTINUOUS
 62
               7
100
AcDbLine
 10
14.0
 20
10.5
 30
0.0
 11
20.0
 21
10.5
 31
0.0
  0
LINE
  5
62A
100
AcDbEntity
  8
0
  6
CONTINUOUS
 62
               7
100
AcDbLine
 10
14.0
 20
6.5
 30
0.0
 11
20.0
 21
6.5
 31
0.0
  0
LINE
  5
62B
100
AcDbEntity
  8
0
  6
CONTINUOUS
 62
               7
100
AcDbLine
 10
50.0
 20
10.5
 30
0.0
 11
56.0
 21
10.5
 31
0.0
  0
LINE
  5
62C
100
AcDbEntity
  8
0
  6
CONTINUOUS
 62
               7
100
AcDbLine
 10
50.0
 20
6.5
 30
0.0
 11
56.0
 21
6.5
 31
0.0
  0
LINE
  5
62D
100
AcDbEntity
  8
0
  6
CONTINUOUS
 62
               7
100
AcDbLine
 10
10.0
 20
73.800003051757812
 30
0.0
 11
10.0
 21
3.5
 31
0.0
  0
LINE
  5
62E
100
AcDbEntity
  8
0
  6
CONTINUOUS
 62
               7
100
AcDbLine
 10
60.0
 20
73.800003051757812
 30
0.0
 11
60.0
 21
3.5
 31
0.0
  0
LINE
  5
62F
100
AcDbEntity
  8
0
  6
CONTINUOUS
 62
               7
100
AcDbLine
 10
10.0
 20
15.5
 30
0.0
 11
60.0
 21
15.5
 31
0.0
  0
LINE
  5
630
100
AcDbEntity
  8
0
  6
CONTINUOUS
 62
               7
100
AcDbLine
 10
59.0
 20
41.5
 30
0.0
 11
59.0
 21
16.300003051757813
 31
0.0
  0
LINE
  5
631
100
AcDbEntity
  8
0
  6
CONTINUOUS
 62
               7
100
AcDbLine
 10
49.0
 20
57.5
 30
0.0
 11
49.0
 21
10.5
 31
0.0
  0
LINE
  5
632
100
AcDbEntity
  8
0
  6
CONTINUOUS
 62
               7
100
AcDbLine
 10
39.0
 20
57.5
 30
0.0
 11
39.0
 21
10.5
 31
0.0
  0
LINE
  5
633
100
AcDbEntity
  8
0
  6
CONTINUOUS
 62
               7
100
AcDbLine
 10
59.0
 20
41.5
 30
0.0
 11
60.0
 21
41.5
 31
0.0
  0
LINE
  5
634
100
AcDbEntity
  8
0
  6
CONTINUOUS
 62
               7
100
AcDbLine
 10
59.0
 20
16.300003051757813
 30
0.0
 11
60.0
 21
16.300003051757813
 31
0.0
  0
LINE
  5
635
100
AcDbEntity
  8
0
  6
CONTINUOUS
 62
               7
100
AcDbLine
 10
59.0
 20
33.399993896484375
 30
0.0
 11
60.0
 21
33.399993896484375
 31
0.0
  0
LINE
  5
636
100
AcDbEntity
  8
0
  6
CONTINUOUS
 62
               7
100
AcDbLine
 10
59.0
 20
24.399993896484375
 30
0.0
 11
60.0
 21
24.399993896484375
 31
0.0
  0
LINE
  5
637
100
AcDbEntity
  8
0
  6
CONTINUOUS
 62
               7
100
AcDbLine
 10
56.999975085226652
 20
62.500026272721698
 30
0.0
 11
59.999966505190059
 21
61.696180987704793
 31
0.0
  0
LINE
  5
638
100
AcDbEntity
  8
0
  6
CONTINUOUS
 62
               7
100
AcDbLine
 10
39.0
 20
57.5
 30
0.0
 11
49.0
 21
57.5
 31
0.0
  0
LINE
  5
639
100
AcDbEntity
  8
0
  6
CONTINUOUS
 62
               7
100
AcDbLine
 10
10.5
 20
74.300003051757813
 30
0.0
 11
59.5
 21
74.300003051757813
 31
0.0
  0
LINE
  5
63A
100
AcDbEntity
  8
0
  6
CONTINUOUS
 62
               7
100
AcDbLine
 10
45.0
 20
62.5
 30
0.0
 11
57.0
 21
62.5
 31
0.0
  0
LINE
  5
63B
100
AcDbEntity
  8
0
  6
CONTINUOUS
 62
               7
100
AcDbLine
 10
10.0
 20
68.5
 30
0.0
 11
39.000030517578125
 21
68.5
 31
0.0
  0
ARC
  5
63C
100
AcDbEntity
  8
0
  6
CONTINUOUS
 62
               7
100
AcDbCircle
 10
10.5
 20
73.800003051757812
 30
0.0
 40
0.5
100
AcDbArc
 50
89.999982013910653
 51
179.99996402782131
  0
ARC
  5
63D
100
AcDbEntity
  8
0
  6
CONTINUOUS
 62
               7
100
AcDbCircle
 10
59.5
 20
73.800003051757812
 30
0.0
 40
0.5
100
AcDbArc
 50
359.99998201391094
 51
89.999982013910653
  0
ARC
  5
63E
100
AcDbEntity
  8
0
  6
CONTINUOUS
 62
               7
100
AcDbCircle
 10
57.0
 20
65.5
 30
0.0
 40
3.0
100
AcDbArc
 50
270.00001798608935
 51
359.99998201391094
  0
LINE
  5
63F
100
AcDbEntity
  8
0
  6
CONTINUOUS
 62
               7
100
AcDbLine
 10
38.99996569898849
 20
68.500006570148798
 30
0.0
 11
44.999976114627316
 21
62.500003740950888
 31
0.0
  0
LINE
  5
640
100
AcDbEntity
  8
0
  6
CONTINUOUS
 62
               7
100
AcDbLine
 10
60.0
 20
7.5
 30
0.0
 11
70.0
 21
7.5
 31
0.0
  0
LINE
  5
641
100
AcDbEntity
  8
0
  6
CONTINUOUS
 62
               7
100
AcDbLine
 10
60.0
 20
6.5
 30
0.0
 11
70.0
 21
6.5
 31
0.0
  0
ARC
  5
642
100
AcDbEntity
  8
0
  6
CONTINUOUS
 62
               7
100
AcDbCircle
 10
60.0
 20
16.5
 30
0.0
 40
6.0
100
AcDbArc
 50
270.00001798608935
 51
353.67352020580279
  0
ARC
  5
643
100
AcDbEntity
  8
0
  6
CONTINUOUS
 62
               7
100
AcDbCircle
 10
60.0
 20
16.5
 30
0.0
 40
5.1099996566772461
100
AcDbArc
 50
270.00001798608935
 51
353.67351679070816
  0
ARC
  5
644
100
AcDbEntity
  8
0
  6
CONTINUOUS
 62
               7
100
AcDbCircle
 10
96.970001220703125
 20
24.552459716796875
 30
0.0
 40
29.857528686523438
100
AcDbArc
 50
89.999982013910653
 51
173.67351496947535
  0
ARC
  5
645
100
AcDbEntity
  8
0
  6
CONTINUOUS
 62
               7
100
AcDbCircle
 10
96.970001220703125
 20
24.552459716796875
 30
0.0
 40
30.747528076171875
100
AcDbArc
 50
89.999982013910653
 51
173.67351496947535
  0
LINE
  5
646
100
AcDbEntity
  8
0
  6
CONTINUOUS
 62
               7
100
AcDbLine
 10
66.409721778612948
 20
27.940629284594252
 30
0.0
 11
65.07888230037679
 21
15.936907737768706
 31
0.0
  0
LINE
  5
647
100
AcDbEntity
  8
0
  6
CONTINUOUS
 62
               7
100
AcDbLine
 10
67.294305774782515
 20
27.842563815326685
 30
0.0
 11
65.963465334985813
 21
15.83882710263606
 31
0.0
  0
LINE
  5
648
100
AcDbEntity
  8
0
  6
CONTINUOUS
 62
               7
100
AcDbLine
 10
-12.5
 20
7.5
 30
0.0
 11
-12.5
 21
0.0
 31
0.0
  0
LINE
  5
649
100
AcDbEntity
  8
0
  6
CONTINUOUS
 62
               7
100
AcDbLine
 10
89.0
 20
35.0
 30
0.0
 11
70.456422128626173
 21
33.377647155044542
 31
0.0
  0
LINE
  5
64A
100
AcDbEntity
  8
0
  6
CONTINUOUS
 62
               7
100
AcDbLine
 10
70.0
 20
32.879549805998693
 30
0.0
 11
70.0
 21
1.0
 31
0.0
  0
ARC
  5
64B
100
AcDbEntity
  8
0
  6
CONTINUOUS
 62
               7
100
AcDbCircle
 10
70.5
 20
32.879549805998693
 30
0.0
 40
0.5
100
AcDbArc
 50
94.999999999999815
 51
180.0
  0
LINE
  5
64C
100
AcDbEntity
  8
0
  6
CONTINUOUS
 62
               7
100
AcDbLine
 10
89.0
 20
3.0
 30
0.0
 11
70.5
 21
3.0
 31
0.0
  0
LINE
  5
64D
100
AcDbEntity
  8
0
  6
CONTINUOUS
 62
               7
100
AcDbLine
 10
71.5
 20
3.0
 30
0.0
 11
71.5
 21
1.0
 31
0.0
  0
LINE
  5
64E
100
AcDbEntity
  8
0
  6
CONTINUOUS
 62
               7
100
AcDbLine
 10
89.0
 20
5.0
 30
0.0
 11
70.0
 21
5.0
 31
0.0
  0
ARC
  5
64F
100
AcDbEntity
  8
0
  6
CONTINUOUS
 62
               7
100
AcDbCircle
 10
70.5
 20
3.5
 30
0.0
 40
0.5
100
AcDbArc
 50
180.0
 51
270.0
  0
LINE
  5
650
100
AcDbEntity
  8
0
  6
CONTINUOUS
 62
               7
100
AcDbLine
 10
71.5
 20
1.0
 30
0.0
 11
70.0
 21
1.0
 31
0.0
  0
LINE
  5
651
100
AcDbEntity
  8
0
  6
CONTINUOUS
 62
               7
100
AcDbLine
 10
84.0
 20
3.0
 30
0.0
 11
84.0
 21
1.0
 31
0.0
  0
LINE
  5
652
100
AcDbEntity
  8
0
  6
CONTINUOUS
 62
               7
100
AcDbLine
 10
89.0
 20
1.0
 30
0.0
 11
84.0
 21
1.0
 31
0.0
  0
LINE
  5
653
100
AcDbEntity
  8
0
  6
CONTINUOUS
 62
               7
100
AcDbLine
 10
110.0
 20
45.0
 30
0.0
 11
110.0
 21
1.0
 31
0.0
  0
LINE
  5
654
100
AcDbEntity
  8
0
  6
CONTINUOUS
 62
               7
100
AcDbLine
 10
171.0
 20
1.0
 30
0.0
 11
176.0
 21
1.0
 31
0.0
  0
LINE
  5
655
100
AcDbEntity
  8
0
  6
CONTINUOUS
 62
               7
100
AcDbLine
 10
171.0
 20
3.0
 30
0.0
 11
189.5
 21
3.0
 31
0.0
  0
LINE
  5
656
100
AcDbEntity
  8
0
  6
CONTINUOUS
 62
               7
100
AcDbLine
 10
171.0
 20
5.0
 30
0.0
 11
190.0
 21
5.0
 31
0.0
  0
LINE
  5
657
100
AcDbEntity
  8
0
  6
CONTINUOUS
 62
               7
100
AcDbLine
 10
171.0
 20
35.0
 30
0.0
 11
189.54357787137383
 21
33.377647155044542
 31
0.0
  0
LINE
  5
658
100
AcDbEntity
  8
0
  6
CONTINUOUS
 62
               7
100
AcDbLine
 10
212.5
 20
7.5
 30
0.0
 11
190.0
 21
7.5
 31
0.0
  0
LINE
  5
659
100
AcDbEntity
  8
0
  6
CONTINUOUS
 62
               7
100
AcDbLine
 10
212.5
 20
6.5
 30
0.0
 11
190.0
 21
6.5
 31
0.0
  0
LINE
  5
65A
100
AcDbEntity
  8
0
  6
CONTINUOUS
 62
               7
100
AcDbLine
 10
212.5
 20
7.5
 30
0.0
 11
212.5
 21
0.0
 31
0.0
  0
LINE
  5
65B
100
AcDbEntity
  8
0
  6
CONTINUOUS
 62
               7
100
AcDbLine
 10
190.0
 20
32.879549805998693
 30
0.0
 11
190.0
 21
1.0
 31
0.0
  0
ARC
  5
65C
100
AcDbEntity
  8
0
  6
CONTINUOUS
 62
               7
100
AcDbCircle
 10
189.5
 20
32.879549805998693
 30
0.0
 40
0.5
100
AcDbArc
 50
0.0
 51
85.000000000000185
  0
LINE
  5
65D
100
AcDbEntity
  8
0
  6
CONTINUOUS
 62
               7
100
AcDbLine
 10
188.5
 20
1.0
 30
0.0
 11
190.0
 21
1.0
 31
0.0
  0
LINE
  5
65E
100
AcDbEntity
  8
0
  6
CONTINUOUS
 62
               7
100
AcDbLine
 10
188.5
 20
3.0
 30
0.0
 11
188.5
 21
1.0
 31
0.0
  0
LINE
  5
65F
100
AcDbEntity
  8
0
  6
CONTINUOUS
 62
               7
100
AcDbLine
 10
176.0
 20
3.0
 30
0.0
 11
176.0
 21
1.0
 31
0.0
  0
ARC
  5
660
100
AcDbEntity
  8
0
  6
CONTINUOUS
 62
               7
100
AcDbCircle
 10
189.5
 20
3.5
 30
0.0
 40
0.5
100
AcDbArc
 50
270.0
 51
0.0
  0
LINE
  5
661
100
AcDbEntity
  8
0
  6
CONTINUOUS
 62
               7
100
AcDbLine
 10
171.0
 20
35.0
 30
0.0
 11
171.0
 21
0.0
 31
0.0
  0
LINE
  5
662
100
AcDbEntity
  8
0
  6
CONTINUOUS
 62
               7
100
AcDbLine
 10
120.5
 20
35.0
 30
0.0
 11
120.5
 21
0.0
 31
0.0
  0
LINE
  5
663
100
AcDbEntity
  8
0
  6
CONTINUOUS
 62
               7
100
AcDbLine
 10
171.0
 20
0.0
 30
0.0
 11
212.5
 21
0.0
 31
0.0
  0
LINE
  5
664
100
AcDbEntity
  8
0
  6
CONTINUOUS
 62
               2
100
AcDbLine
 10
200.0
 20
14.679453746566963
 30
0.0
 11
200.0
 21
-4.4319606876770763
 31
0.0
  0
ENDBLK
  5
665
100
AcDbEntity
  8
0
100
AcDbBlockEnd
  0
BLOCK
  5
666
100
AcDbEntity
  8
0
100
AcDbBlockBegin
  2
F10MSJ-15
 70
               0
 10
0.0
 20
0.0
 30
0.0
  3
F10MSJ-15
  1

  0
LINE
  5
667
100
AcDbEntity
  8
0
  6
CONTINUOUS
 62
             200
100
AcDbLine
 10
5.25
 20
-53.048991005127405
 30
0.0
 11
5.25
 21
-35.400000000000006
 31
0.0
  0
LINE
  5
668
100
AcDbEntity
  8
0
  6
CONTINUOUS
 62
               2
100
AcDbLine
 10
5.25
 20
-35.400000000000006
 30
0.0
 11
5.25
 21
64.087997436523438
 31
0.0
  0
LINE
  5
669
100
AcDbEntity
  8
0
  6
CONTINUOUS
 62
               4
100
AcDbLine
 10
10.25
 20
-35.5
 30
0.0
 11
10.149999999999977
 21
-35.400000000000006
 31
0.0
  0
LINE
  5
66A
100
AcDbEntity
  8
0
  6
CONTINUOUS
 62
               4
100
AcDbLine
 10
10.149999999999977
 20
-35.400000000000006
 30
0.0
 11
10.25
 21
-35.300000000000011
 31
0.0
  0
LINE
  5
66B
100
AcDbEntity
  8
0
  6
CONTINUOUS
 62
               4
100
AcDbLine
 10
0.3500000000000227
 20
-35.400000000000006
 30
0.0
 11
0.25
 21
-35.300000000000011
 31
0.0
  0
LINE
  5
66C
100
AcDbEntity
  8
0
  6
CONTINUOUS
 62
               4
100
AcDbLine
 10
0.25
 20
-35.5
 30
0.0
 11
0.3500000000000227
 21
-35.400000000000006
 31
0.0
  0
LINE
  5
66D
100
AcDbEntity
  8
0
  6
CONTINUOUS
 62
               4
100
AcDbLine
 10
10.25
 20
-35.5
 30
0.0
 11
0.25
 21
-35.5
 31
0.0
  0
LINE
  5
66E
100
AcDbEntity
  8
0
  6
CONTINUOUS
 62
               4
100
AcDbLine
 10
10.149999999999977
 20
-35.400000000000006
 30
0.0
 11
0.3500000000000227
 21
-35.400000000000006
 31
0.0
  0
LINE
  5
66F
100
AcDbEntity
  8
0
  6
CONTINUOUS
 62
               4
100
AcDbLine
 10
10.18397444486618
 20
-44.200000204906019
 30
0.0
 11
0.3160255551338196
 21
-44.200000204906019
 31
0.0
  0
LINE
  5
670
100
AcDbEntity
  8
0
  6
CONTINUOUS
 62
               4
100
AcDbLine
 10
10.25
 20
-44.161879999999996
 30
0.0
 11
0.25
 21
-44.161879999999996
 31
0.0
  0
LINE
  5
671
100
AcDbEntity
  8
0
  6
CONTINUOUS
 62
               4
100
AcDbLine
 10
9.2999999999999545
 20
-45.0
 30
0.0
 11
1.2000000000000455
 21
-45.0
 31
0.0
  0
LINE
  5
672
100
AcDbEntity
  8
0
  6
CONTINUOUS
 62
               4
100
AcDbLine
 10
10.25
 20
-44.161879999999996
 30
0.0
 11
10.183974799999987
 21
-44.200000000000017
 31
0.0
  0
LINE
  5
673
100
AcDbEntity
  8
0
  6
CONTINUOUS
 62
               4
100
AcDbLine
 10
10.183974499999977
 20
-44.200000000000017
 30
0.0
 11
10.049999599999978
 21
-44.700000000000017
 31
0.0
  0
LINE
  5
674
100
AcDbEntity
  8
0
  6
CONTINUOUS
 62
               4
100
AcDbLine
 10
9.2999999999999545
 20
-44.700000000000017
 30
0.0
 11
9.2999999999999545
 21
-45.0
 31
0.0
  0
LINE
  5
675
100
AcDbEntity
  8
0
  6
CONTINUOUS
 62
               4
100
AcDbLine
 10
9.2999999999999545
 20
-45.0
 30
0.0
 11
9.2000000000000455
 21
-45.099999999999994
 31
0.0
  0
LINE
  5
676
100
AcDbEntity
  8
0
  6
CONTINUOUS
 62
               4
100
AcDbLine
 10
10.25
 20
-44.161879999999996
 30
0.0
 11
10.25
 21
-40.200000000000017
 31
0.0
  0
LINE
  5
677
100
AcDbEntity
  8
0
  6
CONTINUOUS
 62
               4
100
AcDbLine
 10
8.75
 20
-46.0
 30
0.0
 11
8.75
 21
-45.099999999999994
 31
0.0
  0
LINE
  5
678
100
AcDbEntity
  8
0
  6
CONTINUOUS
 62
               4
100
AcDbLine
 10
10.049999599999978
 20
-44.700000000000017
 30
0.0
 11
0.4500004053115845
 21
-44.700000000000017
 31
0.0
  0
LINE
  5
679
100
AcDbEntity
  8
0
  6
CONTINUOUS
 62
               4
100
AcDbLine
 10
9.2000000000000455
 20
-45.099999999999994
 30
0.0
 11
1.2999999999999545
 21
-45.099999999999994
 31
0.0
  0
LINE
  5
67A
100
AcDbEntity
  8
0
  6
CONTINUOUS
 62
               4
100
AcDbLine
 10
1.2000000000000455
 20
-45.0
 30
0.0
 11
1.2999999999999545
 21
-45.099999999999994
 31
0.0
  0
LINE
  5
67B
100
AcDbEntity
  8
0
  6
CONTINUOUS
 62
               4
100
AcDbLine
 10
1.2000000000000455
 20
-44.700000000000017
 30
0.0
 11
1.2000000000000455
 21
-45.0
 31
0.0
  0
LINE
  5
67C
100
AcDbEntity
  8
0
  6
CONTINUOUS
 62
               4
100
AcDbLine
 10
0.3160255000000234
 20
-44.200000000000017
 30
0.0
 11
0.4500004000000217
 21
-44.700000000000017
 31
0.0
  0
LINE
  5
67D
100
AcDbEntity
  8
0
  6
CONTINUOUS
 62
               4
100
AcDbLine
 10
0.25
 20
-44.161879999999996
 30
0.0
 11
0.3160252000000128
 21
-44.200000000000017
 31
0.0
  0
LINE
  5
67E
100
AcDbEntity
  8
0
  6
CONTINUOUS
 62
               4
100
AcDbLine
 10
10.25
 20
-40.200000000000017
 30
0.0
 11
10.049999999999955
 21
-40.0
 31
0.0
  0
LINE
  5
67F
100
AcDbEntity
  8
0
  6
CONTINUOUS
 62
               4
100
AcDbLine
 10
0.25
 20
-40.200000000000017
 30
0.0
 11
0.4500000000000455
 21
-40.0
 31
0.0
  0
LINE
  5
680
100
AcDbEntity
  8
0
  6
CONTINUOUS
 62
               4
100
AcDbLine
 10
9.5
 20
-39.299999999999983
 30
0.0
 11
9.5
 21
-40.0
 31
0.0
  0
LINE
  5
681
100
AcDbEntity
  8
0
  6
CONTINUOUS
 62
               4
100
AcDbLine
 10
1.0
 20
-40.0
 30
0.0
 11
1.0
 21
-39.299999999999983
 31
0.0
  0
LINE
  5
682
100
AcDbEntity
  8
0
  6
CONTINUOUS
 62
               4
100
AcDbLine
 10
10.25
 20
-40.200000000000017
 30
0.0
 11
0.25
 21
-40.200000000000017
 31
0.0
  0
LINE
  5
683
100
AcDbEntity
  8
0
  6
CONTINUOUS
 62
               4
100
AcDbLine
 10
10.049999999999955
 20
-40.0
 30
0.0
 11
0.4500000000000455
 21
-40.0
 31
0.0
  0
LINE
  5
684
100
AcDbEntity
  8
0
  6
CONTINUOUS
 62
               4
100
AcDbLine
 10
10.049999999999955
 20
-39.299999999999983
 30
0.0
 11
10.25
 21
-39.099999999999994
 31
0.0
  0
LINE
  5
685
100
AcDbEntity
  8
0
  6
CONTINUOUS
 62
               4
100
AcDbLine
 10
0.4500000000000455
 20
-39.299999999999983
 30
0.0
 11
0.25
 21
-39.099999999999994
 31
0.0
  0
LINE
  5
686
100
AcDbEntity
  8
0
  6
CONTINUOUS
 62
               4
100
AcDbLine
 10
10.049999999999955
 20
-39.299999999999983
 30
0.0
 11
0.4500000000000455
 21
-39.299999999999983
 31
0.0
  0
LINE
  5
687
100
AcDbEntity
  8
0
  6
CONTINUOUS
 62
               4
100
AcDbLine
 10
10.25
 20
-39.099999999999994
 30
0.0
 11
0.25
 21
-39.099999999999994
 31
0.0
  0
LINE
  5
688
100
AcDbEntity
  8
0
  6
CONTINUOUS
 62
               4
100
AcDbLine
 10
0.25
 20
-39.099999999999994
 30
0.0
 11
0.25
 21
-35.5
 31
0.0
  0
LINE
  5
689
100
AcDbEntity
  8
0
  6
CONTINUOUS
 62
               4
100
AcDbLine
 10
10.25
 20
-39.099999999999994
 30
0.0
 11
10.25
 21
-35.5
 31
0.0
  0
LINE
  5
68A
100
AcDbEntity
  8
0
  6
CONTINUOUS
 62
               4
100
AcDbLine
 10
10.149999999999977
 20
-46.799999999999983
 30
0.0
 11
10.149999999999977
 21
-46.0
 31
0.0
  0
ARC
  5
68B
100
AcDbEntity
  8
0
  6
CONTINUOUS
 62
               4
100
AcDbCircle
 10
9.9500000000000455
 20
-46.799999999999983
 30
0.0
 40
0.2
100
AcDbArc
 50
270.0
 51
0.0
  0
LINE
  5
68C
100
AcDbEntity
  8
0
  6
CONTINUOUS
 62
               4
100
AcDbLine
 10
0.25
 20
-44.161879999999996
 30
0.0
 11
0.25
 21
-40.200000000000017
 31
0.0
  0
LINE
  5
68D
100
AcDbEntity
  8
0
  6
CONTINUOUS
 62
               4
100
AcDbLine
 10
10.149999999999977
 20
-46.0
 30
0.0
 11
0.3499999940395355
 21
-46.0
 31
0.0
  0
LINE
  5
68E
100
AcDbEntity
  8
0
  6
CONTINUOUS
 62
               4
100
AcDbLine
 10
1.75
 20
-46.0
 30
0.0
 11
1.75
 21
-45.099999999999994
 31
0.0
  0
ARC
  5
68F
100
AcDbEntity
  8
0
  6
CONTINUOUS
 62
               4
100
AcDbCircle
 10
0.5499999999999545
 20
-46.799999999999983
 30
0.0
 40
0.2
100
AcDbArc
 50
180.0
 51
270.0
  0
LINE
  5
690
100
AcDbEntity
  8
0
  6
CONTINUOUS
 62
               4
100
AcDbLine
 10
0.3500000000000227
 20
-46.799999999999983
 30
0.0
 11
0.3500000000000227
 21
-46.0
 31
0.0
  0
LINE
  5
691
100
AcDbEntity
  8
0
  6
CONTINUOUS
 62
               4
100
AcDbLine
 10
9.9500000000000455
 20
-47.0
 30
0.0
 11
0.550000011920929
 21
-47.0
 31
0.0
  0
LINE
  5
692
100
AcDbEntity
  8
0
  6
CONTINUOUS
 62
               4
100
AcDbLine
 10
10.25
 20
-35.300000000000011
 30
0.0
 11
10.25
 21
-30.500000000000014
 31
0.0
  0
LINE
  5
693
100
AcDbEntity
  8
0
  6
CONTINUOUS
 62
               4
100
AcDbLine
 10
0.25
 20
-35.299999999999983
 30
0.0
 11
0.25
 21
-30.500000000000014
 31
0.0
  0
ARC
  5
694
100
AcDbEntity
  8
0
  6
CONTINUOUS
 62
               7
100
AcDbCircle
 10
0.75
 20
58.5
 30
0.0
 40
0.5
100
AcDbArc
 50
89.999982013910653
 51
179.99996402782131
  0
ARC
  5
695
100
AcDbEntity
  8
0
  6
CONTINUOUS
 62
               7
100
AcDbCircle
 10
0.75
 20
50.0
 30
0.0
 40
0.5
100
AcDbArc
 50
179.99998133066532
 51
270.00001798608935
  0
ARC
  5
696
100
AcDbEntity
  8
0
  6
CONTINUOUS
 62
               7
100
AcDbCircle
 10
9.75
 20
50.0
 30
0.0
 40
0.5
100
AcDbArc
 50
270.00001798608935
 51
0.0
  0
ARC
  5
697
100
AcDbEntity
  8
0
  6
CONTINUOUS
 62
               7
100
AcDbCircle
 10
9.75
 20
58.5
 30
0.0
 40
0.5
100
AcDbArc
 50
0.0
 51
89.999982013910653
  0
CIRCLE
  5
698
100
AcDbEntity
  8
0
  6
CONTINUOUS
 62
               4
100
AcDbCircle
 10
9.0500030517578125
 20
11.300003051757813
 30
0.0
 40
1.25
  0
CIRCLE
  5
699
100
AcDbEntity
  8
0
  6
CONTINUOUS
 62
               4
100
AcDbCircle
 10
1.4499969482421875
 20
-14.300003051757813
 30
0.0
 40
1.25
  0
LINE
  5
69A
100
AcDbEntity
  8
0
  6
CONTINUOUS
 62
               7
100
AcDbLine
 10
0.25
 20
50.0
 30
0.0
 11
0.25
 21
58.5
 31
0.0
  0
LINE
  5
69B
100
AcDbEntity
  8
0
  6
CONTINUOUS
 62
               7
100
AcDbLine
 10
10.25
 20
50.0
 30
0.0
 11
10.25
 21
58.5
 31
0.0
  0
LINE
  5
69C
100
AcDbEntity
  8
0
  6
CONTINUOUS
 62
               7
100
AcDbLine
 10
7.649993896484375
 20
-30.300003051757827
 30
0.0
 11
10.5
 21
-30.300003051757827
 31
0.0
  0
LINE
  5
69D
100
AcDbEntity
  8
0
  6
CONTINUOUS
 62
               7
100
AcDbLine
 10
0.0
 20
-30.300003051757827
 30
0.0
 11
0.25
 21
-30.300003051757827
 31
0.0
  0
LINE
  5
69E
100
AcDbEntity
  8
0
  6
CONTINUOUS
 62
               7
100
AcDbLine
 10
7.649993896484375
 20
-30.300003051757827
 30
0.0
 11
7.649993896484375
 21
-25.5
 31
0.0
  0
LINE
  5
69F
100
AcDbEntity
  8
0
  6
CONTINUOUS
 62
               7
100
AcDbLine
 10
10.25
 20
-30.300003051757827
 30
0.0
 11
10.25
 21
-30.500000000000014
 31
0.0
  0
LINE
  5
6A0
100
AcDbEntity
  8
0
  6
CONTINUOUS
 62
               7
100
AcDbLine
 10
7.4499969482421875
 20
-25.5
 30
0.0
 11
7.4499969482421875
 21
-30.500000000000014
 31
0.0
  0
LINE
  5
6A1
100
AcDbEntity
  8
0
  6
CONTINUOUS
 62
               7
100
AcDbLine
 10
0.25
 20
-30.500000000000014
 30
0.0
 11
10.25
 21
-30.500000000000014
 31
0.0
  0
LINE
  5
6A2
100
AcDbEntity
  8
0
  6
CONTINUOUS
 62
               7
100
AcDbLine
 10
0.25
 20
-25.5
 30
0.0
 11
0.25
 21
-30.500000000000014
 31
0.0
  0
LINE
  5
6A3
100
AcDbEntity
  8
0
  6
CONTINUOUS
 62
               7
100
AcDbLine
 10
0.0
 20
61.0
 30
0.0
 11
10.5
 21
61.0
 31
0.0
  0
LINE
  5
6A4
100
AcDbEntity
  8
0
  6
CONTINUOUS
 62
               7
100
AcDbLine
 10
0.0
 20
60.5
 30
0.0
 11
10.5
 21
60.5
 31
0.0
  0
LINE
  5
6A5
100
AcDbEntity
  8
0
  6
CONTINUOUS
 62
               7
100
AcDbLine
 10
0.0
 20
61.5
 30
0.0
 11
10.5
 21
61.5
 31
0.0
  0
LINE
  5
6A6
100
AcDbEntity
  8
0
  6
CONTINUOUS
 62
               7
100
AcDbLine
 10
0.75
 20
59.0
 30
0.0
 11
9.75
 21
59.0
 31
0.0
  0
LINE
  5
6A7
100
AcDbEntity
  8
0
  6
CONTINUOUS
 62
               7
100
AcDbLine
 10
0.0
 20
59.5
 30
0.0
 11
10.5
 21
59.5
 31
0.0
  0
LINE
  5
6A8
100
AcDbEntity
  8
0
  6
CONTINUOUS
 62
               7
100
AcDbLine
 10
8.75
 20
59.0
 30
0.0
 11
8.75
 21
59.5
 31
0.0
  0
LINE
  5
6A9
100
AcDbEntity
  8
0
  6
CONTINUOUS
 62
               7
100
AcDbLine
 10
1.75
 20
59.0
 30
0.0
 11
1.75
 21
59.5
 31
0.0
  0
LINE
  5
6AA
100
AcDbEntity
  8
0
  6
CONTINUOUS
 62
               7
100
AcDbLine
 10
0.75
 20
49.5
 30
0.0
 11
9.75
 21
49.5
 31
0.0
  0
LINE
  5
6AB
100
AcDbEntity
  8
0
  6
CONTINUOUS
 62
               7
100
AcDbLine
 10
10.25
 20
21.5
 30
0.0
 11
10.5
 21
21.5
 31
0.0
  0
LINE
  5
6AC
100
AcDbEntity
  8
0
  6
CONTINUOUS
 62
               7
100
AcDbLine
 10
10.5
 20
-30.300003051757827
 30
0.0
 11
10.5
 21
62.5
 31
0.0
  0
LINE
  5
6AD
100
AcDbEntity
  8
0
  6
CONTINUOUS
 62
               7
100
AcDbLine
 10
0.0
 20
21.5
 30
0.0
 11
0.25
 21
21.5
 31
0.0
  0
LINE
  5
6AE
100
AcDbEntity
  8
0
  6
CONTINUOUS
 62
               4
100
AcDbLine
 10
0.25
 20
22.0
 30
0.0
 11
10.25
 21
22.0
 31
0.0
  0
LINE
  5
6AF
100
AcDbEntity
  8
0
  6
CONTINUOUS
 62
               4
100
AcDbLine
 10
0.25
 20
-18.0
 30
0.0
 11
10.25
 21
-18.0
 31
0.0
  0
LINE
  5
6B0
100
AcDbEntity
  8
0
  6
CONTINUOUS
 62
               7
100
AcDbLine
 10
0.25
 20
-18.0
 30
0.0
 11
0.25
 21
-14.650009155273438
 31
0.0
  0
LINE
  5
6B1
100
AcDbEntity
  8
0
  6
CONTINUOUS
 62
               7
100
AcDbLine
 10
10.25
 20
11.649978637695312
 30
0.0
 11
10.25
 21
22.0
 31
0.0
  0
LINE
  5
6B2
100
AcDbEntity
  8
0
  6
CONTINUOUS
 62
               4
100
AcDbLine
 10
0.25
 20
-13.949996948242188
 30
0.0
 11
0.25
 21
22.0
 31
0.0
  0
LINE
  5
6B3
100
AcDbEntity
  8
0
  6
CONTINUOUS
 62
               7
100
AcDbLine
 10
10.25
 20
-18.0
 30
0.0
 11
10.25
 21
10.95001220703125
 31
0.0
  0
LINE
  5
6B4
100
AcDbEntity
  8
0
  6
CONTINUOUS
 62
               4
100
AcDbLine
 10
8.4489826592525787
 20
10.698966871790617
 30
0.0
 11
9.6510513205121242
 21
11.901035431723358
 31
0.0
  0
LINE
  5
6B5
100
AcDbEntity
  8
0
  6
CONTINUOUS
 62
               4
100
AcDbLine
 10
8.4489981018568869
 20
11.901072988782289
 30
0.0
 11
9.651077552710376
 21
10.698993639256514
 31
0.0
  0
LINE
  5
6B6
100
AcDbEntity
  8
0
  6
CONTINUOUS
 62
               4
100
AcDbLine
 10
0.8490077185952032
 20
-14.901048116033962
 30
0.0
 11
2.0510871694486923
 21
-13.698968766508187
 31
0.0
  0
LINE
  5
6B7
100
AcDbEntity
  8
0
  6
CONTINUOUS
 62
               4
100
AcDbLine
 10
0.8490037399315042
 20
-13.6989210604861
 30
0.0
 11
2.0510831907849933
 21
-14.901000410011875
 31
0.0
  0
LINE
  5
6B8
100
AcDbEntity
  8
0
  6
CONTINUOUS
 62
               7
100
AcDbLine
 10
0.0
 20
-25.5
 30
0.0
 11
7.649993896484375
 21
-25.5
 31
0.0
  0
LINE
  5
6B9
100
AcDbEntity
  8
0
  6
CONTINUOUS
 62
               7
100
AcDbLine
 10
0.0
 20
-30.300003051757827
 30
0.0
 11
0.0
 21
62.5
 31
0.0
  0
LINE
  5
6BA
100
AcDbEntity
  8
0
  6
CONTINUOUS
 62
               7
100
AcDbLine
 10
0.0
 20
62.5
 30
0.0
 11
10.5
 21
62.5
 31
0.0
  0
ENDBLK
  5
6BB
100
AcDbEntity
  8
0
100
AcDbBlockEnd
  0
BLOCK
  5
6BC
100
AcDbEntity
  8
0
100
AcDbBlockBegin
  2
F10MSJ-16
 70
               0
 10
0.0
 20
0.0
 30
0.0
  3
F10MSJ-16
  1

  0
LINE
  5
6BD
100
AcDbEntity
  8
0
  6
CONTINUOUS
 62
               4
100
AcDbLine
 10
18.200000002981596
 20
-47.0
 30
0.0
 11
8.80000001490248
 21
-47.0
 31
0.0
  0
LINE
  5
6BE
100
AcDbEntity
  8
0
  6
CONTINUOUS
 62
               4
100
AcDbLine
 10
8.6000000029815737
 20
-46.800000000000011
 30
0.0
 11
8.6000000029815737
 21
-46.0
 31
0.0
  0
ARC
  5
6BF
100
AcDbEntity
  8
0
  6
CONTINUOUS
 62
               4
100
AcDbCircle
 10
8.8000000029816192
 20
-46.800000000000011
 30
0.0
 40
0.2
100
AcDbArc
 50
180.0
 51
270.0
  0
LINE
  5
6C0
100
AcDbEntity
  8
0
  6
CONTINUOUS
 62
               4
100
AcDbLine
 10
10.000000002981551
 20
-46.0
 30
0.0
 11
10.000000002981551
 21
-45.099999999999994
 31
0.0
  0
LINE
  5
6C1
100
AcDbEntity
  8
0
  6
CONTINUOUS
 62
               4
100
AcDbLine
 10
18.400000002981642
 20
-46.0
 30
0.0
 11
8.5999999970210865
 21
-46.0
 31
0.0
  0
ARC
  5
6C2
100
AcDbEntity
  8
0
  6
CONTINUOUS
 62
               4
100
AcDbCircle
 10
18.200000002981596
 20
-46.800000000000011
 30
0.0
 40
0.2
100
AcDbArc
 50
270.0
 51
0.0
  0
LINE
  5
6C3
100
AcDbEntity
  8
0
  6
CONTINUOUS
 62
               4
100
AcDbLine
 10
18.400000002981642
 20
-46.800000000000011
 30
0.0
 11
18.400000002981642
 21
-46.0
 31
0.0
  0
LINE
  5
6C4
100
AcDbEntity
  8
0
  6
CONTINUOUS
 62
               4
100
AcDbLine
 10
17.450000002981596
 20
-45.099999999999994
 30
0.0
 11
9.5500000029816192
 21
-45.099999999999994
 31
0.0
  0
LINE
  5
6C5
100
AcDbEntity
  8
0
  6
CONTINUOUS
 62
               4
100
AcDbLine
 10
17.000000002981551
 20
-46.0
 30
0.0
 11
17.000000002981551
 21
-45.099999999999994
 31
0.0
  0
LINE
  5
6C6
100
AcDbEntity
  8
0
  6
CONTINUOUS
 62
               4
100
AcDbLine
 10
19.600007632376105
 20
-46.800000000000011
 30
0.0
 11
19.600007632376105
 21
-46.0
 31
0.0
  0
LINE
  5
6C7
100
AcDbEntity
  8
0
  6
CONTINUOUS
 62
               4
100
AcDbLine
 10
29.400007632376173
 20
-46.800000000000011
 30
0.0
 11
29.400007632376173
 21
-46.0
 31
0.0
  0
LINE
  5
6C8
100
AcDbEntity
  8
0
  6
CONTINUOUS
 62
               4
100
AcDbLine
 10
28.000007632376082
 20
-46.0
 30
0.0
 11
28.000007632376082
 21
-45.099999999999994
 31
0.0
  0
LINE
  5
6C9
100
AcDbEntity
  8
0
  6
CONTINUOUS
 62
               4
100
AcDbLine
 10
28.450007632376128
 20
-45.099999999999994
 30
0.0
 11
20.55000763237615
 21
-45.099999999999994
 31
0.0
  0
LINE
  5
6CA
100
AcDbEntity
  8
0
  6
CONTINUOUS
 62
               4
100
AcDbLine
 10
29.400007632376173
 20
-46.0
 30
0.0
 11
19.600007626415618
 21
-46.0
 31
0.0
  0
LINE
  5
6CB
100
AcDbEntity
  8
0
  6
CONTINUOUS
 62
               4
100
AcDbLine
 10
21.000007632376082
 20
-46.0
 30
0.0
 11
21.000007632376082
 21
-45.099999999999994
 31
0.0
  0
LINE
  5
6CC
100
AcDbEntity
  8
0
  6
CONTINUOUS
 62
               4
100
AcDbLine
 10
29.200007632376128
 20
-47.0
 30
0.0
 11
19.800007644297011
 21
-47.0
 31
0.0
  0
ARC
  5
6CD
100
AcDbEntity
  8
0
  6
CONTINUOUS
 62
               4
100
AcDbCircle
 10
29.200007632376128
 20
-46.800000000000011
 30
0.0
 40
0.2
100
AcDbArc
 50
270.0
 51
0.0
  0
ARC
  5
6CE
100
AcDbEntity
  8
0
  6
CONTINUOUS
 62
               4
100
AcDbCircle
 10
19.80000763237615
 20
-46.800000000000011
 30
0.0
 40
0.2
100
AcDbArc
 50
180.0
 51
270.0
  0
LINE
  5
6CF
100
AcDbEntity
  8
0
  6
CONTINUOUS
 62
               4
100
AcDbLine
 10
28.55000763237615
 20
-45.0
 30
0.0
 11
28.450007632376128
 21
-45.099999999999994
 31
0.0
  0
LINE
  5
6D0
100
AcDbEntity
  8
0
  6
CONTINUOUS
 62
               4
100
AcDbLine
 10
20.450007632376128
 20
-45.0
 30
0.0
 11
20.55000763237615
 21
-45.099999999999994
 31
0.0
  0
LINE
  5
6D1
100
AcDbEntity
  8
0
  6
CONTINUOUS
 62
               4
100
AcDbLine
 10
17.550000002981619
 20
-45.0
 30
0.0
 11
17.450000002981596
 21
-45.099999999999994
 31
0.0
  0
LINE
  5
6D2
100
AcDbEntity
  8
0
  6
CONTINUOUS
 62
               4
100
AcDbLine
 10
9.4500000029815965
 20
-45.0
 30
0.0
 11
9.5500000029816192
 21
-45.099999999999994
 31
0.0
  0
LINE
  5
6D3
100
AcDbEntity
  8
0
  6
DASHED
 62
               2
100
AcDbLine
 10
41.000000000001364
 20
-45.0
 30
0.0
 11
3.5000000000013642
 21
-45.0
 31
0.0
  0
LINE
  5
6D4
100
AcDbEntity
  8
0
  6
DASHED
 62
               2
100
AcDbLine
 10
64.000000000001364
 20
48.5
 30
0.0
 11
64.500000000001364
 21
48.5
 31
0.0
  0
ARC
  5
6D5
100
AcDbEntity
  8
0
  6
DASHED
 62
               2
100
AcDbCircle
 10
62.800003051759177
 20
48.5
 30
0.0
 40
1.1999998092651367
100
AcDbArc
 50
359.99999931675467
 51
89.999981330665321
  0
ARC
  5
6D6
100
AcDbEntity
  8
0
  6
DASHED
 62
               2
100
AcDbCircle
 10
64.500000000001364
 20
47.0
 30
0.0
 40
1.5
100
AcDbArc
 50
359.99999931675467
 51
89.999981330665321
  0
LINE
  5
6D7
100
AcDbEntity
  8
0
  6
DASHED
 62
               2
100
AcDbLine
 10
45.000000000001364
 20
49.699996948242188
 30
0.0
 11
62.800003051759177
 21
49.699996948242188
 31
0.0
  0
LINE
  5
6D8
100
AcDbEntity
  8
0
  6
DASHED
 62
               2
100
AcDbLine
 10
66.000000000001364
 20
47.0
 30
0.0
 11
66.000000000001364
 21
45.0
 31
0.0
  0
LINE
  5
6D9
100
AcDbEntity
  8
0
  6
DASHED
 62
               2
100
AcDbLine
 10
64.000000000001364
 20
-48.5
 30
0.0
 11
64.500000000001364
 21
-48.5
 31
0.0
  0
ARC
  5
6DA
100
AcDbEntity
  8
0
  6
DASHED
 62
               2
100
AcDbCircle
 10
62.800003051759177
 20
-48.5
 30
0.0
 40
1.1999998092651367
100
AcDbArc
 50
270.00001866933468
 51
0.0000006832453318
  0
ARC
  5
6DB
100
AcDbEntity
  8
0
  6
DASHED
 62
               2
100
AcDbCircle
 10
44.199996948243552
 20
-48.5
 30
0.0
 40
1.1999998092651367
100
AcDbArc
 50
179.99998201391065
 51
270.00001866933468
  0
ARC
  5
6DC
100
AcDbEntity
  8
0
  6
DASHED
 62
               2
100
AcDbCircle
 10
64.500000000001364
 20
-47.0
 30
0.0
 40
1.5
100
AcDbArc
 50
270.00001866933468
 51
0.0000006832453318
  0
ARC
  5
6DD
100
AcDbEntity
  8
0
  6
DASHED
 62
               2
100
AcDbCircle
 10
42.500000000001364
 20
-47.0
 30
0.0
 40
1.5
100
AcDbArc
 50
179.99998201391065
 51
270.00001866933468
  0
LINE
  5
6DE
100
AcDbEntity
  8
0
  6
DASHED
 62
               2
100
AcDbLine
 10
44.199996948243552
 20
-49.699996948242188
 30
0.0
 11
62.800003051759177
 21
-49.699996948242188
 31
0.0
  0
LINE
  5
6DF
100
AcDbEntity
  8
0
  6
DASHED
 62
               2
100
AcDbLine
 10
66.000000000001364
 20
-47.0
 30
0.0
 11
66.000000000001364
 21
-45.0
 31
0.0
  0
LINE
  5
6E0
100
AcDbEntity
  8
0
  6
DASHED
 62
               2
100
AcDbLine
 10
41.000000000001364
 20
-47.0
 30
0.0
 11
41.000000000001364
 21
-45.0
 31
0.0
  0
LINE
  5
6E1
100
AcDbEntity
  8
0
  6
DASHED
 62
               2
100
AcDbLine
 10
42.500000000001364
 20
-48.5
 30
0.0
 11
43.000000000001364
 21
-48.5
 31
0.0
  0
LINE
  5
6E2
100
AcDbEntity
  8
0
  6
DASHED
 62
               2
100
AcDbLine
 10
45.000000000001364
 20
62.5
 30
0.0
 11
45.000000000001364
 21
49.699996948242188
 31
0.0
  0
LINE
  5
6E3
100
AcDbEntity
  8
0
  6
DASHED
 62
               2
100
AcDbLine
 10
3.5000000000013642
 20
-30.5
 30
0.0
 11
7.9019165039076142
 21
-30.5
 31
0.0
  0
LINE
  5
6E4
100
AcDbEntity
  8
0
  6
DASHED
 62
               2
100
AcDbLine
 10
3.5000000000013642
 20
-33.5
 30
0.0
 11
7.9019165039076142
 21
-33.5
 31
0.0
  0
LINE
  5
6E5
100
AcDbEntity
  8
0
  6
DASHED
 62
               2
100
AcDbLine
 10
3.5000000000013642
 20
-33.5
 30
0.0
 11
3.5000000000013642
 21
-45.0
 31
0.0
  0
ARC
  5
6E6
100
AcDbEntity
  8
0
  6
DASHED
 62
               2
100
AcDbCircle
 10
10.500000000001364
 20
-32.0
 30
0.0
 40
3.0
100
AcDbArc
 50
150.00002466469778
 51
210.00001267397155
  0
LINE
  5
6E7
100
AcDbEntity
  8
0
  6
DASHED
 62
               2
100
AcDbLine
 10
73.800003051759177
 20
45.0
 30
0.0
 11
66.000000000001364
 21
45.0
 31
0.0
  0
LINE
  5
6E8
100
AcDbEntity
  8
0
  6
DASHED
 62
               2
100
AcDbLine
 10
73.800003051759177
 20
-45.0
 30
0.0
 11
66.000000000001364
 21
-45.0
 31
0.0
  0
LINE
  5
6E9
100
AcDbEntity
  8
0
  6
DASHED
 62
               2
100
AcDbLine
 10
74.300003051759177
 20
44.5
 30
0.0
 11
74.300003051759177
 21
-44.5
 31
0.0
  0
ARC
  5
6EA
100
AcDbEntity
  8
0
  6
DASHED
 62
               2
100
AcDbCircle
 10
73.800003051759177
 20
44.5
 30
0.0
 40
0.5
100
AcDbArc
 50
359.99998201391094
 51
90.000036655424012
  0
ARC
  5
6EB
100
AcDbEntity
  8
0
  6
DASHED
 62
               2
100
AcDbCircle
 10
73.800003051759177
 20
-44.5
 30
0.0
 40
0.5
100
AcDbArc
 50
270.00001798608935
 51
359.99998201391094
  0
LINE
  5
6EC
100
AcDbEntity
  8
0
  6
CONTINUOUS
 62
               2
100
AcDbLine
 10
-1.9847869873033233
 20
0.0
 30
0.0
 11
6.1062107948334301
 21
0.0
 31
0.0
  0
LINE
  5
6ED
100
AcDbEntity
  8
0
  6
DASHED
 62
               2
100
AcDbLine
 10
4.0
 20
62.5
 30
0.0
 11
45.000000000001364
 21
62.5
 31
0.0
  0
LINE
  5
6EE
100
AcDbEntity
  8
0
  6
DASHED
 62
               2
100
AcDbLine
 10
3.0
 20
-28.5
 30
0.0
 11
3.0
 21
-25.5
 31
0.0
  0
LINE
  5
6EF
100
AcDbEntity
  8
0
  6
DASHED
 62
               2
100
AcDbLine
 10
6.5
 20
17.049999999999841
 30
0.0
 11
6.4113270459830574
 21
16.429289321881356
 31
0.0
  0
ARC
  5
6F0
100
AcDbEntity
  8
0
  6
DASHED
 62
               2
100
AcDbCircle
 10
5.916352299152436
 20
-16.5
 30
0.0
 40
0.5
100
AcDbArc
 50
8.1301023541559339
 51
90.000000000000014
  0
LINE
  5
6F1
100
AcDbEntity
  8
0
  6
DASHED
 62
               2
100
AcDbLine
 10
2.8500000000000227
 20
-18.0
 30
0.0
 11
2.8500000000000227
 21
-20.168330610420696
 31
0.0
  0
ARC
  5
6F2
100
AcDbEntity
  8
0
  6
DASHED
 62
               2
100
AcDbCircle
 10
4.8500000000000227
 20
-18.0
 30
0.0
 40
2.0
100
AcDbArc
 50
90.0
 51
180.0
  0
LINE
  5
6F3
100
AcDbEntity
  8
0
  6
DASHED
 62
               2
100
AcDbLine
 10
5.916352299152436
 20
-16.0
 30
0.0
 11
4.8500000000000227
 21
-16.0
 31
0.0
  0
ARC
  5
6F4
100
AcDbEntity
  8
0
  6
DASHED
 62
               2
100
AcDbCircle
 10
5.916352299152436
 20
16.5
 30
0.0
 40
0.5
100
AcDbArc
 50
270.0
 51
351.86989764584399
  0
ARC
  5
6F5
100
AcDbEntity
  8
0
  6
DASHED
 62
               2
100
AcDbCircle
 10
4.8500000000000227
 20
18.0
 30
0.0
 40
2.0
100
AcDbArc
 50
180.0
 51
270.0
  0
LINE
  5
6F6
100
AcDbEntity
  8
0
  6
DASHED
 62
               2
100
AcDbLine
 10
5.916352299152436
 20
16.0
 30
0.0
 11
4.8500000000000227
 21
16.0
 31
0.0
  0
LINE
  5
6F7
100
AcDbEntity
  8
0
  6
DASHED
 62
               2
100
AcDbLine
 10
2.8500000000000227
 20
20.168330610420725
 30
0.0
 11
2.8500000000000227
 21
18.0
 31
0.0
  0
LINE
  5
6F8
100
AcDbEntity
  8
0
  6
DASHED
 62
               2
100
AcDbLine
 10
1.0
 20
59.500000000000057
 30
0.0
 11
1.0
 21
21.03099977800747
 31
0.0
  0
LINE
  5
6F9
100
AcDbEntity
  8
0
  6
DASHED
 62
               2
100
AcDbLine
 10
2.8500000000000263
 20
-20.168330610420696
 30
0.0
 11
1.0
 21
-21.03099977800747
 31
0.0
  0
LINE
  5
6FA
100
AcDbEntity
  8
0
  6
DASHED
 62
               2
100
AcDbLine
 10
2.8500000000000263
 20
20.168330610420696
 30
0.0
 11
1.0
 21
21.03099977800747
 31
0.0
  0
LINE
  5
6FB
100
AcDbEntity
  8
0
  6
DASHED
 62
               2
100
AcDbLine
 10
1.0000000000001137
 20
-23.5
 30
0.0
 11
3.0
 21
-25.5
 31
0.0
  0
LINE
  5
6FC
100
AcDbEntity
  8
0
  6
DASHED
 62
               2
100
AcDbLine
 10
1.0000000000001137
 20
-23.5
 30
0.0
 11
1.0000000000001137
 21
-21.03099977800747
 31
0.0
  0
ARC
  5
6FD
100
AcDbEntity
  8
0
  6
DASHED
 62
               2
100
AcDbCircle
 10
4.0
 20
59.5
 30
0.0
 40
3.0
100
AcDbArc
 50
89.999963344575988
 51
179.99994535848663
  0
LINE
  5
6FE
100
AcDbEntity
  8
0
  6
DASHED
 62
               2
100
AcDbLine
 10
0.0
 20
-14.5
 30
0.0
 11
0.0
 21
14.5
 31
0.0
  0
LINE
  5
6FF
100
AcDbEntity
  8
0
  6
DASHED
 62
               2
100
AcDbLine
 10
0.0
 20
14.5
 30
0.0
 11
6.5
 21
14.5
 31
0.0
  0
LINE
  5
700
100
AcDbEntity
  8
0
  6
DASHED
 62
               2
100
AcDbLine
 10
0.0
 20
-14.5
 30
0.0
 11
6.5
 21
-14.5
 31
0.0
  0
LINE
  5
701
100
AcDbEntity
  8
0
  6
DASHED
 62
               2
100
AcDbLine
 10
6.5
 20
14.5
 30
0.0
 11
6.5
 21
16.429289321881356
 31
0.0
  0
LINE
  5
702
100
AcDbEntity
  8
0
  6
DASHED
 62
               2
100
AcDbLine
 10
6.5
 20
-17.049999999999955
 30
0.0
 11
6.5
 21
-14.5
 31
0.0
  0
LINE
  5
703
100
AcDbEntity
  8
0
  6
DASHED
 62
               2
100
AcDbLine
 10
3.20001220703125
 20
-30.5
 30
0.0
 11
3.5000000000013642
 21
-30.5
 31
0.0
  0
LINE
  5
704
100
AcDbEntity
  8
0
  6
DASHED
 62
               2
100
AcDbLine
 10
3.20001220703125
 20
-28.70001220703125
 30
0.0
 11
3.0
 21
-28.5
 31
0.0
  0
LINE
  5
705
100
AcDbEntity
  8
0
  6
DASHED
 62
               2
100
AcDbLine
 10
3.20001220703125
 20
-28.699996948242188
 30
0.0
 11
3.20001220703125
 21
-30.5
 31
0.0
  0
LINE
  5
706
100
AcDbEntity
  8
0
  6
DASHED
 62
               2
100
AcDbLine
 10
6.5
 20
-17.049999999999955
 30
0.0
 11
6.4113270459830574
 21
-16.429289321881356
 31
0.0
  0
ENDBLK
  5
707
100
AcDbEntity
  8
0
100
AcDbBlockEnd
  0
BLOCK
  5
708
100
AcDbEntity
  8
0
100
AcDbBlockBegin
  2
F10MSJ-17
 70
               0
 10
0.0
 20
0.0
 30
0.0
  3
F10MSJ-17
  1

  0
LINE
  5
709
100
AcDbEntity
  8
0
  6
CONTINUOUS
 62
               7
100
AcDbLine
 10
0.0
 20
0.0
 30
0.0
 11
10.5
 21
0.0
 31
0.0
  0
ARC
  5
70A
100
AcDbEntity
  8
0
  6
CONTINUOUS
 62
               7
100
AcDbCircle
 10
9.04998779296875
 20
31.800003051757813
 30
0.0
 40
1.3999996185302734
100
AcDbArc
 50
179.99998133066532
 51
270.00001798608935
  0
ARC
  5
70B
100
AcDbEntity
  8
0
  6
CONTINUOUS
 62
               7
100
AcDbCircle
 10
1.45001220703125
 20
6.1999969482421875
 30
0.0
 40
1.3999996185302734
100
AcDbArc
 50
0.0
 51
89.999982013910653
  0
ARC
  5
70C
100
AcDbEntity
  8
0
  6
CONTINUOUS
 62
               4
100
AcDbCircle
 10
9.8000030517578125
 20
36.600006103515625
 30
0.0
 40
0.5
100
AcDbArc
 50
0.0
 51
89.999982013910653
  0
ARC
  5
70D
100
AcDbEntity
  8
0
  6
CONTINUOUS
 62
               4
100
AcDbCircle
 10
8.3000030517578125
 20
36.600006103515625
 30
0.0
 40
0.5
100
AcDbArc
 50
89.999982013910653
 51
179.99996402782131
  0
ARC
  5
70E
100
AcDbEntity
  8
0
  6
CONTINUOUS
 62
               4
100
AcDbCircle
 10
2.1999969482421875
 20
36.600006103515625
 30
0.0
 40
0.5
100
AcDbArc
 50
0.0
 51
89.999982013910653
  0
ARC
  5
70F
100
AcDbEntity
  8
0
  6
CONTINUOUS
 62
               4
100
AcDbCircle
 10
0.6999969482421875
 20
36.600006103515625
 30
0.0
 40
0.5
100
AcDbArc
 50
89.999982013910653
 51
179.99996402782131
  0
LINE
  5
710
100
AcDbEntity
  8
0
  6
CONTINUOUS
 62
               7
100
AcDbLine
 10
10.5
 20
35.0
 30
0.0
 11
0.0
 21
35.0
 31
0.0
  0
LINE
  5
711
100
AcDbEntity
  8
0
  6
CONTINUOUS
 62
               7
100
AcDbLine
 10
9.04998779296875
 20
30.400009155273438
 30
0.0
 11
10.5
 21
30.400009155273438
 31
0.0
  0
LINE
  5
712
100
AcDbEntity
  8
0
  6
CONTINUOUS
 62
               7
100
AcDbLine
 10
0.0
 20
7.600006103515625
 30
0.0
 11
1.45001220703125
 21
7.600006103515625
 31
0.0
  0
LINE
  5
713
100
AcDbEntity
  8
0
  6
CONTINUOUS
 62
               7
100
AcDbLine
 10
2.850006103515625
 20
3.0
 30
0.0
 11
2.850006103515625
 21
6.1999969482421875
 31
0.0
  0
LINE
  5
714
100
AcDbEntity
  8
0
  6
CONTINUOUS
 62
               7
100
AcDbLine
 10
7.649993896484375
 20
31.800003051757813
 30
0.0
 11
7.649993896484375
 21
35.0
 31
0.0
  0
LINE
  5
715
100
AcDbEntity
  8
0
  6
CONTINUOUS
 62
               7
100
AcDbLine
 10
10.5
 20
35.0
 30
0.0
 11
10.5
 21
1.0
 31
0.0
  0
LINE
  5
716
100
AcDbEntity
  8
0
  6
CONTINUOUS
 62
               4
100
AcDbLine
 10
9.8000030517578125
 20
37.100006103515625
 30
0.0
 11
8.3000030517578125
 21
37.100006103515625
 31
0.0
  0
LINE
  5
717
100
AcDbEntity
  8
0
  6
CONTINUOUS
 62
               4
100
AcDbLine
 10
0.6999969482421875
 20
37.100006103515625
 30
0.0
 11
2.1999969482421875
 21
37.100006103515625
 31
0.0
  0
LINE
  5
718
100
AcDbEntity
  8
0
  6
CONTINUOUS
 62
               4
100
AcDbLine
 10
10.25
 20
36.600006103515625
 30
0.0
 11
10.25
 21
35.0
 31
0.0
  0
LINE
  5
719
100
AcDbEntity
  8
0
  6
CONTINUOUS
 62
               4
100
AcDbLine
 10
0.25
 20
36.600006103515625
 30
0.0
 11
0.25
 21
35.0
 31
0.0
  0
LINE
  5
71A
100
AcDbEntity
  8
0
  6
CONTINUOUS
 62
               2
100
AcDbLine
 10
5.25
 20
37.100006103515625
 30
0.0
 11
5.25
 21
-0.829620361328125
 31
0.0
  0
LINE
  5
71B
100
AcDbEntity
  8
0
  6
CONTINUOUS
 62
               4
100
AcDbLine
 10
0.1999969482421875
 20
36.600006103515625
 30
0.0
 11
10.300003051757812
 21
36.600006103515625
 31
0.0
  0
LINE
  5
71C
100
AcDbEntity
  8
0
  6
CONTINUOUS
 62
               4
100
AcDbLine
 10
10.25
 20
3.600006103515625
 30
0.0
 11
10.25
 21
29.80000114440918
 31
0.0
  0
LINE
  5
71D
100
AcDbEntity
  8
0
  6
CONTINUOUS
 62
               4
100
AcDbLine
 10
3.4499969482421875
 20
3.20001220703125
 30
0.0
 11
9.8499908447265625
 21
3.20001220703125
 31
0.0
  0
LINE
  5
71E
100
AcDbEntity
  8
0
  6
CONTINUOUS
 62
               4
100
AcDbLine
 10
0.6499977111816406
 20
34.800003051757813
 30
0.0
 11
7.0499954223632812
 21
34.800003051757813
 31
0.0
  0
LINE
  5
71F
100
AcDbEntity
  8
0
  6
CONTINUOUS
 62
               4
100
AcDbLine
 10
7.4500007629394531
 20
31.799999237060547
 30
0.0
 11
7.4500007629394531
 21
34.400003433227539
 31
0.0
  0
LINE
  5
720
100
AcDbEntity
  8
0
  6
CONTINUOUS
 62
               4
100
AcDbLine
 10
3.0500030517578125
 20
6.1999969482421875
 30
0.0
 11
3.0500030517578125
 21
3.600006103515625
 31
0.0
  0
LINE
  5
721
100
AcDbEntity
  8
0
  6
CONTINUOUS
 62
               4
100
AcDbLine
 10
1.4499969482421875
 20
7.8000030517578125
 30
0.0
 11
0.6499977111816406
 21
7.8000030517578125
 31
0.0
  0
LINE
  5
722
100
AcDbEntity
  8
0
  6
CONTINUOUS
 62
               4
100
AcDbLine
 10
9.0499916076660156
 20
30.200006484985352
 30
0.0
 11
9.8499946594238281
 21
30.200006484985352
 31
0.0
  0
LINE
  5
723
100
AcDbEntity
  8
0
  6
CONTINUOUS
 62
               4
100
AcDbLine
 10
7.648950965482527
 20
5.3989596978930194
 30
0.0
 11
8.851033113734502
 21
6.6010417448170529
 31
0.0
  0
LINE
  5
724
100
AcDbEntity
  8
0
  6
CONTINUOUS
 62
               4
100
AcDbLine
 10
7.6489551801669222
 20
6.6010523658226248
 30
0.0
 11
8.8510346310204113
 21
5.3989730162968499
 31
0.0
  0
LINE
  5
725
100
AcDbEntity
  8
0
  6
CONTINUOUS
 62
               4
100
AcDbLine
 10
0.25
 20
8.20001220703125
 30
0.0
 11
0.25
 21
34.400003433227539
 31
0.0
  0
LINE
  5
726
100
AcDbEntity
  8
0
  6
CONTINUOUS
 62
               4
100
AcDbLine
 10
1.6489662180941878
 20
32.60104831568276
 30
0.0
 11
2.8510483663461628
 21
31.398966268758727
 31
0.0
  0
LINE
  5
727
100
AcDbEntity
  8
0
  6
CONTINUOUS
 62
               4
100
AcDbLine
 10
1.6489562177350763
 20
31.398959661628282
 30
0.0
 11
2.8510383659870513
 21
32.601041708552316
 31
0.0
  0
LINE
  5
728
100
AcDbEntity
  8
0
  6
CONTINUOUS
 62
             200
100
AcDbLine
 10
-0.75
 20
24.5
 30
0.0
 11
11.25
 21
24.5
 31
0.0
  0
LINE
  5
729
100
AcDbEntity
  8
0
  6
CONTINUOUS
 62
             200
100
AcDbLine
 10
-0.75
 20
13.5
 30
0.0
 11
11.25
 21
13.5
 31
0.0
  0
ARC
  5
72A
100
AcDbEntity
  8
0
  6
CONTINUOUS
 62
               4
100
AcDbCircle
 10
0.6499977111816406
 20
8.20001220703125
 30
0.0
 40
0.4000000357627869
100
AcDbArc
 50
179.99996402782131
 51
270.00000068324533
  0
ARC
  5
72B
100
AcDbEntity
  8
0
  6
CONTINUOUS
 62
               4
100
AcDbCircle
 10
0.6499977111816406
 20
34.400003433227539
 30
0.0
 40
0.4000000357627869
100
AcDbArc
 50
89.999982013910653
 51
179.99996402782131
  0
ARC
  5
72C
100
AcDbEntity
  8
0
  6
CONTINUOUS
 62
               4
100
AcDbCircle
 10
7.0499954223632812
 20
34.400003433227539
 30
0.0
 40
0.4000000357627869
100
AcDbArc
 50
0.0
 51
89.999982013910653
  0
ARC
  5
72D
100
AcDbEntity
  8
0
  6
CONTINUOUS
 62
               4
100
AcDbCircle
 10
9.8499946594238281
 20
29.80000114440918
 30
0.0
 40
0.4000000357627869
100
AcDbArc
 50
0.0
 51
89.999982013910653
  0
ARC
  5
72E
100
AcDbEntity
  8
0
  6
CONTINUOUS
 62
               4
100
AcDbCircle
 10
9.8499946594238281
 20
3.600006103515625
 30
0.0
 40
0.4000000357627869
100
AcDbArc
 50
270.00001798608935
 51
0.0
  0
ARC
  5
72F
100
AcDbEntity
  8
0
  6
CONTINUOUS
 62
               4
100
AcDbCircle
 10
3.4499969482421875
 20
3.600006103515625
 30
0.0
 40
0.4000000357627869
100
AcDbArc
 50
179.99996402782131
 51
270.00000068324533
  0
ARC
  5
730
100
AcDbEntity
  8
0
  6
CONTINUOUS
 62
               4
100
AcDbCircle
 10
9.0499954223632812
 20
31.799999237060547
 30
0.0
 40
1.5999994277954102
100
AcDbArc
 50
179.99996402782131
 51
270.00000068324533
  0
ARC
  5
731
100
AcDbEntity
  8
0
  6
CONTINUOUS
 62
               4
100
AcDbCircle
 10
1.4499969482421875
 20
6.20001220703125
 30
0.0
 40
1.5999994277954102
100
AcDbArc
 50
0.0
 51
89.999982013910653
  0
CIRCLE
  5
732
100
AcDbEntity
  8
0
  6
CONTINUOUS
 62
               4
100
AcDbCircle
 10
8.2499961853027344
 20
6.0
 30
0.0
 40
1.3999996185302734
  0
CIRCLE
  5
733
100
AcDbEntity
  8
0
  6
CONTINUOUS
 62
               4
100
AcDbCircle
 10
2.25
 20
32.0
 30
0.0
 40
1.3999996185302734
  0
CIRCLE
  5
734
100
AcDbEntity
  8
0
  6
CONTINUOUS
 62
               4
100
AcDbCircle
 10
8.2499961853027344
 20
6.0
 30
0.0
 40
1.25
  0
CIRCLE
  5
735
100
AcDbEntity
  8
0
  6
CONTINUOUS
 62
               4
100
AcDbCircle
 10
2.25
 20
32.0
 30
0.0
 40
1.25
  0
CIRCLE
  5
736
100
AcDbEntity
  8
0
  6
CONTINUOUS
 62
               4
100
AcDbCircle
 10
5.25
 20
24.5
 30
0.0
 40
5.0
  0
ARC
  5
737
100
AcDbEntity
  8
0
  6
CONTINUOUS
 62
               4
100
AcDbCircle
 10
5.25
 20
24.5
 30
0.0
 40
4.9000000000000004
100
AcDbArc
 50
10.399137031557654
 51
169.60086296844239
  0
CIRCLE
  5
738
100
AcDbEntity
  8
0
  6
CONTINUOUS
 62
               4
100
AcDbCircle
 10
5.25
 20
24.5
 30
0.0
 40
3.0500000000000003
  0
CIRCLE
  5
739
100
AcDbEntity
  8
0
  6
CONTINUOUS
 62
               4
100
AcDbCircle
 10
5.25
 20
24.5
 30
0.0
 40
2.0500000000000003
  0
LINE
  5
73A
100
AcDbEntity
  8
0
  6
CONTINUOUS
 62
               4
100
AcDbLine
 10
9.75
 20
25.200000000000017
 30
0.0
 11
10.069513529119945
 21
25.384471222047154
 31
0.0
  0
LINE
  5
73B
100
AcDbEntity
  8
0
  6
CONTINUOUS
 62
               4
100
AcDbLine
 10
9.75
 20
23.800000000000011
 30
0.0
 11
10.069513529119945
 21
23.615528777952875
 31
0.0
  0
ARC
  5
73C
100
AcDbEntity
  8
0
  6
CONTINUOUS
 62
               4
100
AcDbCircle
 10
5.25
 20
24.5
 30
0.0
 40
4.9000000000000004
100
AcDbArc
 50
190.39913703155764
 51
349.60086296844236
  0
LINE
  5
73D
100
AcDbEntity
  8
0
  6
CONTINUOUS
 62
               4
100
AcDbLine
 10
9.75
 20
23.800000000000011
 30
0.0
 11
9.75
 21
25.200000000000017
 31
0.0
  0
LINE
  5
73E
100
AcDbEntity
  8
0
  6
CONTINUOUS
 62
               4
100
AcDbLine
 10
0.75
 20
25.200000000000017
 30
0.0
 11
0.4304864708800551
 21
25.384471222047154
 31
0.0
  0
LINE
  5
73F
100
AcDbEntity
  8
0
  6
CONTINUOUS
 62
               4
100
AcDbLine
 10
0.75
 20
23.800000000000011
 30
0.0
 11
0.75
 21
25.200000000000017
 31
0.0
  0
LINE
  5
740
100
AcDbEntity
  8
0
  6
CONTINUOUS
 62
               4
100
AcDbLine
 10
0.75
 20
23.800000000000011
 30
0.0
 11
0.4304864708800551
 21
23.615528777952875
 31
0.0
  0
CIRCLE
  5
741
100
AcDbEntity
  8
0
  6
CONTINUOUS
 62
               4
100
AcDbCircle
 10
5.25
 20
13.5
 30
0.0
 40
5.0
  0
ARC
  5
742
100
AcDbEntity
  8
0
  6
CONTINUOUS
 62
               4
100
AcDbCircle
 10
5.25
 20
13.5
 30
0.0
 40
4.9000000000000004
100
AcDbArc
 50
10.399137031557654
 51
169.60086296844239
  0
CIRCLE
  5
743
100
AcDbEntity
  8
0
  6
CONTINUOUS
 62
               4
100
AcDbCircle
 10
5.25
 20
13.5
 30
0.0
 40
3.0500000000000003
  0
CIRCLE
  5
744
100
AcDbEntity
  8
0
  6
CONTINUOUS
 62
               4
100
AcDbCircle
 10
5.25
 20
13.5
 30
0.0
 40
2.0500000000000003
  0
LINE
  5
745
100
AcDbEntity
  8
0
  6
CONTINUOUS
 62
               4
100
AcDbLine
 10
0.75
 20
14.200000000000017
 30
0.0
 11
0.4304864708800551
 21
14.384471222047154
 31
0.0
  0
LINE
  5
746
100
AcDbEntity
  8
0
  6
CONTINUOUS
 62
               4
100
AcDbLine
 10
0.75
 20
12.800000000000011
 30
0.0
 11
0.75
 21
14.200000000000017
 31
0.0
  0
LINE
  5
747
100
AcDbEntity
  8
0
  6
CONTINUOUS
 62
               4
100
AcDbLine
 10
0.75
 20
12.800000000000011
 30
0.0
 11
0.4304864708800551
 21
12.615528777952875
 31
0.0
  0
ARC
  5
748
100
AcDbEntity
  8
0
  6
CONTINUOUS
 62
               4
100
AcDbCircle
 10
5.25
 20
13.5
 30
0.0
 40
4.9000000000000004
100
AcDbArc
 50
190.39913703155764
 51
349.60086296844236
  0
LINE
  5
749
100
AcDbEntity
  8
0
  6
CONTINUOUS
 62
               4
100
AcDbLine
 10
9.75
 20
12.800000000000011
 30
0.0
 11
10.069513529119945
 21
12.615528777952875
 31
0.0
  0
LINE
  5
74A
100
AcDbEntity
  8
0
  6
CONTINUOUS
 62
               4
100
AcDbLine
 10
9.75
 20
12.800000000000011
 30
0.0
 11
9.75
 21
14.200000000000017
 31
0.0
  0
LINE
  5
74B
100
AcDbEntity
  8
0
  6
CONTINUOUS
 62
               4
100
AcDbLine
 10
9.75
 20
14.200000000000017
 30
0.0
 11
10.069513529119945
 21
14.384471222047154
 31
0.0
  0
ARC
  5
74C
100
AcDbEntity
  8
0
  6
CONTINUOUS
 62
               4
100
AcDbCircle
 10
6.3999999999999773
 20
19.22387452764815
 30
0.0
 40
0.4
100
AcDbArc
 50
102.29604620064622
 51
180.0
  0
LINE
  5
74D
100
AcDbEntity
  8
0
  6
CONTINUOUS
 62
               4
100
AcDbLine
 10
6.0
 20
18.77612547235185
 30
0.0
 11
6.0
 21
19.22387452764815
 31
0.0
  0
ARC
  5
74E
100
AcDbEntity
  8
0
  6
CONTINUOUS
 62
               4
100
AcDbCircle
 10
6.3999999999999773
 20
18.77612547235185
 30
0.0
 40
0.4
100
AcDbArc
 50
180.0
 51
257.70395379935377
  0
ARC
  5
74F
100
AcDbEntity
  8
0
  6
CONTINUOUS
 62
               4
100
AcDbCircle
 10
4.1000000000000227
 20
18.77612547235185
 30
0.0
 40
0.4
100
AcDbArc
 50
282.29604620064623
 51
0.0
  0
LINE
  5
750
100
AcDbEntity
  8
0
  6
CONTINUOUS
 62
               4
100
AcDbLine
 10
4.5
 20
18.77612547235185
 30
0.0
 11
4.5
 21
19.22387452764815
 31
0.0
  0
ARC
  5
751
100
AcDbEntity
  8
0
  6
CONTINUOUS
 62
               4
100
AcDbCircle
 10
4.1000000000000227
 20
19.22387452764815
 30
0.0
 40
0.4
100
AcDbArc
 50
0.0
 51
77.703953799353798
  0
LINE
  5
752
100
AcDbEntity
  8
0
  6
CONTINUOUS
 62
               7
100
AcDbLine
 10
0.0
 20
35.0
 30
0.0
 11
0.0
 21
1.0
 31
0.0
  0
LINE
  5
753
100
AcDbEntity
  8
0
  6
CONTINUOUS
 62
               7
100
AcDbLine
 10
0.0
 20
1.0
 30
0.0
 11
10.5
 21
1.0
 31
0.0
  0
LINE
  5
754
100
AcDbEntity
  8
0
  6
CONTINUOUS
 62
               7
100
AcDbLine
 10
10.5
 20
3.0
 30
0.0
 11
0.0
 21
3.0
 31
0.0
  0
ENDBLK
  5
755
100
AcDbEntity
  8
0
100
AcDbBlockEnd
  0
BLOCK
  5
756
100
AcDbEntity
  8
0
100
AcDbBlockBegin
  2
F10MSJ-18
 70
               0
 10
0.0
 20
0.0
 30
0.0
  3
F10MSJ-18
  1

  0
CIRCLE
  5
757
100
AcDbEntity
  8
0
  6
CONTINUOUS
 62
               4
100
AcDbCircle
 10
9.04998779296875
 20
11.300018310546875
 30
0.0
 40
1.25
  0
CIRCLE
  5
758
100
AcDbEntity
  8
0
  6
CONTINUOUS
 62
               4
100
AcDbCircle
 10
1.45001220703125
 20
-14.29998779296875
 30
0.0
 40
1.25
  0
ARC
  5
759
100
AcDbEntity
  8
0
  6
CONTINUOUS
 62
               7
100
AcDbCircle
 10
0.7499923706636764
 20
58.500007629336324
 30
0.0
 40
0.4999923707218841
100
AcDbArc
 50
89.999125729116201
 51
180.0008742708838
  0
ARC
  5
75A
100
AcDbEntity
  8
0
  6
CONTINUOUS
 62
               7
100
AcDbCircle
 10
0.7500076294527389
 20
50.000007629452739
 30
0.0
 40
0.5000076295109466
100
AcDbArc
 50
180.00087425754359
 51
269.99912574245639
  0
ARC
  5
75B
100
AcDbEntity
  8
0
  6
CONTINUOUS
 62
               7
100
AcDbCircle
 10
9.7499923705472611
 20
50.000007629452739
 30
0.0
 40
0.5000076295109466
100
AcDbArc
 50
270.00087425754356
 51
359.99912574245639
  0
ARC
  5
75C
100
AcDbEntity
  8
0
  6
CONTINUOUS
 62
               7
100
AcDbCircle
 10
9.7500076293363236
 20
58.500007629336324
 30
0.0
 40
0.4999923707218841
100
AcDbArc
 50
359.99912572911626
 51
90.000874270883813
  0
LINE
  5
75D
100
AcDbEntity
  8
0
  6
CONTINUOUS
 62
               7
100
AcDbLine
 10
0.0
 20
-30.299999999999997
 30
0.0
 11
0.25
 21
-30.299999999999997
 31
0.0
  0
LINE
  5
75E
100
AcDbEntity
  8
0
  6
CONTINUOUS
 62
               7
100
AcDbLine
 10
0.0
 20
-30.299999999999997
 30
0.0
 11
0.0
 21
62.5
 31
0.0
  0
LINE
  5
75F
100
AcDbEntity
  8
0
  6
CONTINUOUS
 62
               7
100
AcDbLine
 10
0.0
 20
61.0
 30
0.0
 11
10.5
 21
61.0
 31
0.0
  0
LINE
  5
760
100
AcDbEntity
  8
0
  6
CONTINUOUS
 62
               7
100
AcDbLine
 10
0.0
 20
61.5
 30
0.0
 11
10.5
 21
61.5
 31
0.0
  0
LINE
  5
761
100
AcDbEntity
  8
0
  6
CONTINUOUS
 62
               7
100
AcDbLine
 10
10.5
 20
62.5
 30
0.0
 11
0.0
 21
62.5
 31
0.0
  0
LINE
  5
762
100
AcDbEntity
  8
0
  6
CONTINUOUS
 62
               4
100
AcDbLine
 10
0.25
 20
22.0
 30
0.0
 11
10.25
 21
22.0
 31
0.0
  0
LINE
  5
763
100
AcDbEntity
  8
0
  6
CONTINUOUS
 62
               4
100
AcDbLine
 10
0.25
 20
-18.0
 30
0.0
 11
10.25
 21
-18.0
 31
0.0
  0
LINE
  5
764
100
AcDbEntity
  8
0
  6
CONTINUOUS
 62
               4
100
AcDbLine
 10
0.25
 20
-18.0
 30
0.0
 11
0.25
 21
-14.650000000000006
 31
0.0
  0
LINE
  5
765
100
AcDbEntity
  8
0
  6
CONTINUOUS
 62
               4
100
AcDbLine
 10
10.25
 20
11.650000000000006
 30
0.0
 11
10.25
 21
22.0
 31
0.0
  0
LINE
  5
766
100
AcDbEntity
  8
0
  6
CONTINUOUS
 62
               4
100
AcDbLine
 10
0.25
 20
-13.949999999999989
 30
0.0
 11
0.25
 21
22.0
 31
0.0
  0
LINE
  5
767
100
AcDbEntity
  8
0
  6
CONTINUOUS
 62
               4
100
AcDbLine
 10
10.25
 20
-18.0
 30
0.0
 11
10.25
 21
10.949999999999989
 31
0.0
  0
LINE
  5
768
100
AcDbEntity
  8
0
  6
CONTINUOUS
 62
               4
100
AcDbLine
 10
8.4399999999999977
 20
10.689999999999998
 30
0.0
 11
9.6499999999999773
 21
11.900000000000006
 31
0.0
  0
LINE
  5
769
100
AcDbEntity
  8
0
  6
CONTINUOUS
 62
               4
100
AcDbLine
 10
8.4399999999999977
 20
11.900000000000006
 30
0.0
 11
9.6499999999999773
 21
10.689999999999998
 31
0.0
  0
LINE
  5
76A
100
AcDbEntity
  8
0
  6
CONTINUOUS
 62
               4
100
AcDbLine
 10
0.839999999999975
 20
-14.900000000000006
 30
0.0
 11
2.0500000000000114
 21
-13.689999999999998
 31
0.0
  0
LINE
  5
76B
100
AcDbEntity
  8
0
  6
CONTINUOUS
 62
               4
100
AcDbLine
 10
0.839999999999975
 20
-13.689999999999998
 30
0.0
 11
2.0500000000000114
 21
-14.900000000000006
 31
0.0
  0
LINE
  5
76C
100
AcDbEntity
  8
0
  6
CONTINUOUS
 62
               2
100
AcDbLine
 10
5.25
 20
-30.5
 30
0.0
 11
5.25
 21
64.240000000000009
 31
0.0
  0
LINE
  5
76D
100
AcDbEntity
  8
0
  6
CONTINUOUS
 62
               7
100
AcDbLine
 10
0.25
 20
50.0
 30
0.0
 11
0.25
 21
58.5
 31
0.0
  0
LINE
  5
76E
100
AcDbEntity
  8
0
  6
CONTINUOUS
 62
               7
100
AcDbLine
 10
10.25
 20
50.0
 30
0.0
 11
10.25
 21
58.5
 31
0.0
  0
LINE
  5
76F
100
AcDbEntity
  8
0
  6
CONTINUOUS
 62
               7
100
AcDbLine
 10
7.6499999999999773
 20
-30.299999999999997
 30
0.0
 11
10.5
 21
-30.299999999999997
 31
0.0
  0
LINE
  5
770
100
AcDbEntity
  8
0
  6
CONTINUOUS
 62
               7
100
AcDbLine
 10
7.6499999999999773
 20
-30.299999999999997
 30
0.0
 11
7.6499999999999773
 21
-25.5
 31
0.0
  0
LINE
  5
771
100
AcDbEntity
  8
0
  6
CONTINUOUS
 62
               7
100
AcDbLine
 10
10.25
 20
-30.299999999999997
 30
0.0
 11
10.25
 21
-30.5
 31
0.0
  0
LINE
  5
772
100
AcDbEntity
  8
0
  6
CONTINUOUS
 62
               7
100
AcDbLine
 10
7.4499999999999886
 20
-25.5
 30
0.0
 11
7.4499999999999886
 21
-30.5
 31
0.0
  0
LINE
  5
773
100
AcDbEntity
  8
0
  6
CONTINUOUS
 62
               7
100
AcDbLine
 10
0.25
 20
-30.5
 30
0.0
 11
10.25
 21
-30.5
 31
0.0
  0
LINE
  5
774
100
AcDbEntity
  8
0
  6
CONTINUOUS
 62
               7
100
AcDbLine
 10
0.25
 20
-25.5
 30
0.0
 11
0.25
 21
-30.5
 31
0.0
  0
LINE
  5
775
100
AcDbEntity
  8
0
  6
CONTINUOUS
 62
               7
100
AcDbLine
 10
0.75
 20
59.0
 30
0.0
 11
9.75
 21
59.0
 31
0.0
  0
LINE
  5
776
100
AcDbEntity
  8
0
  6
CONTINUOUS
 62
               7
100
AcDbLine
 10
0.75
 20
49.5
 30
0.0
 11
9.75
 21
49.5
 31
0.0
  0
LINE
  5
777
100
AcDbEntity
  8
0
  6
CONTINUOUS
 62
               7
100
AcDbLine
 10
10.25
 20
21.5
 30
0.0
 11
10.5
 21
21.5
 31
0.0
  0
LINE
  5
778
100
AcDbEntity
  8
0
  6
CONTINUOUS
 62
               7
100
AcDbLine
 10
10.5
 20
-30.299999999999997
 30
0.0
 11
10.5
 21
62.5
 31
0.0
  0
LINE
  5
779
100
AcDbEntity
  8
0
  6
CONTINUOUS
 62
               7
100
AcDbLine
 10
0.0
 20
21.5
 30
0.0
 11
0.25
 21
21.5
 31
0.0
  0
LINE
  5
77A
100
AcDbEntity
  8
0
  6
CONTINUOUS
 62
               7
100
AcDbLine
 10
0.0
 20
-25.5
 30
0.0
 11
7.6499999999999773
 21
-25.5
 31
0.0
  0
ENDBLK
  5
77B
100
AcDbEntity
  8
0
100
AcDbBlockEnd
  0
BLOCK
  5
77C
100
AcDbEntity
  8
0
100
AcDbBlockBegin
  2
F10MSJ-19
 70
               0
 10
0.0
 20
0.0
 30
0.0
  3
F10MSJ-19
  1

  0
LINE
  5
77D
100
AcDbEntity
  8
0
  6
CONTINUOUS
 62
               7
100
AcDbLine
 10
0.0
 20
0.0
 30
0.0
 11
10.5
 21
0.0
 31
0.0
  0
LINE
  5
77E
100
AcDbEntity
  8
0
  6
CENTER
 62
               2
100
AcDbLine
 10
5.25
 20
-0.8299999999999983
 30
0.0
 11
5.25
 21
37.289999999999999
 31
0.0
  0
LINE
  5
77F
100
AcDbEntity
  8
0
  6
CONTINUOUS
 62
               7
100
AcDbLine
 10
0.0
 20
3.0
 30
0.0
 11
10.5
 21
3.0
 31
0.0
  0
LINE
  5
780
100
AcDbEntity
  8
0
  6
CONTINUOUS
 62
               7
100
AcDbLine
 10
10.5
 20
1.0
 30
0.0
 11
0.0
 21
1.0
 31
0.0
  0
LINE
  5
781
100
AcDbEntity
  8
0
  6
CONTINUOUS
 62
               7
100
AcDbLine
 10
10.5
 20
35.0
 30
0.0
 11
10.5
 21
1.0
 31
0.0
  0
LINE
  5
782
100
AcDbEntity
  8
0
  6
CONTINUOUS
 62
               7
100
AcDbLine
 10
0.0
 20
35.0
 30
0.0
 11
0.0
 21
1.0
 31
0.0
  0
CIRCLE
  5
783
100
AcDbEntity
  8
0
  6
CONTINUOUS
 62
               7
100
AcDbCircle
 10
5.25
 20
13.100006103515625
 30
0.0
 40
2.0669994354248047
  0
CIRCLE
  5
784
100
AcDbEntity
  8
0
  6
CONTINUOUS
 62
               7
100
AcDbCircle
 10
5.25
 20
24.90000057220459
 30
0.0
 40
2.0669994354248047
  0
CIRCLE
  5
785
100
AcDbEntity
  8
0
  6
CONTINUOUS
 62
               7
100
AcDbCircle
 10
5.25
 20
13.100006103515625
 30
0.0
 40
2.5
  0
CIRCLE
  5
786
100
AcDbEntity
  8
0
  6
CONTINUOUS
 62
               7
100
AcDbCircle
 10
5.25
 20
24.90000057220459
 30
0.0
 40
2.5
  0
CIRCLE
  5
787
100
AcDbEntity
  8
0
  6
CONTINUOUS
 62
               7
100
AcDbCircle
 10
2.25
 20
32.0
 30
0.0
 40
1.25
  0
CIRCLE
  5
788
100
AcDbEntity
  8
0
  6
CONTINUOUS
 62
               7
100
AcDbCircle
 10
8.2499961853027344
 20
6.0
 30
0.0
 40
1.25
  0
CIRCLE
  5
789
100
AcDbEntity
  8
0
  6
CONTINUOUS
 62
               7
100
AcDbCircle
 10
2.25
 20
32.0
 30
0.0
 40
1.3999996185302734
  0
CIRCLE
  5
78A
100
AcDbEntity
  8
0
  6
CONTINUOUS
 62
               7
100
AcDbCircle
 10
8.2499961853027344
 20
6.0
 30
0.0
 40
1.3999996185302734
  0
ARC
  5
78B
100
AcDbEntity
  8
0
  6
CONTINUOUS
 62
               7
100
AcDbCircle
 10
1.4499969482421875
 20
6.20001220703125
 30
0.0
 40
1.5999994277954102
100
AcDbArc
 50
0.0
 51
89.999982013910653
  0
ARC
  5
78C
100
AcDbEntity
  8
0
  6
CONTINUOUS
 62
               7
100
AcDbCircle
 10
9.0499954223632812
 20
31.799999237060547
 30
0.0
 40
1.5999994277954102
100
AcDbArc
 50
179.99996402782131
 51
270.00000068324533
  0
ARC
  5
78D
100
AcDbEntity
  8
0
  6
CONTINUOUS
 62
               7
100
AcDbCircle
 10
3.4499969482421875
 20
3.600006103515625
 30
0.0
 40
0.4000000357627869
100
AcDbArc
 50
179.99996402782131
 51
270.00000068324533
  0
ARC
  5
78E
100
AcDbEntity
  8
0
  6
CONTINUOUS
 62
               7
100
AcDbCircle
 10
9.8499946594238281
 20
3.600006103515625
 30
0.0
 40
0.4000000357627869
100
AcDbArc
 50
270.00001798608935
 51
0.0
  0
ARC
  5
78F
100
AcDbEntity
  8
0
  6
CONTINUOUS
 62
               7
100
AcDbCircle
 10
9.8499946594238281
 20
29.80000114440918
 30
0.0
 40
0.4000000357627869
100
AcDbArc
 50
0.0
 51
89.999982013910653
  0
ARC
  5
790
100
AcDbEntity
  8
0
  6
CONTINUOUS
 62
               7
100
AcDbCircle
 10
7.0499954223632812
 20
34.400003433227539
 30
0.0
 40
0.4000000357627869
100
AcDbArc
 50
0.0
 51
89.999982013910653
  0
ARC
  5
791
100
AcDbEntity
  8
0
  6
CONTINUOUS
 62
               7
100
AcDbCircle
 10
0.6499977111816406
 20
34.400003433227539
 30
0.0
 40
0.4000000357627869
100
AcDbArc
 50
89.999982013910653
 51
179.99996402782131
  0
ARC
  5
792
100
AcDbEntity
  8
0
  6
CONTINUOUS
 62
               7
100
AcDbCircle
 10
0.6499977111816406
 20
8.20001220703125
 30
0.0
 40
0.4000000357627869
100
AcDbArc
 50
179.99996402782131
 51
270.00000068324533
  0
LINE
  5
793
100
AcDbEntity
  8
0
  6
CONTINUOUS
 62
               2
100
AcDbLine
 10
1.75
 20
24.90000057220459
 30
0.0
 11
8.75
 21
24.90000057220459
 31
0.0
  0
LINE
  5
794
100
AcDbEntity
  8
0
  6
CONTINUOUS
 62
               2
100
AcDbLine
 10
1.75
 20
13.100006103515625
 30
0.0
 11
8.75
 21
13.100006103515625
 31
0.0
  0
LINE
  5
795
100
AcDbEntity
  8
0
  6
CONTINUOUS
 62
               7
100
AcDbLine
 10
1.6489562177350763
 20
31.398959661628282
 30
0.0
 11
2.8510383659870513
 21
32.601041708552316
 31
0.0
  0
LINE
  5
796
100
AcDbEntity
  8
0
  6
CONTINUOUS
 62
               7
100
AcDbLine
 10
1.6489662180941309
 20
32.60104831568276
 30
0.0
 11
2.8510483663461059
 21
31.398966268758727
 31
0.0
  0
LINE
  5
797
100
AcDbEntity
  8
0
  6
CONTINUOUS
 62
               7
100
AcDbLine
 10
0.25
 20
8.20001220703125
 30
0.0
 11
0.25
 21
34.400003433227539
 31
0.0
  0
LINE
  5
798
100
AcDbEntity
  8
0
  6
CONTINUOUS
 62
               7
100
AcDbLine
 10
7.6489551801668085
 20
6.6010523658226248
 30
0.0
 11
8.8510346310202976
 21
5.3989730162968499
 31
0.0
  0
LINE
  5
799
100
AcDbEntity
  8
0
  6
CONTINUOUS
 62
               7
100
AcDbLine
 10
7.648950965482527
 20
5.3989596978930194
 30
0.0
 11
8.851033113734502
 21
6.6010417448170529
 31
0.0
  0
LINE
  5
79A
100
AcDbEntity
  8
0
  6
CONTINUOUS
 62
               7
100
AcDbLine
 10
9.0499916076660156
 20
30.200006484985352
 30
0.0
 11
9.8499946594238281
 21
30.200006484985352
 31
0.0
  0
LINE
  5
79B
100
AcDbEntity
  8
0
  6
CONTINUOUS
 62
               7
100
AcDbLine
 10
1.4499969482421875
 20
7.8000030517578125
 30
0.0
 11
0.6499977111816406
 21
7.8000030517578125
 31
0.0
  0
LINE
  5
79C
100
AcDbEntity
  8
0
  6
CONTINUOUS
 62
               7
100
AcDbLine
 10
3.0500030517578125
 20
6.1999969482421875
 30
0.0
 11
3.0500030517578125
 21
3.600006103515625
 31
0.0
  0
LINE
  5
79D
100
AcDbEntity
  8
0
  6
CONTINUOUS
 62
               7
100
AcDbLine
 10
7.4500007629394531
 20
31.799999237060547
 30
0.0
 11
7.4500007629394531
 21
34.400003433227539
 31
0.0
  0
LINE
  5
79E
100
AcDbEntity
  8
0
  6
CONTINUOUS
 62
               7
100
AcDbLine
 10
0.6499977111816406
 20
34.800003051757813
 30
0.0
 11
7.0499954223632812
 21
34.800003051757813
 31
0.0
  0
LINE
  5
79F
100
AcDbEntity
  8
0
  6
CONTINUOUS
 62
               7
100
AcDbLine
 10
3.4499969482421875
 20
3.20001220703125
 30
0.0
 11
9.8499908447265625
 21
3.20001220703125
 31
0.0
  0
LINE
  5
7A0
100
AcDbEntity
  8
0
  6
CONTINUOUS
 62
               7
100
AcDbLine
 10
10.25
 20
3.600006103515625
 30
0.0
 11
10.25
 21
29.80000114440918
 31
0.0
  0
LINE
  5
7A1
100
AcDbEntity
  8
0
  6
CONTINUOUS
 62
               4
100
AcDbLine
 10
0.1999969482421875
 20
36.600006103515625
 30
0.0
 11
10.300003051757812
 21
36.600006103515625
 31
0.0
  0
LINE
  5
7A2
100
AcDbEntity
  8
0
  6
CONTINUOUS
 62
               2
100
AcDbLine
 10
5.25
 20
37.100006103515625
 30
0.0
 11
5.25
 21
35.0
 31
0.0
  0
LINE
  5
7A3
100
AcDbEntity
  8
0
  6
CONTINUOUS
 62
               4
100
AcDbLine
 10
0.25
 20
36.600006103515625
 30
0.0
 11
0.25
 21
35.0
 31
0.0
  0
LINE
  5
7A4
100
AcDbEntity
  8
0
  6
CONTINUOUS
 62
               4
100
AcDbLine
 10
10.25
 20
36.600006103515625
 30
0.0
 11
10.25
 21
35.0
 31
0.0
  0
LINE
  5
7A5
100
AcDbEntity
  8
0
  6
CONTINUOUS
 62
               4
100
AcDbLine
 10
0.6999969482421875
 20
37.100006103515625
 30
0.0
 11
2.1999969482421875
 21
37.100006103515625
 31
0.0
  0
LINE
  5
7A6
100
AcDbEntity
  8
0
  6
CONTINUOUS
 62
               4
100
AcDbLine
 10
9.8000030517578125
 20
37.100006103515625
 30
0.0
 11
8.3000030517578125
 21
37.100006103515625
 31
0.0
  0
LINE
  5
7A7
100
AcDbEntity
  8
0
  6
CONTINUOUS
 62
               7
100
AcDbLine
 10
7.649993896484375
 20
31.800003051757813
 30
0.0
 11
7.649993896484375
 21
35.0
 31
0.0
  0
LINE
  5
7A8
100
AcDbEntity
  8
0
  6
CONTINUOUS
 62
               7
100
AcDbLine
 10
2.850006103515625
 20
3.0
 30
0.0
 11
2.850006103515625
 21
6.1999969482421875
 31
0.0
  0
LINE
  5
7A9
100
AcDbEntity
  8
0
  6
CONTINUOUS
 62
               7
100
AcDbLine
 10
0.0
 20
7.600006103515625
 30
0.0
 11
1.45001220703125
 21
7.600006103515625
 31
0.0
  0
LINE
  5
7AA
100
AcDbEntity
  8
0
  6
CONTINUOUS
 62
               7
100
AcDbLine
 10
9.04998779296875
 20
30.400009155273438
 30
0.0
 11
10.5
 21
30.400009155273438
 31
0.0
  0
LINE
  5
7AB
100
AcDbEntity
  8
0
  6
CONTINUOUS
 62
               2
100
AcDbLine
 10
5.25
 20
-0.829620361328125
 30
0.0
 11
5.25
 21
35.0
 31
0.0
  0
LINE
  5
7AC
100
AcDbEntity
  8
0
  6
CONTINUOUS
 62
               7
100
AcDbLine
 10
10.5
 20
35.0
 30
0.0
 11
0.0
 21
35.0
 31
0.0
  0
ARC
  5
7AD
100
AcDbEntity
  8
0
  6
CONTINUOUS
 62
               4
100
AcDbCircle
 10
0.6999969482421875
 20
36.600006103515625
 30
0.0
 40
0.5
100
AcDbArc
 50
89.999982013910653
 51
179.99996402782131
  0
ARC
  5
7AE
100
AcDbEntity
  8
0
  6
CONTINUOUS
 62
               4
100
AcDbCircle
 10
2.1999969482421875
 20
36.600006103515625
 30
0.0
 40
0.5
100
AcDbArc
 50
0.0
 51
89.999982013910653
  0
ARC
  5
7AF
100
AcDbEntity
  8
0
  6
CONTINUOUS
 62
               4
100
AcDbCircle
 10
8.3000030517578125
 20
36.600006103515625
 30
0.0
 40
0.5
100
AcDbArc
 50
89.999982013910653
 51
179.99996402782131
  0
ARC
  5
7B0
100
AcDbEntity
  8
0
  6
CONTINUOUS
 62
               4
100
AcDbCircle
 10
9.8000030517578125
 20
36.600006103515625
 30
0.0
 40
0.5
100
AcDbArc
 50
0.0
 51
89.999982013910653
  0
ARC
  5
7B1
100
AcDbEntity
  8
0
  6
CONTINUOUS
 62
               7
100
AcDbCircle
 10
1.45001220703125
 20
6.1999969482421875
 30
0.0
 40
1.3999996185302734
100
AcDbArc
 50
0.0
 51
89.999982013910653
  0
ARC
  5
7B2
100
AcDbEntity
  8
0
  6
CONTINUOUS
 62
               7
100
AcDbCircle
 10
9.04998779296875
 20
31.800003051757813
 30
0.0
 40
1.3999996185302734
100
AcDbArc
 50
179.99998133066532
 51
270.00001798608935
  0
ENDBLK
  5
7B3
100
AcDbEntity
  8
0
100
AcDbBlockEnd
  0
BLOCK
  5
7B4
100
AcDbEntity
  8
0
100
AcDbBlockBegin
  2
F10MSJ-20
 70
               0
 10
0.0
 20
0.0
 30
0.0
  3
F10MSJ-20
  1

  0
LINE
  5
7B5
100
AcDbEntity
  8
0
  6
CONTINUOUS
 62
               7
100
AcDbLine
 10
0.0
 20
-25.499984741210937
 30
0.0
 11
0.25
 21
-25.499984741210937
 31
0.0
  0
LINE
  5
7B6
100
AcDbEntity
  8
0
  6
CONTINUOUS
 62
               7
100
AcDbLine
 10
0.25
 20
22.000015258789063
 30
0.0
 11
10.25
 21
22.000015258789063
 31
0.0
  0
LINE
  5
7B7
100
AcDbEntity
  8
0
  6
CONTINUOUS
 62
               7
100
AcDbLine
 10
0.25
 20
24.000015258789063
 30
0.0
 11
10.25
 21
24.000015258789063
 31
0.0
  0
LINE
  5
7B8
100
AcDbEntity
  8
0
  6
CONTINUOUS
 62
               4
100
AcDbLine
 10
0.25
 20
57.500015258789063
 30
0.0
 11
10.25
 21
57.500015258789063
 31
0.0
  0
LINE
  5
7B9
100
AcDbEntity
  8
0
  6
CONTINUOUS
 62
               7
100
AcDbLine
 10
0.25
 20
33.500015258789063
 30
0.0
 11
10.25
 21
33.500015258789063
 31
0.0
  0
LINE
  5
7BA
100
AcDbEntity
  8
0
  6
CONTINUOUS
 62
               4
100
AcDbLine
 10
10.199996948242187
 20
62.000015258789063
 30
0.0
 11
0.3000030517578125
 21
62.000015258789063
 31
0.0
  0
LINE
  5
7BB
100
AcDbEntity
  8
0
  6
CONTINUOUS
 62
               7
100
AcDbLine
 10
0.25
 20
14.500015258789063
 30
0.0
 11
10.25
 21
14.500015258789063
 31
0.0
  0
LINE
  5
7BC
100
AcDbEntity
  8
0
  6
CONTINUOUS
 62
               7
100
AcDbLine
 10
0.25
 20
-17.499984741210937
 30
0.0
 11
10.25
 21
-17.499984741210937
 31
0.0
  0
LINE
  5
7BD
100
AcDbEntity
  8
0
  6
CONTINUOUS
 62
               7
100
AcDbLine
 10
0.25
 20
-25.5
 30
0.0
 11
10.25
 21
-25.5
 31
0.0
  0
LINE
  5
7BE
100
AcDbEntity
  8
0
  6
CONTINUOUS
 62
               7
100
AcDbLine
 10
10.25
 20
-19.499984741210938
 30
0.0
 11
9.9499969482421875
 21
-19.499984741210938
 31
0.0
  0
LINE
  5
7BF
100
AcDbEntity
  8
0
  6
CONTINUOUS
 62
               7
100
AcDbLine
 10
9.9499969482421875
 20
-23.5
 30
0.0
 11
10.25
 21
-23.5
 31
0.0
  0
LINE
  5
7C0
100
AcDbEntity
  8
0
  6
CONTINUOUS
 62
               7
100
AcDbLine
 10
3.0500030517578125
 20
-17.29998779296875
 30
0.0
 11
10.25
 21
-17.29998779296875
 31
0.0
  0
LINE
  5
7C1
100
AcDbEntity
  8
0
  6
CONTINUOUS
 62
               4
100
AcDbLine
 10
9.0500030517578125
 20
9.70001220703125
 30
0.0
 11
10.25
 21
9.70001220703125
 31
0.0
  0
LINE
  5
7C2
100
AcDbEntity
  8
0
  6
CONTINUOUS
 62
               7
100
AcDbLine
 10
0.0
 20
21.500015258789063
 30
0.0
 11
0.25
 21
21.500015258789063
 31
0.0
  0
LINE
  5
7C3
100
AcDbEntity
  8
0
  6
CONTINUOUS
 62
               7
100
AcDbLine
 10
0.0
 20
49.500015258789063
 30
0.0
 11
0.25
 21
49.500015258789063
 31
0.0
  0
LINE
  5
7C4
100
AcDbEntity
  8
0
  6
CONTINUOUS
 62
               7
100
AcDbLine
 10
0.0
 20
59.500015258789063
 30
0.0
 11
0.25
 21
59.500015258789063
 31
0.0
  0
LINE
  5
7C5
100
AcDbEntity
  8
0
  6
CONTINUOUS
 62
               7
100
AcDbLine
 10
0.0
 20
60.500015258789063
 30
0.0
 11
0.25
 21
60.500015258789063
 31
0.0
  0
LINE
  5
7C6
100
AcDbEntity
  8
0
  6
CONTINUOUS
 62
               7
100
AcDbLine
 10
0.0
 20
61.000015258789063
 30
0.0
 11
0.25
 21
61.000015258789063
 31
0.0
  0
LINE
  5
7C7
100
AcDbEntity
  8
0
  6
CONTINUOUS
 62
               7
100
AcDbLine
 10
0.0
 20
-30.104079317656641
 30
0.0
 11
0.25
 21
-30.104079317656641
 31
0.0
  0
ARC
  5
7C8
100
AcDbEntity
  8
0
  6
CONTINUOUS
 62
               4
100
AcDbCircle
 10
9.70001220703125
 20
66.000015258789063
 30
0.0
 40
0.5
100
AcDbArc
 50
359.99995901886496
 51
89.999982013910653
  0
ARC
  5
7C9
100
AcDbEntity
  8
0
  6
CONTINUOUS
 62
               7
100
AcDbCircle
 10
9.850006103515625
 20
-32.099990844726563
 30
0.0
 40
0.4000000357627869
100
AcDbArc
 50
270.00001798608935
 51
0.00001366037834
  0
ARC
  5
7CA
100
AcDbEntity
  8
0
  6
CONTINUOUS
 62
               7
100
AcDbCircle
 10
9.850006103515625
 20
14.900009155273438
 30
0.0
 40
0.4000000357627869
100
AcDbArc
 50
270.00001798608935
 51
0.0
  0
CIRCLE
  5
7CB
100
AcDbEntity
  8
0
  6
CONTINUOUS
 62
               4
100
AcDbCircle
 10
9.0500030517578125
 20
11.300018310546875
 30
0.0
 40
1.25
  0
LINE
  5
7CC
100
AcDbEntity
  8
0
  6
CONTINUOUS
 62
               7
100
AcDbLine
 10
0.3000030517578125
 20
61.500015258789063
 30
0.0
 11
0.0
 21
61.500015258789063
 31
0.0
  0
LINE
  5
7CD
100
AcDbEntity
  8
0
  6
CONTINUOUS
 62
               4
100
AcDbLine
 10
10.25
 20
-35.5
 30
0.0
 11
0.25
 21
-35.5
 31
0.0
  0
LINE
  5
7CE
100
AcDbEntity
  8
0
  6
CONTINUOUS
 62
               4
100
AcDbLine
 10
10.149999999999977
 20
-35.400000000000006
 30
0.0
 11
0.3500000000000227
 21
-35.400000000000006
 31
0.0
  0
LINE
  5
7CF
100
AcDbEntity
  8
0
  6
CONTINUOUS
 62
               4
100
AcDbLine
 10
10.18397444486618
 20
-44.200000204906019
 30
0.0
 11
0.3160255551338196
 21
-44.200000204906019
 31
0.0
  0
LINE
  5
7D0
100
AcDbEntity
  8
0
  6
CONTINUOUS
 62
               4
100
AcDbLine
 10
10.25
 20
-44.161879999999996
 30
0.0
 11
0.25
 21
-44.161879999999996
 31
0.0
  0
LINE
  5
7D1
100
AcDbEntity
  8
0
  6
CONTINUOUS
 62
               4
100
AcDbLine
 10
10.183974499999977
 20
-44.199999999999989
 30
0.0
 11
10.049999599999978
 21
-44.699999999999989
 31
0.0
  0
LINE
  5
7D2
100
AcDbEntity
  8
0
  6
CONTINUOUS
 62
               4
100
AcDbLine
 10
10.25
 20
-40.199999999999989
 30
0.0
 11
10.050000000000068
 21
-40.0
 31
0.0
  0
LINE
  5
7D3
100
AcDbEntity
  8
0
  6
CONTINUOUS
 62
               4
100
AcDbLine
 10
10.25
 20
-40.199999999999989
 30
0.0
 11
0.25
 21
-40.199999999999989
 31
0.0
  0
LINE
  5
7D4
100
AcDbEntity
  8
0
  6
CONTINUOUS
 62
               4
100
AcDbLine
 10
10.050000000000068
 20
-39.300000000000011
 30
0.0
 11
10.25
 21
-39.099999999999994
 31
0.0
  0
LINE
  5
7D5
100
AcDbEntity
  8
0
  6
CONTINUOUS
 62
               4
100
AcDbLine
 10
10.25
 20
-39.099999999999994
 30
0.0
 11
0.25
 21
-39.099999999999994
 31
0.0
  0
ARC
  5
7D6
100
AcDbEntity
  8
0
  6
CONTINUOUS
 62
               4
100
AcDbCircle
 10
9.9500000000000455
 20
-46.800000000000011
 30
0.0
 40
0.2
100
AcDbArc
 50
270.0
 51
0.0
  0
LINE
  5
7D7
100
AcDbEntity
  8
0
  6
CONTINUOUS
 62
               4
100
AcDbLine
 10
10.149999999999977
 20
-46.0
 30
0.0
 11
0.3499999940395355
 21
-46.0
 31
0.0
  0
LINE
  5
7D8
100
AcDbEntity
  8
0
  6
CONTINUOUS
 62
               4
100
AcDbLine
 10
9.9500000000000455
 20
-47.0
 30
0.0
 11
0.550000011920929
 21
-47.0
 31
0.0
  0
LINE
  5
7D9
100
AcDbEntity
  8
0
  6
CONTINUOUS
 62
               4
100
AcDbLine
 10
0.3500000000000227
 20
-46.800000000000011
 30
0.0
 11
0.3500000000000227
 21
-46.0
 31
0.0
  0
ARC
  5
7DA
100
AcDbEntity
  8
0
  6
CONTINUOUS
 62
               4
100
AcDbCircle
 10
0.5500000000000682
 20
-46.800000000000011
 30
0.0
 40
0.2
100
AcDbArc
 50
180.0
 51
270.0
  0
LINE
  5
7DB
100
AcDbEntity
  8
0
  6
CONTINUOUS
 62
               4
100
AcDbLine
 10
1.75
 20
-46.0
 30
0.0
 11
1.75
 21
-45.099999999999994
 31
0.0
  0
LINE
  5
7DC
100
AcDbEntity
  8
0
  6
CONTINUOUS
 62
               4
100
AcDbLine
 10
0.25
 20
-44.161879999999996
 30
0.0
 11
0.25
 21
-40.199999999999989
 31
0.0
  0
LINE
  5
7DD
100
AcDbEntity
  8
0
  6
CONTINUOUS
 62
               4
100
AcDbLine
 10
0.25
 20
-39.099999999999994
 30
0.0
 11
0.25
 21
-35.5
 31
0.0
  0
LINE
  5
7DE
100
AcDbEntity
  8
0
  6
CONTINUOUS
 62
               4
100
AcDbLine
 10
10.050000000000068
 20
-39.300000000000011
 30
0.0
 11
0.4500000000000455
 21
-39.300000000000011
 31
0.0
  0
LINE
  5
7DF
100
AcDbEntity
  8
0
  6
CONTINUOUS
 62
               4
100
AcDbLine
 10
0.4500000000000455
 20
-39.300000000000011
 30
0.0
 11
0.25
 21
-39.099999999999994
 31
0.0
  0
LINE
  5
7E0
100
AcDbEntity
  8
0
  6
CONTINUOUS
 62
               4
100
AcDbLine
 10
10.050000000000068
 20
-40.0
 30
0.0
 11
0.4500000000000455
 21
-40.0
 31
0.0
  0
LINE
  5
7E1
100
AcDbEntity
  8
0
  6
CONTINUOUS
 62
               4
100
AcDbLine
 10
1.0
 20
-40.0
 30
0.0
 11
1.0
 21
-39.300000000000011
 31
0.0
  0
LINE
  5
7E2
100
AcDbEntity
  8
0
  6
CONTINUOUS
 62
               4
100
AcDbLine
 10
9.5
 20
-39.300000000000011
 30
0.0
 11
9.5
 21
-40.0
 31
0.0
  0
LINE
  5
7E3
100
AcDbEntity
  8
0
  6
CONTINUOUS
 62
               4
100
AcDbLine
 10
0.25
 20
-40.199999999999989
 30
0.0
 11
0.4500000000000455
 21
-40.0
 31
0.0
  0
LINE
  5
7E4
100
AcDbEntity
  8
0
  6
CONTINUOUS
 62
               4
100
AcDbLine
 10
0.25
 20
-44.161879999999996
 30
0.0
 11
0.3160252000000128
 21
-44.199999999999989
 31
0.0
  0
LINE
  5
7E5
100
AcDbEntity
  8
0
  6
CONTINUOUS
 62
               4
100
AcDbLine
 10
0.3160255000000234
 20
-44.199999999999989
 30
0.0
 11
0.4500004000000217
 21
-44.699999999999989
 31
0.0
  0
LINE
  5
7E6
100
AcDbEntity
  8
0
  6
CONTINUOUS
 62
               4
100
AcDbLine
 10
1.2000000000000455
 20
-44.699999999999989
 30
0.0
 11
1.2000000000000455
 21
-45.0
 31
0.0
  0
LINE
  5
7E7
100
AcDbEntity
  8
0
  6
CONTINUOUS
 62
               4
100
AcDbLine
 10
1.2000000000000455
 20
-45.0
 30
0.0
 11
1.2999999999999545
 21
-45.099999999999994
 31
0.0
  0
LINE
  5
7E8
100
AcDbEntity
  8
0
  6
CONTINUOUS
 62
               4
100
AcDbLine
 10
9.2000000000000455
 20
-45.099999999999994
 30
0.0
 11
1.2999999999999545
 21
-45.099999999999994
 31
0.0
  0
LINE
  5
7E9
100
AcDbEntity
  8
0
  6
CONTINUOUS
 62
               4
100
AcDbLine
 10
10.049999599999978
 20
-44.699999999999989
 30
0.0
 11
0.4500004053115845
 21
-44.699999999999989
 31
0.0
  0
LINE
  5
7EA
100
AcDbEntity
  8
0
  6
CONTINUOUS
 62
               4
100
AcDbLine
 10
8.75
 20
-46.0
 30
0.0
 11
8.75
 21
-45.099999999999994
 31
0.0
  0
LINE
  5
7EB
100
AcDbEntity
  8
0
  6
CONTINUOUS
 62
               4
100
AcDbLine
 10
9.3000000000000682
 20
-45.0
 30
0.0
 11
9.2000000000000455
 21
-45.099999999999994
 31
0.0
  0
LINE
  5
7EC
100
AcDbEntity
  8
0
  6
CONTINUOUS
 62
               4
100
AcDbLine
 10
9.3000000000000682
 20
-44.699999999999989
 30
0.0
 11
9.3000000000000682
 21
-45.0
 31
0.0
  0
LINE
  5
7ED
100
AcDbEntity
  8
0
  6
CONTINUOUS
 62
               4
100
AcDbLine
 10
9.3000000000000682
 20
-45.0
 30
0.0
 11
1.2000000000000455
 21
-45.0
 31
0.0
  0
LINE
  5
7EE
100
AcDbEntity
  8
0
  6
CONTINUOUS
 62
               4
100
AcDbLine
 10
0.25
 20
-35.5
 30
0.0
 11
0.3500000000000227
 21
-35.400000000000006
 31
0.0
  0
LINE
  5
7EF
100
AcDbEntity
  8
0
  6
CONTINUOUS
 62
               4
100
AcDbLine
 10
0.3500000000000227
 20
-35.400000000000006
 30
0.0
 11
0.25
 21
-35.300000000000011
 31
0.0
  0
LINE
  5
7F0
100
AcDbEntity
  8
0
  6
CONTINUOUS
 62
               4
100
AcDbLine
 10
0.25
 20
-35.300000000000011
 30
0.0
 11
0.25
 21
-32.102207009313815
 31
0.0
  0
ARC
  5
7F1
100
AcDbEntity
  8
0
  6
CONTINUOUS
 62
               7
100
AcDbCircle
 10
5.149993896484375
 20
30.20001220703125
 30
0.0
 40
3.0
100
AcDbArc
 50
271.91023065164512
 51
0.0
  0
ARC
  5
7F2
100
AcDbEntity
  8
0
  6
CONTINUOUS
 62
               7
100
AcDbCircle
 10
5.25
 20
30.20001220703125
 30
0.0
 40
3.0
100
AcDbArc
 50
266.17746163595666
 51
3.822566595416411
  0
ARC
  5
7F3
100
AcDbEntity
  8
0
  6
CONTINUOUS
 62
               7
100
AcDbCircle
 10
5.3499908447265625
 20
30.20001220703125
 30
0.0
 40
3.0
100
AcDbArc
 50
268.08980532053351
 51
0.0
  0
ARC
  5
7F4
100
AcDbEntity
  8
0
  6
CONTINUOUS
 62
               4
100
AcDbCircle
 10
9.0500030517578125
 20
11.300018310546875
 30
0.0
 40
1.5999994277954102
100
AcDbArc
 50
179.99998133066532
 51
270.00001798608935
  0
ARC
  5
7F5
100
AcDbEntity
  8
0
  6
CONTINUOUS
 62
               4
100
AcDbCircle
 10
1.4499969482421875
 20
-14.29998779296875
 30
0.0
 40
1.5999994277954102
100
AcDbArc
 50
0.0
 51
89.999982013910653
  0
CIRCLE
  5
7F6
100
AcDbEntity
  8
0
  6
CONTINUOUS
 62
               4
100
AcDbCircle
 10
8.25
 20
-14.499984741210938
 30
0.0
 40
1.3999996185302734
  0
CIRCLE
  5
7F7
100
AcDbEntity
  8
0
  6
CONTINUOUS
 62
               4
100
AcDbCircle
 10
2.25
 20
11.500015258789063
 30
0.0
 40
1.3999996185302734
  0
CIRCLE
  5
7F8
100
AcDbEntity
  8
0
  6
CONTINUOUS
 62
               4
100
AcDbCircle
 10
8.25
 20
-14.499984741210938
 30
0.0
 40
1.25
  0
CIRCLE
  5
7F9
100
AcDbEntity
  8
0
  6
CONTINUOUS
 62
               4
100
AcDbCircle
 10
2.25
 20
11.500015258789063
 30
0.0
 40
1.25
  0
CIRCLE
  5
7FA
100
AcDbEntity
  8
0
  6
CONTINUOUS
 62
               4
100
AcDbCircle
 10
1.4499969482421875
 20
-14.29998779296875
 30
0.0
 40
1.25
  0
ARC
  5
7FB
100
AcDbEntity
  8
0
  6
CONTINUOUS
 62
               7
100
AcDbCircle
 10
0.649993896484375
 20
14.900009155273438
 30
0.0
 40
0.4000000357627869
100
AcDbArc
 50
179.99996402782131
 51
270.00000068324533
  0
ARC
  5
7FC
100
AcDbEntity
  8
0
  6
CONTINUOUS
 62
               7
100
AcDbCircle
 10
0.649993896484375
 20
-32.099990844726563
 30
0.0
 40
0.4000000357627869
100
AcDbArc
 50
179.99996402782131
 51
269.99994604173196
  0
ARC
  5
7FD
100
AcDbEntity
  8
0
  6
CONTINUOUS
 62
               4
100
AcDbCircle
 10
0.8000030517578125
 20
66.000030517578125
 30
0.0
 40
0.5
100
AcDbArc
 50
89.999982013910653
 51
179.99996402782131
  0
CIRCLE
  5
7FE
100
AcDbEntity
  8
0
  6
CONTINUOUS
 62
               7
100
AcDbCircle
 10
5.25
 20
30.20001220703125
 30
0.0
 40
1.9499998092651367
  0
CIRCLE
  5
7FF
100
AcDbEntity
  8
0
  6
CONTINUOUS
 62
               7
100
AcDbCircle
 10
5.25
 20
30.20001220703125
 30
0.0
 40
2.0
  0
LINE
  5
800
100
AcDbEntity
  8
0
  6
CONTINUOUS
 62
               7
100
AcDbLine
 10
5.2499958084499667
 20
27.199984884917285
 30
0.0
 11
6.2499831225322851
 21
26.932039151128265
 31
0.0
  0
LINE
  5
801
100
AcDbEntity
  8
0
  6
CONTINUOUS
 62
               7
100
AcDbLine
 10
5.25
 20
26.70001220703125
 30
0.0
 11
5.25
 21
27.70001220703125
 31
0.0
  0
LINE
  5
802
100
AcDbEntity
  8
0
  6
CONTINUOUS
 62
               7
100
AcDbLine
 10
7.75
 20
30.20001220703125
 30
0.0
 11
8.75
 21
30.20001220703125
 31
0.0
  0
LINE
  5
803
100
AcDbEntity
  8
0
  6
CONTINUOUS
 62
               4
100
AcDbLine
 10
0.25
 20
-12.699996948242188
 30
0.0
 11
0.6927805106090546
 21
-12.699996948242188
 31
0.0
  0
LINE
  5
804
100
AcDbEntity
  8
0
  6
CONTINUOUS
 62
               4
100
AcDbLine
 10
7.4499969482421875
 20
14.300018310546875
 30
0.0
 11
7.4499969482421875
 21
11.300018310546875
 31
0.0
  0
LINE
  5
805
100
AcDbEntity
  8
0
  6
CONTINUOUS
 62
               4
100
AcDbLine
 10
3.0500030517578125
 20
-14.29998779296875
 30
0.0
 11
3.0500030517578125
 21
-17.29998779296875
 31
0.0
  0
LINE
  5
806
100
AcDbEntity
  8
0
  6
CONTINUOUS
 62
               4
100
AcDbLine
 10
0.25
 20
14.300018310546875
 30
0.0
 11
7.4499969482421875
 21
14.300018310546875
 31
0.0
  0
LINE
  5
807
100
AcDbEntity
  8
0
  6
CONTINUOUS
 62
               4
100
AcDbLine
 10
1.6489725487372198
 20
12.101101830976404
 30
0.0
 11
2.8510519995907089
 21
10.899022481450629
 31
0.0
  0
LINE
  5
808
100
AcDbEntity
  8
0
  6
CONTINUOUS
 62
               4
100
AcDbLine
 10
7.6489694773799783
 20
-13.898894244508483
 30
0.0
 11
8.8510597178274111
 21
-15.100984383627292
 31
0.0
  0
LINE
  5
809
100
AcDbEntity
  8
0
  6
CONTINUOUS
 62
               4
100
AcDbLine
 10
7.6489734391852835
 20
-15.101036224253221
 30
0.0
 11
8.8510528900387726
 21
-13.898956874727446
 31
0.0
  0
LINE
  5
80A
100
AcDbEntity
  8
0
  6
CONTINUOUS
 62
               4
100
AcDbLine
 10
1.6489679125843395
 20
10.89894956740045
 30
0.0
 11
2.851036573843885
 21
12.101018127333191
 31
0.0
  0
LINE
  5
80B
100
AcDbEntity
  8
0
  6
CONTINUOUS
 62
               4
100
AcDbLine
 10
8.4489797254000223
 20
10.698953375891506
 30
0.0
 11
9.6510591762535114
 21
11.901032725417281
 31
0.0
  0
LINE
  5
80C
100
AcDbEntity
  8
0
  6
CONTINUOUS
 62
               4
100
AcDbLine
 10
8.4489735888182622
 20
11.901095423071638
 30
0.0
 11
9.6510530396717513
 21
10.699016073545863
 31
0.0
  0
LINE
  5
80D
100
AcDbEntity
  8
0
  6
CONTINUOUS
 62
               7
100
AcDbLine
 10
0.25
 20
-13.949981689453125
 30
0.0
 11
0.25
 21
-12.699996948242188
 31
0.0
  0
LINE
  5
80E
100
AcDbEntity
  8
0
  6
CONTINUOUS
 62
               4
100
AcDbLine
 10
2.0510557441530182
 20
-14.901026663939774
 30
0.0
 11
0.8489764959549575
 21
-13.698947111758571
 31
0.0
  0
LINE
  5
80F
100
AcDbEntity
  8
0
  6
CONTINUOUS
 62
               4
100
AcDbLine
 10
2.0510599254739645
 20
-13.698944633874817
 30
0.0
 11
0.848980271965047
 21
-14.901023780745163
 31
0.0
  0
LINE
  5
810
100
AcDbEntity
  8
0
  6
CONTINUOUS
 62
               7
100
AcDbLine
 10
0.649993896484375
 20
-32.5
 30
0.0
 11
9.850006103515625
 21
-32.5
 31
0.0
  0
LINE
  5
811
100
AcDbEntity
  8
0
  6
CONTINUOUS
 62
               7
100
AcDbLine
 10
0.5500030517578125
 20
-19.499984741210938
 30
0.0
 11
0.25
 21
-19.499984741210938
 31
0.0
  0
LINE
  5
812
100
AcDbEntity
  8
0
  6
CONTINUOUS
 62
               7
100
AcDbLine
 10
0.25
 20
-23.5
 30
0.0
 11
0.5500030517578125
 21
-23.5
 31
0.0
  0
LINE
  5
813
100
AcDbEntity
  8
0
  6
CONTINUOUS
 62
               7
100
AcDbLine
 10
0.5500030517578125
 20
-25.5
 30
0.0
 11
0.5500030517578125
 21
-17.5
 31
0.0
  0
LINE
  5
814
100
AcDbEntity
  8
0
  6
CONTINUOUS
 62
               7
100
AcDbLine
 10
9.9499969482421875
 20
-25.5
 30
0.0
 11
9.9499969482421875
 21
-17.5
 31
0.0
  0
LINE
  5
815
100
AcDbEntity
  8
0
  6
CONTINUOUS
 62
               7
100
AcDbLine
 10
0.9499969482421875
 20
-25.099990844726563
 30
0.0
 11
9.5500030517578125
 21
-25.099990844726563
 31
0.0
  0
LINE
  5
816
100
AcDbEntity
  8
0
  6
CONTINUOUS
 62
               7
100
AcDbLine
 10
0.9499969482421875
 20
-25.099990844726563
 30
0.0
 11
0.9499969482421875
 21
-17.899993896484375
 31
0.0
  0
LINE
  5
817
100
AcDbEntity
  8
0
  6
CONTINUOUS
 62
               7
100
AcDbLine
 10
0.9499969482421875
 20
-17.899993896484375
 30
0.0
 11
9.5500030517578125
 21
-17.899993896484375
 31
0.0
  0
LINE
  5
818
100
AcDbEntity
  8
0
  6
CONTINUOUS
 62
               7
100
AcDbLine
 10
9.5500030517578125
 20
-25.099990844726563
 30
0.0
 11
9.5500030517578125
 21
-17.899993896484375
 31
0.0
  0
LINE
  5
819
100
AcDbEntity
  8
0
  6
CONTINUOUS
 62
               7
100
AcDbLine
 10
9.5499784501189424
 20
-17.899981774437038
 30
0.0
 11
9.9499810663910466
 21
-17.499979225600327
 31
0.0
  0
LINE
  5
81A
100
AcDbEntity
  8
0
  6
CONTINUOUS
 62
               7
100
AcDbLine
 10
9.5500210015761695
 20
-25.099985102047867
 30
0.0
 11
9.9500127608207549
 21
-25.499976928726028
 31
0.0
  0
LINE
  5
81B
100
AcDbEntity
  8
0
  6
CONTINUOUS
 62
               7
100
AcDbLine
 10
0.9499816610459675
 20
-25.099984377118744
 30
0.0
 11
0.5499898343678069
 21
-25.49997613636333
 31
0.0
  0
LINE
  5
81C
100
AcDbEntity
  8
0
  6
CONTINUOUS
 62
               7
100
AcDbLine
 10
0.9500146367408888
 20
-17.899970259921247
 30
0.0
 11
0.5500228774963034
 21
-17.499978433243086
 31
0.0
  0
LINE
  5
81D
100
AcDbEntity
  8
0
  6
CONTINUOUS
 62
               7
100
AcDbLine
 10
0.25
 20
-32.099990844726563
 30
0.0
 11
0.25
 21
-17.499984741210937
 31
0.0
  0
LINE
  5
81E
100
AcDbEntity
  8
0
  6
CONTINUOUS
 62
               4
100
AcDbLine
 10
9.7000123639894582
 20
66.500015258789063
 30
0.0
 11
0.7960968315602486
 21
66.500015258789063
 31
0.0
  0
LINE
  5
81F
100
AcDbEntity
  8
0
  6
CONTINUOUS
 62
               4
100
AcDbLine
 10
0.3000030517578125
 20
57.500030517578125
 30
0.0
 11
0.3000030517578125
 21
66.000030517578125
 31
0.0
  0
LINE
  5
820
100
AcDbEntity
  8
0
  6
CONTINUOUS
 62
               7
100
AcDbLine
 10
3.323211669921875
 20
30.500015258789063
 30
0.0
 11
7.176788330078125
 21
30.500015258789063
 31
0.0
  0
LINE
  5
821
100
AcDbEntity
  8
0
  6
CONTINUOUS
 62
               7
100
AcDbLine
 10
3.323211669921875
 20
29.900009155273438
 30
0.0
 11
7.176788330078125
 21
29.900009155273438
 31
0.0
  0
LINE
  5
822
100
AcDbEntity
  8
0
  6
CONTINUOUS
 62
             200
100
AcDbLine
 10
5.25
 20
-47.601119995117188
 30
0.0
 11
5.25
 21
-34.024533501601667
 31
0.0
  0
LINE
  5
823
100
AcDbEntity
  8
0
  6
CONTINUOUS
 62
               7
100
AcDbLine
 10
2.75
 20
30.20001220703125
 30
0.0
 11
7.75
 21
30.20001220703125
 31
0.0
  0
LINE
  5
824
100
AcDbEntity
  8
0
  6
CONTINUOUS
 62
               4
100
AcDbLine
 10
10.199996948242187
 20
57.500030517578125
 30
0.0
 11
10.199996948242187
 21
66.000030517578125
 31
0.0
  0
LINE
  5
825
100
AcDbEntity
  8
0
  6
CONTINUOUS
 62
               4
100
AcDbLine
 10
10.25
 20
-39.099999999999994
 30
0.0
 11
10.25
 21
-32.102207009313844
 31
0.0
  0
LINE
  5
826
100
AcDbEntity
  8
0
  6
CONTINUOUS
 62
               7
100
AcDbLine
 10
10.5
 20
59.500015258789063
 30
0.0
 11
10.25
 21
59.500015258789063
 31
0.0
  0
LINE
  5
827
100
AcDbEntity
  8
0
  6
CONTINUOUS
 62
               7
100
AcDbLine
 10
10.5
 20
60.500015258789063
 30
0.0
 11
10.25
 21
60.500015258789063
 31
0.0
  0
LINE
  5
828
100
AcDbEntity
  8
0
  6
CONTINUOUS
 62
               7
100
AcDbLine
 10
10.5
 20
61.000015258789063
 30
0.0
 11
10.25
 21
61.000015258789063
 31
0.0
  0
LINE
  5
829
100
AcDbEntity
  8
0
  6
CONTINUOUS
 62
               7
100
AcDbLine
 10
10.199996948242187
 20
61.500015258789063
 30
0.0
 11
10.5
 21
61.500015258789063
 31
0.0
  0
LINE
  5
82A
100
AcDbEntity
  8
0
  6
CONTINUOUS
 62
               7
100
AcDbLine
 10
10.5
 20
49.500015258789063
 30
0.0
 11
10.25
 21
49.500015258789063
 31
0.0
  0
LINE
  5
82B
100
AcDbEntity
  8
0
  6
CONTINUOUS
 62
               7
100
AcDbLine
 10
10.5
 20
21.500015258789063
 30
0.0
 11
10.25
 21
21.500015258789063
 31
0.0
  0
LINE
  5
82C
100
AcDbEntity
  8
0
  6
CONTINUOUS
 62
               4
100
AcDbLine
 10
10.25
 20
-44.161879999999996
 30
0.0
 11
10.25
 21
-40.199999999999989
 31
0.0
  0
LINE
  5
82D
100
AcDbEntity
  8
0
  6
CONTINUOUS
 62
               4
100
AcDbLine
 10
10.149999999999977
 20
-46.800000000000011
 30
0.0
 11
10.149999999999977
 21
-46.0
 31
0.0
  0
LINE
  5
82E
100
AcDbEntity
  8
0
  6
CONTINUOUS
 62
               7
100
AcDbLine
 10
0.0
 20
-30.104079317656641
 30
0.0
 11
0.0
 21
61.500015258789063
 31
0.0
  0
LINE
  5
82F
100
AcDbEntity
  8
0
  6
CONTINUOUS
 62
               7
100
AcDbLine
 10
10.5
 20
-30.104079317656641
 30
0.0
 11
10.5
 21
61.500015258789063
 31
0.0
  0
LINE
  5
830
100
AcDbEntity
  8
0
  6
CONTINUOUS
 62
               7
100
AcDbLine
 10
10.25
 20
-32.102207009313844
 30
0.0
 11
10.25
 21
-17.29998779296875
 31
0.0
  0
LINE
  5
831
100
AcDbEntity
  8
0
  6
CONTINUOUS
 62
               7
100
AcDbLine
 10
10.5
 20
-30.104079317656641
 30
0.0
 11
10.25
 21
-30.104079317656641
 31
0.0
  0
LINE
  5
832
100
AcDbEntity
  8
0
  6
CONTINUOUS
 62
               7
100
AcDbLine
 10
0.25
 20
-17.499984741210937
 30
0.0
 11
0.25
 21
-14.649993896484375
 31
0.0
  0
LINE
  5
833
100
AcDbEntity
  8
0
  6
CONTINUOUS
 62
               4
100
AcDbLine
 10
10.25
 20
-17.29998779296875
 30
0.0
 11
10.25
 21
9.70001220703125
 31
0.0
  0
LINE
  5
834
100
AcDbEntity
  8
0
  6
CONTINUOUS
 62
               7
100
AcDbLine
 10
0.25
 20
14.300018310546875
 30
0.0
 11
0.25
 21
33.500015258789063
 31
0.0
  0
LINE
  5
835
100
AcDbEntity
  8
0
  6
CONTINUOUS
 62
               7
100
AcDbLine
 10
10.25
 20
9.70001220703125
 30
0.0
 11
10.25
 21
33.500015258789063
 31
0.0
  0
LINE
  5
836
100
AcDbEntity
  8
0
  6
CONTINUOUS
 62
               4
100
AcDbLine
 10
10.25
 20
33.500015258789063
 30
0.0
 11
10.25
 21
57.500015258789063
 31
0.0
  0
LINE
  5
837
100
AcDbEntity
  8
0
  6
CONTINUOUS
 62
               4
100
AcDbLine
 10
0.25
 20
33.500015258789063
 30
0.0
 11
0.25
 21
57.500015258789063
 31
0.0
  0
LINE
  5
838
100
AcDbEntity
  8
0
  6
CONTINUOUS
 62
               4
100
AcDbLine
 10
0.25
 20
-12.699996948242188
 30
0.0
 11
0.25
 21
14.300018310546875
 31
0.0
  0
LINE
  5
839
100
AcDbEntity
  8
0
  6
CONTINUOUS
 62
               4
100
AcDbLine
 10
0.6927805106090546
 20
-12.699996948242188
 30
0.0
 11
1.4499969482421875
 21
-12.699996948242188
 31
0.0
  0
LINE
  5
83A
100
AcDbEntity
  8
0
  6
CONTINUOUS
 62
               2
100
AcDbLine
 10
5.25
 20
-34.024533501601667
 30
0.0
 11
5.25
 21
-32.004804820153083
 31
0.0
  0
LINE
  5
83B
100
AcDbEntity
  8
0
  6
CONTINUOUS
 62
               2
100
AcDbLine
 10
5.25
 20
-32.004804820153083
 30
0.0
 11
5.25
 21
67.031454544255411
 31
0.0
  0
ENDBLK
  5
83C
100
AcDbEntity
  8
0
100
AcDbBlockEnd
  0
ENDSEC
  0
SECTION
  2
ENTITIES
  0
INSERT
  5
83D
100
AcDbEntity
  8
0
  6
ByBlock
100
AcDbBlockReference
  2
F10MSJ-1
 10
-242.673583984375
 20
156.31158447265625
 30
0.0
  0
INSERT
  5
83E
100
AcDbEntity
  8
0
  6
ByBlock
100
AcDbBlockReference
  2
F10MSJ-12
 10
-360.923583984375
 20
156.31158447265625
 30
0.0
  0
INSERT
  5
83F
100
AcDbEntity
  8
0
  6
ByBlock
100
AcDbBlockReference
  2
F10MSJ-14
 10
-242.673583984375
 20
16.882130726089287
 30
0.0
  0
INSERT
  5
840
100
AcDbEntity
  8
0
  6
ByBlock
100
AcDbBlockReference
  2
F10MSJ-15
 10
142.17672740153557
 20
156.31158447265625
 30
0.0
  0
INSERT
  5
841
100
AcDbEntity
  8
0
  6
ByBlock
100
AcDbBlockReference
  2
F10MSJ-16
 10
19.076416015625
 20
156.31158447265625
 30
0.0
  0
INSERT
  5
842
100
AcDbEntity
  8
0
  6
ByBlock
100
AcDbBlockReference
  2
F10MSJ-17
 10
142.17672740153557
 20
30.238207519350738
 30
0.0
  0
INSERT
  5
843
100
AcDbEntity
  8
0
  6
ByBlock
100
AcDbBlockReference
  2
F10MSJ-18
 10
293.448486328125
 20
153.5682373046875
 30
0.0
  0
INSERT
  5
844
100
AcDbEntity
  8
0
  6
ByBlock
100
AcDbBlockReference
  2
F10MSJ-19
 10
293.448486328125
 20
25.068252563476562
 30
0.0
  0
INSERT
  5
845
100
AcDbEntity
  8
0
  6
ByBlock
100
AcDbBlockReference
  2
F10MSJ-20
 10
-253.89145520509589
 20
-105.88234988138402
 30
0.0
  0
INSERT
  5
846
100
AcDbEntity
  8
0
  6
ByBlock
100
AcDbBlockReference
  2
F10MSJ-2
 10
-376.04961757761811
 20
-105.88234988138402
 30
0.0
  0
INSERT
  5
847
100
AcDbEntity
  8
0
  6
ByBlock
100
AcDbBlockReference
  2
F10MSJ-3
 10
-253.89145520509584
 20
-244.35892282789135
 30
0.0
  0
INSERT
  5
848
100
AcDbEntity
  8
0
  6
ByBlock
100
AcDbBlockReference
  2
F10MSJ-4
 10
-57.085830715817309
 20
-112.93000000000001
 30
0.0
  0
INSERT
  5
849
100
AcDbEntity
  8
0
  6
ByBlock
100
AcDbBlockReference
  2
F10MSJ-5
 10
-181.05000000000001
 20
-112.93000000000001
 30
0.0
  0
INSERT
  5
84A
100
AcDbEntity
  8
0
  6
ByBlock
100
AcDbBlockReference
  2
F10MSJ-6
 10
-57.085826901120043
 20
-243.7385486153066
 30
0.0
  0
INSERT
  5
84B
100
AcDbEntity
  8
0
  6
ByBlock
100
AcDbBlockReference
  2
F10MSJ-7
 10
138.79108835247359
 20
-112.93000000000001
 30
0.0
  0
INSERT
  5
84C
100
AcDbEntity
  8
0
  6
ByBlock
100
AcDbBlockReference
  2
F10MSJ-8
 10
18.69999999999996
 20
-112.93000000000001
 30
0.0
  0
INSERT
  5
84D
100
AcDbEntity
  8
0
  6
ByBlock
100
AcDbBlockReference
  2
F10MSJ-9
 10
138.79108835247359
 20
-261.42999999999995
 30
0.0
  0
INSERT
  5
84E
100
AcDbEntity
  8
0
  6
ByBlock
100
AcDbBlockReference
  2
F10MSJ-10
 10
336.18603515625
 20
-112.93000000000001
 30
0.0
  0
INSERT
  5
84F
100
AcDbEntity
  8
0
  6
ByBlock
100
AcDbBlockReference
  2
F10MSJ-11
 10
218.45999999999995
 20
-112.93000000000001
 30
0.0
  0
INSERT
  5
850
100
AcDbEntity
  8
0
  6
ByBlock
100
AcDbBlockReference
  2
F10MSJ-13
 10
336.18603515625
 20
-231.43174743652344
 30
0.0
  0
LINE
  5
851
100
AcDbEntity
  8
0
  6
CONTINUOUS
 62
               7
100
AcDbLine
 10
399.80000000000001
 20
276.25
 30
0.0
 11
399.80000000000001
 21
-276.75
 31
0.0
  0
LINE
  5
852
100
AcDbEntity
  8
0
  6
CONTINUOUS
 62
               7
100
AcDbLine
 10
-399.25
 20
276.25
 30
0.0
 11
-399.25
 21
-276.75
 31
0.0
  0
LINE
  5
853
100
AcDbEntity
  8
0
  6
CONTINUOUS
 62
               7
100
AcDbLine
 10
-399.25
 20
276.25
 30
0.0
 11
399.80000000000001
 21
276.25
 31
0.0
  0
LINE
  5
854
100
AcDbEntity
  8
0
  6
CONTINUOUS
 62
               7
100
AcDbLine
 10
-399.25
 20
-276.75
 30
0.0
 11
399.80000000000001
 21
-276.75
 31
0.0
  0
LINE
  5
855
100
AcDbEntity
  8
0
  6
CONTINUOUS
 62
               7
100
AcDbLine
 10
239.80000000000001
 20
-251.75
 30
0.0
 11
399.80000000000001
 21
-251.75
 31
0.0
  0
LINE
  5
856
100
AcDbEntity
  8
0
  6
CONTINUOUS
 62
               7
100
AcDbLine
 10
239.80000000000001
 20
251.25
 30
0.0
 11
399.80000000000001
 21
251.25
 31
0.0
  0
LINE
  5
857
100
AcDbEntity
  8
0
  6
CONTINUOUS
 62
               7
100
AcDbLine
 10
-399.25
 20
251.25
 30
0.0
 11
-239.25
 21
251.25
 31
0.0
  0
LINE
  5
858
100
AcDbEntity
  8
0
  6
CONTINUOUS
 62
               7
100
AcDbLine
 10
239.80000000000001
 20
-251.75
 30
0.0
 11
239.80000000000001
 21
-276.75
 31
0.0
  0
LINE
  5
859
100
AcDbEntity
  8
0
  6
CONTINUOUS
 62
               7
100
AcDbLine
 10
239.80000000000001
 20
251.25
 30
0.0
 11
239.80000000000001
 21
276.25
 31
0.0
  0
LINE
  5
85A
100
AcDbEntity
  8
0
  6
CONTINUOUS
 62
               7
100
AcDbLine
 10
-239.25
 20
276.25
 30
0.0
 11
-239.25
 21
251.25
 31
0.0
  0
LINE
  5
85B
100
AcDbEntity
  8
0
  6
CONTINUOUS
 62
               7
100
AcDbLine
 10
-199.47999999999999
 20
-0.25
 30
0.0
 11
-199.47999999999999
 21
-276.75
 31
0.0
  0
LINE
  5
85C
100
AcDbEntity
  8
0
  6
CONTINUOUS
 62
               7
100
AcDbLine
 10
200.03
 20
276.25
 30
0.0
 11
200.03
 21
-276.75
 31
0.0
  0
LINE
  5
85D
100
AcDbEntity
  8
0
  6
CONTINUOUS
 62
               7
100
AcDbLine
 10
-399.25
 20
-0.25
 30
0.0
 11
399.80000000000001
 21
-0.25
 31
0.0
  0
LINE
  5
85E
100
AcDbEntity
  8
0
  6
CONTINUOUS
 62
               7
100
AcDbLine
 10
0.27
 20
276.25
 30
0.0
 11
0.27
 21
-276.75
 31
0.0
  0
MTEXT
  5
85F
100
AcDbEntity
  8
0
  6
CONTINUOUS
 62
               7
100
AcDbMText
 10
245.88456269755227
 20
-264.25
 30
0.0
 40
12.5
 41
0.0
 71
               4
 72
               1
  1
\W1.121;\A1;KOGANEI CORP.
  0
MTEXT
  5
860
100
AcDbEntity
  8
0
  6
CONTINUOUS
 62
               7
100
AcDbMText
 10
290.09979829720089
 20
263.75
 30
0.0
 40
9.0
 41
0.0
 71
               4
 72
               1
  1
\W1.200;\A1;Ver.3.0
  0
MTEXT
  5
861
100
AcDbEntity
  8
0
  6
CONTINUOUS
 62
               7
100
AcDbMText
 10
-381.99137984517631
 20
-20.25
 30
0.0
 40
9.0
 41
0.0
 71
               4
 72
               1
  1
\W1.172;\A1;MODEL:F10T1-A1(J)
  0
MTEXT
  5
862
100
AcDbEntity
  8
0
  6
CONTINUOUS
 62
               7
100
AcDbMText
 10
-362.5389820623364
 20
263.75
 30
0.0
 40
9.0
 41
0.0
 71
               4
 72
               1
  1
\W1.141;\A1;F10 SERIES
  0
MTEXT
  5
863
100
AcDbEntity
  8
0
  6
CONTINUOUS
 62
               7
100
AcDbMText
 10
-382.0328953844288
 20
231.25
 30
0.0
 40
9.0
 41
0.0
 71
               4
 72
               1
  1
\W1.145;\A1;MODEL:F10Z-E,F10Z-F201,YS201L
  0
MTEXT
  5
864
100
AcDbEntity
  8
0
  6
CONTINUOUS
 62
               7
100
AcDbMText
 10
17.483854017614711
 20
231.25
 30
0.0
 40
9.0
 41
0.0
 71
               4
 72
               1
  1
\W1.139;\A1;MODEL:F10BPP(J)
  0
MTEXT
  5
865
100
AcDbEntity
  8
0
  6
CONTINUOUS
 62
               7
100
AcDbMText
 10
217.24635096585692
 20
231.25
 30
0.0
 40
9.0
 41
0.0
 71
               4
 72
               1
  1
\W1.139;\A1;MODEL:F10BPP(M)
  0
MTEXT
  5
866
100
AcDbEntity
  8
0
  6
CONTINUOUS
 62
               7
100
AcDbMText
 10
217.18537764876965
 20
-20.25
 30
0.0
 40
9.0
 41
0.0
 71
               4
 72
               1
  1
\W1.099;\A1;MODEL:F10Z-PM
  0
MTEXT
  5
867
100
AcDbEntity
  8
0
  6
CONTINUOUS
 62
               7
100
AcDbMText
 10
17.422880700527454
 20
-20.25
 30
0.0
 40
9.0
 41
0.0
 71
               4
 72
               1
  1
\W1.099;\A1;MODEL:F10Z-PJ
  0
MTEXT
  5
868
100
AcDbEntity
  8
0
  6
CONTINUOUS
 62
               7
100
AcDbMText
 10
-182.22888289693415
 20
-20.25
 30
0.0
 40
9.0
 41
0.0
 71
               4
 72
               1
  1
\W1.172;\A1;MODEL:F10T1-A1(M)
  0
ENDSEC
  0
SECTION
  2
OBJECTS
  0
DICTIONARY
  5
19
100
AcDbDictionary
  3
ACAD_GROUP
350
1A
  3
ACAD_MLINESTYLE
350
1B
  0
DICTIONARY
  5
1A
102
{ACAD_REACTORS
330
19
102
}
100
AcDbDictionary
  0
DICTIONARY
  5
1B
102
{ACAD_REACTORS
330
19
102
}
100
AcDbDictionary
  3
STANDARD
350
1C
  0
MLINESTYLE
  5
1C
102
{ACAD_REACTORS
330
1B
102
}
100
AcDbMlineStyle
  2
Standard
 70
               0
  3

 62
               0
 51
90.0
 52
90.0
 71
               2
 49
0.5
 62
             256
  6
ByLayer
 49
-0.5
 62
             256
  6
ByLayer
  0
ENDSEC
  0
EOF
