  0
SECTION
  2
HEADER
  9
$ACADVER
  1
AC1012
  9
$DWGCODEPAGE
  3
dos932
  9
$INSBASE
 10
0.0
 20
0.0
 30
0.0
  9
$EXTMIN
 10
-399.25
 20
-276.75
 30
0.0
  9
$EXTMAX
 10
406.09414987197181
 20
276.25
 30
0.0
  9
$LIMMIN
 10
-399.25
 20
-276.75
  9
$LIMMAX
 10
406.09414987197181
 20
276.25
  9
$ORTHOMODE
 70
               0
  9
$REGENMODE
 70
               1
  9
$FILLMODE
 70
               1
  9
$QTEXTMODE
 70
               0
  9
$MIRRTEXT
 70
               1
  9
$DRAGMODE
 70
               2
  9
$LTSCALE
 40
1.0
  9
$OSMODE
 70
               0
  9
$ATTMODE
 70
               1
  9
$TEXTSIZE
 40
3.2000000476837158
  9
$TRACEWID
 40
0.05
  9
$TEXTSTYLE
  7
MX_NOTE_STANDARD
  9
$CLAYER
  8
0
  9
$CELTYPE
  6
CONTINUOUS
  9
$CECOLOR
 62
             256
  9
$CELTSCALE
 40
1.0
  9
$DELOBJ
 70
               1
  9
$DISPSILH
 70
               0
  9
$DIMSCALE
 40
1.0
  9
$DIMASZ
 40
2.5
  9
$DIMEXO
 40
1.5
  9
$DIMDLI
 40
3.75
  9
$DIMRND
 40
0.0
  9
$DIMDLE
 40
0.0
  9
$DIMEXE
 40
1.5
  9
$DIMTP
 40
0.0
  9
$DIMTM
 40
0.0
  9
$DIMTXT
 40
3.2000000476837158
  9
$DIMCEN
 40
2.5
  9
$DIMTSZ
 40
0.0
  9
$DIMTOL
 70
               0
  9
$DIMLIM
 70
               0
  9
$DIMTIH
 70
               0
  9
$DIMTOH
 70
               0
  9
$DIMSE1
 70
               0
  9
$DIMSE2
 70
               0
  9
$DIMTAD
 70
               1
  9
$DIMZIN
 70
               8
  9
$DIMBLK
  1

  9
$DIMASO
 70
               1
  9
$DIMSHO
 70
               1
  9
$DIMPOST
  1

  9
$DIMAPOST
  1

  9
$DIMALT
 70
               0
  9
$DIMALTD
 70
               4
  9
$DIMALTF
 40
0.03937007874016
  9
$DIMLFAC
 40
1.0
  9
$DIMTOFL
 70
               1
  9
$DIMTVP
 40
0.0
  9
$DIMTIX
 70
               0
  9
$DIMSOXD
 70
               0
  9
$DIMSAH
 70
               0
  9
$DIMBLK1
  1

  9
$DIMBLK2
  1

  9
$DIMSTYLE
  2
MXDIMSTYLE
  9
$DIMCLRD
 70
               0
  9
$DIMCLRE
 70
               0
  9
$DIMCLRT
 70
               0
  9
$DIMTFAC
 40
1.0
  9
$DIMGAP
 40
1.0
  9
$DIMJUST
 70
               0
  9
$DIMSD1
 70
               0
  9
$DIMSD2
 70
               0
  9
$DIMTOLJ
 70
               1
  9
$DIMTZIN
 70
               0
  9
$DIMALTZ
 70
               0
  9
$DIMALTTZ
 70
               0
  9
$DIMFIT
 70
               3
  9
$DIMUPT
 70
               1
  9
$DIMUNIT
 70
               2
  9
$DIMDEC
 70
               4
  9
$DIMTDEC
 70
               4
  9
$DIMALTU
 70
               2
  9
$DIMALTTD
 70
               4
  9
$DIMTXSTY
  7
MX_NOTE_STANDARD
  9
$DIMAUNIT
 70
               0
  9
$LUNITS
 70
               2
  9
$LUPREC
 70
               4
  9
$SKETCHINC
 40
0.1
  9
$FILLETRAD
 40
0.0
  9
$AUNITS
 70
               0
  9
$AUPREC
 70
               0
  9
$MENU
  1
acad
  9
$ELEVATION
 40
0.0
  9
$PELEVATION
 40
0.0
  9
$THICKNESS
 40
0.0
  9
$LIMCHECK
 70
               0
  9
$BLIPMODE
 70
               1
  9
$CHAMFERA
 40
0.0
  9
$CHAMFERB
 40
0.0
  9
$CHAMFERC
 40
0.0
  9
$CHAMFERD
 40
0.0
  9
$SKPOLY
 70
               0
  9
$TDCREATE
 40
2453378.356423611
  9
$TDUPDATE
 40
2453378.356423611
  9
$TDINDWG
 40
0.0000000000
  9
$TDUSRTIMER
 40
0.0000000000
  9
$USRTIMER
 70
               1
  9
$ANGBASE
 50
0.0
  9
$ANGDIR
 70
               0
  9
$PDMODE
 70
               0
  9
$PDSIZE
 40
0.0
  9
$PLINEWID
 40
0.0
  9
$COORDS
 70
               1
  9
$SPLFRAME
 70
               0
  9
$SPLINETYPE
 70
               6
  9
$SPLINESEGS
 70
               8
  9
$ATTDIA
 70
               0
  9
$ATTREQ
 70
               1
  9
$HANDLING
 70
               1
  9
$HANDSEED
  5
69D
  9
$SURFTAB1
 70
               6
  9
$SURFTAB2
 70
               6
  9
$SURFTYPE
 70
               6
  9
$SURFU
 70
               6
  9
$SURFV
 70
               6
  9
$UCSNAME
  2

  9
$UCSORG
 10
0.0
 20
0.0
 30
0.0
  9
$UCSXDIR
 10
1.0
 20
0.0
 30
0.0
  9
$UCSYDIR
 10
0.0
 20
1.0
 30
0.0
  9
$PUCSNAME
  2

  9
$PUCSORG
 10
0.0
 20
0.0
 30
0.0
  9
$PUCSXDIR
 10
1.0
 20
0.0
 30
0.0
  9
$PUCSYDIR
 10
0.0
 20
1.0
 30
0.0
  9
$USERI1
 70
               0
  9
$USERI2
 70
               0
  9
$USERI3
 70
               0
  9
$USERI4
 70
               0
  9
$USERI5
 70
               0
  9
$USERR1
 40
0.0
  9
$USERR2
 40
0.0
  9
$USERR3
 40
0.0
  9
$USERR4
 40
0.0
  9
$USERR5
 40
0.0
  9
$WORLDVIEW
 70
               1
  9
$SHADEDGE
 70
               3
  9
$SHADEDIF
 70
              70
  9
$TILEMODE
 70
               1
  9
$MAXACTVP
 70
              16
  9
$PINSBASE
 10
0.0
 20
0.0
 30
0.0
  9
$PLIMCHECK
 70
               0
  9
$PEXTMIN
 10
1.0000000000000000E+20
 20
1.0000000000000000E+20
 30
1.0000000000000000E+20
  9
$PEXTMAX
 10
-1.0000000000000000E+20
 20
-1.0000000000000000E+20
 30
-1.0000000000000000E+20
  9
$PLIMMIN
 10
0.0
 20
0.0
  9
$PLIMMAX
 10
12.0
 20
9.0
  9
$UNITMODE
 70
               0
  9
$VISRETAIN
 70
               0
  9
$PLINEGEN
 70
               1
  9
$PSLTSCALE
 70
               0
  9
$TREEDEPTH
 70
            3020
  9
$PICKSTYLE
 70
               1
  9
$CMLSTYLE
  2
Standard
  9
$CMLJUST
 70
               0
  9
$CMLSCALE
 40
1.0
  9
$SAVEIMAGES
 70
               0
  0
ENDSEC
  0
SECTION
  2
CLASSES
  0
CLASS
  1
LWPOLYLINE
  2
AcDbPolyline
  3
"AutoCAD"
 90
        0
280
               0
281
               1
  0
CLASS
  1
IMAGE
  2
AcDbRasterImage
  3
ISM
 90
      127
280
               0
281
               1
  0
CLASS
  1
OLE2FRAME
  2
AcDbOle2Frame
  3
""
 90
        0
280
               0
281
               1
  0
CLASS
  1
HATCH
  2
AcDbHatch
  3
"ACAD_SEDONA"
 90
        0
280
               0
281
               1
  0
CLASS
  1
DICTIONARYVAR
  2
AcDbDictionaryVar
  3
"AutoCAD"
 90
        0
280
               0
281
               0
  0
CLASS
  1
RASTERVARIABLES
  2
AcDbRasterVariables
  3
ISM
 90
        0
280
               0
281
               0
  0
CLASS
  1
IMAGEDEF
  2
AcDbRasterImageDef
  3
ISM
 90
        0
280
               0
281
               0
  0
CLASS
  1
IMAGEDEF_REACTOR
  2
AcDbRasterImageDefReactor
  3
ISM
 90
        1
280
               0
281
               0
  0
CLASS
  1
IDBUFFER
  2
AcDbIdBuffer
  3
"Acad"
 90
        0
280
               0
281
               0
  0
CLASS
  1
SPATIAL_FILTER
  2
AcDbSpatialFilter
  3
"Acad"
 90
        0
280
               0
281
               0
  0
CLASS
  1
XRECORD
  2
AcDbXrecord
  3
"<Built In>"
 90
        0
280
               0
281
               0
  0
CLASS
  1
SORTENTSTABLE
  2
AcDbSortentsTable
  3
"AutoCAD"
 90
        0
280
               0
281
               0
  0
CLASS
  1
LAYER_INDEX
  2
AcDbLayerIndex
  3
"Acad"
 90
        0
280
               0
281
               0
  0
CLASS
  1
SPATIAL_INDEX
  2
AcDbSpatialIndex
  3
"Acad"
 90
        0
280
               0
281
               0
  0
CLASS
  1
OBJECT_PTR
  2
CAseDLPNTableRecord
  3
"ASE-LPNTableRecord"
 90
        1
280
               0
281
               0
  0
CLASS
  1
LAYOUT
  2
AcDbLayout
  3
"AutoCAD 2000"
 90
        1
280
               0
281
               0
  0
CLASS
  1
PLOTSETTINGS
  2
AcDbPlotSettings
  3
"AutoCAD 2000"
 90
        1
280
               0
281
               0
  0
CLASS
  1
ACDBDICTIONARYWDFLT
  2
AcDbDictionaryWithDefault
  3
"AutoCAD 2000"
 90
        1
280
               0
281
               0
  0
CLASS
  1
ACDBPLACEHOLDER
  2
AcDbPlaceHolder
  3
"AutoCAD 2000"
 90
        1
280
               0
281
               0
  0
ENDSEC
  0
SECTION
  2
TABLES
  0
TABLE
  2
VPORT
  5
7
100
AcDbSymbolTable
 70
               1
  0
VPORT
  5
15
100
AcDbSymbolTableRecord
100
AcDbViewportTableRecord
  2
*ACTIVE
 70
               0
 10
0.0
 20
0.0
 11
1.0
 21
1.0
 12
3.4220749359859042
 22
-0.25
 13
0.0
 23
0.0
 14
1.0
 24
1.0
 15
0.0
 25
0.0
 16
0.0
 26
0.0
 36
1.0
 17
0.0
 27
0.0
 37
0.0
 40
558.52999999999997
 41
1.7320508075688772
 42
50.0
 43
0.0
 44
0.0
 50
0.0
 51
0.0
 71
               0
 72
             100
 73
               1
 74
               1
 75
               0
 76
               0
 77
               0
 78
               0
  0
ENDTAB
  0
TABLE
  2
LTYPE
  5
4
100
AcDbSymbolTable
 70
               5
  0
LTYPE
  5
11
100
AcDbSymbolTableRecord
100
AcDbLinetypeTableRecord
  2
BYBLOCK
 70
              64
  3

 72
              65
 73
               0
 40
0.0
  0
LTYPE
  5
12
100
AcDbSymbolTableRecord
100
AcDbLinetypeTableRecord
  2
BYLAYER
 70
              64
  3

 72
              65
 73
               0
 40
0.0
  0
LTYPE
  5
13
100
AcDbSymbolTableRecord
100
AcDbLinetypeTableRecord
  2
CONTINUOUS
 70
              64
  3
Solid line
 72
              65
 73
               0
 40
0.0
  0
LTYPE
  5
30
100
AcDbSymbolTableRecord
100
AcDbLinetypeTableRecord
  2
CENTER
 70
              64
  3
Center ____ _ ____ _ ____ _ ____ _ ____ _ ____
 72
              65
 73
               4
 40
26.0
 49
20.0
 74
               0
 49
-2.0
 74
               0
 49
2.0
 74
               0
 49
-2.0
 74
               0
  0
LTYPE
  5
B3
100
AcDbSymbolTableRecord
100
AcDbLinetypeTableRecord
  2
DASHED
 70
              64
  3
Dashed __ __ __ __ __ __ __ __ __ __ __ __ __ _
 72
              65
 73
               2
 40
4.0
 49
2.0
 74
               0
 49
-2.0
 74
               0
  0
ENDTAB
  0
TABLE
  2
LAYER
  5
2
100
AcDbSymbolTable
 70
               2
  0
LAYER
  5
14
100
AcDbSymbolTableRecord
100
AcDbLayerTableRecord
  2
0
 70
               0
 62
               7
  6
CONTINUOUS
  0
LAYER
  5
1D
100
AcDbSymbolTableRecord
100
AcDbLayerTableRecord
  2
DEFPOINTS
 70
               0
 62
               7
  6
CONTINUOUS
  0
ENDTAB
  0
TABLE
  2
STYLE
  5
3
100
AcDbSymbolTable
 70
               1
  0
STYLE
  5
17
100
AcDbSymbolTableRecord
100
AcDbTextStyleTableRecord
  2
MX_NOTE_STANDARD
 70
               0
 40
0.0
 41
1.0
 50
0.0
 71
               0
 42
3.2000000476837158
  3
txt.shx
  4
extfont.shx
  0
ENDTAB
  0
TABLE
  2
VIEW
  5
5
100
AcDbSymbolTable
 70
               0
  0
ENDTAB
  0
TABLE
  2
UCS
  5
6
100
AcDbSymbolTable
 70
               0
  0
ENDTAB
  0
TABLE
  2
APPID
  5
8
100
AcDbSymbolTable
 70
               1
  0
APPID
  5
16
100
AcDbSymbolTableRecord
100
AcDbRegAppTableRecord
  2
ACAD
 70
               0
  0
ENDTAB
  0
TABLE
  2
DIMSTYLE
  5
9
100
AcDbSymbolTable
 70
               1
  0
DIMSTYLE
105
18
100
AcDbSymbolTableRecord
100
AcDbDimStyleTableRecord
  2
MXDIMSTYLE
 70
               0
  3

  4

  5

  6

  7

 40
1.0
 41
2.5
 42
1.5
 43
3.75
 44
1.5
 45
0.0
 46
0.0
 47
0.0
 48
0.0
 71
               0
 72
               0
 73
               0
 74
               0
 75
               0
 76
               0
 77
               1
 78
               8
140
3.2000000476837158
141
2.5
142
0.0
143
0.03937007874016
144
1.0
145
0.0
146
1.0
147
1.0
170
               0
171
               4
172
               1
173
               0
174
               0
175
               0
176
               0
177
               0
178
               0
270
               2
271
               4
272
               4
273
               2
274
               4
275
               0
280
               0
281
               0
282
               0
283
               1
284
               0
285
               0
286
               0
287
               3
288
               1
340
17
  0
ENDTAB
  0
TABLE
  2
BLOCK_RECORD
  5
1
100
AcDbSymbolTable
 70
              15
  0
BLOCK_RECORD
  5
A
100
AcDbSymbolTableRecord
100
AcDbBlockTableRecord
  2
*MODEL_SPACE
  0
BLOCK_RECORD
  5
B
100
AcDbSymbolTableRecord
100
AcDbBlockTableRecord
  2
*PAPER_SPACE
  0
BLOCK_RECORD
  5
1E
100
AcDbSymbolTableRecord
100
AcDbBlockTableRecord
  2
F10T0-1
  0
BLOCK_RECORD
  5
1F
100
AcDbSymbolTableRecord
100
AcDbBlockTableRecord
  2
F10T0-2
  0
BLOCK_RECORD
  5
20
100
AcDbSymbolTableRecord
100
AcDbBlockTableRecord
  2
F10T0-3
  0
BLOCK_RECORD
  5
21
100
AcDbSymbolTableRecord
100
AcDbBlockTableRecord
  2
F10T0-4
  0
BLOCK_RECORD
  5
22
100
AcDbSymbolTableRecord
100
AcDbBlockTableRecord
  2
F10T0-5
  0
BLOCK_RECORD
  5
23
100
AcDbSymbolTableRecord
100
AcDbBlockTableRecord
  2
F10T0-6
  0
BLOCK_RECORD
  5
24
100
AcDbSymbolTableRecord
100
AcDbBlockTableRecord
  2
F10T0-7
  0
BLOCK_RECORD
  5
25
100
AcDbSymbolTableRecord
100
AcDbBlockTableRecord
  2
F10T0-8
  0
BLOCK_RECORD
  5
26
100
AcDbSymbolTableRecord
100
AcDbBlockTableRecord
  2
F10T0-9
  0
BLOCK_RECORD
  5
27
100
AcDbSymbolTableRecord
100
AcDbBlockTableRecord
  2
F10T0-10
  0
BLOCK_RECORD
  5
28
100
AcDbSymbolTableRecord
100
AcDbBlockTableRecord
  2
F10T0-11
  0
BLOCK_RECORD
  5
29
100
AcDbSymbolTableRecord
100
AcDbBlockTableRecord
  2
F10T0-12
  0
BLOCK_RECORD
  5
2A
100
AcDbSymbolTableRecord
100
AcDbBlockTableRecord
  2
F10T0-13
  0
BLOCK_RECORD
  5
2B
100
AcDbSymbolTableRecord
100
AcDbBlockTableRecord
  2
F10T0-14
  0
BLOCK_RECORD
  5
2C
100
AcDbSymbolTableRecord
100
AcDbBlockTableRecord
  2
F10T0-15
  0
ENDTAB
  0
ENDSEC
  0
SECTION
  2
BLOCKS
  0
BLOCK
  5
D
100
AcDbEntity
  8
0
100
AcDbBlockBegin
  2
*MODEL_SPACE
 70
               0
 10
0.0
 20
0.0
 30
0.0
  3
*MODEL_SPACE
  1

  0
ENDBLK
  5
E
100
AcDbEntity
  8
0
100
AcDbBlockEnd
  0
BLOCK
  5
F
100
AcDbEntity
 67
               1
  8
0
100
AcDbBlockBegin
  2
*PAPER_SPACE
 70
               0
 10
0.0
 20
0.0
 30
0.0
  3
*PAPER_SPACE
  1

  0
ENDBLK
  5
10
100
AcDbEntity
 67
               1
  8
0
100
AcDbBlockEnd
  0
BLOCK
  5
2D
100
AcDbEntity
  8
0
100
AcDbBlockBegin
  2
F10T0-1
 70
               0
 10
0.0
 20
0.0
 30
0.0
  3
F10T0-1
  1

  0
LINE
  5
2E
100
AcDbEntity
  8
0
  6
CONTINUOUS
 62
               7
100
AcDbLine
 10
5.0000152587890625
 20
1.5
 30
0.0
 11
15.000015258789063
 21
1.5
 31
0.0
  0
LINE
  5
2F
100
AcDbEntity
  8
0
  6
CONTINUOUS
 62
               7
100
AcDbLine
 10
5.0
 20
3.5
 30
0.0
 11
15.0
 21
3.5
 31
0.0
  0
LINE
  5
31
100
AcDbEntity
  8
0
  6
CENTER
 62
               2
100
AcDbLine
 10
7.5
 20
9.6999969482421875
 30
0.0
 11
12.5
 21
9.6999969482421875
 31
0.0
  0
LINE
  5
32
100
AcDbEntity
  8
0
  6
CONTINUOUS
 62
               2
100
AcDbLine
 10
10.000015258789062
 20
-47.606674194335938
 30
0.0
 11
10.000015258789062
 21
58.902276515490883
 31
0.0
  0
LINE
  5
33
100
AcDbEntity
  8
0
  6
CONTINUOUS
 62
               7
100
AcDbLine
 10
5.0
 20
13.0
 30
0.0
 11
15.0
 21
13.0
 31
0.0
  0
LINE
  5
34
100
AcDbEntity
  8
0
  6
CONTINUOUS
 62
               7
100
AcDbLine
 10
8.073211669921875
 20
9.399993896484375
 30
0.0
 11
11.926788330078125
 21
9.399993896484375
 31
0.0
  0
LINE
  5
35
100
AcDbEntity
  8
0
  6
CONTINUOUS
 62
               7
100
AcDbLine
 10
8.073211669921875
 20
10.0
 30
0.0
 11
11.926788330078125
 21
10.0
 31
0.0
  0
LINE
  5
36
100
AcDbEntity
  8
0
  6
CONTINUOUS
 62
               7
100
AcDbLine
 10
15.000015258789063
 20
-44.599990844726563
 30
0.0
 11
15.000015258789063
 21
-9.54998779296875
 31
0.0
  0
LINE
  5
37
100
AcDbEntity
  8
0
  6
CONTINUOUS
 62
               7
100
AcDbLine
 10
5.0000152587890625
 20
-44.599990844726563
 30
0.0
 11
5.0000152587890625
 21
-35.150005340576172
 31
0.0
  0
LINE
  5
38
100
AcDbEntity
  8
0
  6
CONTINUOUS
 62
               7
100
AcDbLine
 10
5.0
 20
-6.0
 30
0.0
 11
15.0
 21
-6.0
 31
0.0
  0
LINE
  5
39
100
AcDbEntity
  8
0
  6
CONTINUOUS
 62
               7
100
AcDbLine
 10
5.0
 20
-37.999992370605469
 30
0.0
 11
15.0
 21
-37.999992370605469
 31
0.0
  0
LINE
  5
3A
100
AcDbEntity
  8
0
  6
CONTINUOUS
 62
               7
100
AcDbLine
 10
8.20001220703125
 20
-37.799995422363281
 30
0.0
 11
14.600006103515625
 21
-37.799995422363281
 31
0.0
  0
LINE
  5
3B
100
AcDbEntity
  8
0
  6
CONTINUOUS
 62
               7
100
AcDbLine
 10
5.4000091552734375
 20
-6.1999969482421875
 30
0.0
 11
11.800003051757813
 21
-6.1999969482421875
 31
0.0
  0
LINE
  5
3C
100
AcDbEntity
  8
0
  6
CONTINUOUS
 62
               7
100
AcDbLine
 10
12.20001220703125
 20
-9.20001220703125
 30
0.0
 11
12.20001220703125
 21
-6.600006103515625
 31
0.0
  0
LINE
  5
3D
100
AcDbEntity
  8
0
  6
CONTINUOUS
 62
               7
100
AcDbLine
 10
7.800018310546875
 20
-34.800003051757813
 30
0.0
 11
7.800018310546875
 21
-37.400001525878906
 31
0.0
  0
LINE
  5
3E
100
AcDbEntity
  8
0
  6
CONTINUOUS
 62
               7
100
AcDbLine
 10
6.20001220703125
 20
-33.199996948242187
 30
0.0
 11
5.4000091552734375
 21
-33.199996948242187
 31
0.0
  0
LINE
  5
3F
100
AcDbEntity
  8
0
  6
CONTINUOUS
 62
               7
100
AcDbLine
 10
13.800003051757812
 20
-10.800003051757813
 30
0.0
 11
14.600006103515625
 21
-10.800003051757813
 31
0.0
  0
LINE
  5
40
100
AcDbEntity
  8
0
  6
CONTINUOUS
 62
               7
100
AcDbLine
 10
13.550233989607477
 20
-35.550260369545867
 30
0.0
 11
12.441581819616658
 21
-34.44160791919785
 31
0.0
  0
LINE
  5
41
100
AcDbEntity
  8
0
  6
CONTINUOUS
 62
               7
100
AcDbLine
 10
7.550248187731313
 20
-9.5502700260341271
 30
0.0
 11
6.4416034355850798
 21
-8.4416249935325709
 31
0.0
  0
LINE
  5
42
100
AcDbEntity
  8
0
  6
CONTINUOUS
 62
               7
100
AcDbLine
 10
6.4415969772741164
 20
-9.5584048649493525
 30
0.0
 11
7.5502493341697345
 21
-8.4497526015061339
 31
0.0
  0
LINE
  5
43
100
AcDbEntity
  8
0
  6
CONTINUOUS
 62
               7
100
AcDbLine
 10
12.441614642167224
 20
-35.55840279489621
 30
0.0
 11
13.550245419874955
 21
-34.44977211063906
 31
0.0
  0
LINE
  5
44
100
AcDbEntity
  8
0
  6
CONTINUOUS
 62
               7
100
AcDbLine
 10
5.4000091552734375
 20
-45.0
 30
0.0
 11
14.600006103515625
 21
-45.0
 31
0.0
  0
LINE
  5
45
100
AcDbEntity
  8
0
  6
CONTINUOUS
 62
               7
100
AcDbLine
 10
5.5989731436802685
 20
-35.401036285465125
 30
0.0
 11
6.8010525945337577
 21
-34.19895693593935
 31
0.0
  0
LINE
  5
46
100
AcDbEntity
  8
0
  6
CONTINUOUS
 62
               7
100
AcDbLine
 10
13.198958873930678
 20
-9.8010320872344892
 30
0.0
 11
14.401038324784167
 21
-8.5989527377087143
 31
0.0
  0
LINE
  5
47
100
AcDbEntity
  8
0
  6
CONTINUOUS
 62
               7
100
AcDbLine
 10
13.19896803665506
 20
-8.5989490456458952
 30
0.0
 11
14.401047487508549
 21
-9.8010283951716701
 31
0.0
  0
LINE
  5
48
100
AcDbEntity
  8
0
  6
CONTINUOUS
 62
               7
100
AcDbLine
 10
5.5989628851366433
 20
-34.198953884508228
 30
0.0
 11
6.8010423359901324
 21
-35.401033234034003
 31
0.0
  0
LINE
  5
49
100
AcDbEntity
  8
0
  6
CONTINUOUS
 62
               7
100
AcDbLine
 10
5.0000152587890625
 20
-34.449984550476074
 30
0.0
 11
5.0000152587890625
 21
13.0
 31
0.0
  0
LINE
  5
4A
100
AcDbEntity
  8
0
  6
CONTINUOUS
 62
               7
100
AcDbLine
 10
15.000015258789063
 20
-8.8500213623046875
 30
0.0
 11
15.000015258789063
 21
13.0
 31
0.0
  0
LINE
  5
4B
100
AcDbEntity
  8
0
  6
CONTINUOUS
 62
               7
100
AcDbLine
 10
-3.0
 20
-47.0
 30
0.0
 11
-3.0
 21
3.0
 31
0.0
  0
LINE
  5
4C
100
AcDbEntity
  8
0
  6
CONTINUOUS
 62
               7
100
AcDbLine
 10
-3.0
 20
3.0
 30
0.0
 11
5.0000152587890625
 21
3.0
 31
0.0
  0
LINE
  5
4D
100
AcDbEntity
  8
0
  6
CONTINUOUS
 62
               7
100
AcDbLine
 10
15.000015258789063
 20
3.0
 30
0.0
 11
22.0
 21
3.0
 31
0.0
  0
LINE
  5
4E
100
AcDbEntity
  8
0
  6
CENTER
 62
               2
100
AcDbLine
 10
0.0
 20
-46.599990844726563
 30
0.0
 11
0.0
 21
-41.399993896484375
 31
0.0
  0
LINE
  5
4F
100
AcDbEntity
  8
0
  6
CENTER
 62
               2
100
AcDbLine
 10
-2.5999908447265625
 20
-43.999994277954102
 30
0.0
 11
2.600006103515625
 21
-43.999994277954102
 31
0.0
  0
LINE
  5
50
100
AcDbEntity
  8
0
  6
CENTER
 62
               2
100
AcDbLine
 10
-2.5999908447265625
 20
0.0
 30
0.0
 11
2.600006103515625
 21
0.0
 31
0.0
  0
LINE
  5
51
100
AcDbEntity
  8
0
  6
CENTER
 62
               2
100
AcDbLine
 10
0.0
 20
-2.600006103515625
 30
0.0
 11
0.0
 21
2.600006103515625
 31
0.0
  0
CIRCLE
  5
52
100
AcDbEntity
  8
0
  6
CONTINUOUS
 62
               7
100
AcDbCircle
 10
10.000015258789062
 20
9.6999969482421875
 30
0.0
 40
2.0
  0
CIRCLE
  5
53
100
AcDbEntity
  8
0
  6
CONTINUOUS
 62
               7
100
AcDbCircle
 10
10.000015258789062
 20
9.6999969482421875
 30
0.0
 40
1.9499998092651367
  0
ARC
  5
54
100
AcDbEntity
  8
0
  6
CONTINUOUS
 62
               7
100
AcDbCircle
 10
14.600006103515625
 20
-44.599990844726563
 30
0.0
 40
0.4000000357627869
100
AcDbArc
 50
270.00001798608872
 51
0.00001366037834
  0
ARC
  5
55
100
AcDbEntity
  8
0
  6
CONTINUOUS
 62
               7
100
AcDbCircle
 10
5.4000091552734375
 20
-44.599990844726563
 30
0.0
 40
0.4000000357627869
100
AcDbArc
 50
179.99996402782091
 51
269.99994604173139
  0
ARC
  5
56
100
AcDbEntity
  8
0
  6
CONTINUOUS
 62
               7
100
AcDbCircle
 10
14.600006103515625
 20
-5.600006103515625
 30
0.0
 40
0.4000000357627869
100
AcDbArc
 50
270.00001798608872
 51
0.0
  0
ARC
  5
57
100
AcDbEntity
  8
0
  6
CONTINUOUS
 62
               7
100
AcDbCircle
 10
5.4000091552734375
 20
-5.600006103515625
 30
0.0
 40
0.4000000357627869
100
AcDbArc
 50
179.99996402782091
 51
270.00000068324471
  0
ARC
  5
58
100
AcDbEntity
  8
0
  6
CONTINUOUS
 62
               7
100
AcDbCircle
 10
5.4000091552734375
 20
-32.799995422363281
 30
0.0
 40
0.4000000357627869
100
AcDbArc
 50
179.99996402782091
 51
270.00000068324471
  0
ARC
  5
59
100
AcDbEntity
  8
0
  6
CONTINUOUS
 62
               7
100
AcDbCircle
 10
5.4000091552734375
 20
-6.600006103515625
 30
0.0
 40
0.4000000357627869
100
AcDbArc
 50
89.999982013910454
 51
179.99996402782091
  0
ARC
  5
5A
100
AcDbEntity
  8
0
  6
CONTINUOUS
 62
               7
100
AcDbCircle
 10
11.800003051757813
 20
-6.600006103515625
 30
0.0
 40
0.4000000357627869
100
AcDbArc
 50
0.0
 51
89.999982013910454
  0
ARC
  5
5B
100
AcDbEntity
  8
0
  6
CONTINUOUS
 62
               7
100
AcDbCircle
 10
14.600006103515625
 20
-11.20001220703125
 30
0.0
 40
0.4000000357627869
100
AcDbArc
 50
0.0
 51
89.999982013910454
  0
ARC
  5
5C
100
AcDbEntity
  8
0
  6
CONTINUOUS
 62
               7
100
AcDbCircle
 10
14.600006103515625
 20
-37.400001525878906
 30
0.0
 40
0.4000000357627869
100
AcDbArc
 50
270.00001798608872
 51
0.0
  0
ARC
  5
5D
100
AcDbEntity
  8
0
  6
CONTINUOUS
 62
               7
100
AcDbCircle
 10
8.20001220703125
 20
-37.400001525878906
 30
0.0
 40
0.4000000357627869
100
AcDbArc
 50
179.99996402782091
 51
270.00000068324471
  0
ARC
  5
5E
100
AcDbEntity
  8
0
  6
CONTINUOUS
 62
               7
100
AcDbCircle
 10
13.800003051757812
 20
-9.20001220703125
 30
0.0
 40
1.5999994277954102
100
AcDbArc
 50
179.99996402782091
 51
270.00000068324471
  0
ARC
  5
5F
100
AcDbEntity
  8
0
  6
CONTINUOUS
 62
               7
100
AcDbCircle
 10
6.20001220703125
 20
-34.799995422363281
 30
0.0
 40
1.5999994277954102
100
AcDbArc
 50
0.0
 51
89.999982013910454
  0
CIRCLE
  5
60
100
AcDbEntity
  8
0
  6
CONTINUOUS
 62
               7
100
AcDbCircle
 10
13.0
 20
-35.0
 30
0.0
 40
1.3999996185302734
  0
CIRCLE
  5
61
100
AcDbEntity
  8
0
  6
CONTINUOUS
 62
               7
100
AcDbCircle
 10
7.0000152587890625
 20
-9.0
 30
0.0
 40
1.3999996185302734
  0
CIRCLE
  5
62
100
AcDbEntity
  8
0
  6
CONTINUOUS
 62
               7
100
AcDbCircle
 10
13.0
 20
-35.0
 30
0.0
 40
1.25
  0
CIRCLE
  5
63
100
AcDbEntity
  8
0
  6
CONTINUOUS
 62
               7
100
AcDbCircle
 10
7.0000152587890625
 20
-9.0
 30
0.0
 40
1.25
  0
CIRCLE
  5
64
100
AcDbEntity
  8
0
  6
CONTINUOUS
 62
               7
100
AcDbCircle
 10
13.800003051757812
 20
-9.1999969482421875
 30
0.0
 40
1.25
  0
CIRCLE
  5
65
100
AcDbEntity
  8
0
  6
CONTINUOUS
 62
               7
100
AcDbCircle
 10
6.20001220703125
 20
-34.799995422363281
 30
0.0
 40
1.25
  0
CIRCLE
  5
66
100
AcDbEntity
  8
0
  6
CONTINUOUS
 62
               7
100
AcDbCircle
 10
0.0
 20
0.0
 30
0.0
 40
1.5999994277954102
  0
CIRCLE
  5
67
100
AcDbEntity
  8
0
  6
CONTINUOUS
 62
               7
100
AcDbCircle
 10
0.0
 20
-43.999994277954102
 30
0.0
 40
1.5999994277954102
  0
LINE
  5
68
100
AcDbEntity
  8
0
  6
CONTINUOUS
 62
               7
100
AcDbLine
 10
22.0
 20
-46.999984741210937
 30
0.0
 11
22.0
 21
3.0
 31
0.0
  0
LINE
  5
69
100
AcDbEntity
  8
0
  6
CONTINUOUS
 62
               4
100
AcDbLine
 10
15.0
 20
13.0
 30
0.0
 11
15.0
 21
37.0
 31
0.0
  0
LINE
  5
6A
100
AcDbEntity
  8
0
  6
CONTINUOUS
 62
               4
100
AcDbLine
 10
5.0
 20
13.0
 30
0.0
 11
5.0
 21
37.000015258789063
 31
0.0
  0
LINE
  5
6B
100
AcDbEntity
  8
0
  6
CONTINUOUS
 62
             200
100
AcDbLine
 10
5.9999872810758461
 20
60.445839580931533
 30
0.0
 11
10.0
 21
61.517639767664747
 31
0.0
  0
LINE
  5
6C
100
AcDbEntity
  8
0
  6
CONTINUOUS
 62
             200
100
AcDbLine
 10
5.9999919742576822
 20
59.410564671435168
 30
0.0
 11
10.0
 21
60.482363600634073
 31
0.0
  0
LINE
  5
6D
100
AcDbEntity
  8
0
  6
CONTINUOUS
 62
               4
100
AcDbLine
 10
7.2849884033203125
 20
57.0
 30
0.0
 11
7.2849884033203125
 21
59.7548828125
 31
0.0
  0
LINE
  5
6E
100
AcDbEntity
  8
0
  6
CONTINUOUS
 62
               4
100
AcDbLine
 10
8.714996337890625
 20
57.0
 30
0.0
 11
8.714996337890625
 21
60.138046264648437
 31
0.0
  0
LINE
  5
6F
100
AcDbEntity
  8
0
  6
CONTINUOUS
 62
               4
100
AcDbLine
 10
7.5999908447265625
 20
70.0
 30
0.0
 11
8.399993896484375
 21
70.0
 31
0.0
  0
LINE
  5
70
100
AcDbEntity
  8
0
  6
CONTINUOUS
 62
               4
100
AcDbLine
 10
7.5999908447265625
 20
65.0
 30
0.0
 11
7.5999908447265625
 21
70.0
 31
0.0
  0
LINE
  5
71
100
AcDbEntity
  8
0
  6
CONTINUOUS
 62
               4
100
AcDbLine
 10
8.399993896484375
 20
65.0
 30
0.0
 11
8.399993896484375
 21
70.0
 31
0.0
  0
LINE
  5
72
100
AcDbEntity
  8
0
  6
CONTINUOUS
 62
               4
100
AcDbLine
 10
7.2849884033203125
 20
65.0
 30
0.0
 11
8.714996337890625
 21
65.0
 31
0.0
  0
LINE
  5
73
100
AcDbEntity
  8
0
  6
CONTINUOUS
 62
               4
100
AcDbLine
 10
7.2849884033203125
 20
60.7901611328125
 30
0.0
 11
7.2849884033203125
 21
65.0
 31
0.0
  0
LINE
  5
74
100
AcDbEntity
  8
0
  6
CONTINUOUS
 62
               4
100
AcDbLine
 10
8.714996337890625
 20
61.173324584960938
 30
0.0
 11
8.714996337890625
 21
65.0
 31
0.0
  0
ARC
  5
75
100
AcDbEntity
  8
0
  6
CONTINUOUS
 62
               4
100
AcDbCircle
 10
5.5500030517578125
 20
45.500015258789063
 30
0.0
 40
0.5
100
AcDbArc
 50
89.999982013910454
 51
179.99996402782091
  0
ARC
  5
76
100
AcDbEntity
  8
0
  6
CONTINUOUS
 62
               4
100
AcDbCircle
 10
14.449996948242188
 20
45.5
 30
0.0
 40
0.5
100
AcDbArc
 50
359.99995901886416
 51
89.999982013910454
  0
LINE
  5
77
100
AcDbEntity
  8
0
  6
CONTINUOUS
 62
               4
100
AcDbLine
 10
14.0
 20
50.500015258789062
 30
0.0
 11
14.0
 21
57.0
 31
0.0
  0
LINE
  5
78
100
AcDbEntity
  8
0
  6
CONTINUOUS
 62
               4
100
AcDbLine
 10
6.0
 20
50.500015258789062
 30
0.0
 11
6.0
 21
57.0
 31
0.0
  0
LINE
  5
79
100
AcDbEntity
  8
0
  6
CONTINUOUS
 62
               4
100
AcDbLine
 10
5.0999908447265625
 20
50.500015258789062
 30
0.0
 11
5.0999908447265625
 21
57.0
 31
0.0
  0
LINE
  5
7A
100
AcDbEntity
  8
0
  6
CONTINUOUS
 62
               4
100
AcDbLine
 10
14.899993896484375
 20
50.500015258789062
 30
0.0
 11
14.899993896484375
 21
57.0
 31
0.0
  0
LINE
  5
7B
100
AcDbEntity
  8
0
  6
CONTINUOUS
 62
               4
100
AcDbLine
 10
14.050003051757813
 20
49.500015258789063
 30
0.0
 11
14.050003051757813
 21
50.500015258789062
 31
0.0
  0
LINE
  5
7C
100
AcDbEntity
  8
0
  6
CONTINUOUS
 62
               4
100
AcDbLine
 10
5.9499969482421875
 20
49.500015258789063
 30
0.0
 11
5.9499969482421875
 21
50.500015258789062
 31
0.0
  0
LINE
  5
7D
100
AcDbEntity
  8
0
  6
CONTINUOUS
 62
               4
100
AcDbLine
 10
5.9499969482421875
 20
48.5
 30
0.0
 11
6.5
 21
48.5
 31
0.0
  0
LINE
  5
7E
100
AcDbEntity
  8
0
  6
CONTINUOUS
 62
               4
100
AcDbLine
 10
5.9499969482421875
 20
49.5
 30
0.0
 11
6.5
 21
49.5
 31
0.0
  0
LINE
  5
7F
100
AcDbEntity
  8
0
  6
CONTINUOUS
 62
               4
100
AcDbLine
 10
13.5
 20
48.5
 30
0.0
 11
14.050003051757813
 21
48.5
 31
0.0
  0
LINE
  5
80
100
AcDbEntity
  8
0
  6
CONTINUOUS
 62
               4
100
AcDbLine
 10
13.5
 20
49.5
 30
0.0
 11
14.050003051757813
 21
49.5
 31
0.0
  0
LINE
  5
81
100
AcDbEntity
  8
0
  6
CONTINUOUS
 62
               4
100
AcDbLine
 10
13.5
 20
50.5
 30
0.0
 11
14.949996948242188
 21
50.5
 31
0.0
  0
LINE
  5
82
100
AcDbEntity
  8
0
  6
CONTINUOUS
 62
               4
100
AcDbLine
 10
5.100006103515625
 20
57.0
 30
0.0
 11
14.899993896484375
 21
57.0
 31
0.0
  0
LINE
  5
83
100
AcDbEntity
  8
0
  6
CONTINUOUS
 62
               4
100
AcDbLine
 10
6.5
 20
55.5
 30
0.0
 11
13.5
 21
55.5
 31
0.0
  0
LINE
  5
84
100
AcDbEntity
  8
0
  6
CONTINUOUS
 62
               4
100
AcDbLine
 10
6.5
 20
50.05615234375
 30
0.0
 11
13.5
 21
50.05615234375
 31
0.0
  0
LINE
  5
85
100
AcDbEntity
  8
0
  6
CONTINUOUS
 62
               4
100
AcDbLine
 10
6.5
 20
46.498458862304688
 30
0.0
 11
13.5
 21
46.498458862304688
 31
0.0
  0
LINE
  5
86
100
AcDbEntity
  8
0
  6
CONTINUOUS
 62
               4
100
AcDbLine
 10
6.5
 20
46.498458862304688
 30
0.0
 11
6.5
 21
57.0
 31
0.0
  0
LINE
  5
87
100
AcDbEntity
  8
0
  6
CONTINUOUS
 62
               4
100
AcDbLine
 10
13.5
 20
46.498458862304688
 30
0.0
 11
13.5
 21
57.0
 31
0.0
  0
LINE
  5
88
100
AcDbEntity
  8
0
  6
CONTINUOUS
 62
               4
100
AcDbLine
 10
14.050003051757813
 20
46.0
 30
0.0
 11
14.050003051757813
 21
48.500015258789063
 31
0.0
  0
LINE
  5
89
100
AcDbEntity
  8
0
  6
CONTINUOUS
 62
               4
100
AcDbLine
 10
5.9499969482421875
 20
46.000015258789063
 30
0.0
 11
5.9499969482421875
 21
48.500015258789063
 31
0.0
  0
LINE
  5
8A
100
AcDbEntity
  8
0
  6
CONTINUOUS
 62
               4
100
AcDbLine
 10
5.0500030517578125
 20
50.5
 30
0.0
 11
6.5
 21
50.5
 31
0.0
  0
LINE
  5
8B
100
AcDbEntity
  8
0
  6
CONTINUOUS
 62
               4
100
AcDbLine
 10
14.949996948242188
 20
37.0
 30
0.0
 11
14.949996948242188
 21
50.500015258789062
 31
0.0
  0
LINE
  5
8C
100
AcDbEntity
  8
0
  6
CONTINUOUS
 62
               4
100
AcDbLine
 10
14.949996948242188
 20
41.5
 30
0.0
 11
5.04998779296875
 21
41.5
 31
0.0
  0
LINE
  5
8D
100
AcDbEntity
  8
0
  6
CONTINUOUS
 62
               4
100
AcDbLine
 10
14.5
 20
46.0
 30
0.0
 11
5.5
 21
46.0
 31
0.0
  0
LINE
  5
8E
100
AcDbEntity
  8
0
  6
CONTINUOUS
 62
               4
100
AcDbLine
 10
5.04998779296875
 20
37.000015258789063
 30
0.0
 11
5.04998779296875
 21
50.500015258789062
 31
0.0
  0
LINE
  5
8F
100
AcDbEntity
  8
0
  6
CONTINUOUS
 62
               4
100
AcDbLine
 10
5.0
 20
37.0
 30
0.0
 11
15.0
 21
37.0
 31
0.0
  0
LINE
  5
90
100
AcDbEntity
  8
0
  6
CONTINUOUS
 62
               7
100
AcDbLine
 10
-3.0
 20
-47.0
 30
0.0
 11
22.0
 21
-47.0
 31
0.0
  0
ENDBLK
  5
91
100
AcDbEntity
  8
0
100
AcDbBlockEnd
  0
BLOCK
  5
92
100
AcDbEntity
  8
0
100
AcDbBlockBegin
  2
F10T0-2
 70
               0
 10
0.0
 20
0.0
 30
0.0
  3
F10T0-2
  1

  0
LINE
  5
93
100
AcDbEntity
  8
0
  6
CONTINUOUS
 62
               7
100
AcDbLine
 10
0.9999633789062443
 20
18.499969482421875
 30
0.0
 11
10.999963378906244
 21
18.499969482421875
 31
0.0
  0
LINE
  5
94
100
AcDbEntity
  8
0
  6
CONTINUOUS
 62
               2
100
AcDbLine
 10
5.9999633789062443
 20
-38.606704711914063
 30
0.0
 11
5.9999633789062443
 21
75.755050659179687
 31
0.0
  0
LINE
  5
95
100
AcDbEntity
  8
0
  6
CONTINUOUS
 62
               7
100
AcDbLine
 10
1.3999572753906193
 20
-28.000030517578125
 30
0.0
 11
10.599954223632807
 21
-28.000030517578125
 31
0.0
  0
LINE
  5
96
100
AcDbEntity
  8
0
  6
CONTINUOUS
 62
               7
100
AcDbLine
 10
3.5499664306640568
 20
-27.500030517578125
 30
0.0
 11
2.0499664306640568
 21
-27.500030517578125
 31
0.0
  0
LINE
  5
97
100
AcDbEntity
  8
0
  6
CONTINUOUS
 62
               2
100
AcDbLine
 10
-0.5000366210937557
 20
-5.0000228881835937
 30
0.0
 11
12.499963378906244
 21
-5.0000228881835937
 31
0.0
  0
LINE
  5
98
100
AcDbEntity
  8
0
  6
CONTINUOUS
 62
               2
100
AcDbLine
 10
0.8999572753906193
 20
-15.000022888183594
 30
0.0
 11
7.8999572753906193
 21
-15.000022888183594
 31
0.0
  0
LINE
  5
99
100
AcDbEntity
  8
0
  6
CONTINUOUS
 62
               2
100
AcDbLine
 10
4.3999572753906193
 20
-11.500022888183594
 30
0.0
 11
4.3999572753906193
 21
-18.500022888183594
 31
0.0
  0
LINE
  5
9A
100
AcDbEntity
  8
0
  6
CONTINUOUS
 62
               2
100
AcDbLine
 10
7.5999694824218693
 20
8.499969482421875
 30
0.0
 11
7.5999694824218693
 21
1.4999771118164063
 31
0.0
  0
LINE
  5
9B
100
AcDbEntity
  8
0
  6
CONTINUOUS
 62
               2
100
AcDbLine
 10
4.0999694824218693
 20
4.999969482421875
 30
0.0
 11
11.099969482421869
 21
4.999969482421875
 31
0.0
  0
LINE
  5
9C
100
AcDbEntity
  8
0
  6
CONTINUOUS
 62
               7
100
AcDbLine
 10
0.9999633789062443
 20
29.89996337890625
 30
0.0
 11
10.999963378906244
 21
29.89996337890625
 31
0.0
  0
LINE
  5
9D
100
AcDbEntity
  8
0
  6
CONTINUOUS
 62
               7
100
AcDbLine
 10
0.9999633789062443
 20
20.499969482421875
 30
0.0
 11
10.999963378906244
 21
20.499969482421875
 31
0.0
  0
LINE
  5
9E
100
AcDbEntity
  8
0
  6
CONTINUOUS
 62
               4
100
AcDbLine
 10
0.9999786376953068
 20
53.999984741210938
 30
0.0
 11
10.999978637695307
 21
53.999984741210938
 31
0.0
  0
LINE
  5
9F
100
AcDbEntity
  8
0
  6
CONTINUOUS
 62
               7
100
AcDbLine
 10
0.9999633789062443
 20
29.999969482421875
 30
0.0
 11
10.999963378906244
 21
29.999969482421875
 31
0.0
  0
LINE
  5
A0
100
AcDbEntity
  8
0
  6
CONTINUOUS
 62
               4
100
AcDbLine
 10
1.0499664306640568
 20
53.999984741210938
 30
0.0
 11
1.0499664306640568
 21
73.999969482421875
 31
0.0
  0
LINE
  5
A1
100
AcDbEntity
  8
0
  6
CONTINUOUS
 62
               4
100
AcDbLine
 10
10.949960327148432
 20
53.999984741210938
 30
0.0
 11
10.949960327148432
 21
73.999969482421875
 31
0.0
  0
LINE
  5
A2
100
AcDbEntity
  8
0
  6
CONTINUOUS
 62
               4
100
AcDbLine
 10
1.0499664306640568
 20
73.999969482421875
 30
0.0
 11
10.949960327148432
 21
73.999969482421875
 31
0.0
  0
LINE
  5
A3
100
AcDbEntity
  8
0
  6
CONTINUOUS
 62
               7
100
AcDbLine
 10
10.999963378906244
 20
-27.600021362304688
 30
0.0
 11
10.999963378906244
 21
-21.500022888183594
 31
0.0
  0
LINE
  5
A4
100
AcDbEntity
  8
0
  6
CONTINUOUS
 62
               7
100
AcDbLine
 10
0.9999633789062443
 20
-27.600021362304688
 30
0.0
 11
0.9999633789062443
 21
-21.500022888183594
 31
0.0
  0
LINE
  5
A5
100
AcDbEntity
  8
0
  6
CONTINUOUS
 62
               4
100
AcDbLine
 10
5.3999725341796818
 20
64.499969482421875
 30
0.0
 11
6.5999694824218693
 21
64.499969482421875
 31
0.0
  0
LINE
  5
A6
100
AcDbEntity
  8
0
  6
CONTINUOUS
 62
               4
100
AcDbLine
 10
6.5999694824218693
 20
67.499969482421875
 30
0.0
 11
6.5999694824218693
 21
64.499969482421875
 31
0.0
  0
LINE
  5
A7
100
AcDbEntity
  8
0
  6
CONTINUOUS
 62
               4
100
AcDbLine
 10
5.3999725341796818
 20
67.499969482421875
 30
0.0
 11
5.3999725341796818
 21
64.499969482421875
 31
0.0
  0
LINE
  5
A8
100
AcDbEntity
  8
0
  6
CONTINUOUS
 62
               4
100
AcDbLine
 10
7.0999902039646656
 20
67.499976896923954
 30
0.0
 11
6.5999879872941563
 21
66.999978052004963
 31
0.0
  0
LINE
  5
A9
100
AcDbEntity
  8
0
  6
CONTINUOUS
 62
               4
100
AcDbLine
 10
4.8999758320015587
 20
67.499958562304528
 30
0.0
 11
5.399976573530779
 21
66.999958242244247
 31
0.0
  0
LINE
  5
AA
100
AcDbEntity
  8
0
  6
CONTINUOUS
 62
               4
100
AcDbLine
 10
1.0499664306640568
 20
72.999969482421875
 30
0.0
 11
10.949960327148432
 21
72.999969482421875
 31
0.0
  0
LINE
  5
AB
100
AcDbEntity
  8
0
  6
CONTINUOUS
 62
               4
100
AcDbLine
 10
1.0499664306640568
 20
67.499969482421875
 30
0.0
 11
5.3999725341796818
 21
67.499969482421875
 31
0.0
  0
LINE
  5
AC
100
AcDbEntity
  8
0
  6
CONTINUOUS
 62
               4
100
AcDbLine
 10
6.5999694824218693
 20
67.499969482421875
 30
0.0
 11
10.949960327148432
 21
67.499969482421875
 31
0.0
  0
LINE
  5
AD
100
AcDbEntity
  8
0
  6
CONTINUOUS
 62
               7
100
AcDbLine
 10
0.9999633789062443
 20
11.499969482421875
 30
0.0
 11
0.9999633789062443
 21
29.999969482421875
 31
0.0
  0
LINE
  5
AE
100
AcDbEntity
  8
0
  6
CONTINUOUS
 62
               7
100
AcDbLine
 10
10.999963378906244
 20
11.499969482421875
 30
0.0
 11
10.999963378906244
 21
29.999969482421875
 31
0.0
  0
LINE
  5
AF
100
AcDbEntity
  8
0
  6
CONTINUOUS
 62
               7
100
AcDbLine
 10
-0.0000366210937557
 20
11.499969482421875
 30
0.0
 11
-0.0000366210937557
 21
-21.500022888183594
 31
0.0
  0
LINE
  5
B0
100
AcDbEntity
  8
0
  6
CONTINUOUS
 62
               7
100
AcDbLine
 10
-0.0000366210937557
 20
11.499969482421875
 30
0.0
 11
11.999963378906244
 21
11.499969482421875
 31
0.0
  0
LINE
  5
B1
100
AcDbEntity
  8
0
  6
CONTINUOUS
 62
               7
100
AcDbLine
 10
11.999963378906244
 20
11.499969482421875
 30
0.0
 11
11.999963378906244
 21
-21.500022888183594
 31
0.0
  0
LINE
  5
B2
100
AcDbEntity
  8
0
  6
CONTINUOUS
 62
               7
100
AcDbLine
 10
-0.0000366210937557
 20
-21.500022888183594
 30
0.0
 11
11.999963378906244
 21
-21.500022888183594
 31
0.0
  0
LINE
  5
B4
100
AcDbEntity
  8
0
  6
DASHED
 62
               4
100
AcDbLine
 10
13.199960327148432
 20
9.499969482421875
 30
0.0
 11
13.199960327148432
 21
-37.000030517578125
 31
0.0
  0
LINE
  5
B5
100
AcDbEntity
  8
0
  6
DASHED
 62
               4
100
AcDbLine
 10
11.999963378906244
 20
9.499969482421875
 30
0.0
 11
13.199960327148432
 21
9.499969482421875
 31
0.0
  0
LINE
  5
B6
100
AcDbEntity
  8
0
  6
DASHED
 62
               4
100
AcDbLine
 10
-0.0000366210937557
 20
-36.800018310546875
 30
0.0
 11
11.999963378906244
 21
-36.800018310546875
 31
0.0
  0
LINE
  5
B7
100
AcDbEntity
  8
0
  6
DASHED
 62
               4
100
AcDbLine
 10
-0.0000366210937557
 20
-38.000030517578125
 30
0.0
 11
12.199960327148432
 21
-38.000030517578125
 31
0.0
  0
LINE
  5
B8
100
AcDbEntity
  8
0
  6
DASHED
 62
               4
100
AcDbLine
 10
11.999963378906244
 20
-21.500022888183594
 30
0.0
 11
11.999963378906244
 21
-36.800018310546875
 31
0.0
  0
LINE
  5
B9
100
AcDbEntity
  8
0
  6
DASHED
 62
               4
100
AcDbLine
 10
-0.0000366210937557
 20
-36.800018310546875
 30
0.0
 11
-0.0000366210937557
 21
-38.000030517578125
 31
0.0
  0
LINE
  5
BA
100
AcDbEntity
  8
0
  6
DASHED
 62
               4
100
AcDbLine
 10
-1.8718627929687557
 20
-7.2000303268432617
 30
0.0
 11
-0.7000335693359432
 21
-7.2000303268432617
 31
0.0
  0
LINE
  5
BB
100
AcDbEntity
  8
0
  6
DASHED
 62
               4
100
AcDbLine
 10
-1.8718627929687557
 20
-12.800030708312988
 30
0.0
 11
-0.7000335693359432
 21
-12.800030708312988
 31
0.0
  0
LINE
  5
BC
100
AcDbEntity
  8
0
  6
DASHED
 62
               4
100
AcDbLine
 10
-1.8718627929687557
 20
2.7999687194824219
 30
0.0
 11
-0.7000335693359432
 21
2.7999687194824219
 31
0.0
  0
LINE
  5
BD
100
AcDbEntity
  8
0
  6
DASHED
 62
               4
100
AcDbLine
 10
-1.8718627929687557
 20
-2.8000297546386719
 30
0.0
 11
-0.7000335693359432
 21
-2.8000297546386719
 31
0.0
  0
LINE
  5
BE
100
AcDbEntity
  8
0
  6
CENTER
 62
               2
100
AcDbLine
 10
4.9999633789062443
 20
14.499969482421875
 30
0.0
 11
6.9999633789062443
 21
14.499969482421875
 31
0.0
  0
LINE
  5
BF
100
AcDbEntity
  8
0
  6
CONTINUOUS
 62
               7
100
AcDbLine
 10
0.9999633789062443
 20
-27.000030517578125
 30
0.0
 11
4.3999725341796818
 21
-27.000030517578125
 31
0.0
  0
LINE
  5
C0
100
AcDbEntity
  8
0
  6
CONTINUOUS
 62
               7
100
AcDbLine
 10
4.3999725341796818
 20
-28.000030517578125
 30
0.0
 11
4.3999725341796818
 21
-27.000030517578125
 31
0.0
  0
ARC
  5
C1
100
AcDbEntity
  8
0
  6
CONTINUOUS
 62
               7
100
AcDbCircle
 10
10.599954223632807
 20
-27.600021362304688
 30
0.0
 40
0.4000000357627869
100
AcDbArc
 50
270.00001798608872
 51
0.00001366037834
  0
ARC
  5
C2
100
AcDbEntity
  8
0
  6
CONTINUOUS
 62
               7
100
AcDbCircle
 10
1.3999572753906193
 20
-27.600021362304688
 30
0.0
 40
0.4000000357627869
100
AcDbArc
 50
179.99996402782091
 51
269.99994604173139
  0
ARC
  5
C3
100
AcDbEntity
  8
0
  6
CONTINUOUS
 62
               7
100
AcDbCircle
 10
2.0499664306640568
 20
-27.000030517578125
 30
0.0
 40
0.5
100
AcDbArc
 50
180.0000359721783
 51
270.00001798608872
  0
ARC
  5
C4
100
AcDbEntity
  8
0
  6
CONTINUOUS
 62
               7
100
AcDbCircle
 10
3.5499664306640568
 20
-27.000030517578125
 30
0.0
 40
0.5
100
AcDbArc
 50
270.00001798608872
 51
0.0000546415133601
  0
CIRCLE
  5
C5
100
AcDbEntity
  8
0
  6
CONTINUOUS
 62
               2
100
AcDbCircle
 10
7.5999694824218693
 20
4.999969482421875
 30
0.0
 40
2.5
  0
CIRCLE
  5
C6
100
AcDbEntity
  8
0
  6
CONTINUOUS
 62
               2
100
AcDbCircle
 10
4.3999572753906193
 20
-15.000022888183594
 30
0.0
 40
2.5
  0
CIRCLE
  5
C7
100
AcDbEntity
  8
0
  6
CONTINUOUS
 62
               2
100
AcDbCircle
 10
5.9999633789062443
 20
-5.0000228881835937
 30
0.0
 40
2.5
  0
CIRCLE
  5
C8
100
AcDbEntity
  8
0
  6
CONTINUOUS
 62
               7
100
AcDbCircle
 10
4.3999572753906193
 20
-15.000022888183594
 30
0.0
 40
2.0999994277954102
  0
CIRCLE
  5
C9
100
AcDbEntity
  8
0
  6
CONTINUOUS
 62
               7
100
AcDbCircle
 10
7.5999694824218693
 20
4.999969482421875
 30
0.0
 40
2.0999994277954102
  0
CIRCLE
  5
CA
100
AcDbEntity
  8
0
  6
CONTINUOUS
 62
               7
100
AcDbCircle
 10
5.9999633789062443
 20
-5.0000228881835937
 30
0.0
 40
2.0999994277954102
  0
ARC
  5
CB
100
AcDbEntity
  8
0
  6
DASHED
 62
               4
100
AcDbCircle
 10
12.199960327148432
 20
-37.000030517578125
 30
0.0
 40
1.0
100
AcDbArc
 50
270.00001798608872
 51
0.0
  0
ARC
  5
CC
100
AcDbEntity
  8
0
  6
DASHED
 62
               4
100
AcDbCircle
 10
1.8999725341796818
 20
-10.000030517578125
 30
0.0
 40
5.0
100
AcDbArc
 50
150.5076443238128
 51
209.49233837334239
  0
ARC
  5
CD
100
AcDbEntity
  8
0
  6
DASHED
 62
               4
100
AcDbCircle
 10
-1.8718627929687557
 20
-7.8666973114013672
 30
0.0
 40
0.6666666865348816
100
AcDbArc
 50
89.999982013910454
 51
150.5076443238128
  0
ARC
  5
CE
100
AcDbEntity
  8
0
  6
DASHED
 62
               4
100
AcDbCircle
 10
-1.8718627929687557
 20
-12.133363723754883
 30
0.0
 40
0.6666666865348816
100
AcDbArc
 50
209.49235567618641
 51
270.00001798608872
  0
ARC
  5
CF
100
AcDbEntity
  8
0
  6
DASHED
 62
               4
100
AcDbCircle
 10
1.8999725341796818
 20
-0.000030517578125
 30
0.0
 40
5.0
100
AcDbArc
 50
150.5076443238128
 51
209.49233837334239
  0
ARC
  5
D0
100
AcDbEntity
  8
0
  6
DASHED
 62
               4
100
AcDbCircle
 10
-1.8718627929687557
 20
2.1333026885986328
 30
0.0
 40
0.6666666865348816
100
AcDbArc
 50
89.999982013910454
 51
150.5076443238128
  0
ARC
  5
D1
100
AcDbEntity
  8
0
  6
DASHED
 62
               4
100
AcDbCircle
 10
-1.8718627929687557
 20
-2.1333637237548828
 30
0.0
 40
0.6666666865348816
100
AcDbArc
 50
209.49235567618641
 51
270.00001798608872
  0
CIRCLE
  5
D2
100
AcDbEntity
  8
0
  6
CONTINUOUS
 62
               7
100
AcDbCircle
 10
5.9999633789062443
 20
14.499969482421875
 30
0.0
 40
0.6000000238418579
  0
LINE
  5
D3
100
AcDbEntity
  8
0
  6
DASHED
 62
               4
100
AcDbLine
 10
-0.7000335693359432
 20
-7.0500307083129599
 30
0.0
 11
-0.7000335693359432
 21
-12.950030326843233
 31
0.0
  0
LINE
  5
D4
100
AcDbEntity
  8
0
  6
DASHED
 62
               4
100
AcDbLine
 10
-0.0000392227542818
 20
-10.350030017592871
 30
0.0
 11
-0.7000465553559536
 21
-10.537596418631438
 31
0.0
  0
LINE
  5
D5
100
AcDbEntity
  8
0
  6
DASHED
 62
               4
100
AcDbLine
 10
-0.7000453543145397
 20
-9.6500322426099956
 30
0.0
 11
-0.0000379785173266
 21
-9.4624658847669707
 31
0.0
  0
LINE
  5
D6
100
AcDbEntity
  8
0
  6
DASHED
 62
               4
100
AcDbLine
 10
-0.7000335693359432
 20
-7.0500307083129599
 30
0.0
 11
-0.0000366210937557
 21
-7.0500307083129599
 31
0.0
  0
LINE
  5
D7
100
AcDbEntity
  8
0
  6
DASHED
 62
               4
100
AcDbLine
 10
-0.7000335693359432
 20
-12.950030326843233
 30
0.0
 11
-0.0000366210937557
 21
-12.950030326843233
 31
0.0
  0
LINE
  5
D8
100
AcDbEntity
  8
0
  6
DASHED
 62
               4
100
AcDbLine
 10
-0.7000335693359432
 20
2.9499692916870259
 30
0.0
 11
-0.7000335693359432
 21
-2.9500303268432333
 31
0.0
  0
LINE
  5
D9
100
AcDbEntity
  8
0
  6
DASHED
 62
               4
100
AcDbLine
 10
-0.000033485759019
 20
-0.3500309715309413
 30
0.0
 11
-0.7000408183606908
 21
-0.5375973725695076
 31
0.0
  0
LINE
  5
DA
100
AcDbEntity
  8
0
  6
DASHED
 62
               4
100
AcDbLine
 10
-0.700038887314264
 20
0.3499672249199648
 30
0.0
 11
-0.0000462503761867
 21
0.537529633498707
 31
0.0
  0
LINE
  5
DB
100
AcDbEntity
  8
0
  6
DASHED
 62
               4
100
AcDbLine
 10
-0.7000335693359432
 20
2.9499692916870259
 30
0.0
 11
-0.0000366210937557
 21
2.9499692916870259
 31
0.0
  0
LINE
  5
DC
100
AcDbEntity
  8
0
  6
DASHED
 62
               4
100
AcDbLine
 10
-0.7000335693359432
 20
-2.9500303268432333
 30
0.0
 11
-0.0000366210937557
 21
-2.9500303268432333
 31
0.0
  0
LINE
  5
DD
100
AcDbEntity
  8
0
  6
DASHED
 62
               4
100
AcDbLine
 10
14.399957275390619
 20
-2.000030517578125
 30
0.0
 11
14.399957275390619
 21
1.999969482421875
 31
0.0
  0
LINE
  5
DE
100
AcDbEntity
  8
0
  6
DASHED
 62
               4
100
AcDbLine
 10
13.699960327148432
 20
1.999969482421875
 30
0.0
 11
14.399957275390619
 21
1.999969482421875
 31
0.0
  0
LINE
  5
DF
100
AcDbEntity
  8
0
  6
DASHED
 62
               4
100
AcDbLine
 10
13.699960327148432
 20
-2.000030517578125
 30
0.0
 11
14.399957275390619
 21
-2.000030517578125
 31
0.0
  0
ARC
  5
E0
100
AcDbEntity
  8
0
  6
DASHED
 62
               4
100
AcDbCircle
 10
13.699960327148432
 20
2.499969482421875
 30
0.0
 40
0.5
100
AcDbArc
 50
179.99996402782091
 51
270.00000068324471
  0
ARC
  5
E1
100
AcDbEntity
  8
0
  6
DASHED
 62
               4
100
AcDbCircle
 10
13.699960327148432
 20
-2.500030517578125
 30
0.0
 40
0.5
100
AcDbArc
 50
89.999982013910454
 51
179.99996402782091
  0
LINE
  5
E2
100
AcDbEntity
  8
0
  6
DASHED
 62
               4
100
AcDbLine
 10
14.399957275390619
 20
-12.000030517578125
 30
0.0
 11
14.399957275390619
 21
-8.000030517578125
 31
0.0
  0
LINE
  5
E3
100
AcDbEntity
  8
0
  6
DASHED
 62
               4
100
AcDbLine
 10
13.699960327148432
 20
-8.000030517578125
 30
0.0
 11
14.399957275390619
 21
-8.000030517578125
 31
0.0
  0
LINE
  5
E4
100
AcDbEntity
  8
0
  6
DASHED
 62
               4
100
AcDbLine
 10
13.699960327148432
 20
-12.000030517578125
 30
0.0
 11
14.399957275390619
 21
-12.000030517578125
 31
0.0
  0
ARC
  5
E5
100
AcDbEntity
  8
0
  6
DASHED
 62
               4
100
AcDbCircle
 10
13.699960327148432
 20
-7.500030517578125
 30
0.0
 40
0.5
100
AcDbArc
 50
179.99996402782091
 51
270.00000068324471
  0
ARC
  5
E6
100
AcDbEntity
  8
0
  6
DASHED
 62
               4
100
AcDbCircle
 10
13.699960327148432
 20
-12.500030517578125
 30
0.0
 40
0.5
100
AcDbArc
 50
89.999982013910454
 51
179.99996402782091
  0
LINE
  5
E7
100
AcDbEntity
  8
0
  6
CONTINUOUS
 62
               4
100
AcDbLine
 10
7.2849670410156193
 20
78.861923217773437
 30
0.0
 11
7.2849670410156193
 21
81.999969482421875
 31
0.0
  0
LINE
  5
E8
100
AcDbEntity
  8
0
  6
CONTINUOUS
 62
               4
100
AcDbLine
 10
8.7149749755859318
 20
79.245086669921875
 30
0.0
 11
8.7149749755859318
 21
81.999969482421875
 31
0.0
  0
LINE
  5
E9
100
AcDbEntity
  8
0
  6
CONTINUOUS
 62
               4
100
AcDbLine
 10
8.7149749755859318
 20
81.999969482421875
 30
0.0
 11
7.2849670410156193
 21
81.999969482421875
 31
0.0
  0
LINE
  5
EA
100
AcDbEntity
  8
0
  6
CONTINUOUS
 62
               4
100
AcDbLine
 10
7.5999694824218693
 20
81.999969482421875
 30
0.0
 11
7.5999694824218693
 21
86.999969482421875
 31
0.0
  0
LINE
  5
EB
100
AcDbEntity
  8
0
  6
CONTINUOUS
 62
               4
100
AcDbLine
 10
8.3999725341796818
 20
81.999969482421875
 30
0.0
 11
8.3999725341796818
 21
86.999969482421875
 31
0.0
  0
LINE
  5
EC
100
AcDbEntity
  8
0
  6
CONTINUOUS
 62
               4
100
AcDbLine
 10
8.3999725341796818
 20
86.999969482421875
 30
0.0
 11
7.5999694824218693
 21
86.999969482421875
 31
0.0
  0
LINE
  5
ED
100
AcDbEntity
  8
0
  6
CONTINUOUS
 62
               4
100
AcDbLine
 10
7.2849670410156193
 20
73.999969482421875
 30
0.0
 11
7.2849670410156193
 21
77.826644897460938
 31
0.0
  0
LINE
  5
EE
100
AcDbEntity
  8
0
  6
CONTINUOUS
 62
               4
100
AcDbLine
 10
8.7149749755859318
 20
73.999969482421875
 30
0.0
 11
8.7149749755859318
 21
78.209823608398438
 31
0.0
  0
LINE
  5
EF
100
AcDbEntity
  8
0
  6
CONTINUOUS
 62
             200
100
AcDbLine
 10
5.9999633789062443
 20
77.482328842564897
 30
0.0
 11
9.9999678158252152
 21
78.554126810141497
 31
0.0
  0
LINE
  5
F0
100
AcDbEntity
  8
0
  6
CONTINUOUS
 62
             200
100
AcDbLine
 10
5.9999633789062443
 20
78.517605009595556
 30
0.0
 11
9.9999631226433792
 21
79.589401719637863
 31
0.0
  0
LINE
  5
F1
100
AcDbEntity
  8
0
  6
CONTINUOUS
 62
               4
100
AcDbLine
 10
10.949960327148432
 20
62.999954223632813
 30
0.0
 11
1.0499664306640568
 21
62.999954223632813
 31
0.0
  0
LINE
  5
F2
100
AcDbEntity
  8
0
  6
CONTINUOUS
 62
               4
100
AcDbLine
 10
0.9999633789062443
 20
46.999954223632813
 30
0.0
 11
1.6165149569511357
 21
46.999954223632813
 31
0.0
  0
LINE
  5
F3
100
AcDbEntity
  8
0
  6
CONTINUOUS
 62
               4
100
AcDbLine
 10
10.299963378906241
 20
46.999954223632813
 30
0.0
 11
10.299963378906241
 21
53.999984741210938
 31
0.0
  0
LINE
  5
F4
100
AcDbEntity
  8
0
  6
CONTINUOUS
 62
               4
100
AcDbLine
 10
1.6165149554506968
 20
46.999954223632813
 30
0.0
 11
1.6165149554506968
 21
53.999984741210938
 31
0.0
  0
LINE
  5
F5
100
AcDbEntity
  8
0
  6
CONTINUOUS
 62
               4
100
AcDbLine
 10
10.299963378906241
 20
46.999954223632813
 30
0.0
 11
10.999963378906244
 21
46.999954223632813
 31
0.0
  0
LINE
  5
F6
100
AcDbEntity
  8
0
  6
CONTINUOUS
 62
               4
100
AcDbLine
 10
3.39996337890625
 20
48.69998474121094
 30
0.0
 11
3.39996337890625
 21
53.999984741210938
 31
0.0
  0
LINE
  5
F7
100
AcDbEntity
  8
0
  6
CONTINUOUS
 62
               4
100
AcDbLine
 10
4.5999633789062386
 20
48.69998474121094
 30
0.0
 11
4.5999633789062386
 21
53.999984741210938
 31
0.0
  0
LINE
  5
F8
100
AcDbEntity
  8
0
  6
CONTINUOUS
 62
               4
100
AcDbLine
 10
7.39996337890625
 20
48.69998474121094
 30
0.0
 11
7.39996337890625
 21
53.999984741210938
 31
0.0
  0
LINE
  5
F9
100
AcDbEntity
  8
0
  6
CONTINUOUS
 62
               4
100
AcDbLine
 10
8.5999633789062386
 20
48.69998474121094
 30
0.0
 11
8.5999633789062386
 21
53.999984741210938
 31
0.0
  0
LINE
  5
FA
100
AcDbEntity
  8
0
  6
CONTINUOUS
 62
               4
100
AcDbLine
 10
3.169963378906246
 20
48.69998474121094
 30
0.0
 11
3.169963378906246
 21
53.999984741210938
 31
0.0
  0
LINE
  5
FB
100
AcDbEntity
  8
0
  6
CONTINUOUS
 62
               4
100
AcDbLine
 10
4.8299633789062426
 20
48.69998474121094
 30
0.0
 11
4.8299633789062426
 21
53.999984741210938
 31
0.0
  0
LINE
  5
FC
100
AcDbEntity
  8
0
  6
CONTINUOUS
 62
               4
100
AcDbLine
 10
7.169963378906246
 20
48.69998474121094
 30
0.0
 11
7.169963378906246
 21
53.999984741210938
 31
0.0
  0
LINE
  5
FD
100
AcDbEntity
  8
0
  6
CONTINUOUS
 62
               4
100
AcDbLine
 10
8.8299633789062426
 20
48.69998474121094
 30
0.0
 11
8.8299633789062426
 21
53.999984741210938
 31
0.0
  0
LINE
  5
FE
100
AcDbEntity
  8
0
  6
CONTINUOUS
 62
               4
100
AcDbLine
 10
3.169963378906246
 20
48.69998474121094
 30
0.0
 11
4.8299633789062426
 21
48.69998474121094
 31
0.0
  0
LINE
  5
FF
100
AcDbEntity
  8
0
  6
CONTINUOUS
 62
               4
100
AcDbLine
 10
7.169963378906246
 20
48.69998474121094
 30
0.0
 11
8.8299633789062426
 21
48.69998474121094
 31
0.0
  0
LINE
  5
100
100
AcDbEntity
  8
0
  6
CONTINUOUS
 62
               4
100
AcDbLine
 10
10.999963378906244
 20
29.999969482421875
 30
0.0
 11
10.999963378906244
 21
53.999984741210938
 31
0.0
  0
LINE
  5
101
100
AcDbEntity
  8
0
  6
CONTINUOUS
 62
               4
100
AcDbLine
 10
0.9999633789062443
 20
29.999969482421875
 30
0.0
 11
0.9999633789062443
 21
53.999984741210938
 31
0.0
  0
ENDBLK
  5
102
100
AcDbEntity
  8
0
100
AcDbBlockEnd
  0
BLOCK
  5
103
100
AcDbEntity
  8
0
100
AcDbBlockBegin
  2
F10T0-3
 70
               0
 10
0.0
 20
0.0
 30
0.0
  3
F10T0-3
  1

  0
LINE
  5
104
100
AcDbEntity
  8
0
  6
CONTINUOUS
 62
               7
100
AcDbLine
 10
-12.0
 20
11.499979019165039
 30
0.0
 11
-12.0
 21
-21.500015258789063
 31
0.0
  0
LINE
  5
105
100
AcDbEntity
  8
0
  6
CONTINUOUS
 62
               7
100
AcDbLine
 10
0.0
 20
11.499979019165039
 30
0.0
 11
0.0
 21
-21.500015258789063
 31
0.0
  0
LINE
  5
106
100
AcDbEntity
  8
0
  6
CONTINUOUS
 62
               7
100
AcDbLine
 10
-12.0
 20
11.499979019165039
 30
0.0
 11
-11.0
 21
11.499979019165039
 31
0.0
  0
LINE
  5
107
100
AcDbEntity
  8
0
  6
CONTINUOUS
 62
               7
100
AcDbLine
 10
-12.0
 20
-21.500015258789063
 30
0.0
 11
-11.0
 21
-21.500015258789063
 31
0.0
  0
LINE
  5
108
100
AcDbEntity
  8
0
  6
CONTINUOUS
 62
               7
100
AcDbLine
 10
-11.0
 20
18.499979019165039
 30
0.0
 11
-1.0
 21
18.499979019165039
 31
0.0
  0
LINE
  5
109
100
AcDbEntity
  8
0
  6
CONTINUOUS
 62
               7
100
AcDbLine
 10
-11.0
 20
20.499979019165039
 30
0.0
 11
-1.0
 21
20.499979019165039
 31
0.0
  0
LINE
  5
10A
100
AcDbEntity
  8
0
  6
CENTER
 62
               2
100
AcDbLine
 10
-8.5
 20
26.699975967407227
 30
0.0
 11
-3.5
 21
26.699975967407227
 31
0.0
  0
LINE
  5
10B
100
AcDbEntity
  8
0
  6
CONTINUOUS
 62
               2
100
AcDbLine
 10
-6.0
 20
-38.606695175170898
 30
0.0
 11
-6.0
 21
75.755060195922852
 31
0.0
  0
LINE
  5
10C
100
AcDbEntity
  8
0
  6
CONTINUOUS
 62
               4
100
AcDbLine
 10
-11.0
 20
53.999979019165039
 30
0.0
 11
-1.0
 21
53.999979019165039
 31
0.0
  0
LINE
  5
10D
100
AcDbEntity
  8
0
  6
CONTINUOUS
 62
               7
100
AcDbLine
 10
-11.0
 20
29.999979019165039
 30
0.0
 11
-1.0
 21
29.999979019165039
 31
0.0
  0
LINE
  5
10E
100
AcDbEntity
  8
0
  6
CONTINUOUS
 62
               7
100
AcDbLine
 10
-7.926788330078125
 20
26.399972915649414
 30
0.0
 11
-4.073211669921875
 21
26.399972915649414
 31
0.0
  0
LINE
  5
10F
100
AcDbEntity
  8
0
  6
CONTINUOUS
 62
               7
100
AcDbLine
 10
-7.926788330078125
 20
26.999979019165039
 30
0.0
 11
-4.073211669921875
 21
26.999979019165039
 31
0.0
  0
LINE
  5
110
100
AcDbEntity
  8
0
  6
CONTINUOUS
 62
               4
100
AcDbLine
 10
-10.95001220703125
 20
53.999994277954102
 30
0.0
 11
-10.95001220703125
 21
67.499994277954102
 31
0.0
  0
LINE
  5
111
100
AcDbEntity
  8
0
  6
CONTINUOUS
 62
               4
100
AcDbLine
 10
-1.5
 20
62.999979019165039
 30
0.0
 11
-10.5
 21
62.999979019165039
 31
0.0
  0
LINE
  5
112
100
AcDbEntity
  8
0
  6
CONTINUOUS
 62
               2
100
AcDbLine
 10
-1.0500030517578125
 20
58.499979019165039
 30
0.0
 11
-10.95001220703125
 21
58.499979019165039
 31
0.0
  0
LINE
  5
113
100
AcDbEntity
  8
0
  6
CONTINUOUS
 62
               4
100
AcDbLine
 10
-1.0500030517578125
 20
53.999979019165039
 30
0.0
 11
-1.0500030517578125
 21
67.499994277954102
 31
0.0
  0
LINE
  5
114
100
AcDbEntity
  8
0
  6
CONTINUOUS
 62
               4
100
AcDbLine
 10
-10.949996948242188
 20
67.499979019165039
 30
0.0
 11
-9.5
 21
67.499979019165039
 31
0.0
  0
LINE
  5
115
100
AcDbEntity
  8
0
  6
CONTINUOUS
 62
               4
100
AcDbLine
 10
-10.050003051757812
 20
62.999994277954102
 30
0.0
 11
-10.050003051757812
 21
65.499994277954102
 31
0.0
  0
LINE
  5
116
100
AcDbEntity
  8
0
  6
CONTINUOUS
 62
               4
100
AcDbLine
 10
-1.9499969482421875
 20
62.999979019165039
 30
0.0
 11
-1.9499969482421875
 21
65.499994277954102
 31
0.0
  0
LINE
  5
117
100
AcDbEntity
  8
0
  6
CONTINUOUS
 62
               4
100
AcDbLine
 10
-2.5
 20
63.498437881469727
 30
0.0
 11
-2.5
 21
73.999979019165039
 31
0.0
  0
LINE
  5
118
100
AcDbEntity
  8
0
  6
CONTINUOUS
 62
               4
100
AcDbLine
 10
-9.5
 20
63.498437881469727
 30
0.0
 11
-9.5
 21
73.999979019165039
 31
0.0
  0
LINE
  5
119
100
AcDbEntity
  8
0
  6
CONTINUOUS
 62
               4
100
AcDbLine
 10
-9.5
 20
63.498437881469727
 30
0.0
 11
-2.5
 21
63.498437881469727
 31
0.0
  0
LINE
  5
11A
100
AcDbEntity
  8
0
  6
CONTINUOUS
 62
               4
100
AcDbLine
 10
-9.5
 20
67.056131362915039
 30
0.0
 11
-2.5
 21
67.056131362915039
 31
0.0
  0
LINE
  5
11B
100
AcDbEntity
  8
0
  6
CONTINUOUS
 62
               4
100
AcDbLine
 10
-9.5
 20
72.499979019165039
 30
0.0
 11
-2.5
 21
72.499979019165039
 31
0.0
  0
LINE
  5
11C
100
AcDbEntity
  8
0
  6
CONTINUOUS
 62
               4
100
AcDbLine
 10
-10.899993896484375
 20
73.999979019165039
 30
0.0
 11
-1.100006103515625
 21
73.999979019165039
 31
0.0
  0
LINE
  5
11D
100
AcDbEntity
  8
0
  6
CONTINUOUS
 62
               4
100
AcDbLine
 10
-2.5
 20
67.499979019165039
 30
0.0
 11
-1.0500030517578125
 21
67.499979019165039
 31
0.0
  0
LINE
  5
11E
100
AcDbEntity
  8
0
  6
CONTINUOUS
 62
               4
100
AcDbLine
 10
-2.5
 20
66.499979019165039
 30
0.0
 11
-1.9499969482421875
 21
66.499979019165039
 31
0.0
  0
LINE
  5
11F
100
AcDbEntity
  8
0
  6
CONTINUOUS
 62
               4
100
AcDbLine
 10
-2.5
 20
65.499979019165039
 30
0.0
 11
-1.9499969482421875
 21
65.499979019165039
 31
0.0
  0
LINE
  5
120
100
AcDbEntity
  8
0
  6
CONTINUOUS
 62
               4
100
AcDbLine
 10
-10.050003051757812
 20
66.499979019165039
 30
0.0
 11
-9.5
 21
66.499979019165039
 31
0.0
  0
LINE
  5
121
100
AcDbEntity
  8
0
  6
CONTINUOUS
 62
               4
100
AcDbLine
 10
-10.050003051757812
 20
65.499979019165039
 30
0.0
 11
-9.5
 21
65.499979019165039
 31
0.0
  0
LINE
  5
122
100
AcDbEntity
  8
0
  6
CONTINUOUS
 62
               4
100
AcDbLine
 10
-10.050003051757812
 20
66.499994277954102
 30
0.0
 11
-10.050003051757812
 21
67.499994277954102
 31
0.0
  0
LINE
  5
123
100
AcDbEntity
  8
0
  6
CONTINUOUS
 62
               4
100
AcDbLine
 10
-1.9499969482421875
 20
66.499994277954102
 30
0.0
 11
-1.9499969482421875
 21
67.499994277954102
 31
0.0
  0
LINE
  5
124
100
AcDbEntity
  8
0
  6
CONTINUOUS
 62
               7
100
AcDbLine
 10
-1.0
 20
-27.600011825561523
 30
0.0
 11
-1.0
 21
7.4499912261962891
 31
0.0
  0
LINE
  5
125
100
AcDbEntity
  8
0
  6
CONTINUOUS
 62
               7
100
AcDbLine
 10
-11.0
 20
-27.600011825561523
 30
0.0
 11
-11.0
 21
-18.150026321411133
 31
0.0
  0
LINE
  5
126
100
AcDbEntity
  8
0
  6
CONTINUOUS
 62
               4
100
AcDbLine
 10
-1.100006103515625
 20
67.499994277954102
 30
0.0
 11
-1.100006103515625
 21
73.999979019165039
 31
0.0
  0
LINE
  5
127
100
AcDbEntity
  8
0
  6
CONTINUOUS
 62
               4
100
AcDbLine
 10
-10.900009155273437
 20
67.499994277954102
 30
0.0
 11
-10.900009155273437
 21
73.999979019165039
 31
0.0
  0
LINE
  5
128
100
AcDbEntity
  8
0
  6
CONTINUOUS
 62
               4
100
AcDbLine
 10
-10.0
 20
67.499994277954102
 30
0.0
 11
-10.0
 21
73.999979019165039
 31
0.0
  0
LINE
  5
129
100
AcDbEntity
  8
0
  6
CONTINUOUS
 62
               4
100
AcDbLine
 10
-2.0
 20
67.499994277954102
 30
0.0
 11
-2.0
 21
73.999979019165039
 31
0.0
  0
LINE
  5
12A
100
AcDbEntity
  8
0
  6
CONTINUOUS
 62
               7
100
AcDbLine
 10
-11.0
 20
10.999979019165039
 30
0.0
 11
-1.0
 21
10.999979019165039
 31
0.0
  0
LINE
  5
12B
100
AcDbEntity
  8
0
  6
CONTINUOUS
 62
               7
100
AcDbLine
 10
-7.8000030517578125
 20
-20.800016403198242
 30
0.0
 11
-1.4000091552734375
 21
-20.800016403198242
 31
0.0
  0
LINE
  5
12C
100
AcDbEntity
  8
0
  6
CONTINUOUS
 62
               7
100
AcDbLine
 10
-10.600006103515625
 20
10.799982070922852
 30
0.0
 11
-4.20001220703125
 21
10.799982070922852
 31
0.0
  0
LINE
  5
12D
100
AcDbEntity
  8
0
  6
CONTINUOUS
 62
               7
100
AcDbLine
 10
-3.8000030517578125
 20
7.7999668121337891
 30
0.0
 11
-3.8000030517578125
 21
10.399972915649414
 31
0.0
  0
LINE
  5
12E
100
AcDbEntity
  8
0
  6
CONTINUOUS
 62
               7
100
AcDbLine
 10
-8.1999969482421875
 20
-17.800024032592773
 30
0.0
 11
-8.1999969482421875
 21
-20.400022506713867
 31
0.0
  0
LINE
  5
12F
100
AcDbEntity
  8
0
  6
CONTINUOUS
 62
               7
100
AcDbLine
 10
-9.8000030517578125
 20
-16.200017929077148
 30
0.0
 11
-10.600006103515625
 21
-16.200017929077148
 31
0.0
  0
LINE
  5
130
100
AcDbEntity
  8
0
  6
CONTINUOUS
 62
               7
100
AcDbLine
 10
-2.20001220703125
 20
6.1999759674072266
 30
0.0
 11
-1.4000091552734375
 21
6.1999759674072266
 31
0.0
  0
LINE
  5
131
100
AcDbEntity
  8
0
  6
CONTINUOUS
 62
               7
100
AcDbLine
 10
-2.1161001131913508
 20
-18.88389621330316
 30
0.0
 11
-3.8838668868920649
 21
-17.11612899256761
 31
0.0
  0
LINE
  5
132
100
AcDbEntity
  8
0
  6
CONTINUOUS
 62
               7
100
AcDbLine
 10
-8.1161034481547176
 20
7.1161116633002166
 30
0.0
 11
-9.8838702218554317
 21
8.8838788840357665
 31
0.0
  0
LINE
  5
133
100
AcDbEntity
  8
0
  6
CONTINUOUS
 62
               7
100
AcDbLine
 10
-9.8838828041916713
 20
7.1160901488319723
 30
0.0
 11
-8.1161157324677333
 21
8.8838570715442984
 31
0.0
  0
LINE
  5
134
100
AcDbEntity
  8
0
  6
CONTINUOUS
 62
               7
100
AcDbLine
 10
-3.8838880671855804
 20
-18.883928011601711
 30
0.0
 11
-2.1161102058676988
 21
-17.116150299296351
 31
0.0
  0
LINE
  5
135
100
AcDbEntity
  8
0
  6
CONTINUOUS
 62
               7
100
AcDbLine
 10
-11.000015258789063
 20
-21.000020980834961
 30
0.0
 11
-1.0
 21
-21.000020980834961
 31
0.0
  0
LINE
  5
136
100
AcDbEntity
  8
0
  6
CONTINUOUS
 62
               7
100
AcDbLine
 10
-10.600006103515625
 20
-28.000020980834961
 30
0.0
 11
-1.4000091552734375
 21
-28.000020980834961
 31
0.0
  0
LINE
  5
137
100
AcDbEntity
  8
0
  6
CONTINUOUS
 62
               7
100
AcDbLine
 10
-10.40102909558118
 20
-18.401061059516906
 30
0.0
 11
-9.1989496447276906
 21
-17.198981709991131
 31
0.0
  0
LINE
  5
138
100
AcDbEntity
  8
0
  6
CONTINUOUS
 62
               7
100
AcDbLine
 10
-2.8010325757377359
 20
7.1989323491197865
 30
0.0
 11
-1.5989531248842468
 21
8.4010116986455614
 31
0.0
  0
LINE
  5
139
100
AcDbEntity
  8
0
  6
CONTINUOUS
 62
               7
100
AcDbLine
 10
-2.801023413013354
 20
8.4010445563299072
 30
0.0
 11
-1.5989331725659213
 21
7.1989544172110982
 31
0.0
  0
LINE
  5
13A
100
AcDbEntity
  8
0
  6
CONTINUOUS
 62
               7
100
AcDbLine
 10
-10.401028564531771
 20
-17.198960282532425
 30
0.0
 11
-9.1989491136782817
 21
-18.4010396320582
 31
0.0
  0
LINE
  5
13B
100
AcDbEntity
  8
0
  6
CONTINUOUS
 62
               7
100
AcDbLine
 10
-11.0
 20
-17.450005531311035
 30
0.0
 11
-11.0
 21
29.999979019165039
 31
0.0
  0
LINE
  5
13C
100
AcDbEntity
  8
0
  6
CONTINUOUS
 62
               7
100
AcDbLine
 10
-1.0
 20
8.1499576568603516
 30
0.0
 11
-1.0
 21
29.999979019165039
 31
0.0
  0
LINE
  5
13D
100
AcDbEntity
  8
0
  6
CONTINUOUS
 62
               7
100
AcDbLine
 10
-1.0
 20
11.499979019165039
 30
0.0
 11
0.0
 21
11.499979019165039
 31
0.0
  0
LINE
  5
13E
100
AcDbEntity
  8
0
  6
CONTINUOUS
 62
               7
100
AcDbLine
 10
-1.0
 20
-21.500015258789063
 30
0.0
 11
0.0
 21
-21.500015258789063
 31
0.0
  0
LINE
  5
13F
100
AcDbEntity
  8
0
  6
DASHED
 62
               4
100
AcDbLine
 10
-13.199996948242188
 20
9.4999790191650391
 30
0.0
 11
-13.199996948242188
 21
-37.000020980834961
 31
0.0
  0
LINE
  5
140
100
AcDbEntity
  8
0
  6
DASHED
 62
               4
100
AcDbLine
 10
-13.199996948242188
 20
9.4999790191650391
 30
0.0
 11
-12.0
 21
9.4999790191650391
 31
0.0
  0
LINE
  5
141
100
AcDbEntity
  8
0
  6
DASHED
 62
               4
100
AcDbLine
 10
-12.0
 20
-36.800008773803711
 30
0.0
 11
0.0
 21
-36.800008773803711
 31
0.0
  0
LINE
  5
142
100
AcDbEntity
  8
0
  6
DASHED
 62
               4
100
AcDbLine
 10
-12.199996948242188
 20
-38.000020980834961
 30
0.0
 11
0.0
 21
-38.000020980834961
 31
0.0
  0
LINE
  5
143
100
AcDbEntity
  8
0
  6
DASHED
 62
               4
100
AcDbLine
 10
-12.0
 20
-21.500015258789063
 30
0.0
 11
-12.0
 21
-36.800008773803711
 31
0.0
  0
LINE
  5
144
100
AcDbEntity
  8
0
  6
DASHED
 62
               4
100
AcDbLine
 10
0.0
 20
-36.800008773803711
 30
0.0
 11
0.0
 21
-38.000020980834961
 31
0.0
  0
LINE
  5
145
100
AcDbEntity
  8
0
  6
DASHED
 62
               4
100
AcDbLine
 10
1.871826171875
 20
-12.800021171569824
 30
0.0
 11
0.6999969482421875
 21
-12.800021171569824
 31
0.0
  0
LINE
  5
146
100
AcDbEntity
  8
0
  6
DASHED
 62
               4
100
AcDbLine
 10
1.871826171875
 20
-7.2000207901000977
 30
0.0
 11
0.6999969482421875
 21
-7.2000207901000977
 31
0.0
  0
LINE
  5
147
100
AcDbEntity
  8
0
  6
DASHED
 62
               4
100
AcDbLine
 10
1.871826171875
 20
-2.8000202178955078
 30
0.0
 11
0.6999969482421875
 21
-2.8000202178955078
 31
0.0
  0
LINE
  5
148
100
AcDbEntity
  8
0
  6
DASHED
 62
               4
100
AcDbLine
 10
1.871826171875
 20
2.7999782562255859
 30
0.0
 11
0.6999969482421875
 21
2.7999782562255859
 31
0.0
  0
CIRCLE
  5
149
100
AcDbEntity
  8
0
  6
CONTINUOUS
 62
               7
100
AcDbCircle
 10
-6.0
 20
26.699975967407227
 30
0.0
 40
2.0
  0
CIRCLE
  5
14A
100
AcDbEntity
  8
0
  6
CONTINUOUS
 62
               7
100
AcDbCircle
 10
-6.0
 20
26.699975967407227
 30
0.0
 40
1.9499998092651367
  0
ARC
  5
14B
100
AcDbEntity
  8
0
  6
CONTINUOUS
 62
               4
100
AcDbCircle
 10
-1.5500030517578125
 20
62.499979019165039
 30
0.0
 40
0.5
100
AcDbArc
 50
359.99995901886416
 51
89.999982013910454
  0
ARC
  5
14C
100
AcDbEntity
  8
0
  6
CONTINUOUS
 62
               4
100
AcDbCircle
 10
-10.449996948242187
 20
62.499994277954102
 30
0.0
 40
0.5
100
AcDbArc
 50
89.999982013910454
 51
179.99996402782091
  0
ARC
  5
14D
100
AcDbEntity
  8
0
  6
CONTINUOUS
 62
               7
100
AcDbCircle
 10
-1.4000091552734375
 20
-27.600011825561523
 30
0.0
 40
0.4000000357627869
100
AcDbArc
 50
270.00001798608872
 51
0.00001366037834
  0
ARC
  5
14E
100
AcDbEntity
  8
0
  6
CONTINUOUS
 62
               7
100
AcDbCircle
 10
-10.600006103515625
 20
-27.600011825561523
 30
0.0
 40
0.4000000357627869
100
AcDbArc
 50
179.99996402782091
 51
269.99994604173139
  0
ARC
  5
14F
100
AcDbEntity
  8
0
  6
CONTINUOUS
 62
               7
100
AcDbCircle
 10
-1.399993896484375
 20
11.399972915649414
 30
0.0
 40
0.4000000357627869
100
AcDbArc
 50
270.00001798608872
 51
0.0
  0
ARC
  5
150
100
AcDbEntity
  8
0
  6
CONTINUOUS
 62
               7
100
AcDbCircle
 10
-10.600006103515625
 20
11.399972915649414
 30
0.0
 40
0.4000000357627869
100
AcDbArc
 50
179.99996402782091
 51
270.00000068324471
  0
ARC
  5
151
100
AcDbEntity
  8
0
  6
CONTINUOUS
 62
               7
100
AcDbCircle
 10
-10.600006103515625
 20
-15.800016403198242
 30
0.0
 40
0.4000000357627869
100
AcDbArc
 50
179.99996402782091
 51
270.00000068324471
  0
ARC
  5
152
100
AcDbEntity
  8
0
  6
CONTINUOUS
 62
               7
100
AcDbCircle
 10
-10.600006103515625
 20
10.399972915649414
 30
0.0
 40
0.4000000357627869
100
AcDbArc
 50
89.999982013910454
 51
179.99996402782091
  0
ARC
  5
153
100
AcDbEntity
  8
0
  6
CONTINUOUS
 62
               7
100
AcDbCircle
 10
-4.20001220703125
 20
10.399972915649414
 30
0.0
 40
0.4000000357627869
100
AcDbArc
 50
0.0
 51
89.999982013910454
  0
ARC
  5
154
100
AcDbEntity
  8
0
  6
CONTINUOUS
 62
               7
100
AcDbCircle
 10
-1.4000091552734375
 20
5.7999668121337891
 30
0.0
 40
0.4000000357627869
100
AcDbArc
 50
0.0
 51
89.999982013910454
  0
ARC
  5
155
100
AcDbEntity
  8
0
  6
CONTINUOUS
 62
               7
100
AcDbCircle
 10
-1.4000091552734375
 20
-20.400022506713867
 30
0.0
 40
0.4000000357627869
100
AcDbArc
 50
270.00001798608872
 51
0.0
  0
ARC
  5
156
100
AcDbEntity
  8
0
  6
CONTINUOUS
 62
               7
100
AcDbCircle
 10
-7.8000030517578125
 20
-20.400022506713867
 30
0.0
 40
0.4000000357627869
100
AcDbArc
 50
179.99996402782091
 51
270.00000068324471
  0
ARC
  5
157
100
AcDbEntity
  8
0
  6
CONTINUOUS
 62
               7
100
AcDbCircle
 10
-2.20001220703125
 20
7.7999668121337891
 30
0.0
 40
1.5999994277954102
100
AcDbArc
 50
179.99996402782091
 51
270.00000068324471
  0
ARC
  5
158
100
AcDbEntity
  8
0
  6
CONTINUOUS
 62
               7
100
AcDbCircle
 10
-9.8000030517578125
 20
-17.800016403198242
 30
0.0
 40
1.5999994277954102
100
AcDbArc
 50
0.0
 51
89.999982013910454
  0
CIRCLE
  5
159
100
AcDbEntity
  8
0
  6
CONTINUOUS
 62
               7
100
AcDbCircle
 10
-3.0
 20
-18.000020980834961
 30
0.0
 40
1.3999996185302734
  0
CIRCLE
  5
15A
100
AcDbEntity
  8
0
  6
CONTINUOUS
 62
               7
100
AcDbCircle
 10
-9.0
 20
7.9999790191650391
 30
0.0
 40
1.3999996185302734
  0
CIRCLE
  5
15B
100
AcDbEntity
  8
0
  6
CONTINUOUS
 62
               7
100
AcDbCircle
 10
-3.0
 20
-18.000020980834961
 30
0.0
 40
1.25
  0
CIRCLE
  5
15C
100
AcDbEntity
  8
0
  6
CONTINUOUS
 62
               7
100
AcDbCircle
 10
-9.0
 20
7.9999790191650391
 30
0.0
 40
1.25
  0
CIRCLE
  5
15D
100
AcDbEntity
  8
0
  6
CONTINUOUS
 62
               7
100
AcDbCircle
 10
-2.20001220703125
 20
7.7999820709228516
 30
0.0
 40
1.25
  0
CIRCLE
  5
15E
100
AcDbEntity
  8
0
  6
CONTINUOUS
 62
               7
100
AcDbCircle
 10
-9.8000030517578125
 20
-17.800016403198242
 30
0.0
 40
1.25
  0
ARC
  5
15F
100
AcDbEntity
  8
0
  6
DASHED
 62
               4
100
AcDbCircle
 10
-12.199996948242188
 20
-37.000020980834961
 30
0.0
 40
1.0
100
AcDbArc
 50
179.99998133066492
 51
270.00001798608872
  0
ARC
  5
160
100
AcDbEntity
  8
0
  6
DASHED
 62
               4
100
AcDbCircle
 10
-1.9000091552734375
 20
-10.000021934509277
 30
0.0
 40
5.0
100
AcDbArc
 50
330.50763931485608
 51
29.492333364386468
  0
ARC
  5
161
100
AcDbEntity
  8
0
  6
DASHED
 62
               4
100
AcDbCircle
 10
1.871826171875
 20
-12.133354187011719
 30
0.0
 40
0.6666666865348816
100
AcDbArc
 50
270.00001798608872
 51
330.50763931485608
  0
ARC
  5
162
100
AcDbEntity
  8
0
  6
DASHED
 62
               4
100
AcDbCircle
 10
1.8718109130859375
 20
-7.8666877746582031
 30
0.0
 40
0.6666666865348816
100
AcDbArc
 50
29.492319704008114
 51
89.999982013910454
  0
ARC
  5
163
100
AcDbEntity
  8
0
  6
DASHED
 62
               4
100
AcDbCircle
 10
-1.9000091552734375
 20
-0.0000209808349609
 30
0.0
 40
5.0
100
AcDbArc
 50
330.50763931485608
 51
29.492333364386468
  0
ARC
  5
164
100
AcDbEntity
  8
0
  6
DASHED
 62
               4
100
AcDbCircle
 10
1.871826171875
 20
-2.1333541870117187
 30
0.0
 40
0.6666666865348816
100
AcDbArc
 50
270.00001798608872
 51
330.50763931485608
  0
ARC
  5
165
100
AcDbEntity
  8
0
  6
DASHED
 62
               4
100
AcDbCircle
 10
1.8718109130859375
 20
2.1333122253417969
 30
0.0
 40
0.6666666865348816
100
AcDbArc
 50
29.492319704008114
 51
89.999982013910454
  0
LINE
  5
166
100
AcDbEntity
  8
0
  6
DASHED
 62
               4
100
AcDbLine
 10
0.6999969482421875
 20
-2.9500207901000977
 30
0.0
 11
0.6999969482421875
 21
2.9499788284301758
 31
0.0
  0
LINE
  5
167
100
AcDbEntity
  8
0
  6
DASHED
 62
               4
100
AcDbLine
 10
0.0000035237681004
 20
0.3499756838245958
 30
0.0
 11
0.7000108563697722
 21
0.537542084863162
 31
0.0
  0
LINE
  5
168
100
AcDbEntity
  8
0
  6
DASHED
 62
               4
100
AcDbLine
 10
0.7000133860265123
 20
-0.3500263612813797
 30
0.0
 11
0.0000060102292991
 21
-0.5375927191244045
 31
0.0
  0
LINE
  5
169
100
AcDbEntity
  8
0
  6
DASHED
 62
               4
100
AcDbLine
 10
0.6999969482421875
 20
-2.9500207901000977
 30
0.0
 11
0.0
 21
-2.9500207901000977
 31
0.0
  0
LINE
  5
16A
100
AcDbEntity
  8
0
  6
DASHED
 62
               4
100
AcDbLine
 10
0.6999969482421875
 20
2.9499788284301758
 30
0.0
 11
0.0
 21
2.9499788284301758
 31
0.0
  0
LINE
  5
16B
100
AcDbEntity
  8
0
  6
DASHED
 62
               4
100
AcDbLine
 10
0.6999969482421875
 20
-12.950020790100098
 30
0.0
 11
0.6999969482421875
 21
-7.0500211715698242
 31
0.0
  0
LINE
  5
16C
100
AcDbEntity
  8
0
  6
DASHED
 62
               4
100
AcDbLine
 10
-0.0000022132271624
 20
-9.6500233622373344
 30
0.0
 11
0.7000051193745094
 21
-9.4624569611987681
 31
0.0
  0
LINE
  5
16D
100
AcDbEntity
  8
0
  6
DASHED
 62
               4
100
AcDbLine
 10
0.7000069190262366
 20
-10.35002582881134
 30
0.0
 11
0.0000142820881592
 21
-10.537588237390082
 31
0.0
  0
LINE
  5
16E
100
AcDbEntity
  8
0
  6
DASHED
 62
               4
100
AcDbLine
 10
0.6999969482421875
 20
-12.950020790100098
 30
0.0
 11
0.0
 21
-12.950020790100098
 31
0.0
  0
LINE
  5
16F
100
AcDbEntity
  8
0
  6
DASHED
 62
               4
100
AcDbLine
 10
0.6999969482421875
 20
-7.0500211715698242
 30
0.0
 11
0.0
 21
-7.0500211715698242
 31
0.0
  0
LINE
  5
170
100
AcDbEntity
  8
0
  6
DASHED
 62
               4
100
AcDbLine
 10
-14.399993896484375
 20
1.9999790191650106
 30
0.0
 11
-14.399993896484375
 21
-2.0000209808349894
 31
0.0
  0
LINE
  5
171
100
AcDbEntity
  8
0
  6
DASHED
 62
               4
100
AcDbLine
 10
-13.699996948242188
 20
-2.0000209808349894
 30
0.0
 11
-14.399993896484375
 21
-2.0000209808349894
 31
0.0
  0
LINE
  5
172
100
AcDbEntity
  8
0
  6
DASHED
 62
               4
100
AcDbLine
 10
-13.699996948242188
 20
1.9999790191650106
 30
0.0
 11
-14.399993896484375
 21
1.9999790191650106
 31
0.0
  0
ARC
  5
173
100
AcDbEntity
  8
0
  6
DASHED
 62
               4
100
AcDbCircle
 10
-13.699996948242188
 20
-2.5000209808349609
 30
0.0
 40
0.5
100
AcDbArc
 50
359.99996402782114
 51
89.999982013910454
  0
ARC
  5
174
100
AcDbEntity
  8
0
  6
DASHED
 62
               4
100
AcDbCircle
 10
-13.699996948242188
 20
2.4999790191650391
 30
0.0
 40
0.5
100
AcDbArc
 50
269.99996334457541
 51
359.99996402782114
  0
LINE
  5
175
100
AcDbEntity
  8
0
  6
DASHED
 62
               4
100
AcDbLine
 10
-14.399993896484375
 20
-8.0000209808349894
 30
0.0
 11
-14.399993896484375
 21
-12.000020980834989
 31
0.0
  0
LINE
  5
176
100
AcDbEntity
  8
0
  6
DASHED
 62
               4
100
AcDbLine
 10
-13.699996948242188
 20
-12.000020980834989
 30
0.0
 11
-14.399993896484375
 21
-12.000020980834989
 31
0.0
  0
LINE
  5
177
100
AcDbEntity
  8
0
  6
DASHED
 62
               4
100
AcDbLine
 10
-13.699996948242188
 20
-8.0000209808349894
 30
0.0
 11
-14.399993896484375
 21
-8.0000209808349894
 31
0.0
  0
ARC
  5
178
100
AcDbEntity
  8
0
  6
DASHED
 62
               4
100
AcDbCircle
 10
-13.699996948242188
 20
-12.500020980834961
 30
0.0
 40
0.5
100
AcDbArc
 50
359.99996402782114
 51
89.999982013910454
  0
ARC
  5
179
100
AcDbEntity
  8
0
  6
DASHED
 62
               4
100
AcDbCircle
 10
-13.699996948242188
 20
-7.5000209808349609
 30
0.0
 40
0.5
100
AcDbArc
 50
269.99996334457541
 51
359.99996402782114
  0
LINE
  5
17A
100
AcDbEntity
  8
0
  6
CONTINUOUS
 62
               4
100
AcDbLine
 10
-7.285003662109375
 20
78.173303604125977
 30
0.0
 11
-7.285003662109375
 21
81.999979019165039
 31
0.0
  0
LINE
  5
17B
100
AcDbEntity
  8
0
  6
CONTINUOUS
 62
               4
100
AcDbLine
 10
-8.7150115966796875
 20
77.790140151977539
 30
0.0
 11
-8.7150115966796875
 21
81.999979019165039
 31
0.0
  0
LINE
  5
17C
100
AcDbEntity
  8
0
  6
CONTINUOUS
 62
               4
100
AcDbLine
 10
-8.7150115966796875
 20
81.999979019165039
 30
0.0
 11
-7.285003662109375
 21
81.999979019165039
 31
0.0
  0
LINE
  5
17D
100
AcDbEntity
  8
0
  6
CONTINUOUS
 62
               4
100
AcDbLine
 10
-7.600006103515625
 20
81.999979019165039
 30
0.0
 11
-7.600006103515625
 21
86.999979019165039
 31
0.0
  0
LINE
  5
17E
100
AcDbEntity
  8
0
  6
CONTINUOUS
 62
               4
100
AcDbLine
 10
-8.4000091552734375
 20
81.999979019165039
 30
0.0
 11
-8.4000091552734375
 21
86.999979019165039
 31
0.0
  0
LINE
  5
17F
100
AcDbEntity
  8
0
  6
CONTINUOUS
 62
               4
100
AcDbLine
 10
-8.4000091552734375
 20
86.999979019165039
 30
0.0
 11
-7.600006103515625
 21
86.999979019165039
 31
0.0
  0
LINE
  5
180
100
AcDbEntity
  8
0
  6
CONTINUOUS
 62
               4
100
AcDbLine
 10
-7.285003662109375
 20
73.999979019165039
 30
0.0
 11
-7.285003662109375
 21
77.138025283813477
 31
0.0
  0
LINE
  5
181
100
AcDbEntity
  8
0
  6
CONTINUOUS
 62
               4
100
AcDbLine
 10
-8.7150115966796875
 20
73.999979019165039
 30
0.0
 11
-8.7150115966796875
 21
76.754861831665039
 31
0.0
  0
LINE
  5
182
100
AcDbEntity
  8
0
  6
CONTINUOUS
 62
             200
100
AcDbLine
 10
-10.000008025742318
 20
76.410543690600207
 30
0.0
 11
-6.0
 21
77.482342619799127
 31
0.0
  0
LINE
  5
183
100
AcDbEntity
  8
0
  6
CONTINUOUS
 62
             200
100
AcDbLine
 10
-10.000012718924154
 20
77.445818600096572
 30
0.0
 11
-6.0
 21
78.517618786829786
 31
0.0
  0
LINE
  5
184
100
AcDbEntity
  8
0
  6
CONTINUOUS
 62
               2
100
AcDbLine
 10
-10.5
 20
-10.900015258789068
 30
0.0
 11
-1.5
 21
-10.900015258789068
 31
0.0
  0
LINE
  5
185
100
AcDbEntity
  8
0
  6
CONTINUOUS
 62
               2
100
AcDbLine
 10
-10.5
 20
0.8999847412109432
 30
0.0
 11
-1.5
 21
0.8999847412109432
 31
0.0
  0
LINE
  5
186
100
AcDbEntity
  8
0
  6
CONTINUOUS
 62
               4
100
AcDbLine
 10
-1.0
 20
29.999979019165039
 30
0.0
 11
-1.0
 21
53.999979019165039
 31
0.0
  0
LINE
  5
187
100
AcDbEntity
  8
0
  6
CONTINUOUS
 62
               4
100
AcDbLine
 10
-11.0
 20
29.999979019165039
 30
0.0
 11
-11.0
 21
53.999994277954102
 31
0.0
  0
CIRCLE
  5
188
100
AcDbEntity
  8
0
  6
CONTINUOUS
 62
               2
100
AcDbCircle
 10
-6.0
 20
0.8999847412109432
 30
0.0
 40
2.5
  0
CIRCLE
  5
189
100
AcDbEntity
  8
0
  6
CONTINUOUS
 62
               7
100
AcDbCircle
 10
-6.0
 20
0.8999847412109432
 30
0.0
 40
2.0999994277954102
  0
CIRCLE
  5
18A
100
AcDbEntity
  8
0
  6
CONTINUOUS
 62
               2
100
AcDbCircle
 10
-6.0
 20
-10.900014495849604
 30
0.0
 40
2.5
  0
CIRCLE
  5
18B
100
AcDbEntity
  8
0
  6
CONTINUOUS
 62
               7
100
AcDbCircle
 10
-6.0
 20
-10.900014495849604
 30
0.0
 40
2.0999994277954102
  0
ENDBLK
  5
18C
100
AcDbEntity
  8
0
100
AcDbBlockEnd
  0
BLOCK
  5
18D
100
AcDbEntity
  8
0
100
AcDbBlockBegin
  2
F10T0-4
 70
               0
 10
0.0
 20
0.0
 30
0.0
  3
F10T0-4
  1

  0
LINE
  5
18E
100
AcDbEntity
  8
0
  6
CONTINUOUS
 62
               2
100
AcDbLine
 10
-26.0
 20
-6.0000152587890625
 30
0.0
 11
34.18971935160684
 21
-6.0000152587890625
 31
0.0
  0
LINE
  5
18F
100
AcDbEntity
  8
0
  6
CONTINUOUS
 62
               7
100
AcDbLine
 10
3.4999847412109375
 20
-1.0000152587890625
 30
0.0
 11
3.4999847412109375
 21
-11.000015258789063
 31
0.0
  0
LINE
  5
190
100
AcDbEntity
  8
0
  6
CONTINUOUS
 62
               7
100
AcDbLine
 10
27.5
 20
-1.0000152587890625
 30
0.0
 11
3.4999847412109375
 21
-1.0000152587890625
 31
0.0
  0
LINE
  5
191
100
AcDbEntity
  8
0
  6
CONTINUOUS
 62
               7
100
AcDbLine
 10
27.5
 20
-11.000015258789063
 30
0.0
 11
3.4999847412109375
 21
-11.000015258789063
 31
0.0
  0
LINE
  5
192
100
AcDbEntity
  8
0
  6
CONTINUOUS
 62
               7
100
AcDbLine
 10
27.5
 20
-1.4000091552734375
 30
0.0
 11
27.5
 21
-10.600006103515625
 31
0.0
  0
LINE
  5
193
100
AcDbEntity
  8
0
  6
CONTINUOUS
 62
               7
100
AcDbLine
 10
22.300003051757813
 20
-1.0000152587890625
 30
0.0
 11
22.300003051757813
 21
-2.800018310546875
 31
0.0
  0
LINE
  5
194
100
AcDbEntity
  8
0
  6
CONTINUOUS
 62
               7
100
AcDbLine
 10
19.099990844726563
 20
-1.0000152587890625
 30
0.0
 11
19.099990844726563
 21
-2.800018310546875
 31
0.0
  0
LINE
  5
195
100
AcDbEntity
  8
0
  6
CONTINUOUS
 62
               7
100
AcDbLine
 10
5.29998779296875
 20
-7.600006103515625
 30
0.0
 11
3.4999847412109375
 21
-7.600006103515625
 31
0.0
  0
LINE
  5
196
100
AcDbEntity
  8
0
  6
CONTINUOUS
 62
               7
100
AcDbLine
 10
6.899993896484375
 20
-9.20001220703125
 30
0.0
 11
6.899993896484375
 21
-11.000015258789063
 31
0.0
  0
LINE
  5
197
100
AcDbEntity
  8
0
  6
CONTINUOUS
 62
               7
100
AcDbLine
 10
4.6989515530531207
 20
-8.5989945252404141
 30
0.0
 11
5.9010310039066098
 21
-9.801073874766189
 31
0.0
  0
LINE
  5
198
100
AcDbEntity
  8
0
  6
CONTINUOUS
 62
               7
100
AcDbLine
 10
20.098951556983366
 20
-2.1989819569489555
 30
0.0
 11
21.301041797430798
 21
-3.4010720960677645
 31
0.0
  0
LINE
  5
199
100
AcDbEntity
  8
0
  6
CONTINUOUS
 62
               7
100
AcDbLine
 10
21.301053691098446
 20
-2.1989919540055212
 30
0.0
 11
20.098974442900385
 21
-3.4010715061867245
 31
0.0
  0
LINE
  5
19A
100
AcDbEntity
  8
0
  6
CONTINUOUS
 62
               7
100
AcDbLine
 10
5.9010373679057011
 20
-8.5989795207879069
 30
0.0
 11
4.6989581197076404
 21
-9.8010590729691103
 31
0.0
  0
LINE
  5
19B
100
AcDbEntity
  8
0
  6
DASHED
 62
               4
100
AcDbLine
 10
-25.0
 20
-12.000015258789063
 30
0.0
 11
-5.0
 21
-12.000015258789063
 31
0.0
  0
LINE
  5
19C
100
AcDbEntity
  8
0
  6
DASHED
 62
               4
100
AcDbLine
 10
-25.0
 20
-0.0000152587890625
 30
0.0
 11
-5.0
 21
-0.0000152587890625
 31
0.0
  0
LINE
  5
19D
100
AcDbEntity
  8
0
  6
CONTINUOUS
 62
               7
100
AcDbLine
 10
-5.0
 20
-0.0000152587890625
 30
0.0
 11
-5.0
 21
-12.000015258789063
 31
0.0
  0
LINE
  5
19E
100
AcDbEntity
  8
0
  6
CONTINUOUS
 62
               7
100
AcDbLine
 10
3.0
 20
-0.0000152587890625
 30
0.0
 11
3.0
 21
-12.000015258789063
 31
0.0
  0
LINE
  5
19F
100
AcDbEntity
  8
0
  6
DASHED
 62
               4
100
AcDbLine
 10
-4.0
 20
1.199981689453125
 30
0.0
 11
10.0
 21
1.199981689453125
 31
0.0
  0
LINE
  5
1A0
100
AcDbEntity
  8
0
  6
DASHED
 62
               4
100
AcDbLine
 10
10.0
 20
1.199981689453125
 30
0.0
 11
10.0
 21
-12.000015258789063
 31
0.0
  0
LINE
  5
1A1
100
AcDbEntity
  8
0
  6
DASHED
 62
               4
100
AcDbLine
 10
-25.0
 20
-0.0000152587890625
 30
0.0
 11
-25.0
 21
-12.000015258789063
 31
0.0
  0
LINE
  5
1A2
100
AcDbEntity
  8
0
  6
CONTINUOUS
 62
               7
100
AcDbLine
 10
-5.0
 20
-0.0000152587890625
 30
0.0
 11
3.0
 21
-0.0000152587890625
 31
0.0
  0
LINE
  5
1A3
100
AcDbEntity
  8
0
  6
CONTINUOUS
 62
               7
100
AcDbLine
 10
-5.0
 20
-12.000015258789063
 30
0.0
 11
3.0
 21
-12.000015258789063
 31
0.0
  0
LINE
  5
1A4
100
AcDbEntity
  8
0
  6
DASHED
 62
               4
100
AcDbLine
 10
-4.0
 20
1.199981689453125
 30
0.0
 11
-4.0
 21
-0.0000152587890625
 31
0.0
  0
LINE
  5
1A5
100
AcDbEntity
  8
0
  6
DASHED
 62
               4
100
AcDbLine
 10
3.0
 20
-12.000015258789063
 30
0.0
 11
10.0
 21
-12.000015258789063
 31
0.0
  0
LINE
  5
1A6
100
AcDbEntity
  8
0
  6
DASHED
 62
               4
100
AcDbLine
 10
3.0
 20
-0.0000152587890625
 30
0.0
 11
10.0
 21
-0.0000152587890625
 31
0.0
  0
LINE
  5
1A7
100
AcDbEntity
  8
0
  6
CENTER
 62
             200
100
AcDbLine
 10
-20.0
 20
-3.5000152587890625
 30
0.0
 11
-20.0
 21
-8.5000152587890625
 31
0.0
  0
LINE
  5
1A8
100
AcDbEntity
  8
0
  6
CENTER
 62
             200
100
AcDbLine
 10
-10.0
 20
-3.5000152587890625
 30
0.0
 11
-10.0
 21
-8.5000152587890625
 31
0.0
  0
LINE
  5
1A9
100
AcDbEntity
  8
0
  6
DASHED
 62
               4
100
AcDbLine
 10
-2.8000030517578125
 20
-13.871841430664062
 30
0.0
 11
-2.8000030517578125
 21
-12.70001220703125
 31
0.0
  0
LINE
  5
1AA
100
AcDbEntity
  8
0
  6
DASHED
 62
               4
100
AcDbLine
 10
2.79998779296875
 20
-13.871841430664062
 30
0.0
 11
2.79998779296875
 21
-12.70001220703125
 31
0.0
  0
ARC
  5
1AB
100
AcDbEntity
  8
0
  6
CONTINUOUS
 62
               7
100
AcDbCircle
 10
3.899993896484375
 20
-1.4000091552734375
 30
0.0
 40
0.3999999761581421
100
AcDbArc
 50
89.999982013910454
 51
179.99996402782091
  0
ARC
  5
1AC
100
AcDbEntity
  8
0
  6
CONTINUOUS
 62
               7
100
AcDbCircle
 10
27.099990844726563
 20
-1.4000091552734375
 30
0.0
 40
0.3999999761581421
100
AcDbArc
 50
359.99998633962088
 51
89.999927372397096
  0
ARC
  5
1AD
100
AcDbEntity
  8
0
  6
CONTINUOUS
 62
               7
100
AcDbCircle
 10
3.899993896484375
 20
-10.600006103515625
 30
0.0
 40
0.3999999761581421
100
AcDbArc
 50
180.0000359721783
 51
270.00001798608872
  0
CIRCLE
  5
1AE
100
AcDbEntity
  8
0
  6
CONTINUOUS
 62
               7
100
AcDbCircle
 10
5.29998779296875
 20
-9.20001220703125
 30
0.0
 40
1.25
  0
CIRCLE
  5
1AF
100
AcDbEntity
  8
0
  6
CONTINUOUS
 62
               7
100
AcDbCircle
 10
20.699996948242188
 20
-2.800018310546875
 30
0.0
 40
1.25
  0
ARC
  5
1B0
100
AcDbEntity
  8
0
  6
CONTINUOUS
 62
               7
100
AcDbCircle
 10
5.29998779296875
 20
-9.20001220703125
 30
0.0
 40
1.5999994277954102
100
AcDbArc
 50
359.99998633962088
 51
89.999927372397096
  0
ARC
  5
1B1
100
AcDbEntity
  8
0
  6
CONTINUOUS
 62
               7
100
AcDbCircle
 10
20.699996948242188
 20
-2.800018310546875
 30
0.0
 40
1.5999984741210938
100
AcDbArc
 50
180.0000359721783
 51
359.99998633962088
  0
CIRCLE
  5
1B2
100
AcDbEntity
  8
0
  6
DASHED
 62
               4
100
AcDbCircle
 10
-10.0
 20
-6.0000152587890625
 30
0.0
 40
1.5999994277954102
  0
CIRCLE
  5
1B3
100
AcDbEntity
  8
0
  6
DASHED
 62
               4
100
AcDbCircle
 10
-20.0
 20
-6.0000152587890625
 30
0.0
 40
1.5999994277954102
  0
ARC
  5
1B4
100
AcDbEntity
  8
0
  6
DASHED
 62
               4
100
AcDbCircle
 10
0.0
 20
-10.100006103515625
 30
0.0
 40
5.0
100
AcDbArc
 50
240.5076436405673
 51
299.49233769009686
  0
ARC
  5
1B5
100
AcDbEntity
  8
0
  6
DASHED
 62
               4
100
AcDbCircle
 10
-2.133331298828125
 20
-13.871841430664062
 30
0.0
 40
0.6666666865348816
100
AcDbArc
 50
179.99990938630756
 51
240.50757169620994
  0
ARC
  5
1B6
100
AcDbEntity
  8
0
  6
DASHED
 62
               4
100
AcDbCircle
 10
2.133331298828125
 20
-13.871826171875
 30
0.0
 40
0.6666666865348816
100
AcDbArc
 50
299.49228304858349
 51
359.99994535848583
  0
LINE
  5
1B7
100
AcDbEntity
  8
0
  6
DASHED
 62
               4
100
AcDbLine
 10
-2.9499969482421875
 20
-12.70001220703125
 30
0.0
 11
2.9499969482421875
 21
-12.70001220703125
 31
0.0
  0
LINE
  5
1B8
100
AcDbEntity
  8
0
  6
DASHED
 62
               4
100
AcDbLine
 10
0.3500057440742239
 20
-12.000014001559066
 30
0.0
 11
0.5375721451127902
 21
-12.700021334160738
 31
0.0
  0
LINE
  5
1B9
100
AcDbEntity
  8
0
  6
DASHED
 62
               4
100
AcDbLine
 10
-0.3499908278045041
 20
-12.700023818536465
 30
0.0
 11
-0.537557185647529
 21
-12.000016442739252
 31
0.0
  0
LINE
  5
1BA
100
AcDbEntity
  8
0
  6
DASHED
 62
               4
100
AcDbLine
 10
-2.9499969482421875
 20
-12.70001220703125
 30
0.0
 11
-2.9499969482421875
 21
-12.000015258789063
 31
0.0
  0
LINE
  5
1BB
100
AcDbEntity
  8
0
  6
DASHED
 62
               4
100
AcDbLine
 10
2.9499969482421875
 20
-12.70001220703125
 30
0.0
 11
2.9499969482421875
 21
-12.000015258789063
 31
0.0
  0
LINE
  5
1BC
100
AcDbEntity
  8
0
  6
DASHED
 62
               4
100
AcDbLine
 10
2.0
 20
2.3999786376953125
 30
0.0
 11
-2.0
 21
2.3999786376953125
 31
0.0
  0
LINE
  5
1BD
100
AcDbEntity
  8
0
  6
DASHED
 62
               4
100
AcDbLine
 10
-2.0
 20
1.699981689453125
 30
0.0
 11
-2.0
 21
2.3999786376953125
 31
0.0
  0
LINE
  5
1BE
100
AcDbEntity
  8
0
  6
DASHED
 62
               4
100
AcDbLine
 10
2.0
 20
1.699981689453125
 30
0.0
 11
2.0
 21
2.3999786376953125
 31
0.0
  0
ARC
  5
1BF
100
AcDbEntity
  8
0
  6
DASHED
 62
               4
100
AcDbCircle
 10
-2.5
 20
1.699981689453125
 30
0.0
 40
0.5
100
AcDbArc
 50
269.99996334457541
 51
0.00000068324523
  0
ARC
  5
1C0
100
AcDbEntity
  8
0
  6
DASHED
 62
               4
100
AcDbCircle
 10
2.5
 20
1.699981689453125
 30
0.0
 40
0.5
100
AcDbArc
 50
179.99996402782091
 51
269.99994604173139
  0
ARC
  5
1C1
100
AcDbEntity
  8
0
  6
CONTINUOUS
 62
               7
100
AcDbCircle
 10
27.099999999999994
 20
-10.600015258789057
 30
0.0
 40
0.4
100
AcDbArc
 50
269.99999999999937
 51
0.0
  0
LINE
  5
1C2
100
AcDbEntity
  8
0
  6
CONTINUOUS
 62
               7
100
AcDbLine
 10
30.099990844726563
 20
-1.0000152587890625
 30
0.0
 11
27.099991351762867
 21
-1.0000152587890625
 31
0.0
  0
ARC
  5
1C3
100
AcDbEntity
  8
0
  6
CONTINUOUS
 62
               7
100
AcDbCircle
 10
30.099990844726563
 20
-1.4000091552734375
 30
0.0
 40
0.3999999761581421
100
AcDbArc
 50
359.99998633962088
 51
89.999927372397096
  0
LINE
  5
1C4
100
AcDbEntity
  8
0
  6
CONTINUOUS
 62
               7
100
AcDbLine
 10
30.5
 20
-1.4000091552734375
 30
0.0
 11
30.5
 21
-10.600006103515625
 31
0.0
  0
LINE
  5
1C5
100
AcDbEntity
  8
0
  6
CONTINUOUS
 62
               7
100
AcDbLine
 10
31.5
 20
-4.0500030517578125
 30
0.0
 11
31.5
 21
-7.95001220703125
 31
0.0
  0
LINE
  5
1C6
100
AcDbEntity
  8
0
  6
CONTINUOUS
 62
               7
100
AcDbLine
 10
31.5
 20
-4.050018310546875
 30
0.0
 11
30.5
 21
-4.050018310546875
 31
0.0
  0
LINE
  5
1C7
100
AcDbEntity
  8
0
  6
CONTINUOUS
 62
               7
100
AcDbLine
 10
30.099990844726563
 20
-11.000015258789063
 30
0.0
 11
27.099999999999994
 21
-11.000015258789063
 31
0.0
  0
ARC
  5
1C8
100
AcDbEntity
  8
0
  6
CONTINUOUS
 62
               7
100
AcDbCircle
 10
30.099990844726563
 20
-10.600006103515625
 30
0.0
 40
0.3999999761581421
100
AcDbArc
 50
270.00001798608872
 51
359.99998633962088
  0
LINE
  5
1C9
100
AcDbEntity
  8
0
  6
CONTINUOUS
 62
               7
100
AcDbLine
 10
31.5
 20
-7.95001220703125
 30
0.0
 11
30.5
 21
-7.95001220703125
 31
0.0
  0
LINE
  5
1CA
100
AcDbEntity
  8
0
  6
CONTINUOUS
 62
               7
100
AcDbLine
 10
2.9999843637214676
 20
-1.0000152587890767
 30
0.0
 11
2.9999851187004074
 21
-11.000015258789048
 31
0.0
  0
LINE
  5
1CB
100
AcDbEntity
  8
0
  6
CONTINUOUS
 62
               7
100
AcDbLine
 10
3.4999843637214663
 20
-1.0000152210401296
 30
0.0
 11
3.4999851187004061
 21
-11.000015221040101
 31
0.0
  0
LINE
  5
1CC
100
AcDbEntity
  8
0
  6
CONTINUOUS
 62
               7
100
AcDbLine
 10
3.4999843637214663
 20
-1.0000152210401296
 30
0.0
 11
2.9999843637214676
 21
-1.0000152587890767
 31
0.0
  0
LINE
  5
1CD
100
AcDbEntity
  8
0
  6
CONTINUOUS
 62
               7
100
AcDbLine
 10
3.4999851187004061
 20
-11.000015221040101
 30
0.0
 11
2.9999851187004074
 21
-11.000015258789048
 31
0.0
  0
ENDBLK
  5
1CE
100
AcDbEntity
  8
0
100
AcDbBlockEnd
  0
BLOCK
  5
1CF
100
AcDbEntity
  8
0
100
AcDbBlockBegin
  2
F10T0-5
 70
               0
 10
0.0
 20
0.0
 30
0.0
  3
F10T0-5
  1

  0
LINE
  5
1D0
100
AcDbEntity
  8
0
  6
CONTINUOUS
 62
               2
100
AcDbLine
 10
5.0
 20
-3.993021663302784
 30
0.0
 11
5.0
 21
36.0
 31
0.0
  0
LINE
  5
1D1
100
AcDbEntity
  8
0
  6
CONTINUOUS
 62
               4
100
AcDbLine
 10
10.0
 20
0.0
 30
0.0
 11
10.0
 21
24.0
 31
0.0
  0
LINE
  5
1D2
100
AcDbEntity
  8
0
  6
CONTINUOUS
 62
               4
100
AcDbLine
 10
0.0
 20
0.0
 30
0.0
 11
0.0
 21
24.000015258789063
 31
0.0
  0
LINE
  5
1D3
100
AcDbEntity
  8
0
  6
CONTINUOUS
 62
               4
100
AcDbLine
 10
-0.0000152587890625
 20
24.0
 30
0.0
 11
9.9999847412109375
 21
24.0
 31
0.0
  0
LINE
  5
1D4
100
AcDbEntity
  8
0
  6
CONTINUOUS
 62
               4
100
AcDbLine
 10
0.04998779296875
 20
24.000015258789063
 30
0.0
 11
0.04998779296875
 21
32.500015258789063
 31
0.0
  0
LINE
  5
1D5
100
AcDbEntity
  8
0
  6
CONTINUOUS
 62
               4
100
AcDbLine
 10
9.5
 20
33.0
 30
0.0
 11
0.5
 21
33.0
 31
0.0
  0
LINE
  5
1D6
100
AcDbEntity
  8
0
  6
CONTINUOUS
 62
               4
100
AcDbLine
 10
9.949981689453125
 20
28.5
 30
0.0
 11
0.04998779296875
 21
28.5
 31
0.0
  0
LINE
  5
1D7
100
AcDbEntity
  8
0
  6
CONTINUOUS
 62
               4
100
AcDbLine
 10
9.949981689453125
 20
24.0
 30
0.0
 11
9.949981689453125
 21
32.5
 31
0.0
  0
ARC
  5
1D8
100
AcDbEntity
  8
0
  6
CONTINUOUS
 62
               4
100
AcDbCircle
 10
9.4499969482421875
 20
32.5
 30
0.0
 40
0.5
100
AcDbArc
 50
359.99995901886416
 51
89.999982013910454
  0
ARC
  5
1D9
100
AcDbEntity
  8
0
  6
CONTINUOUS
 62
               4
100
AcDbCircle
 10
0.54998779296875
 20
32.500015258789063
 30
0.0
 40
0.5
100
AcDbArc
 50
89.999982013910454
 51
179.99996402782091
  0
ENDBLK
  5
1DA
100
AcDbEntity
  8
0
100
AcDbBlockEnd
  0
BLOCK
  5
1DB
100
AcDbEntity
  8
0
100
AcDbBlockBegin
  2
F10T0-6
 70
               0
 10
0.0
 20
0.0
 30
0.0
  3
F10T0-6
  1

  0
LINE
  5
1DC
100
AcDbEntity
  8
0
  6
CONTINUOUS
 62
               4
100
AcDbLine
 10
-0.0000000543138867
 20
16.999994913736941
 30
0.0
 11
0.0
 21
0.0
 31
0.0
  0
LINE
  5
1DD
100
AcDbEntity
  8
0
  6
CONTINUOUS
 62
               4
100
AcDbLine
 10
26.999999923321639
 20
23.999995000000013
 30
0.0
 11
27.0
 21
-0.0000049999999874
 31
0.0
  0
LINE
  5
1DE
100
AcDbEntity
  8
0
  6
CONTINUOUS
 62
               4
100
AcDbLine
 10
11.999999932906462
 20
20.999995047923903
 30
0.0
 11
11.999999990415176
 21
2.9999950479239033
 31
0.0
  0
LINE
  5
1DF
100
AcDbEntity
  8
0
  6
CONTINUOUS
 62
               4
100
AcDbLine
 10
4.9999999329064622
 20
20.999995070288406
 30
0.0
 11
4.9999999904151764
 21
2.9999950702884064
 31
0.0
  0
LINE
  5
1E0
100
AcDbEntity
  8
0
  6
CONTINUOUS
 62
               4
100
AcDbLine
 10
4.9999999329064622
 20
20.999995070288406
 30
0.0
 11
13.999999932906462
 21
20.999995041534078
 31
0.0
  0
LINE
  5
1E1
100
AcDbEntity
  8
0
  6
CONTINUOUS
 62
               4
100
AcDbLine
 10
4.9999999904151764
 20
2.9999950702884064
 30
0.0
 11
13.999999990415176
 21
2.9999950415340777
 31
0.0
  0
LINE
  5
1E2
100
AcDbEntity
  8
0
  6
CONTINUOUS
 62
               4
100
AcDbLine
 10
-29.500000060863385
 20
19.049997871244386
 30
0.0
 11
-29.500000063419407
 21
19.850000923002199
 31
0.0
  0
LINE
  5
1E3
100
AcDbEntity
  8
0
  6
CONTINUOUS
 62
               4
100
AcDbLine
 10
-29.500000071406703
 20
22.350000923002199
 30
0.0
 11
-29.500000068850795
 21
21.549997871244386
 31
0.0
  0
LINE
  5
1E4
100
AcDbEntity
  8
0
  6
CONTINUOUS
 62
               4
100
AcDbLine
 10
-20.491119457178797
 20
22.665018651980233
 30
0.0
 11
-24.500015331202235
 21
22.665018639172104
 31
0.0
  0
LINE
  5
1E5
100
AcDbEntity
  8
0
  6
CONTINUOUS
 62
               4
100
AcDbLine
 10
-20.874298163547564
 20
21.235010716185684
 30
0.0
 11
-24.500015326633502
 21
21.235010704601791
 31
0.0
  0
LINE
  5
1E6
100
AcDbEntity
  8
0
  6
CONTINUOUS
 62
               4
100
AcDbLine
 10
-21.160995547824314
 20
20.165018649840022
 30
0.0
 11
-24.500015323214939
 21
20.165018639172104
 31
0.0
  0
LINE
  5
1E7
100
AcDbEntity
  8
0
  6
CONTINUOUS
 62
               4
100
AcDbLine
 10
-21.544174254192967
 20
18.735010714045501
 30
0.0
 11
-24.500015318646092
 21
18.735010704601791
 31
0.0
  0
LINE
  5
1E8
100
AcDbEntity
  8
0
  6
CONTINUOUS
 62
               4
100
AcDbLine
 10
-16.500000052716359
 20
16.499994861020639
 30
0.0
 11
-16.500000081470716
 21
25.499994861020639
 31
0.0
  0
LINE
  5
1E9
100
AcDbEntity
  8
0
  6
CONTINUOUS
 62
               4
100
AcDbLine
 10
-10.000000081310986
 20
25.449991830029887
 30
0.0
 11
-10.000000081470716
 21
25.4999948817877
 31
0.0
  0
LINE
  5
1EA
100
AcDbEntity
  8
0
  6
CONTINUOUS
 62
               4
100
AcDbLine
 10
-16.500000083315285
 20
26.077341662778451
 30
0.0
 11
-16.500000087860599
 21
27.499994861020639
 31
0.0
  0
LINE
  5
1EB
100
AcDbEntity
  8
0
  6
CONTINUOUS
 62
               4
100
AcDbLine
 10
-5.9984589437754039
 20
25.499994894572296
 30
0.0
 11
-5.9984589469703451
 21
26.499994894572296
 31
0.0
  0
LINE
  5
1EC
100
AcDbEntity
  8
0
  6
CONTINUOUS
 62
               4
100
AcDbLine
 10
-15.000000086263071
 20
26.999994865813051
 30
0.0
 11
-15.000000087860599
 21
27.499994865813051
 31
0.0
  0
LINE
  5
1ED
100
AcDbEntity
  8
0
  6
CONTINUOUS
 62
               4
100
AcDbLine
 10
-10.000000054313887
 20
16.999994881787671
 30
0.0
 11
-15.500000054313887
 21
16.99999486421558
 31
0.0
  0
LINE
  5
1EE
100
AcDbEntity
  8
0
  6
CONTINUOUS
 62
               4
100
AcDbLine
 10
-15.500000052716359
 20
16.49999486421558
 30
0.0
 11
-16.500000052716359
 21
16.499994861020639
 31
0.0
  0
LINE
  5
1EF
100
AcDbEntity
  8
0
  6
CONTINUOUS
 62
               4
100
AcDbLine
 10
-15.500000052716359
 20
16.49999486421558
 30
0.0
 11
-15.500000054313887
 21
16.99999486421558
 31
0.0
  0
LINE
  5
1F0
100
AcDbEntity
  8
0
  6
CONTINUOUS
 62
               4
100
AcDbLine
 10
-9.5561524300130714
 20
26.999994883205716
 30
0.0
 11
-15.000000086263071
 21
26.999994865813051
 31
0.0
  0
LINE
  5
1F1
100
AcDbEntity
  8
0
  6
CONTINUOUS
 62
               4
100
AcDbLine
 10
-5.998454664134556
 20
26.500066042129163
 30
0.0
 11
-9.5561427494208147
 21
27.000065353778382
 31
0.0
  0
LINE
  5
1F2
100
AcDbEntity
  8
0
  6
CONTINUOUS
 62
               4
100
AcDbLine
 10
-10.000000081470716
 20
25.4999948817877
 30
0.0
 11
-16.500000081470716
 21
25.499994861020639
 31
0.0
  0
LINE
  5
1F3
100
AcDbEntity
  8
0
  6
CONTINUOUS
 62
               4
100
AcDbLine
 10
-15.500000039649422
 20
25.49997330330217
 30
0.0
 11
-16.499994293078089
 21
26.077319620089327
 31
0.0
  0
LINE
  5
1F4
100
AcDbEntity
  8
0
  6
CONTINUOUS
 62
               4
100
AcDbLine
 10
-15.000000087860599
 20
27.499994865813051
 30
0.0
 11
-16.500000087860599
 21
27.499994861020639
 31
0.0
  0
LINE
  5
1F5
100
AcDbEntity
  8
0
  6
CONTINUOUS
 62
               4
100
AcDbLine
 10
-16.500000072413172
 20
22.665018664731576
 30
0.0
 11
-19.455841136866297
 21
22.665018655287895
 31
0.0
  0
LINE
  5
1F6
100
AcDbEntity
  8
0
  6
CONTINUOUS
 62
               4
100
AcDbLine
 10
-16.500000067844439
 20
21.235010730161264
 30
0.0
 11
-19.839019843235064
 21
21.235010719493346
 31
0.0
  0
LINE
  5
1F7
100
AcDbEntity
  8
0
  6
CONTINUOUS
 62
               4
100
AcDbLine
 10
-16.50000005985703
 20
18.735010730161264
 30
0.0
 11
-20.508895933880467
 21
18.735010717353134
 31
0.0
  0
LINE
  5
1F8
100
AcDbEntity
  8
0
  6
CONTINUOUS
 62
               4
100
AcDbLine
 10
-16.500000064425876
 20
20.165018664731576
 30
0.0
 11
-20.125717227511814
 21
20.165018653147683
 31
0.0
  0
LINE
  5
1F9
100
AcDbEntity
  8
0
  6
CONTINUOUS
 62
             200
100
AcDbLine
 10
-19.053935784438522
 20
24.165001111688809
 30
0.0
 11
-20.91082891522467
 21
17.234981572889239
 31
0.0
  0
LINE
  5
1FA
100
AcDbEntity
  8
0
  6
CONTINUOUS
 62
             200
100
AcDbLine
 10
-20.089214643199966
 20
24.164991062704814
 30
0.0
 11
-21.946103824721149
 21
17.234986262763471
 31
0.0
  0
LINE
  5
1FB
100
AcDbEntity
  8
0
  6
CONTINUOUS
 62
               4
100
AcDbLine
 10
26.99999990995093
 20
28.184995000159745
 30
0.0
 11
26.999999923321639
 21
23.999995000159743
 31
0.0
  0
LINE
  5
1FC
100
AcDbEntity
  8
0
  6
CONTINUOUS
 62
               4
100
AcDbLine
 10
24.67499989456735
 20
32.999994992731558
 30
0.0
 11
-2.7000001054326503
 21
32.999994905270398
 31
0.0
  0
LINE
  5
1FD
100
AcDbEntity
  8
0
  6
CONTINUOUS
 62
               4
100
AcDbLine
 10
12.249999921724225
 20
24.499994953034559
 30
0.0
 11
12.249999923321639
 21
23.999994953034559
 31
0.0
  0
LINE
  5
1FE
100
AcDbEntity
  8
0
  6
CONTINUOUS
 62
               4
100
AcDbLine
 10
14.749999921724225
 20
24.499994961021912
 30
0.0
 11
14.749999923321639
 21
23.999994961021912
 31
0.0
  0
LINE
  5
1FF
100
AcDbEntity
  8
0
  6
CONTINUOUS
 62
               4
100
AcDbLine
 10
14.749999921724225
 20
24.499994961021912
 30
0.0
 11
12.249999921724225
 21
24.499994953034559
 31
0.0
  0
LINE
  5
200
100
AcDbEntity
  8
0
  6
CONTINUOUS
 62
               4
100
AcDbLine
 10
25.129999895509854
 20
32.704994994185199
 30
0.0
 11
26.869999908017917
 21
28.789994999744408
 31
0.0
  0
ARC
  5
201
100
AcDbEntity
  8
0
  6
CONTINUOUS
 62
               4
100
AcDbCircle
 10
24.675687760030769
 20
32.50266610481134
 30
0.0
 40
0.4973293636201366
100
AcDbArc
 50
24.00590377169268
 51
90.079246880189572
  0
ARC
  5
202
100
AcDbEntity
  8
0
  6
CONTINUOUS
 62
               4
100
AcDbCircle
 10
25.501123858282654
 20
28.179389397487967
 30
0.0
 40
1.4988865337462252
100
AcDbArc
 50
0.2142778096817974
 51
24.039904626290507
  0
LINE
  5
203
100
AcDbEntity
  8
0
  6
CONTINUOUS
 62
               4
100
AcDbLine
 10
19.899999915653893
 20
26.399994977475785
 30
0.0
 11
19.899999918688991
 21
25.44999497747574
 31
0.0
  0
LINE
  5
204
100
AcDbEntity
  8
0
  6
CONTINUOUS
 62
               4
100
AcDbLine
 10
6.9999999156538024
 20
26.39999493626118
 30
0.0
 11
6.9999999186890136
 21
25.449994936261191
 31
0.0
  0
LINE
  5
205
100
AcDbEntity
  8
0
  6
CONTINUOUS
 62
               4
100
AcDbLine
 10
21.999999915653916
 20
26.399994984185128
 30
0.0
 11
19.899999915653893
 21
26.399994977475785
 31
0.0
  0
LINE
  5
206
100
AcDbEntity
  8
0
  6
CONTINUOUS
 62
               4
100
AcDbLine
 10
6.9999999156538024
 20
26.39999493626118
 30
0.0
 11
4.8999999156538934
 21
26.399994929551838
 31
0.0
  0
LINE
  5
207
100
AcDbEntity
  8
0
  6
CONTINUOUS
 62
               4
100
AcDbLine
 10
21.999999915653916
 20
26.399994984185128
 30
0.0
 11
21.999999918689014
 21
25.449994984185082
 31
0.0
  0
LINE
  5
208
100
AcDbEntity
  8
0
  6
CONTINUOUS
 62
               4
100
AcDbLine
 10
4.8999999156538934
 20
26.399994929551838
 30
0.0
 11
4.8999999186889909
 21
25.449994929551849
 31
0.0
  0
LINE
  5
209
100
AcDbEntity
  8
0
  6
CONTINUOUS
 62
               4
100
AcDbLine
 10
6.9999999186890136
 20
25.449994936261191
 30
0.0
 11
4.8999999186889909
 21
25.449994929551849
 31
0.0
  0
LINE
  5
20A
100
AcDbEntity
  8
0
  6
CONTINUOUS
 62
               4
100
AcDbLine
 10
21.999999918689014
 20
25.449994984185082
 30
0.0
 11
19.899999918688991
 21
25.44999497747574
 31
0.0
  0
LINE
  5
20B
100
AcDbEntity
  8
0
  6
CONTINUOUS
 62
               4
100
AcDbLine
 10
1.4999999182098236
 20
25.599994918689106
 30
0.0
 11
1.4999999233216386
 21
23.999994918689083
 31
0.0
  0
LINE
  5
20C
100
AcDbEntity
  8
0
  6
CONTINUOUS
 62
               4
100
AcDbLine
 10
-3.2000001038352366
 20
32.499994903672928
 30
0.0
 11
-3.2000000817902219
 21
25.59999490367295
 31
0.0
  0
ARC
  5
20D
100
AcDbEntity
  8
0
  6
CONTINUOUS
 62
               4
100
AcDbCircle
 10
-2.7015405538584218
 20
32.50153535528375
 30
0.0
 40
0.4984619302958243
100
AcDbArc
 50
89.822932648453786
 51
180.17706771765785
  0
LINE
  5
20E
100
AcDbEntity
  8
0
  6
CONTINUOUS
 62
               4
100
AcDbLine
 10
1.4999999182098236
 20
25.599994918689106
 30
0.0
 11
-3.2000000817902219
 21
25.59999490367295
 31
0.0
  0
LINE
  5
20F
100
AcDbEntity
  8
0
  6
CONTINUOUS
 62
               4
100
AcDbLine
 10
14.294999923321711
 20
23.999994959408468
 30
0.0
 11
12.794999923321711
 21
23.999994954616056
 31
0.0
  0
LINE
  5
210
100
AcDbEntity
  8
0
  6
CONTINUOUS
 62
               4
100
AcDbLine
 10
26.999999923321639
 20
23.999995000000013
 30
0.0
 11
1.3999999233216158
 21
23.999994918209836
 31
0.0
  0
LINE
  5
211
100
AcDbEntity
  8
0
  6
CONTINUOUS
 62
               4
100
AcDbLine
 10
14.630001816357208
 20
24.499994960638503
 30
0.0
 11
14.6000011297117
 21
24.499994960542665
 31
0.0
  0
LINE
  5
212
100
AcDbEntity
  8
0
  6
CONTINUOUS
 62
               4
100
AcDbLine
 10
12.300006025239782
 20
24.499994953194346
 30
0.0
 11
12.270002159679962
 21
24.499994953098451
 31
0.0
  0
LINE
  5
213
100
AcDbEntity
  8
0
  6
CONTINUOUS
 62
               4
100
AcDbLine
 10
13.700010094250274
 20
24.499994957667241
 30
0.0
 11
13.199994199678258
 21
24.499994956069713
 31
0.0
  0
LINE
  5
214
100
AcDbEntity
  8
0
  6
CONTINUOUS
 62
               4
100
AcDbLine
 10
-10.000000054313887
 20
16.999994881787671
 30
0.0
 11
1.3999999456862042
 21
16.999994918209836
 31
0.0
  0
LINE
  5
215
100
AcDbEntity
  8
0
  6
CONTINUOUS
 62
               4
100
AcDbLine
 10
-10.000000081470716
 20
25.4999948817877
 30
0.0
 11
1.3999999185292609
 21
25.499994918209836
 31
0.0
  0
LINE
  5
216
100
AcDbEntity
  8
0
  6
CONTINUOUS
 62
               4
100
AcDbLine
 10
-10.000000081470716
 20
25.4999948817877
 30
0.0
 11
-10.000000054313887
 21
16.999994881787671
 31
0.0
  0
LINE
  5
217
100
AcDbEntity
  8
0
  6
CONTINUOUS
 62
               4
100
AcDbLine
 10
1.3999999456862042
 20
16.999994918209836
 30
0.0
 11
1.3999999185292609
 21
25.499994913918329
 31
0.0
  0
LINE
  5
218
100
AcDbEntity
  8
0
  6
CONTINUOUS
 62
               4
100
AcDbLine
 10
-24.50000005985703
 20
18.734995445812785
 30
0.0
 11
-24.500000064425876
 21
20.165003380383098
 31
0.0
  0
LINE
  5
219
100
AcDbEntity
  8
0
  6
CONTINUOUS
 62
               4
100
AcDbLine
 10
-24.500000072413059
 20
22.665003380383098
 30
0.0
 11
-24.500000067844326
 21
21.234995445812785
 31
0.0
  0
LINE
  5
21A
100
AcDbEntity
  8
0
  6
CONTINUOUS
 62
               4
100
AcDbLine
 10
-24.500015327639858
 20
21.549997887218979
 30
0.0
 11
-29.500000068850795
 21
21.549997871244386
 31
0.0
  0
LINE
  5
21B
100
AcDbEntity
  8
0
  6
CONTINUOUS
 62
               4
100
AcDbLine
 10
-24.500015330195765
 20
22.350000938976791
 30
0.0
 11
-29.500000071406703
 21
22.350000923002199
 31
0.0
  0
LINE
  5
21C
100
AcDbEntity
  8
0
  6
CONTINUOUS
 62
               4
100
AcDbLine
 10
-24.500015319652448
 20
19.049997887218979
 30
0.0
 11
-29.500000060863385
 21
19.049997871244386
 31
0.0
  0
LINE
  5
21D
100
AcDbEntity
  8
0
  6
CONTINUOUS
 62
               4
100
AcDbLine
 10
-24.500015322208469
 20
19.850000938976791
 30
0.0
 11
-29.500000063419407
 21
19.850000923002199
 31
0.0
  0
ENDBLK
  5
21E
100
AcDbEntity
  8
0
100
AcDbBlockEnd
  0
BLOCK
  5
21F
100
AcDbEntity
  8
0
100
AcDbBlockBegin
  2
F10T0-7
 70
               0
 10
0.0
 20
0.0
 30
0.0
  3
F10T0-7
  1

  0
LINE
  5
220
100
AcDbEntity
  8
0
  6
CONTINUOUS
 62
               4
100
AcDbLine
 10
-26.999999923321639
 20
23.999995000000013
 30
0.0
 11
-27.0
 21
-0.0000049999999874
 31
0.0
  0
LINE
  5
221
100
AcDbEntity
  8
0
  6
CONTINUOUS
 62
               4
100
AcDbLine
 10
0.0000000543138867
 20
16.999994913736941
 30
0.0
 11
0.0
 21
0.0
 31
0.0
  0
LINE
  5
222
100
AcDbEntity
  8
0
  6
CONTINUOUS
 62
               4
100
AcDbLine
 10
24.500015322208469
 20
19.850000938976791
 30
0.0
 11
29.500000063419407
 21
19.850000923002199
 31
0.0
  0
LINE
  5
223
100
AcDbEntity
  8
0
  6
CONTINUOUS
 62
               4
100
AcDbLine
 10
24.500015319652448
 20
19.049997887218979
 30
0.0
 11
29.500000060863385
 21
19.049997871244386
 31
0.0
  0
LINE
  5
224
100
AcDbEntity
  8
0
  6
CONTINUOUS
 62
               4
100
AcDbLine
 10
24.500015330195765
 20
22.350000938976791
 30
0.0
 11
29.500000071406703
 21
22.350000923002199
 31
0.0
  0
LINE
  5
225
100
AcDbEntity
  8
0
  6
CONTINUOUS
 62
               4
100
AcDbLine
 10
24.500015327639858
 20
21.549997887218979
 30
0.0
 11
29.500000068850795
 21
21.549997871244386
 31
0.0
  0
LINE
  5
226
100
AcDbEntity
  8
0
  6
CONTINUOUS
 62
               4
100
AcDbLine
 10
24.500000072413059
 20
22.665003380383098
 30
0.0
 11
24.500000067844326
 21
21.234995445812785
 31
0.0
  0
LINE
  5
227
100
AcDbEntity
  8
0
  6
CONTINUOUS
 62
               4
100
AcDbLine
 10
24.50000005985703
 20
18.734995445812785
 30
0.0
 11
24.500000064425876
 21
20.165003380383098
 31
0.0
  0
LINE
  5
228
100
AcDbEntity
  8
0
  6
CONTINUOUS
 62
               4
100
AcDbLine
 10
-1.3999999456862042
 20
16.999994918209836
 30
0.0
 11
-1.3999999185292609
 21
25.499994913918329
 31
0.0
  0
LINE
  5
229
100
AcDbEntity
  8
0
  6
CONTINUOUS
 62
               4
100
AcDbLine
 10
10.000000081470716
 20
25.4999948817877
 30
0.0
 11
10.000000054313887
 21
16.999994881787671
 31
0.0
  0
LINE
  5
22A
100
AcDbEntity
  8
0
  6
CONTINUOUS
 62
               4
100
AcDbLine
 10
10.000000081470716
 20
25.4999948817877
 30
0.0
 11
-1.3999999185292609
 21
25.499994918209836
 31
0.0
  0
LINE
  5
22B
100
AcDbEntity
  8
0
  6
CONTINUOUS
 62
               4
100
AcDbLine
 10
10.000000054313887
 20
16.999994881787671
 30
0.0
 11
-1.3999999456862042
 21
16.999994918209836
 31
0.0
  0
LINE
  5
22C
100
AcDbEntity
  8
0
  6
CONTINUOUS
 62
               4
100
AcDbLine
 10
-13.700010094250274
 20
24.499994957667241
 30
0.0
 11
-13.199994199678258
 21
24.499994956069713
 31
0.0
  0
LINE
  5
22D
100
AcDbEntity
  8
0
  6
CONTINUOUS
 62
               4
100
AcDbLine
 10
-12.300006025239782
 20
24.499994953194346
 30
0.0
 11
-12.270002159679962
 21
24.499994953098451
 31
0.0
  0
LINE
  5
22E
100
AcDbEntity
  8
0
  6
CONTINUOUS
 62
               4
100
AcDbLine
 10
-14.630001816357208
 20
24.499994960638503
 30
0.0
 11
-14.6000011297117
 21
24.499994960542665
 31
0.0
  0
LINE
  5
22F
100
AcDbEntity
  8
0
  6
CONTINUOUS
 62
               4
100
AcDbLine
 10
-26.999999923321639
 20
23.999995000000013
 30
0.0
 11
-1.3999999233216158
 21
23.999994918209836
 31
0.0
  0
LINE
  5
230
100
AcDbEntity
  8
0
  6
CONTINUOUS
 62
               4
100
AcDbLine
 10
-14.294999923321711
 20
23.999994959408468
 30
0.0
 11
-12.794999923321711
 21
23.999994954616056
 31
0.0
  0
LINE
  5
231
100
AcDbEntity
  8
0
  6
CONTINUOUS
 62
               4
100
AcDbLine
 10
-1.4999999182098236
 20
25.599994918689106
 30
0.0
 11
3.2000000817902219
 21
25.59999490367295
 31
0.0
  0
ARC
  5
232
100
AcDbEntity
  8
0
  6
CONTINUOUS
 62
               4
100
AcDbCircle
 10
2.7015405538584218
 20
32.50153535528375
 30
0.0
 40
0.4984619302958243
100
AcDbArc
 50
359.82293228234096
 51
90.177067351545816
  0
LINE
  5
233
100
AcDbEntity
  8
0
  6
CONTINUOUS
 62
               4
100
AcDbLine
 10
3.2000001038352366
 20
32.499994903672928
 30
0.0
 11
3.2000000817902219
 21
25.59999490367295
 31
0.0
  0
LINE
  5
234
100
AcDbEntity
  8
0
  6
CONTINUOUS
 62
               4
100
AcDbLine
 10
-1.4999999182098236
 20
25.599994918689106
 30
0.0
 11
-1.4999999233216386
 21
23.999994918689083
 31
0.0
  0
LINE
  5
235
100
AcDbEntity
  8
0
  6
CONTINUOUS
 62
               4
100
AcDbLine
 10
-21.999999918689014
 20
25.449994984185082
 30
0.0
 11
-19.899999918688991
 21
25.44999497747574
 31
0.0
  0
LINE
  5
236
100
AcDbEntity
  8
0
  6
CONTINUOUS
 62
               4
100
AcDbLine
 10
-6.9999999186890136
 20
25.449994936261191
 30
0.0
 11
-4.8999999186889909
 21
25.449994929551849
 31
0.0
  0
LINE
  5
237
100
AcDbEntity
  8
0
  6
CONTINUOUS
 62
               4
100
AcDbLine
 10
-4.8999999156538934
 20
26.399994929551838
 30
0.0
 11
-4.8999999186889909
 21
25.449994929551849
 31
0.0
  0
LINE
  5
238
100
AcDbEntity
  8
0
  6
CONTINUOUS
 62
               4
100
AcDbLine
 10
-21.999999915653916
 20
26.399994984185128
 30
0.0
 11
-21.999999918689014
 21
25.449994984185082
 31
0.0
  0
LINE
  5
239
100
AcDbEntity
  8
0
  6
CONTINUOUS
 62
               4
100
AcDbLine
 10
-6.9999999156538024
 20
26.39999493626118
 30
0.0
 11
-4.8999999156538934
 21
26.399994929551838
 31
0.0
  0
LINE
  5
23A
100
AcDbEntity
  8
0
  6
CONTINUOUS
 62
               4
100
AcDbLine
 10
-21.999999915653916
 20
26.399994984185128
 30
0.0
 11
-19.899999915653893
 21
26.399994977475785
 31
0.0
  0
LINE
  5
23B
100
AcDbEntity
  8
0
  6
CONTINUOUS
 62
               4
100
AcDbLine
 10
-6.9999999156538024
 20
26.39999493626118
 30
0.0
 11
-6.9999999186890136
 21
25.449994936261191
 31
0.0
  0
LINE
  5
23C
100
AcDbEntity
  8
0
  6
CONTINUOUS
 62
               4
100
AcDbLine
 10
-19.899999915653893
 20
26.399994977475785
 30
0.0
 11
-19.899999918688991
 21
25.44999497747574
 31
0.0
  0
ARC
  5
23D
100
AcDbEntity
  8
0
  6
CONTINUOUS
 62
               4
100
AcDbCircle
 10
-25.501123858282654
 20
28.179389397487967
 30
0.0
 40
1.4988865337462252
100
AcDbArc
 50
155.96009537370909
 51
179.78572219031781
  0
ARC
  5
23E
100
AcDbEntity
  8
0
  6
CONTINUOUS
 62
               4
100
AcDbCircle
 10
-24.675687760030769
 20
32.50266610481134
 30
0.0
 40
0.4973293636201366
100
AcDbArc
 50
89.92075311981003
 51
155.99409622830692
  0
LINE
  5
23F
100
AcDbEntity
  8
0
  6
CONTINUOUS
 62
               4
100
AcDbLine
 10
-25.129999895509854
 20
32.704994994185199
 30
0.0
 11
-26.869999908017917
 21
28.789994999744408
 31
0.0
  0
LINE
  5
240
100
AcDbEntity
  8
0
  6
CONTINUOUS
 62
               4
100
AcDbLine
 10
-14.749999921724225
 20
24.499994961021912
 30
0.0
 11
-12.249999921724225
 21
24.499994953034559
 31
0.0
  0
LINE
  5
241
100
AcDbEntity
  8
0
  6
CONTINUOUS
 62
               4
100
AcDbLine
 10
-14.749999921724225
 20
24.499994961021912
 30
0.0
 11
-14.749999923321639
 21
23.999994961021912
 31
0.0
  0
LINE
  5
242
100
AcDbEntity
  8
0
  6
CONTINUOUS
 62
               4
100
AcDbLine
 10
-12.249999921724225
 20
24.499994953034559
 30
0.0
 11
-12.249999923321639
 21
23.999994953034559
 31
0.0
  0
LINE
  5
243
100
AcDbEntity
  8
0
  6
CONTINUOUS
 62
               4
100
AcDbLine
 10
-24.67499989456735
 20
32.999994992731558
 30
0.0
 11
2.7000001054326503
 21
32.999994905270398
 31
0.0
  0
LINE
  5
244
100
AcDbEntity
  8
0
  6
CONTINUOUS
 62
               4
100
AcDbLine
 10
-26.99999990995093
 20
28.184995000159745
 30
0.0
 11
-26.999999923321639
 21
23.999995000159743
 31
0.0
  0
LINE
  5
245
100
AcDbEntity
  8
0
  6
CONTINUOUS
 62
             200
100
AcDbLine
 10
20.089214643199966
 20
24.164991062704814
 30
0.0
 11
21.946103824721149
 21
17.234986262763471
 31
0.0
  0
LINE
  5
246
100
AcDbEntity
  8
0
  6
CONTINUOUS
 62
             200
100
AcDbLine
 10
19.053935784438522
 20
24.165001111688809
 30
0.0
 11
20.91082891522467
 21
17.234981572889239
 31
0.0
  0
LINE
  5
247
100
AcDbEntity
  8
0
  6
CONTINUOUS
 62
               4
100
AcDbLine
 10
16.500000064425876
 20
20.165018664731576
 30
0.0
 11
20.125717227511814
 21
20.165018653147683
 31
0.0
  0
LINE
  5
248
100
AcDbEntity
  8
0
  6
CONTINUOUS
 62
               4
100
AcDbLine
 10
16.50000005985703
 20
18.735010730161264
 30
0.0
 11
20.508895933880467
 21
18.735010717353134
 31
0.0
  0
LINE
  5
249
100
AcDbEntity
  8
0
  6
CONTINUOUS
 62
               4
100
AcDbLine
 10
16.500000067844439
 20
21.235010730161264
 30
0.0
 11
19.839019843235064
 21
21.235010719493346
 31
0.0
  0
LINE
  5
24A
100
AcDbEntity
  8
0
  6
CONTINUOUS
 62
               4
100
AcDbLine
 10
16.500000072413172
 20
22.665018664731576
 30
0.0
 11
19.455841136866297
 21
22.665018655287895
 31
0.0
  0
LINE
  5
24B
100
AcDbEntity
  8
0
  6
CONTINUOUS
 62
               4
100
AcDbLine
 10
15.000000087860599
 20
27.499994865813051
 30
0.0
 11
16.500000087860599
 21
27.499994861020639
 31
0.0
  0
LINE
  5
24C
100
AcDbEntity
  8
0
  6
CONTINUOUS
 62
               4
100
AcDbLine
 10
15.500000039649422
 20
25.49997330330217
 30
0.0
 11
16.499994293078089
 21
26.077319620089327
 31
0.0
  0
LINE
  5
24D
100
AcDbEntity
  8
0
  6
CONTINUOUS
 62
               4
100
AcDbLine
 10
10.000000081470716
 20
25.4999948817877
 30
0.0
 11
16.500000081470716
 21
25.499994861020639
 31
0.0
  0
LINE
  5
24E
100
AcDbEntity
  8
0
  6
CONTINUOUS
 62
               4
100
AcDbLine
 10
5.998454664134556
 20
26.500066042129163
 30
0.0
 11
9.5561427494208147
 21
27.000065353778382
 31
0.0
  0
LINE
  5
24F
100
AcDbEntity
  8
0
  6
CONTINUOUS
 62
               4
100
AcDbLine
 10
9.5561524300130714
 20
26.999994883205716
 30
0.0
 11
15.000000086263071
 21
26.999994865813051
 31
0.0
  0
LINE
  5
250
100
AcDbEntity
  8
0
  6
CONTINUOUS
 62
               4
100
AcDbLine
 10
15.500000052716359
 20
16.49999486421558
 30
0.0
 11
15.500000054313887
 21
16.99999486421558
 31
0.0
  0
LINE
  5
251
100
AcDbEntity
  8
0
  6
CONTINUOUS
 62
               4
100
AcDbLine
 10
15.500000052716359
 20
16.49999486421558
 30
0.0
 11
16.500000052716359
 21
16.499994861020639
 31
0.0
  0
LINE
  5
252
100
AcDbEntity
  8
0
  6
CONTINUOUS
 62
               4
100
AcDbLine
 10
10.000000054313887
 20
16.999994881787671
 30
0.0
 11
15.500000054313887
 21
16.99999486421558
 31
0.0
  0
LINE
  5
253
100
AcDbEntity
  8
0
  6
CONTINUOUS
 62
               4
100
AcDbLine
 10
15.000000086263071
 20
26.999994865813051
 30
0.0
 11
15.000000087860599
 21
27.499994865813051
 31
0.0
  0
LINE
  5
254
100
AcDbEntity
  8
0
  6
CONTINUOUS
 62
               4
100
AcDbLine
 10
5.9984589437754039
 20
25.499994894572296
 30
0.0
 11
5.9984589469703451
 21
26.499994894572296
 31
0.0
  0
LINE
  5
255
100
AcDbEntity
  8
0
  6
CONTINUOUS
 62
               4
100
AcDbLine
 10
16.500000083315285
 20
26.077341662778451
 30
0.0
 11
16.500000087860599
 21
27.499994861020639
 31
0.0
  0
LINE
  5
256
100
AcDbEntity
  8
0
  6
CONTINUOUS
 62
               4
100
AcDbLine
 10
10.000000081310986
 20
25.449991830029887
 30
0.0
 11
10.000000081470716
 21
25.4999948817877
 31
0.0
  0
LINE
  5
257
100
AcDbEntity
  8
0
  6
CONTINUOUS
 62
               4
100
AcDbLine
 10
16.500000052716359
 20
16.499994861020639
 30
0.0
 11
16.500000081470716
 21
25.499994861020639
 31
0.0
  0
LINE
  5
258
100
AcDbEntity
  8
0
  6
CONTINUOUS
 62
               4
100
AcDbLine
 10
21.544174254192967
 20
18.735010714045501
 30
0.0
 11
24.500015318646092
 21
18.735010704601791
 31
0.0
  0
LINE
  5
259
100
AcDbEntity
  8
0
  6
CONTINUOUS
 62
               4
100
AcDbLine
 10
21.160995547824314
 20
20.165018649840022
 30
0.0
 11
24.500015323214939
 21
20.165018639172104
 31
0.0
  0
LINE
  5
25A
100
AcDbEntity
  8
0
  6
CONTINUOUS
 62
               4
100
AcDbLine
 10
20.874298163547564
 20
21.235010716185684
 30
0.0
 11
24.500015326633502
 21
21.235010704601791
 31
0.0
  0
LINE
  5
25B
100
AcDbEntity
  8
0
  6
CONTINUOUS
 62
               4
100
AcDbLine
 10
20.491119457178797
 20
22.665018651980233
 30
0.0
 11
24.500015331202235
 21
22.665018639172104
 31
0.0
  0
LINE
  5
25C
100
AcDbEntity
  8
0
  6
CONTINUOUS
 62
               4
100
AcDbLine
 10
29.500000071406703
 20
22.350000923002199
 30
0.0
 11
29.500000068850795
 21
21.549997871244386
 31
0.0
  0
LINE
  5
25D
100
AcDbEntity
  8
0
  6
CONTINUOUS
 62
               4
100
AcDbLine
 10
29.500000060863385
 20
19.049997871244386
 30
0.0
 11
29.500000063419407
 21
19.850000923002199
 31
0.0
  0
LINE
  5
25E
100
AcDbEntity
  8
0
  6
CONTINUOUS
 62
               4
100
AcDbLine
 10
-4.9999999904151764
 20
2.9999950702884064
 30
0.0
 11
-13.999999990415176
 21
2.9999950415340777
 31
0.0
  0
LINE
  5
25F
100
AcDbEntity
  8
0
  6
CONTINUOUS
 62
               4
100
AcDbLine
 10
-4.9999999329064622
 20
20.999995070288406
 30
0.0
 11
-13.999999932906462
 21
20.999995041534078
 31
0.0
  0
LINE
  5
260
100
AcDbEntity
  8
0
  6
CONTINUOUS
 62
               4
100
AcDbLine
 10
-4.9999999329064622
 20
20.999995070288406
 30
0.0
 11
-4.9999999904151764
 21
2.9999950702884064
 31
0.0
  0
LINE
  5
261
100
AcDbEntity
  8
0
  6
CONTINUOUS
 62
               4
100
AcDbLine
 10
-11.999999932906462
 20
20.999995047923903
 30
0.0
 11
-11.999999990415176
 21
2.9999950479239033
 31
0.0
  0
ENDBLK
  5
262
100
AcDbEntity
  8
0
100
AcDbBlockEnd
  0
BLOCK
  5
263
100
AcDbEntity
  8
0
100
AcDbBlockBegin
  2
F10T0-8
 70
               0
 10
0.0
 20
0.0
 30
0.0
  3
F10T0-8
  1

  0
LINE
  5
264
100
AcDbEntity
  8
0
  6
CONTINUOUS
 62
               7
100
AcDbLine
 10
51.5
 20
3.499983978271473
 30
0.0
 11
50.199996948242187
 21
3.499983978271473
 31
0.0
  0
LINE
  5
265
100
AcDbEntity
  8
0
  6
CONTINUOUS
 62
               2
100
AcDbLine
 10
53.5
 20
9.699996185302723
 30
0.0
 11
50.800003051757813
 21
9.699996185302723
 31
0.0
  0
LINE
  5
266
100
AcDbEntity
  8
0
  6
CONTINUOUS
 62
               7
100
AcDbLine
 10
52.5
 20
7.749983978271473
 30
0.0
 11
52.5
 21
9.3999931335449105
 31
0.0
  0
LINE
  5
267
100
AcDbEntity
  8
0
  6
CONTINUOUS
 62
               7
100
AcDbLine
 10
52.5
 20
7.7499992370605355
 30
0.0
 11
51.5
 21
7.7499992370605355
 31
0.0
  0
LINE
  5
268
100
AcDbEntity
  8
0
  6
CONTINUOUS
 62
               7
100
AcDbLine
 10
52.5
 20
11.649993133544911
 30
0.0
 11
51.5
 21
11.649993133544911
 31
0.0
  0
LINE
  5
269
100
AcDbEntity
  8
0
  6
CONTINUOUS
 62
               7
100
AcDbLine
 10
51.899993896484375
 20
9.3999931335449105
 30
0.0
 11
51.899993896484375
 21
9.999983978271473
 31
0.0
  0
LINE
  5
26A
100
AcDbEntity
  8
0
  6
CONTINUOUS
 62
               7
100
AcDbLine
 10
52.5
 20
9.3999931335449105
 30
0.0
 11
51.899993896484375
 21
9.3999931335449105
 31
0.0
  0
LINE
  5
26B
100
AcDbEntity
  8
0
  6
CONTINUOUS
 62
               7
100
AcDbLine
 10
52.5
 20
9.9999992370605355
 30
0.0
 11
51.899993896484375
 21
9.9999992370605355
 31
0.0
  0
LINE
  5
26C
100
AcDbEntity
  8
0
  6
CONTINUOUS
 62
               7
100
AcDbLine
 10
52.5
 20
9.999983978271473
 30
0.0
 11
52.5
 21
11.649993133544911
 31
0.0
  0
LINE
  5
26D
100
AcDbEntity
  8
0
  6
CONTINUOUS
 62
               7
100
AcDbLine
 10
51.5
 20
-5.6000068664550895
 30
0.0
 11
51.5
 21
12.999983978271473
 31
0.0
  0
LINE
  5
26E
100
AcDbEntity
  8
0
  6
CONTINUOUS
 62
               7
100
AcDbLine
 10
24.5
 20
-44.599991607666013
 30
0.0
 11
24.5
 21
12.999983978271473
 31
0.0
  0
LINE
  5
26F
100
AcDbEntity
  8
0
  6
CONTINUOUS
 62
               7
100
AcDbLine
 10
43.5
 20
-6.0000007629394645
 30
0.0
 11
43.5
 21
-38.00000076293945
 31
0.0
  0
LINE
  5
270
100
AcDbEntity
  8
0
  6
CONTINUOUS
 62
               7
100
AcDbLine
 10
51.100006103515625
 20
-6.0000007629394645
 30
0.0
 11
24.5
 21
-6.0000007629394645
 31
0.0
  0
LINE
  5
271
100
AcDbEntity
  8
0
  6
CONTINUOUS
 62
               7
100
AcDbLine
 10
48.5
 20
-6.6000068664550895
 30
0.0
 11
48.5
 21
-37.399998474121091
 31
0.0
  0
LINE
  5
272
100
AcDbEntity
  8
0
  6
CONTINUOUS
 62
               7
100
AcDbLine
 10
48.100006103515625
 20
-6.199997711181652
 30
0.0
 11
43.5
 21
-6.199997711181652
 31
0.0
  0
LINE
  5
273
100
AcDbEntity
  8
0
  6
CONTINUOUS
 62
               7
100
AcDbLine
 10
48.100006103515625
 20
-37.799996185302732
 30
0.0
 11
43.5
 21
-37.799996185302732
 31
0.0
  0
LINE
  5
274
100
AcDbEntity
  8
0
  6
CONTINUOUS
 62
               7
100
AcDbLine
 10
48.5
 20
-38.00000076293945
 30
0.0
 11
24.5
 21
-38.00000076293945
 31
0.0
  0
LINE
  5
275
100
AcDbEntity
  8
0
  6
CONTINUOUS
 62
               7
100
AcDbLine
 10
48.5
 20
-44.599991607666013
 30
0.0
 11
48.5
 21
-38.00000076293945
 31
0.0
  0
LINE
  5
276
100
AcDbEntity
  8
0
  6
CONTINUOUS
 62
               7
100
AcDbLine
 10
48.100006103515625
 20
-45.00000076293945
 30
0.0
 11
24.900009155273438
 21
-45.00000076293945
 31
0.0
  0
LINE
  5
277
100
AcDbEntity
  8
0
  6
CONTINUOUS
 62
               7
100
AcDbLine
 10
51.5
 20
1.4999992370605355
 30
0.0
 11
24.5
 21
1.4999992370605355
 31
0.0
  0
LINE
  5
278
100
AcDbEntity
  8
0
  6
CONTINUOUS
 62
               7
100
AcDbLine
 10
43.300003051757813
 20
-45.00000076293945
 30
0.0
 11
43.300003051757813
 21
-44.00000076293945
 31
0.0
  0
LINE
  5
279
100
AcDbEntity
  8
0
  6
CONTINUOUS
 62
               7
100
AcDbLine
 10
43.300003051757813
 20
-44.00000076293945
 30
0.0
 11
40.100006103515625
 21
-44.00000076293945
 31
0.0
  0
LINE
  5
27A
100
AcDbEntity
  8
0
  6
CONTINUOUS
 62
               7
100
AcDbLine
 10
42.45001220703125
 20
-44.50000076293945
 30
0.0
 11
40.95001220703125
 21
-44.50000076293945
 31
0.0
  0
LINE
  5
27B
100
AcDbEntity
  8
0
  6
CONTINUOUS
 62
               7
100
AcDbLine
 10
48.5
 20
-33.199999618530271
 30
0.0
 11
43.5
 21
-33.199999618530271
 31
0.0
  0
LINE
  5
27C
100
AcDbEntity
  8
0
  6
CONTINUOUS
 62
               7
100
AcDbLine
 10
44.0
 20
-34.049996185302732
 30
0.0
 11
44.0
 21
-35.549996185302732
 31
0.0
  0
LINE
  5
27D
100
AcDbEntity
  8
0
  6
CONTINUOUS
 62
               7
100
AcDbLine
 10
24.0
 20
-47.00000076293945
 30
0.0
 11
24.0
 21
2.9999992370605355
 31
0.0
  0
LINE
  5
27E
100
AcDbEntity
  8
0
  6
CONTINUOUS
 62
               7
100
AcDbLine
 10
0.0
 20
-47.00000076293945
 30
0.0
 11
0.0
 21
2.9999992370605355
 31
0.0
  0
LINE
  5
27F
100
AcDbEntity
  8
0
  6
CONTINUOUS
 62
               7
100
AcDbLine
 10
24.0
 20
-47.00000076293945
 30
0.0
 11
0.0
 21
-47.00000076293945
 31
0.0
  0
LINE
  5
280
100
AcDbEntity
  8
0
  6
CONTINUOUS
 62
               7
100
AcDbLine
 10
24.0
 20
2.9999992370605355
 30
0.0
 11
0.0
 21
2.9999992370605355
 31
0.0
  0
LINE
  5
281
100
AcDbEntity
  8
0
  6
CONTINUOUS
 62
               2
100
AcDbLine
 10
7.5
 20
-34.064000892639157
 30
0.0
 11
7.5
 21
-22.336001205444333
 31
0.0
  0
LINE
  5
282
100
AcDbEntity
  8
0
  6
CONTINUOUS
 62
               7
100
AcDbLine
 10
40.100006103515625
 20
-45.00000076293945
 30
0.0
 11
40.100006103515625
 21
-44.00000076293945
 31
0.0
  0
LINE
  5
283
100
AcDbEntity
  8
0
  6
CONTINUOUS
 62
               2
100
AcDbLine
 10
20.363998413085938
 20
-15.799999999999997
 30
0.0
 11
8.6360015869140625
 21
-15.799999999999997
 31
0.0
  0
LINE
  5
284
100
AcDbEntity
  8
0
  6
CONTINUOUS
 62
               2
100
AcDbLine
 10
14.5
 20
-21.664001274108884
 30
0.0
 11
14.5
 21
-9.9360054016113395
 31
0.0
  0
LINE
  5
285
100
AcDbEntity
  8
0
  6
CONTINUOUS
 62
               2
100
AcDbLine
 10
13.363998413085938
 20
-28.200001525878903
 30
0.0
 11
1.6360015869140625
 21
-28.200001525878903
 31
0.0
  0
LINE
  5
286
100
AcDbEntity
  8
0
  6
CONTINUOUS
 62
               7
100
AcDbLine
 10
25.5
 20
1.4999992370605355
 30
0.0
 11
25.5
 21
3.499983978271473
 31
0.0
  0
LINE
  5
287
100
AcDbEntity
  8
0
  6
CONTINUOUS
 62
               7
100
AcDbLine
 10
28.0
 20
1.4999992370605355
 30
0.0
 11
28.0
 21
3.499983978271473
 31
0.0
  0
LINE
  5
288
100
AcDbEntity
  8
0
  6
CONTINUOUS
 62
               7
100
AcDbLine
 10
47.199996948242188
 20
1.4999992370605355
 30
0.0
 11
47.199996948242188
 21
3.499983978271473
 31
0.0
  0
LINE
  5
289
100
AcDbEntity
  8
0
  6
CONTINUOUS
 62
               7
100
AcDbLine
 10
50.199996948242187
 20
1.4999992370605355
 30
0.0
 11
50.199996948242187
 21
3.499983978271473
 31
0.0
  0
LINE
  5
28A
100
AcDbEntity
  8
0
  6
CONTINUOUS
 62
               7
100
AcDbLine
 10
25.5
 20
3.499983978271473
 30
0.0
 11
24.5
 21
3.499983978271473
 31
0.0
  0
LINE
  5
28B
100
AcDbEntity
  8
0
  6
CONTINUOUS
 62
               7
100
AcDbLine
 10
47.199996948242188
 20
3.499983978271473
 30
0.0
 11
28.0
 21
3.499983978271473
 31
0.0
  0
ARC
  5
28C
100
AcDbEntity
  8
0
  6
CONTINUOUS
 62
               7
100
AcDbCircle
 10
24.900009155273438
 20
-44.599991607666013
 30
0.0
 40
0.4000000357627869
100
AcDbArc
 50
180.0000359721783
 51
270.00007262760209
  0
ARC
  5
28D
100
AcDbEntity
  8
0
  6
CONTINUOUS
 62
               7
100
AcDbCircle
 10
48.100006103515625
 20
-44.599991607666013
 30
0.0
 40
0.4000000357627869
100
AcDbArc
 50
270.00007262760209
 51
0.0000409811350201
  0
ARC
  5
28E
100
AcDbEntity
  8
0
  6
CONTINUOUS
 62
               7
100
AcDbCircle
 10
48.100006103515625
 20
-37.400002288818357
 30
0.0
 40
0.4000000357627869
100
AcDbArc
 50
270.00001798608872
 51
0.0000409811350201
  0
ARC
  5
28F
100
AcDbEntity
  8
0
  6
CONTINUOUS
 62
               7
100
AcDbCircle
 10
48.100006103515625
 20
-6.6000068664550895
 30
0.0
 40
0.4000000357627869
100
AcDbArc
 50
0.0000546415133601
 51
90.000036655423813
  0
ARC
  5
290
100
AcDbEntity
  8
0
  6
CONTINUOUS
 62
               7
100
AcDbCircle
 10
51.100006103515625
 20
-5.6000068664550895
 30
0.0
 40
0.4000000357627869
100
AcDbArc
 50
270.00007262760209
 51
0.0000409811350201
  0
ARC
  5
291
100
AcDbEntity
  8
0
  6
CONTINUOUS
 62
               7
100
AcDbCircle
 10
40.95001220703125
 20
-44.00000076293945
 30
0.0
 40
0.5
100
AcDbArc
 50
180.0000359721783
 51
270.00001798608872
  0
ARC
  5
292
100
AcDbEntity
  8
0
  6
CONTINUOUS
 62
               7
100
AcDbCircle
 10
42.45001220703125
 20
-44.00000076293945
 30
0.0
 40
0.5
100
AcDbArc
 50
270.00001798608872
 51
0.0000546415133601
  0
ARC
  5
293
100
AcDbEntity
  8
0
  6
CONTINUOUS
 62
               7
100
AcDbCircle
 10
43.5
 20
-35.549996185302732
 30
0.0
 40
0.5
100
AcDbArc
 50
269.99996334457541
 51
359.99994535848583
  0
ARC
  5
294
100
AcDbEntity
  8
0
  6
CONTINUOUS
 62
               7
100
AcDbCircle
 10
43.5
 20
-34.049996185302732
 30
0.0
 40
0.5
100
AcDbArc
 50
359.99994535848583
 51
89.999982013910454
  0
CIRCLE
  5
295
100
AcDbEntity
  8
0
  6
CONTINUOUS
 62
               2
100
AcDbCircle
 10
7.5
 20
-28.200001525878903
 30
0.0
 40
4.8639993667602539
  0
CIRCLE
  5
296
100
AcDbEntity
  8
0
  6
CONTINUOUS
 62
               7
100
AcDbCircle
 10
7.5
 20
-28.200001525878903
 30
0.0
 40
4.2829999923706055
  0
CIRCLE
  5
297
100
AcDbEntity
  8
0
  6
CONTINUOUS
 62
               2
100
AcDbCircle
 10
14.5
 20
-15.799999999999997
 30
0.0
 40
4.8639993667602539
  0
CIRCLE
  5
298
100
AcDbEntity
  8
0
  6
CONTINUOUS
 62
               7
100
AcDbCircle
 10
14.5
 20
-15.799999999999997
 30
0.0
 40
4.2829999923706055
  0
LINE
  5
299
100
AcDbEntity
  8
0
  6
CONTINUOUS
 62
               7
100
AcDbLine
 10
51.5
 20
12.999984064534544
 30
0.0
 11
24.5
 21
12.999983978271473
 31
0.0
  0
LINE
  5
29A
100
AcDbEntity
  8
0
  6
CONTINUOUS
 62
               4
100
AcDbLine
 10
51.5
 20
12.999983978271473
 30
0.0
 11
51.5
 21
36.999983978271473
 31
0.0
  0
LINE
  5
29B
100
AcDbEntity
  8
0
  6
CONTINUOUS
 62
               4
100
AcDbLine
 10
24.5
 20
12.999983978271473
 30
0.0
 11
24.5
 21
36.999983978271473
 31
0.0
  0
LINE
  5
29C
100
AcDbEntity
  8
0
  6
CONTINUOUS
 62
               4
100
AcDbLine
 10
38.500000067093481
 20
15.999984023000479
 30
0.0
 11
29.500000067093481
 21
15.999983994246122
 31
0.0
  0
LINE
  5
29D
100
AcDbEntity
  8
0
  6
CONTINUOUS
 62
               4
100
AcDbLine
 10
38.500000009584767
 20
33.999984023000479
 30
0.0
 11
29.500000009584767
 21
33.999983994246122
 31
0.0
  0
LINE
  5
29E
100
AcDbEntity
  8
0
  6
CONTINUOUS
 62
               4
100
AcDbLine
 10
29.500000009584767
 20
33.999983994246122
 30
0.0
 11
29.500000067093481
 21
15.999983994246122
 31
0.0
  0
LINE
  5
29F
100
AcDbEntity
  8
0
  6
CONTINUOUS
 62
               4
100
AcDbLine
 10
36.500000009584767
 20
33.999984016610625
 30
0.0
 11
36.500000067093481
 21
15.999984016610625
 31
0.0
  0
LINE
  5
2A0
100
AcDbEntity
  8
0
  6
CONTINUOUS
 62
               4
100
AcDbLine
 10
24.499986267089866
 20
29.999983978271473
 30
0.0
 11
26.100000000000023
 21
29.999983978271473
 31
0.0
  0
LINE
  5
2A1
100
AcDbEntity
  8
0
  6
CONTINUOUS
 62
               4
100
AcDbLine
 10
25.199999999999989
 20
29.999983978271473
 30
0.0
 11
25.199999999999989
 21
36.999983978271473
 31
0.0
  0
LINE
  5
2A2
100
AcDbEntity
  8
0
  6
CONTINUOUS
 62
               4
100
AcDbLine
 10
26.100000000000023
 20
29.999983978271473
 30
0.0
 11
26.100000000000023
 21
36.999983978271473
 31
0.0
  0
LINE
  5
2A3
100
AcDbEntity
  8
0
  6
CONTINUOUS
 62
               4
100
AcDbLine
 10
24.499986267089866
 20
36.999983978271473
 30
0.0
 11
51.499992370605469
 21
36.999983978271473
 31
0.0
  0
LINE
  5
2A4
100
AcDbEntity
  8
0
  6
CONTINUOUS
 62
               4
100
AcDbLine
 10
35.599986267089832
 20
50.499983978271473
 30
0.0
 11
35.599986267089832
 21
45.999983978271473
 31
0.0
  0
LINE
  5
2A5
100
AcDbEntity
  8
0
  6
CONTINUOUS
 62
               4
100
AcDbLine
 10
26.649974060058582
 20
56.999983978271473
 30
0.0
 11
35.649974060058582
 21
56.999983978271473
 31
0.0
  0
LINE
  5
2A6
100
AcDbEntity
  8
0
  6
CONTINUOUS
 62
               4
100
AcDbLine
 10
26.999986267089866
 20
50.499983978271473
 30
0.0
 11
35.649989318847645
 21
50.499983978271473
 31
0.0
  0
LINE
  5
2A7
100
AcDbEntity
  8
0
  6
CONTINUOUS
 62
               4
100
AcDbLine
 10
36.227336120605457
 20
56.999983978271473
 30
0.0
 11
37.649981689453114
 21
56.999983978271473
 31
0.0
  0
LINE
  5
2A8
100
AcDbEntity
  8
0
  6
CONTINUOUS
 62
               4
100
AcDbLine
 10
35.599986267089832
 20
47.998442840576161
 30
0.0
 11
35.649989318847645
 21
47.998442840576161
 31
0.0
  0
LINE
  5
2A9
100
AcDbEntity
  8
0
  6
CONTINUOUS
 62
               4
100
AcDbLine
 10
35.649989318847645
 20
46.498442840576161
 30
0.0
 11
36.649981689453114
 21
46.498442840576161
 31
0.0
  0
LINE
  5
2AA
100
AcDbEntity
  8
0
  6
CONTINUOUS
 62
               4
100
AcDbLine
 10
35.649989318847645
 20
47.998442840576161
 30
0.0
 11
35.649989318847645
 21
50.499983978271473
 31
0.0
  0
LINE
  5
2AB
100
AcDbEntity
  8
0
  6
CONTINUOUS
 62
               4
100
AcDbLine
 10
37.149981689453114
 20
55.499983978271473
 30
0.0
 11
37.649981689453114
 21
55.499983978271473
 31
0.0
  0
LINE
  5
2AC
100
AcDbEntity
  8
0
  6
CONTINUOUS
 62
               4
100
AcDbLine
 10
35.649986476497531
 20
46.498458130141614
 30
0.0
 11
35.599965923191291
 21
46.548478683447854
 31
0.0
  0
LINE
  5
2AD
100
AcDbEntity
  8
0
  6
CONTINUOUS
 62
               4
100
AcDbLine
 10
27.149989318847645
 20
50.499983978271473
 30
0.0
 11
27.149989318847645
 21
55.999983978271473
 31
0.0
  0
LINE
  5
2AE
100
AcDbEntity
  8
0
  6
CONTINUOUS
 62
               4
100
AcDbLine
 10
26.649989318847645
 20
55.999983978271473
 30
0.0
 11
26.649989318847645
 21
56.999983978271473
 31
0.0
  0
LINE
  5
2AF
100
AcDbEntity
  8
0
  6
CONTINUOUS
 62
               4
100
AcDbLine
 10
26.649974060058582
 20
55.999983978271473
 30
0.0
 11
27.149974060058582
 21
55.999983978271473
 31
0.0
  0
LINE
  5
2B0
100
AcDbEntity
  8
0
  6
CONTINUOUS
 62
               4
100
AcDbLine
 10
37.149989318847645
 20
50.056136322021473
 30
0.0
 11
37.149989318847645
 21
55.499983978271473
 31
0.0
  0
LINE
  5
2B1
100
AcDbEntity
  8
0
  6
CONTINUOUS
 62
               4
100
AcDbLine
 10
36.649987569326356
 20
46.498434720030843
 30
0.0
 11
37.149986678203447
 21
50.056122803719688
 31
0.0
  0
LINE
  5
2B2
100
AcDbEntity
  8
0
  6
CONTINUOUS
 62
               4
100
AcDbLine
 10
35.649989318847645
 20
50.499983978271473
 30
0.0
 11
35.649989318847645
 21
56.999983978271473
 31
0.0
  0
LINE
  5
2B3
100
AcDbEntity
  8
0
  6
CONTINUOUS
 62
               4
100
AcDbLine
 10
35.650030778693861
 20
55.999942921173158
 30
0.0
 11
36.227382594457765
 21
56.999951626127938
 31
0.0
  0
LINE
  5
2B4
100
AcDbEntity
  8
0
  6
CONTINUOUS
 62
               4
100
AcDbLine
 10
37.649989318847645
 20
55.499983978271473
 30
0.0
 11
37.649989318847645
 21
56.999983978271473
 31
0.0
  0
LINE
  5
2B5
100
AcDbEntity
  8
0
  6
CONTINUOUS
 62
               4
100
AcDbLine
 10
32.49999542236327
 20
69.999983978271473
 30
0.0
 11
31.699992370605457
 21
69.999983978271473
 31
0.0
  0
LINE
  5
2B6
100
AcDbEntity
  8
0
  6
CONTINUOUS
 62
               4
100
AcDbLine
 10
31.699992370605457
 20
64.999983978271473
 30
0.0
 11
31.699992370605457
 21
69.999983978271473
 31
0.0
  0
LINE
  5
2B7
100
AcDbEntity
  8
0
  6
CONTINUOUS
 62
               4
100
AcDbLine
 10
32.49999542236327
 20
64.999983978271473
 30
0.0
 11
32.49999542236327
 21
69.999983978271473
 31
0.0
  0
LINE
  5
2B8
100
AcDbEntity
  8
0
  6
CONTINUOUS
 62
               4
100
AcDbLine
 10
32.81499786376952
 20
56.999983978271473
 30
0.0
 11
32.81499786376952
 21
61.598387908935536
 31
0.0
  0
LINE
  5
2B9
100
AcDbEntity
  8
0
  6
CONTINUOUS
 62
               4
100
AcDbLine
 10
31.384989929199207
 20
56.999983978271473
 30
0.0
 11
31.384989929199207
 21
60.772780609130848
 31
0.0
  0
LINE
  5
2BA
100
AcDbEntity
  8
0
  6
CONTINUOUS
 62
               4
100
AcDbLine
 10
32.81499786376952
 20
64.999983978271473
 30
0.0
 11
31.384989929199207
 21
64.999983978271473
 31
0.0
  0
LINE
  5
2BB
100
AcDbEntity
  8
0
  6
CONTINUOUS
 62
               4
100
AcDbLine
 10
31.384989929199207
 20
61.927474212646473
 30
0.0
 11
31.384989929199207
 21
64.999983978271473
 31
0.0
  0
LINE
  5
2BC
100
AcDbEntity
  8
0
  6
CONTINUOUS
 62
               4
100
AcDbLine
 10
32.81499786376952
 20
62.753096771240223
 30
0.0
 11
32.81499786376952
 21
64.999983978271473
 31
0.0
  0
LINE
  5
2BD
100
AcDbEntity
  8
0
  6
CONTINUOUS
 62
               4
100
AcDbLine
 10
30.31499786376952
 20
61.309722137451161
 30
0.0
 11
30.31499786376952
 21
64.999983978271473
 31
0.0
  0
LINE
  5
2BE
100
AcDbEntity
  8
0
  6
CONTINUOUS
 62
               4
100
AcDbLine
 10
28.884989929199207
 20
60.484099578857411
 30
0.0
 11
28.884989929199207
 21
64.999983978271473
 31
0.0
  0
LINE
  5
2BF
100
AcDbEntity
  8
0
  6
CONTINUOUS
 62
               4
100
AcDbLine
 10
28.884989929199207
 20
64.999983978271473
 30
0.0
 11
30.31499786376952
 21
64.999983978271473
 31
0.0
  0
LINE
  5
2C0
100
AcDbEntity
  8
0
  6
CONTINUOUS
 62
               4
100
AcDbLine
 10
29.99999542236327
 20
64.999983978271473
 30
0.0
 11
29.99999542236327
 21
69.999983978271473
 31
0.0
  0
LINE
  5
2C1
100
AcDbEntity
  8
0
  6
CONTINUOUS
 62
               4
100
AcDbLine
 10
29.199992370605457
 20
64.999983978271473
 30
0.0
 11
29.199992370605457
 21
69.999968719482411
 31
0.0
  0
LINE
  5
2C2
100
AcDbEntity
  8
0
  6
CONTINUOUS
 62
               4
100
AcDbLine
 10
29.199992370605457
 20
69.999983978271473
 30
0.0
 11
29.99999542236327
 21
69.999983978271473
 31
0.0
  0
LINE
  5
2C3
100
AcDbEntity
  8
0
  6
CONTINUOUS
 62
               4
100
AcDbLine
 10
30.31499786376952
 20
56.999983978271473
 30
0.0
 11
30.31499786376952
 21
60.155013275146473
 31
0.0
  0
LINE
  5
2C4
100
AcDbEntity
  8
0
  6
CONTINUOUS
 62
               4
100
AcDbLine
 10
28.884989929199207
 20
56.999983978271473
 30
0.0
 11
28.884989929199207
 21
59.329405975341786
 31
0.0
  0
LINE
  5
2C5
100
AcDbEntity
  8
0
  6
CONTINUOUS
 62
             200
100
AcDbLine
 10
34.31500515856186
 20
63.619089788206281
 30
0.0
 11
27.384976066998377
 21
59.618041224424985
 31
0.0
  0
LINE
  5
2C6
100
AcDbEntity
  8
0
  6
CONTINUOUS
 62
             200
100
AcDbLine
 10
34.314980610187547
 20
62.4644487933503
 30
0.0
 11
27.384970456668441
 21
58.463396888834893
 31
0.0
  0
LINE
  5
2C7
100
AcDbEntity
  8
0
  6
CONTINUOUS
 62
               4
100
AcDbLine
 10
36.749986267089866
 20
37.499983978271473
 30
0.0
 11
39.249986267089866
 21
37.499983978271473
 31
0.0
  0
LINE
  5
2C8
100
AcDbEntity
  8
0
  6
CONTINUOUS
 62
               4
100
AcDbLine
 10
36.749986267089866
 20
37.499983978271473
 30
0.0
 11
36.749986267089866
 21
36.999983978271473
 31
0.0
  0
LINE
  5
2C9
100
AcDbEntity
  8
0
  6
CONTINUOUS
 62
               4
100
AcDbLine
 10
39.249986267089866
 20
37.499983978271473
 30
0.0
 11
39.249986267089866
 21
36.999983978271473
 31
0.0
  0
ARC
  5
2CA
100
AcDbEntity
  8
0
  6
CONTINUOUS
 62
               4
100
AcDbCircle
 10
24.999986267089866
 20
45.499983978271473
 30
0.0
 40
0.5
100
AcDbArc
 50
89.999999999999815
 51
179.99999999999963
  0
LINE
  5
2CB
100
AcDbEntity
  8
0
  6
CONTINUOUS
 62
               4
100
AcDbLine
 10
26.999986267089866
 20
45.999983978271473
 30
0.0
 11
24.999986267089866
 21
45.999983978271473
 31
0.0
  0
LINE
  5
2CC
100
AcDbEntity
  8
0
  6
CONTINUOUS
 62
               4
100
AcDbLine
 10
26.999986267089866
 20
50.499983978271473
 30
0.0
 11
26.999986267089866
 21
45.999983978271473
 31
0.0
  0
LINE
  5
2CD
100
AcDbEntity
  8
0
  6
CONTINUOUS
 62
               4
100
AcDbLine
 10
35.599986267089832
 20
50.499983978271473
 30
0.0
 11
35.599986267089832
 21
45.999983978271473
 31
0.0
  0
LINE
  5
2CE
100
AcDbEntity
  8
0
  6
CONTINUOUS
 62
               4
100
AcDbLine
 10
46.599986267089832
 20
38.449983978271518
 30
0.0
 11
44.499986267089866
 21
38.449983978271518
 31
0.0
  0
LINE
  5
2CF
100
AcDbEntity
  8
0
  6
CONTINUOUS
 62
               4
100
AcDbLine
 10
31.599986267089832
 20
38.449983978271518
 30
0.0
 11
29.499986267089866
 21
38.449983978271518
 31
0.0
  0
LINE
  5
2D0
100
AcDbEntity
  8
0
  6
CONTINUOUS
 62
               4
100
AcDbLine
 10
29.499986267089866
 20
39.399983978271507
 30
0.0
 11
29.499986267089866
 21
38.449983978271518
 31
0.0
  0
LINE
  5
2D1
100
AcDbEntity
  8
0
  6
CONTINUOUS
 62
               4
100
AcDbLine
 10
46.599986267089832
 20
39.399983978271507
 30
0.0
 11
46.599986267089832
 21
38.449983978271518
 31
0.0
  0
ARC
  5
2D2
100
AcDbEntity
  8
0
  6
CONTINUOUS
 62
               4
100
AcDbCircle
 10
50.002006662450412
 20
41.179594882200774
 30
0.0
 40
1.4979796551727449
100
AcDbArc
 50
0.0148824203654679
 51
24.046309772710686
  0
ARC
  5
2D3
100
AcDbEntity
  8
0
  6
CONTINUOUS
 62
               4
100
AcDbCircle
 10
49.174007105653914
 20
45.500083915717767
 30
0.0
 40
0.4999010215015999
100
AcDbArc
 50
24.197376208904771
 51
89.887774076864815
  0
LINE
  5
2D4
100
AcDbEntity
  8
0
  6
CONTINUOUS
 62
               4
100
AcDbLine
 10
49.629986267089862
 20
45.704983978271514
 30
0.0
 11
51.369986267089871
 21
41.789983978271493
 31
0.0
  0
LINE
  5
2D5
100
AcDbEntity
  8
0
  6
CONTINUOUS
 62
               4
100
AcDbLine
 10
49.174007105653914
 20
45.999983978271473
 30
0.0
 11
35.599986267089832
 21
45.999983978271473
 31
0.0
  0
LINE
  5
2D6
100
AcDbEntity
  8
0
  6
CONTINUOUS
 62
               4
100
AcDbLine
 10
51.499986267089866
 20
41.17998397827148
 30
0.0
 11
51.499986267089866
 21
36.999983978271473
 31
0.0
  0
LINE
  5
2D7
100
AcDbEntity
  8
0
  6
CONTINUOUS
 62
               4
100
AcDbLine
 10
31.599986267089832
 20
39.399983978271507
 30
0.0
 11
29.499986267089866
 21
39.399983978271507
 31
0.0
  0
LINE
  5
2D8
100
AcDbEntity
  8
0
  6
CONTINUOUS
 62
               4
100
AcDbLine
 10
46.599986267089832
 20
39.399983978271507
 30
0.0
 11
44.499986267089866
 21
39.399983978271507
 31
0.0
  0
LINE
  5
2D9
100
AcDbEntity
  8
0
  6
CONTINUOUS
 62
               4
100
AcDbLine
 10
39.249986267089866
 20
37.499983978271473
 30
0.0
 11
36.749986267089866
 21
37.499983978271473
 31
0.0
  0
LINE
  5
2DA
100
AcDbEntity
  8
0
  6
CONTINUOUS
 62
               4
100
AcDbLine
 10
31.599986267089832
 20
39.399983978271507
 30
0.0
 11
31.599986267089832
 21
38.449983978271518
 31
0.0
  0
LINE
  5
2DB
100
AcDbEntity
  8
0
  6
CONTINUOUS
 62
               4
100
AcDbLine
 10
44.499986267089866
 20
39.399983978271507
 30
0.0
 11
44.499986267089866
 21
38.449983978271518
 31
0.0
  0
LINE
  5
2DC
100
AcDbEntity
  8
0
  6
CONTINUOUS
 62
               4
100
AcDbLine
 10
39.249986267089866
 20
37.499983978271473
 30
0.0
 11
39.249986267089866
 21
36.999983978271473
 31
0.0
  0
LINE
  5
2DD
100
AcDbEntity
  8
0
  6
CONTINUOUS
 62
               4
100
AcDbLine
 10
36.749986267089866
 20
37.499983978271473
 30
0.0
 11
36.749986267089866
 21
36.999983978271473
 31
0.0
  0
LINE
  5
2DE
100
AcDbEntity
  8
0
  6
CONTINUOUS
 62
               4
100
AcDbLine
 10
24.499986267089866
 20
45.499983978271473
 30
0.0
 11
24.499986267089866
 21
36.999983978271473
 31
0.0
  0
LINE
  5
2DF
100
AcDbEntity
  8
0
  6
CONTINUOUS
 62
               2
100
AcDbLine
 10
-4.0
 20
-44.0
 30
0.0
 11
4.0
 21
-44.0
 31
0.0
  0
LINE
  5
2E0
100
AcDbEntity
  8
0
  6
CONTINUOUS
 62
               2
100
AcDbLine
 10
-4.0
 20
0.0
 30
0.0
 11
4.0
 21
0.0
 31
0.0
  0
LINE
  5
2E1
100
AcDbEntity
  8
0
  6
CONTINUOUS
 62
               7
100
AcDbLine
 10
24.5
 20
-38.00000076293945
 30
0.0
 11
24.5
 21
0.9999992370605497
 31
0.0
  0
LINE
  5
2E2
100
AcDbEntity
  8
0
  6
CONTINUOUS
 62
               7
100
AcDbLine
 10
24.0
 20
-38.00000076293945
 30
0.0
 11
24.0
 21
0.9999992370605497
 31
0.0
  0
LINE
  5
2E3
100
AcDbEntity
  8
0
  6
CONTINUOUS
 62
               7
100
AcDbLine
 10
24.5
 20
-38.00000076293945
 30
0.0
 11
24.0
 21
-38.00000076293945
 31
0.0
  0
LINE
  5
2E4
100
AcDbEntity
  8
0
  6
CONTINUOUS
 62
               7
100
AcDbLine
 10
24.5
 20
0.9999992370605497
 30
0.0
 11
24.0
 21
0.9999992370605497
 31
0.0
  0
ENDBLK
  5
2E5
100
AcDbEntity
  8
0
100
AcDbBlockEnd
  0
BLOCK
  5
2E6
100
AcDbEntity
  8
0
100
AcDbBlockBegin
  2
F10T0-9
 70
               0
 10
0.0
 20
0.0
 30
0.0
  3
F10T0-9
  1

  0
LINE
  5
2E7
100
AcDbEntity
  8
0
  6
CONTINUOUS
 62
               7
100
AcDbLine
 10
-51.5
 20
3.4998179899475872
 30
0.0
 11
-50.5
 21
3.4998179899475872
 31
0.0
  0
LINE
  5
2E8
100
AcDbEntity
  8
0
  6
CONTINUOUS
 62
               2
100
AcDbLine
 10
-53.5
 20
9.6998301969788372
 30
0.0
 11
-50.800003051757813
 21
9.6998301969788372
 31
0.0
  0
LINE
  5
2E9
100
AcDbEntity
  8
0
  6
CONTINUOUS
 62
               7
100
AcDbLine
 10
-52.5
 20
7.7498179899475872
 30
0.0
 11
-52.5
 21
9.3998271452210247
 31
0.0
  0
LINE
  5
2EA
100
AcDbEntity
  8
0
  6
CONTINUOUS
 62
               7
100
AcDbLine
 10
-52.5
 20
7.7498332487366497
 30
0.0
 11
-51.5
 21
7.7498332487366497
 31
0.0
  0
LINE
  5
2EB
100
AcDbEntity
  8
0
  6
CONTINUOUS
 62
               7
100
AcDbLine
 10
-52.5
 20
11.649827145221025
 30
0.0
 11
-51.5
 21
11.649827145221025
 31
0.0
  0
LINE
  5
2EC
100
AcDbEntity
  8
0
  6
CONTINUOUS
 62
               7
100
AcDbLine
 10
-51.899993896484375
 20
9.3998271452210247
 30
0.0
 11
-51.899993896484375
 21
9.9998179899475872
 31
0.0
  0
LINE
  5
2ED
100
AcDbEntity
  8
0
  6
CONTINUOUS
 62
               7
100
AcDbLine
 10
-52.5
 20
9.3998271452210247
 30
0.0
 11
-51.899993896484375
 21
9.3998271452210247
 31
0.0
  0
LINE
  5
2EE
100
AcDbEntity
  8
0
  6
CONTINUOUS
 62
               7
100
AcDbLine
 10
-52.5
 20
9.9998332487366497
 30
0.0
 11
-51.899993896484375
 21
9.9998332487366497
 31
0.0
  0
LINE
  5
2EF
100
AcDbEntity
  8
0
  6
CONTINUOUS
 62
               7
100
AcDbLine
 10
-52.5
 20
9.9998179899475872
 30
0.0
 11
-52.5
 21
11.649827145221025
 31
0.0
  0
LINE
  5
2F0
100
AcDbEntity
  8
0
  6
CONTINUOUS
 62
               7
100
AcDbLine
 10
-51.5
 20
-5.6001728547789753
 30
0.0
 11
-51.5
 21
12.999817989947587
 31
0.0
  0
LINE
  5
2F1
100
AcDbEntity
  8
0
  6
CONTINUOUS
 62
               7
100
AcDbLine
 10
-24.5
 20
-44.600157595989913
 30
0.0
 11
-24.5
 21
12.999817989947587
 31
0.0
  0
LINE
  5
2F2
100
AcDbEntity
  8
0
  6
CONTINUOUS
 62
               7
100
AcDbLine
 10
-43.5
 20
-38.000170565960616
 30
0.0
 11
-43.5
 21
-6.0001667512633503
 31
0.0
  0
LINE
  5
2F3
100
AcDbEntity
  8
0
  6
CONTINUOUS
 62
               7
100
AcDbLine
 10
-51.100006103515625
 20
-6.0001667512633503
 30
0.0
 11
-24.5
 21
-6.0001667512633503
 31
0.0
  0
LINE
  5
2F4
100
AcDbEntity
  8
0
  6
CONTINUOUS
 62
               7
100
AcDbLine
 10
-48.5
 20
-6.6001728547789753
 30
0.0
 11
-48.5
 21
-37.400164462444991
 31
0.0
  0
LINE
  5
2F5
100
AcDbEntity
  8
0
  6
CONTINUOUS
 62
               7
100
AcDbLine
 10
-48.100006103515625
 20
-6.2001636995055378
 30
0.0
 11
-43.5
 21
-6.2001636995055378
 31
0.0
  0
LINE
  5
2F6
100
AcDbEntity
  8
0
  6
CONTINUOUS
 62
               7
100
AcDbLine
 10
-48.100006103515625
 20
-37.800162173626632
 30
0.0
 11
-43.5
 21
-37.800162173626632
 31
0.0
  0
LINE
  5
2F7
100
AcDbEntity
  8
0
  6
CONTINUOUS
 62
               7
100
AcDbLine
 10
-48.5
 20
-38.00016675126335
 30
0.0
 11
-24.5
 21
-38.00016675126335
 31
0.0
  0
LINE
  5
2F8
100
AcDbEntity
  8
0
  6
CONTINUOUS
 62
               7
100
AcDbLine
 10
-48.5
 20
-44.600157595989913
 30
0.0
 11
-48.5
 21
-38.00016675126335
 31
0.0
  0
LINE
  5
2F9
100
AcDbEntity
  8
0
  6
CONTINUOUS
 62
               7
100
AcDbLine
 10
-48.100006103515625
 20
-45.00016675126335
 30
0.0
 11
-24.900009155273438
 21
-45.00016675126335
 31
0.0
  0
LINE
  5
2FA
100
AcDbEntity
  8
0
  6
CONTINUOUS
 62
               7
100
AcDbLine
 10
-51.5
 20
1.4998332487366497
 30
0.0
 11
-24.5
 21
1.4998332487366497
 31
0.0
  0
LINE
  5
2FB
100
AcDbEntity
  8
0
  6
CONTINUOUS
 62
               7
100
AcDbLine
 10
-27.900009155273438
 20
-45.00016675126335
 30
0.0
 11
-27.900009155273438
 21
-44.00016675126335
 31
0.0
  0
LINE
  5
2FC
100
AcDbEntity
  8
0
  6
CONTINUOUS
 62
               7
100
AcDbLine
 10
-27.900009155273438
 20
-44.00016675126335
 30
0.0
 11
-24.5
 21
-44.00016675126335
 31
0.0
  0
LINE
  5
2FD
100
AcDbEntity
  8
0
  6
CONTINUOUS
 62
               7
100
AcDbLine
 10
-27.050003051757813
 20
-44.50016675126335
 30
0.0
 11
-25.550003051757813
 21
-44.50016675126335
 31
0.0
  0
LINE
  5
2FE
100
AcDbEntity
  8
0
  6
CONTINUOUS
 62
               7
100
AcDbLine
 10
-48.5
 20
-10.800169803021163
 30
0.0
 11
-43.5
 21
-10.800169803021163
 31
0.0
  0
LINE
  5
2FF
100
AcDbEntity
  8
0
  6
CONTINUOUS
 62
               7
100
AcDbLine
 10
-44.0
 20
-9.9501789582946003
 30
0.0
 11
-44.0
 21
-8.4501789582946003
 31
0.0
  0
LINE
  5
300
100
AcDbEntity
  8
0
  6
CONTINUOUS
 62
               2
100
AcDbLine
 10
-22.363998413085937
 20
-22.00016675126335
 30
0.0
 11
-10.636001586914063
 21
-22.00016675126335
 31
0.0
  0
LINE
  5
301
100
AcDbEntity
  8
0
  6
CONTINUOUS
 62
               7
100
AcDbLine
 10
-24.0
 20
-47.00016675126335
 30
0.0
 11
-24.0
 21
2.9998332487366497
 31
0.0
  0
LINE
  5
302
100
AcDbEntity
  8
0
  6
CONTINUOUS
 62
               7
100
AcDbLine
 10
0.0
 20
-47.00016675126335
 30
0.0
 11
0.0
 21
2.9998332487366497
 31
0.0
  0
LINE
  5
303
100
AcDbEntity
  8
0
  6
CONTINUOUS
 62
               7
100
AcDbLine
 10
-24.0
 20
-47.00016675126335
 30
0.0
 11
0.0
 21
-47.00016675126335
 31
0.0
  0
LINE
  5
304
100
AcDbEntity
  8
0
  6
CONTINUOUS
 62
               7
100
AcDbLine
 10
-24.0
 20
2.9998332487366497
 30
0.0
 11
0.0
 21
2.9998332487366497
 31
0.0
  0
LINE
  5
305
100
AcDbEntity
  8
0
  6
CONTINUOUS
 62
               2
100
AcDbLine
 10
-13.363998413085938
 20
-33.00016675126335
 30
0.0
 11
-1.6360015869140625
 21
-33.00016675126335
 31
0.0
  0
LINE
  5
306
100
AcDbEntity
  8
0
  6
CONTINUOUS
 62
               2
100
AcDbLine
 10
-13.363998413085938
 20
-11.00016675126335
 30
0.0
 11
-1.6360015869140625
 21
-11.00016675126335
 31
0.0
  0
LINE
  5
307
100
AcDbEntity
  8
0
  6
CONTINUOUS
 62
               2
100
AcDbLine
 10
-22.5
 20
-2.5001667512633503
 30
0.0
 11
-15.5
 21
-2.5001667512633503
 31
0.0
  0
LINE
  5
308
100
AcDbEntity
  8
0
  6
CONTINUOUS
 62
               2
100
AcDbLine
 10
-19.0
 20
-6.0001667512633503
 30
0.0
 11
-19.0
 21
0.9998332487366497
 31
0.0
  0
LINE
  5
309
100
AcDbEntity
  8
0
  6
CONTINUOUS
 62
               2
100
AcDbLine
 10
-16.5
 20
-27.864166475651473
 30
0.0
 11
-16.5
 21
-16.13616643082878
 31
0.0
  0
LINE
  5
30A
100
AcDbEntity
  8
0
  6
CONTINUOUS
 62
               2
100
AcDbLine
 10
-7.5
 20
-38.864167071697921
 30
0.0
 11
-7.5
 21
-5.1361683381774128
 31
0.0
  0
LINE
  5
30B
100
AcDbEntity
  8
0
  6
CONTINUOUS
 62
               7
100
AcDbLine
 10
-25.800003051757812
 20
1.4998332487366497
 30
0.0
 11
-25.800003051757812
 21
3.4998179899475872
 31
0.0
  0
LINE
  5
30C
100
AcDbEntity
  8
0
  6
CONTINUOUS
 62
               7
100
AcDbLine
 10
-28.800003051757813
 20
1.4998332487366497
 30
0.0
 11
-28.800003051757813
 21
3.4998179899475872
 31
0.0
  0
LINE
  5
30D
100
AcDbEntity
  8
0
  6
CONTINUOUS
 62
               7
100
AcDbLine
 10
-48.5
 20
1.4998332487366497
 30
0.0
 11
-48.5
 21
3.4998179899475872
 31
0.0
  0
LINE
  5
30E
100
AcDbEntity
  8
0
  6
CONTINUOUS
 62
               7
100
AcDbLine
 10
-50.5
 20
1.4998332487366497
 30
0.0
 11
-50.5
 21
3.4998179899475872
 31
0.0
  0
LINE
  5
30F
100
AcDbEntity
  8
0
  6
CONTINUOUS
 62
               7
100
AcDbLine
 10
-25.800003051757812
 20
3.4998179899475872
 30
0.0
 11
-24.5
 21
3.4998179899475872
 31
0.0
  0
LINE
  5
310
100
AcDbEntity
  8
0
  6
CONTINUOUS
 62
               7
100
AcDbLine
 10
-48.5
 20
3.4998179899475872
 30
0.0
 11
-28.800003051757813
 21
3.4998179899475872
 31
0.0
  0
ARC
  5
311
100
AcDbEntity
  8
0
  6
CONTINUOUS
 62
               7
100
AcDbCircle
 10
-24.900009155273438
 20
-44.600157595989913
 30
0.0
 40
0.4000000357627869
100
AcDbArc
 50
270.00001798608872
 51
0.00001366037834
  0
ARC
  5
312
100
AcDbEntity
  8
0
  6
CONTINUOUS
 62
               7
100
AcDbCircle
 10
-48.100006103515625
 20
-44.600157595989913
 30
0.0
 40
0.4000000357627869
100
AcDbArc
 50
179.99996402782091
 51
269.99994604173139
  0
ARC
  5
313
100
AcDbEntity
  8
0
  6
CONTINUOUS
 62
               7
100
AcDbCircle
 10
-48.100006103515625
 20
-37.400168277142257
 30
0.0
 40
0.4000000357627869
100
AcDbArc
 50
179.99996402782091
 51
270.00000068324471
  0
ARC
  5
314
100
AcDbEntity
  8
0
  6
CONTINUOUS
 62
               7
100
AcDbCircle
 10
-48.100006103515625
 20
-6.6001728547789753
 30
0.0
 40
0.4000000357627869
100
AcDbArc
 50
89.999982013910454
 51
179.99996402782091
  0
ARC
  5
315
100
AcDbEntity
  8
0
  6
CONTINUOUS
 62
               7
100
AcDbCircle
 10
-51.100006103515625
 20
-5.6001728547789753
 30
0.0
 40
0.4000000357627869
100
AcDbArc
 50
179.99996402782091
 51
269.99994604173139
  0
ARC
  5
316
100
AcDbEntity
  8
0
  6
CONTINUOUS
 62
               7
100
AcDbCircle
 10
-25.550003051757813
 20
-44.00016675126335
 30
0.0
 40
0.5
100
AcDbArc
 50
270.00001798608872
 51
0.0
  0
ARC
  5
317
100
AcDbEntity
  8
0
  6
CONTINUOUS
 62
               7
100
AcDbCircle
 10
-27.050003051757813
 20
-44.00016675126335
 30
0.0
 40
0.5
100
AcDbArc
 50
179.99998133066492
 51
270.00001798608872
  0
ARC
  5
318
100
AcDbEntity
  8
0
  6
CONTINUOUS
 62
               7
100
AcDbCircle
 10
-43.5
 20
-8.4501789582946003
 30
0.0
 40
0.5
100
AcDbArc
 50
89.999982013910454
 51
179.99996402782091
  0
ARC
  5
319
100
AcDbEntity
  8
0
  6
CONTINUOUS
 62
               7
100
AcDbCircle
 10
-43.5
 20
-9.9501789582946003
 30
0.0
 40
0.5
100
AcDbArc
 50
179.99998133066492
 51
270.00001798608872
  0
CIRCLE
  5
31A
100
AcDbEntity
  8
0
  6
CONTINUOUS
 62
               2
100
AcDbCircle
 10
-7.5
 20
-33.00016675126335
 30
0.0
 40
4.8639993667602539
  0
CIRCLE
  5
31B
100
AcDbEntity
  8
0
  6
CONTINUOUS
 62
               2
100
AcDbCircle
 10
-16.5
 20
-22.00016675126335
 30
0.0
 40
4.8639993667602539
  0
CIRCLE
  5
31C
100
AcDbEntity
  8
0
  6
CONTINUOUS
 62
               2
100
AcDbCircle
 10
-7.5
 20
-11.00016675126335
 30
0.0
 40
4.8639993667602539
  0
CIRCLE
  5
31D
100
AcDbEntity
  8
0
  6
CONTINUOUS
 62
               2
100
AcDbCircle
 10
-19.0
 20
-2.5001667512633503
 30
0.0
 40
2.5
  0
CIRCLE
  5
31E
100
AcDbEntity
  8
0
  6
CONTINUOUS
 62
               7
100
AcDbCircle
 10
-19.0
 20
-2.5001667512633503
 30
0.0
 40
2.0669994354248047
  0
CIRCLE
  5
31F
100
AcDbEntity
  8
0
  6
CONTINUOUS
 62
               7
100
AcDbCircle
 10
-7.5
 20
-11.00016675126335
 30
0.0
 40
4.2829999923706055
  0
CIRCLE
  5
320
100
AcDbEntity
  8
0
  6
CONTINUOUS
 62
               7
100
AcDbCircle
 10
-16.5
 20
-22.00016675126335
 30
0.0
 40
4.2829999923706055
  0
CIRCLE
  5
321
100
AcDbEntity
  8
0
  6
CONTINUOUS
 62
               7
100
AcDbCircle
 10
-7.5
 20
-33.00016675126335
 30
0.0
 40
4.2829999923706055
  0
LINE
  5
322
100
AcDbEntity
  8
0
  6
CONTINUOUS
 62
               7
100
AcDbLine
 10
-24.5
 20
12.99981807621063
 30
0.0
 11
-51.5
 21
12.999817989947587
 31
0.0
  0
LINE
  5
323
100
AcDbEntity
  8
0
  6
CONTINUOUS
 62
               4
100
AcDbLine
 10
-51.499999741210942
 20
12.999817989947587
 30
0.0
 11
-51.499999741210942
 21
36.999817989947587
 31
0.0
  0
LINE
  5
324
100
AcDbEntity
  8
0
  6
CONTINUOUS
 62
               4
100
AcDbLine
 10
-24.499999741210942
 20
12.999817989947587
 30
0.0
 11
-24.499999741210942
 21
36.999817989947587
 31
0.0
  0
LINE
  5
325
100
AcDbEntity
  8
0
  6
CONTINUOUS
 62
               4
100
AcDbLine
 10
-24.49998600830078
 20
45.499817989947587
 30
0.0
 11
-24.49998600830078
 21
36.999817989947587
 31
0.0
  0
LINE
  5
326
100
AcDbEntity
  8
0
  6
CONTINUOUS
 62
               4
100
AcDbLine
 10
-36.74998600830078
 20
37.499817989947587
 30
0.0
 11
-36.74998600830078
 21
36.999817989947587
 31
0.0
  0
LINE
  5
327
100
AcDbEntity
  8
0
  6
CONTINUOUS
 62
               4
100
AcDbLine
 10
-39.249986008300795
 20
37.499817989947587
 30
0.0
 11
-39.249986008300795
 21
36.999817989947587
 31
0.0
  0
LINE
  5
328
100
AcDbEntity
  8
0
  6
CONTINUOUS
 62
               4
100
AcDbLine
 10
-44.49998600830078
 20
39.399817989947593
 30
0.0
 11
-44.49998600830078
 21
38.449817989947604
 31
0.0
  0
LINE
  5
329
100
AcDbEntity
  8
0
  6
CONTINUOUS
 62
               4
100
AcDbLine
 10
-31.599986008300775
 20
39.399817989947593
 30
0.0
 11
-31.599986008300775
 21
38.449817989947604
 31
0.0
  0
LINE
  5
32A
100
AcDbEntity
  8
0
  6
CONTINUOUS
 62
               4
100
AcDbLine
 10
-39.249986008300795
 20
37.499817989947587
 30
0.0
 11
-36.74998600830078
 21
37.499817989947587
 31
0.0
  0
LINE
  5
32B
100
AcDbEntity
  8
0
  6
CONTINUOUS
 62
               4
100
AcDbLine
 10
-46.599986008300775
 20
39.399817989947593
 30
0.0
 11
-44.49998600830078
 21
39.399817989947593
 31
0.0
  0
LINE
  5
32C
100
AcDbEntity
  8
0
  6
CONTINUOUS
 62
               4
100
AcDbLine
 10
-31.599986008300775
 20
39.399817989947593
 30
0.0
 11
-29.49998600830078
 21
39.399817989947593
 31
0.0
  0
LINE
  5
32D
100
AcDbEntity
  8
0
  6
CONTINUOUS
 62
               4
100
AcDbLine
 10
-51.49998600830078
 20
41.179817989947594
 30
0.0
 11
-51.49998600830078
 21
36.999817989947587
 31
0.0
  0
LINE
  5
32E
100
AcDbEntity
  8
0
  6
CONTINUOUS
 62
               4
100
AcDbLine
 10
-49.174006846864827
 20
45.999817989947587
 30
0.0
 11
-35.599986008300775
 21
45.999817989947587
 31
0.0
  0
LINE
  5
32F
100
AcDbEntity
  8
0
  6
CONTINUOUS
 62
               4
100
AcDbLine
 10
-49.629986008300776
 20
45.7048179899476
 30
0.0
 11
-51.369986008300785
 21
41.789817989947579
 31
0.0
  0
ARC
  5
330
100
AcDbEntity
  8
0
  6
CONTINUOUS
 62
               4
100
AcDbCircle
 10
-49.174006846864827
 20
45.499917927393852
 30
0.0
 40
0.4999010215015999
100
AcDbArc
 50
90.112225923134773
 51
155.80262379109485
  0
ARC
  5
331
100
AcDbEntity
  8
0
  6
CONTINUOUS
 62
               4
100
AcDbCircle
 10
-50.002006403661355
 20
41.179428893876889
 30
0.0
 40
1.4979796551727449
100
AcDbArc
 50
155.95369022728892
 51
179.98511757963411
  0
LINE
  5
332
100
AcDbEntity
  8
0
  6
CONTINUOUS
 62
               4
100
AcDbLine
 10
-46.599986008300775
 20
39.399817989947593
 30
0.0
 11
-46.599986008300775
 21
38.449817989947604
 31
0.0
  0
LINE
  5
333
100
AcDbEntity
  8
0
  6
CONTINUOUS
 62
               4
100
AcDbLine
 10
-29.49998600830078
 20
39.399817989947593
 30
0.0
 11
-29.49998600830078
 21
38.449817989947604
 31
0.0
  0
LINE
  5
334
100
AcDbEntity
  8
0
  6
CONTINUOUS
 62
               4
100
AcDbLine
 10
-31.599986008300775
 20
38.449817989947604
 30
0.0
 11
-29.49998600830078
 21
38.449817989947604
 31
0.0
  0
LINE
  5
335
100
AcDbEntity
  8
0
  6
CONTINUOUS
 62
               4
100
AcDbLine
 10
-46.599986008300775
 20
38.449817989947604
 30
0.0
 11
-44.49998600830078
 21
38.449817989947604
 31
0.0
  0
LINE
  5
336
100
AcDbEntity
  8
0
  6
CONTINUOUS
 62
               4
100
AcDbLine
 10
-35.599986008300775
 20
50.499817989947587
 30
0.0
 11
-35.599986008300775
 21
45.999817989947587
 31
0.0
  0
LINE
  5
337
100
AcDbEntity
  8
0
  6
CONTINUOUS
 62
               4
100
AcDbLine
 10
-26.99998600830078
 20
50.499817989947587
 30
0.0
 11
-26.99998600830078
 21
45.999817989947587
 31
0.0
  0
LINE
  5
338
100
AcDbEntity
  8
0
  6
CONTINUOUS
 62
               4
100
AcDbLine
 10
-26.99998600830078
 20
45.999817989947587
 30
0.0
 11
-24.99998600830078
 21
45.999817989947587
 31
0.0
  0
ARC
  5
339
100
AcDbEntity
  8
0
  6
CONTINUOUS
 62
               4
100
AcDbCircle
 10
-24.99998600830078
 20
45.499817989947587
 30
0.0
 40
0.5
100
AcDbArc
 50
0.0
 51
89.999999999999815
  0
LINE
  5
33A
100
AcDbEntity
  8
0
  6
CONTINUOUS
 62
               4
100
AcDbLine
 10
-39.24998600830078
 20
37.499817989947587
 30
0.0
 11
-39.24998600830078
 21
36.999817989947587
 31
0.0
  0
LINE
  5
33B
100
AcDbEntity
  8
0
  6
CONTINUOUS
 62
               4
100
AcDbLine
 10
-36.74998600830078
 20
37.499817989947587
 30
0.0
 11
-36.74998600830078
 21
36.999817989947587
 31
0.0
  0
LINE
  5
33C
100
AcDbEntity
  8
0
  6
CONTINUOUS
 62
               4
100
AcDbLine
 10
-36.74998600830078
 20
37.499817989947587
 30
0.0
 11
-39.24998600830078
 21
37.499817989947587
 31
0.0
  0
LINE
  5
33D
100
AcDbEntity
  8
0
  6
CONTINUOUS
 62
             200
100
AcDbLine
 10
-34.314980351398489
 20
62.464282805026414
 30
0.0
 11
-27.384970197879383
 21
58.463230900511007
 31
0.0
  0
LINE
  5
33E
100
AcDbEntity
  8
0
  6
CONTINUOUS
 62
             200
100
AcDbLine
 10
-34.315004899772802
 20
63.618923799882396
 30
0.0
 11
-27.384975808209319
 21
59.617875236101099
 31
0.0
  0
LINE
  5
33F
100
AcDbEntity
  8
0
  6
CONTINUOUS
 62
               4
100
AcDbLine
 10
-28.88498967041015
 20
56.999817989947587
 30
0.0
 11
-28.88498967041015
 21
59.3292399870179
 31
0.0
  0
LINE
  5
340
100
AcDbEntity
  8
0
  6
CONTINUOUS
 62
               4
100
AcDbLine
 10
-30.314997604980462
 20
56.999817989947587
 30
0.0
 11
-30.314997604980462
 21
60.154847286822587
 31
0.0
  0
LINE
  5
341
100
AcDbEntity
  8
0
  6
CONTINUOUS
 62
               4
100
AcDbLine
 10
-29.1999921118164
 20
69.999817989947587
 30
0.0
 11
-29.999995163574212
 21
69.999817989947587
 31
0.0
  0
LINE
  5
342
100
AcDbEntity
  8
0
  6
CONTINUOUS
 62
               4
100
AcDbLine
 10
-29.1999921118164
 20
64.999817989947587
 30
0.0
 11
-29.1999921118164
 21
69.999802731158525
 31
0.0
  0
LINE
  5
343
100
AcDbEntity
  8
0
  6
CONTINUOUS
 62
               4
100
AcDbLine
 10
-29.999995163574212
 20
64.999817989947587
 30
0.0
 11
-29.999995163574212
 21
69.999817989947587
 31
0.0
  0
LINE
  5
344
100
AcDbEntity
  8
0
  6
CONTINUOUS
 62
               4
100
AcDbLine
 10
-28.88498967041015
 20
64.999817989947587
 30
0.0
 11
-30.314997604980462
 21
64.999817989947587
 31
0.0
  0
LINE
  5
345
100
AcDbEntity
  8
0
  6
CONTINUOUS
 62
               4
100
AcDbLine
 10
-28.88498967041015
 20
60.483933590533525
 30
0.0
 11
-28.88498967041015
 21
64.999817989947587
 31
0.0
  0
LINE
  5
346
100
AcDbEntity
  8
0
  6
CONTINUOUS
 62
               4
100
AcDbLine
 10
-30.314997604980462
 20
61.309556149127275
 30
0.0
 11
-30.314997604980462
 21
64.999817989947587
 31
0.0
  0
LINE
  5
347
100
AcDbEntity
  8
0
  6
CONTINUOUS
 62
               4
100
AcDbLine
 10
-32.814997604980462
 20
62.752930782916337
 30
0.0
 11
-32.814997604980462
 21
64.999817989947587
 31
0.0
  0
LINE
  5
348
100
AcDbEntity
  8
0
  6
CONTINUOUS
 62
               4
100
AcDbLine
 10
-31.38498967041015
 20
61.927308224322587
 30
0.0
 11
-31.38498967041015
 21
64.999817989947587
 31
0.0
  0
LINE
  5
349
100
AcDbEntity
  8
0
  6
CONTINUOUS
 62
               4
100
AcDbLine
 10
-32.814997604980462
 20
64.999817989947587
 30
0.0
 11
-31.38498967041015
 21
64.999817989947587
 31
0.0
  0
LINE
  5
34A
100
AcDbEntity
  8
0
  6
CONTINUOUS
 62
               4
100
AcDbLine
 10
-31.38498967041015
 20
56.999817989947587
 30
0.0
 11
-31.38498967041015
 21
60.772614620806962
 31
0.0
  0
LINE
  5
34B
100
AcDbEntity
  8
0
  6
CONTINUOUS
 62
               4
100
AcDbLine
 10
-32.814997604980462
 20
56.999817989947587
 30
0.0
 11
-32.814997604980462
 21
61.59822192061165
 31
0.0
  0
LINE
  5
34C
100
AcDbEntity
  8
0
  6
CONTINUOUS
 62
               4
100
AcDbLine
 10
-32.499995163574212
 20
64.999817989947587
 30
0.0
 11
-32.499995163574212
 21
69.999817989947587
 31
0.0
  0
LINE
  5
34D
100
AcDbEntity
  8
0
  6
CONTINUOUS
 62
               4
100
AcDbLine
 10
-31.6999921118164
 20
64.999817989947587
 30
0.0
 11
-31.6999921118164
 21
69.999817989947587
 31
0.0
  0
LINE
  5
34E
100
AcDbEntity
  8
0
  6
CONTINUOUS
 62
               4
100
AcDbLine
 10
-32.499995163574212
 20
69.999817989947587
 30
0.0
 11
-31.6999921118164
 21
69.999817989947587
 31
0.0
  0
LINE
  5
34F
100
AcDbEntity
  8
0
  6
CONTINUOUS
 62
               4
100
AcDbLine
 10
-37.649989060058587
 20
55.499817989947587
 30
0.0
 11
-37.649989060058587
 21
56.999817989947587
 31
0.0
  0
LINE
  5
350
100
AcDbEntity
  8
0
  6
CONTINUOUS
 62
               4
100
AcDbLine
 10
-35.650030519904803
 20
55.999776932849272
 30
0.0
 11
-36.227382335668707
 21
56.999785637804052
 31
0.0
  0
LINE
  5
351
100
AcDbEntity
  8
0
  6
CONTINUOUS
 62
               4
100
AcDbLine
 10
-35.649989060058587
 20
50.499817989947587
 30
0.0
 11
-35.649989060058587
 21
56.999817989947587
 31
0.0
  0
LINE
  5
352
100
AcDbEntity
  8
0
  6
CONTINUOUS
 62
               4
100
AcDbLine
 10
-36.649987310537298
 20
46.498268731706958
 30
0.0
 11
-37.14998641941439
 21
50.055956815395803
 31
0.0
  0
LINE
  5
353
100
AcDbEntity
  8
0
  6
CONTINUOUS
 62
               4
100
AcDbLine
 10
-37.149989060058587
 20
50.055970333697587
 30
0.0
 11
-37.149989060058587
 21
55.499817989947587
 31
0.0
  0
LINE
  5
354
100
AcDbEntity
  8
0
  6
CONTINUOUS
 62
               4
100
AcDbLine
 10
-26.649973801269525
 20
55.999817989947587
 30
0.0
 11
-27.149973801269525
 21
55.999817989947587
 31
0.0
  0
LINE
  5
355
100
AcDbEntity
  8
0
  6
CONTINUOUS
 62
               4
100
AcDbLine
 10
-26.649989060058587
 20
55.999817989947587
 30
0.0
 11
-26.649989060058587
 21
56.999817989947587
 31
0.0
  0
LINE
  5
356
100
AcDbEntity
  8
0
  6
CONTINUOUS
 62
               4
100
AcDbLine
 10
-27.149989060058587
 20
50.499817989947587
 30
0.0
 11
-27.149989060058587
 21
55.999817989947587
 31
0.0
  0
LINE
  5
357
100
AcDbEntity
  8
0
  6
CONTINUOUS
 62
               4
100
AcDbLine
 10
-35.649986217708474
 20
46.498292141817728
 30
0.0
 11
-35.599965664402234
 21
46.548312695123968
 31
0.0
  0
LINE
  5
358
100
AcDbEntity
  8
0
  6
CONTINUOUS
 62
               4
100
AcDbLine
 10
-37.149981430664056
 20
55.499817989947587
 30
0.0
 11
-37.649981430664056
 21
55.499817989947587
 31
0.0
  0
LINE
  5
359
100
AcDbEntity
  8
0
  6
CONTINUOUS
 62
               4
100
AcDbLine
 10
-35.649989060058587
 20
47.998276852252275
 30
0.0
 11
-35.649989060058587
 21
50.499817989947587
 31
0.0
  0
LINE
  5
35A
100
AcDbEntity
  8
0
  6
CONTINUOUS
 62
               4
100
AcDbLine
 10
-35.649989060058587
 20
46.498276852252275
 30
0.0
 11
-36.649981430664056
 21
46.498276852252275
 31
0.0
  0
LINE
  5
35B
100
AcDbEntity
  8
0
  6
CONTINUOUS
 62
               4
100
AcDbLine
 10
-35.599986008300775
 20
47.998276852252275
 30
0.0
 11
-35.649989060058587
 21
47.998276852252275
 31
0.0
  0
LINE
  5
35C
100
AcDbEntity
  8
0
  6
CONTINUOUS
 62
               4
100
AcDbLine
 10
-36.2273358618164
 20
56.999817989947587
 30
0.0
 11
-37.649981430664056
 21
56.999817989947587
 31
0.0
  0
LINE
  5
35D
100
AcDbEntity
  8
0
  6
CONTINUOUS
 62
               4
100
AcDbLine
 10
-26.99998600830078
 20
50.499817989947587
 30
0.0
 11
-35.649989060058587
 21
50.499817989947587
 31
0.0
  0
LINE
  5
35E
100
AcDbEntity
  8
0
  6
CONTINUOUS
 62
               4
100
AcDbLine
 10
-26.649973801269525
 20
56.999817989947587
 30
0.0
 11
-35.649973801269525
 21
56.999817989947587
 31
0.0
  0
LINE
  5
35F
100
AcDbEntity
  8
0
  6
CONTINUOUS
 62
               4
100
AcDbLine
 10
-35.599986008300775
 20
50.499817989947587
 30
0.0
 11
-35.599986008300775
 21
45.999817989947587
 31
0.0
  0
LINE
  5
360
100
AcDbEntity
  8
0
  6
CONTINUOUS
 62
               4
100
AcDbLine
 10
-24.49998600830078
 20
36.999817989947587
 30
0.0
 11
-51.499992111816411
 21
36.999817989947587
 31
0.0
  0
LINE
  5
361
100
AcDbEntity
  8
0
  6
CONTINUOUS
 62
               4
100
AcDbLine
 10
-26.099999741210937
 20
29.999817989947587
 30
0.0
 11
-26.099999741210937
 21
36.999817989947587
 31
0.0
  0
LINE
  5
362
100
AcDbEntity
  8
0
  6
CONTINUOUS
 62
               4
100
AcDbLine
 10
-25.199999741210931
 20
29.999817989947587
 30
0.0
 11
-25.199999741210931
 21
36.999817989947587
 31
0.0
  0
LINE
  5
363
100
AcDbEntity
  8
0
  6
CONTINUOUS
 62
               4
100
AcDbLine
 10
-24.49998600830078
 20
29.999817989947587
 30
0.0
 11
-26.099999741210937
 21
29.999817989947587
 31
0.0
  0
LINE
  5
364
100
AcDbEntity
  8
0
  6
CONTINUOUS
 62
               4
100
AcDbLine
 10
-36.499999750795709
 20
33.999818028286711
 30
0.0
 11
-36.499999808304423
 21
15.999818028286711
 31
0.0
  0
LINE
  5
365
100
AcDbEntity
  8
0
  6
CONTINUOUS
 62
               4
100
AcDbLine
 10
-29.499999750795709
 20
33.999818005922236
 30
0.0
 11
-29.499999808304423
 21
15.999818005922236
 31
0.0
  0
LINE
  5
366
100
AcDbEntity
  8
0
  6
CONTINUOUS
 62
               4
100
AcDbLine
 10
-38.499999750795709
 20
33.999818034676593
 30
0.0
 11
-29.499999750795709
 21
33.999818005922236
 31
0.0
  0
LINE
  5
367
100
AcDbEntity
  8
0
  6
CONTINUOUS
 62
               4
100
AcDbLine
 10
-38.499999808304423
 20
15.999818034676593
 30
0.0
 11
-29.499999808304423
 21
15.999818005922236
 31
0.0
  0
LINE
  5
368
100
AcDbEntity
  8
0
  6
CONTINUOUS
 62
               2
100
AcDbLine
 10
-4.0
 20
-44.00016675126335
 30
0.0
 11
4.0
 21
-44.00016675126335
 31
0.0
  0
LINE
  5
369
100
AcDbEntity
  8
0
  6
CONTINUOUS
 62
               2
100
AcDbLine
 10
-4.0
 20
-0.0001667512633503
 30
0.0
 11
4.0
 21
-0.0001667512633503
 31
0.0
  0
LINE
  5
36A
100
AcDbEntity
  8
0
  6
CONTINUOUS
 62
               7
100
AcDbLine
 10
-24.5
 20
-38.00016675126335
 30
0.0
 11
-24.5
 21
0.9998332487366497
 31
0.0
  0
LINE
  5
36B
100
AcDbEntity
  8
0
  6
CONTINUOUS
 62
               7
100
AcDbLine
 10
-24.0
 20
-38.00016675126335
 30
0.0
 11
-24.0
 21
0.9998332487366497
 31
0.0
  0
LINE
  5
36C
100
AcDbEntity
  8
0
  6
CONTINUOUS
 62
               7
100
AcDbLine
 10
-24.5
 20
-38.00016675126335
 30
0.0
 11
-24.0
 21
-38.00016675126335
 31
0.0
  0
LINE
  5
36D
100
AcDbEntity
  8
0
  6
CONTINUOUS
 62
               7
100
AcDbLine
 10
-24.5
 20
0.9998332487366497
 30
0.0
 11
-24.0
 21
0.9998332487366497
 31
0.0
  0
ENDBLK
  5
36E
100
AcDbEntity
  8
0
100
AcDbBlockEnd
  0
BLOCK
  5
36F
100
AcDbEntity
  8
0
100
AcDbBlockBegin
  2
F10T0-10
 70
               0
 10
0.0
 20
0.0
 30
0.0
  3
F10T0-10
  1

  0
LINE
  5
370
100
AcDbEntity
  8
0
  6
CONTINUOUS
 62
               7
100
AcDbLine
 10
-3.0
 20
24.0
 30
0.0
 11
-3.0
 21
0.0
 31
0.0
  0
LINE
  5
371
100
AcDbEntity
  8
0
  6
CONTINUOUS
 62
               7
100
AcDbLine
 10
22.0
 20
24.0
 30
0.0
 11
22.0
 21
0.0
 31
0.0
  0
LINE
  5
372
100
AcDbEntity
  8
0
  6
CONTINUOUS
 62
               7
100
AcDbLine
 10
-3.0
 20
0.0
 30
0.0
 11
22.0
 21
0.0
 31
0.0
  0
LINE
  5
373
100
AcDbEntity
  8
0
  6
CONTINUOUS
 62
               7
100
AcDbLine
 10
-3.0
 20
24.0
 30
0.0
 11
22.0
 21
24.0
 31
0.0
  0
LINE
  5
374
100
AcDbEntity
  8
0
  6
CONTINUOUS
 62
               2
100
AcDbLine
 10
10.0
 20
-5.0
 30
0.0
 11
10.0
 21
57.280000000000001
 31
0.0
  0
LINE
  5
375
100
AcDbEntity
  8
0
  6
CONTINUOUS
 62
               7
100
AcDbLine
 10
5.0
 20
24.5
 30
0.0
 11
15.0
 21
24.5
 31
0.0
  0
LINE
  5
376
100
AcDbEntity
  8
0
  6
CONTINUOUS
 62
               7
100
AcDbLine
 10
5.0
 20
51.5
 30
0.0
 11
5.0
 21
24.5
 31
0.0
  0
LINE
  5
377
100
AcDbEntity
  8
0
  6
CONTINUOUS
 62
               7
100
AcDbLine
 10
15.0
 20
51.5
 30
0.0
 11
15.0
 21
24.5
 31
0.0
  0
LINE
  5
378
100
AcDbEntity
  8
0
  6
CONTINUOUS
 62
               7
100
AcDbLine
 10
5.4000000000000004
 20
48.5
 30
0.0
 11
14.6
 21
48.5
 31
0.0
  0
LINE
  5
379
100
AcDbEntity
  8
0
  6
CONTINUOUS
 62
               7
100
AcDbLine
 10
5.0
 20
43.299999999999997
 30
0.0
 11
6.7999999999999998
 21
43.299999999999997
 31
0.0
  0
LINE
  5
37A
100
AcDbEntity
  8
0
  6
CONTINUOUS
 62
               7
100
AcDbLine
 10
5.0
 20
40.100000000000001
 30
0.0
 11
6.7999999999999998
 21
40.100000000000001
 31
0.0
  0
LINE
  5
37B
100
AcDbEntity
  8
0
  6
CONTINUOUS
 62
               7
100
AcDbLine
 10
11.6
 20
26.300000000000001
 30
0.0
 11
11.6
 21
24.5
 31
0.0
  0
LINE
  5
37C
100
AcDbEntity
  8
0
  6
CONTINUOUS
 62
               7
100
AcDbLine
 10
13.199999999999999
 20
27.899999999999999
 30
0.0
 11
15.0
 21
27.899999999999999
 31
0.0
  0
LINE
  5
37D
100
AcDbEntity
  8
0
  6
CONTINUOUS
 62
               7
100
AcDbLine
 10
12.59
 20
25.690000000000001
 30
0.0
 11
13.800000000000001
 21
26.899999999999999
 31
0.0
  0
LINE
  5
37E
100
AcDbEntity
  8
0
  6
CONTINUOUS
 62
               7
100
AcDbLine
 10
6.1900000000000004
 20
41.090000000000003
 30
0.0
 11
7.4000000000000004
 21
42.299999999999997
 31
0.0
  0
LINE
  5
37F
100
AcDbEntity
  8
0
  6
CONTINUOUS
 62
               7
100
AcDbLine
 10
6.1900000000000004
 20
42.299999999999997
 30
0.0
 11
7.4000000000000004
 21
41.090000000000003
 31
0.0
  0
LINE
  5
380
100
AcDbEntity
  8
0
  6
CONTINUOUS
 62
               7
100
AcDbLine
 10
12.59
 20
26.899999999999999
 30
0.0
 11
13.800000000000001
 21
25.690000000000001
 31
0.0
  0
LINE
  5
381
100
AcDbEntity
  8
0
  6
CONTINUOUS
 62
               7
100
AcDbLine
 10
5.4000000000000004
 20
49.5
 30
0.0
 11
14.6
 21
49.5
 31
0.0
  0
LINE
  5
382
100
AcDbEntity
  8
0
  6
CONTINUOUS
 62
               7
100
AcDbLine
 10
5.0
 20
49.100000000000001
 30
0.0
 11
15.0
 21
49.100000000000001
 31
0.0
  0
LINE
  5
383
100
AcDbEntity
  8
0
  6
CONTINUOUS
 62
               7
100
AcDbLine
 10
15.0
 20
49.100000000000001
 30
0.0
 11
14.6
 21
49.5
 31
0.0
  0
LINE
  5
384
100
AcDbEntity
  8
0
  6
CONTINUOUS
 62
               7
100
AcDbLine
 10
5.4000000000000004
 20
49.5
 30
0.0
 11
5.0
 21
49.100000000000001
 31
0.0
  0
LINE
  5
385
100
AcDbEntity
  8
0
  6
CONTINUOUS
 62
               7
100
AcDbLine
 10
4.0
 20
24.0
 30
0.0
 11
16.0
 21
24.0
 31
0.0
  0
LINE
  5
386
100
AcDbEntity
  8
0
  6
CONTINUOUS
 62
               7
100
AcDbLine
 10
15.0
 20
49.100000000000001
 30
0.0
 11
5.0
 21
49.100000000000001
 31
0.0
  0
LINE
  5
387
100
AcDbEntity
  8
0
  6
CONTINUOUS
 62
               7
100
AcDbLine
 10
5.0
 20
24.5
 30
0.0
 11
5.0
 21
24.0
 31
0.0
  0
LINE
  5
388
100
AcDbEntity
  8
0
  6
CONTINUOUS
 62
               7
100
AcDbLine
 10
15.0
 20
24.5
 30
0.0
 11
15.0
 21
24.0
 31
0.0
  0
LINE
  5
389
100
AcDbEntity
  8
0
  6
CONTINUOUS
 62
               7
100
AcDbLine
 10
5.0
 20
51.5
 30
0.0
 11
15.0
 21
51.5
 31
0.0
  0
LINE
  5
38A
100
AcDbEntity
  8
0
  6
CONTINUOUS
 62
               7
100
AcDbLine
 10
8.0500000000000007
 20
52.5
 30
0.0
 11
11.949999999999999
 21
52.5
 31
0.0
  0
LINE
  5
38B
100
AcDbEntity
  8
0
  6
CONTINUOUS
 62
               7
100
AcDbLine
 10
11.949999999999999
 20
51.5
 30
0.0
 11
11.949999999999999
 21
52.5
 31
0.0
  0
LINE
  5
38C
100
AcDbEntity
  8
0
  6
CONTINUOUS
 62
               7
100
AcDbLine
 10
8.0500000000000007
 20
51.5
 30
0.0
 11
8.0500000000000007
 21
52.5
 31
0.0
  0
LINE
  5
38D
100
AcDbEntity
  8
0
  6
CONTINUOUS
 62
               2
100
AcDbLine
 10
0.0
 20
3.0
 30
0.0
 11
0.0
 21
-3.0
 31
0.0
  0
ARC
  5
38E
100
AcDbEntity
  8
0
  6
CONTINUOUS
 62
               7
100
AcDbCircle
 10
5.4000091555644758
 20
24.900009155564476
 30
0.0
 40
0.4000091556692538
100
AcDbArc
 50
180.00131140799169
 51
269.99868859200757
  0
ARC
  5
38F
100
AcDbEntity
  8
0
  6
CONTINUOUS
 62
               7
100
AcDbCircle
 10
5.4000091555644758
 20
48.099990844435524
 30
0.0
 40
0.4000091556692538
100
AcDbArc
 50
90.001311407991636
 51
179.99868859200751
  0
ARC
  5
390
100
AcDbEntity
  8
0
  6
CONTINUOUS
 62
               7
100
AcDbCircle
 10
14.599990844435526
 20
48.099990844435524
 30
0.0
 40
0.4000091556692538
100
AcDbArc
 50
0.0013114079920823
 51
89.998688592008222
  0
ARC
  5
391
100
AcDbEntity
  8
0
  6
CONTINUOUS
 62
               7
100
AcDbCircle
 10
14.599975585937502
 20
24.9000244140625
 30
0.0
 40
0.4000244148075126
100
AcDbArc
 50
270.00349684341938
 51
359.99650315657863
  0
CIRCLE
  5
392
100
AcDbEntity
  8
0
  6
CONTINUOUS
 62
               7
100
AcDbCircle
 10
13.20001220703125
 20
26.29998779296875
 30
0.0
 40
1.25
  0
CIRCLE
  5
393
100
AcDbEntity
  8
0
  6
CONTINUOUS
 62
               7
100
AcDbCircle
 10
6.800018310546875
 20
41.70001220703125
 30
0.0
 40
1.25
  0
ARC
  5
394
100
AcDbEntity
  8
0
  6
CONTINUOUS
 62
               7
100
AcDbCircle
 10
13.200012207031248
 20
26.29998779296875
 30
0.0
 40
1.6000122070778151
100
AcDbArc
 50
90.000437128771608
 51
179.99956287122774
  0
ARC
  5
395
100
AcDbEntity
  8
0
  6
CONTINUOUS
 62
               7
100
AcDbCircle
 10
6.7999999999999998
 20
41.700000000000003
 30
0.0
 40
1.6000000001047718
100
AcDbArc
 50
269.99999999999937
 51
89.999999999999801
  0
ENDBLK
  5
396
100
AcDbEntity
  8
0
100
AcDbBlockEnd
  0
BLOCK
  5
397
100
AcDbEntity
  8
0
100
AcDbBlockBegin
  2
F10T0-11
 70
               0
 10
0.0
 20
0.0
 30
0.0
  3
F10T0-11
  1

  0
LINE
  5
398
100
AcDbEntity
  8
0
  6
CONTINUOUS
 62
               7
100
AcDbLine
 10
30.5
 20
20.499984741210938
 30
0.0
 11
29.199996948242188
 21
20.499984741210938
 31
0.0
  0
LINE
  5
399
100
AcDbEntity
  8
0
  6
CENTER
 62
               2
100
AcDbLine
 10
32.5
 20
26.699996948242188
 30
0.0
 11
29.79998779296875
 21
26.699996948242188
 31
0.0
  0
LINE
  5
39A
100
AcDbEntity
  8
0
  6
CONTINUOUS
 62
               7
100
AcDbLine
 10
31.5
 20
24.749984741210938
 30
0.0
 11
31.5
 21
26.399993896484375
 31
0.0
  0
LINE
  5
39B
100
AcDbEntity
  8
0
  6
CONTINUOUS
 62
               7
100
AcDbLine
 10
31.5
 20
24.75
 30
0.0
 11
30.5
 21
24.75
 31
0.0
  0
LINE
  5
39C
100
AcDbEntity
  8
0
  6
CONTINUOUS
 62
               7
100
AcDbLine
 10
31.499984741210938
 20
28.649993896484375
 30
0.0
 11
30.5
 21
28.649993896484375
 31
0.0
  0
LINE
  5
39D
100
AcDbEntity
  8
0
  6
CONTINUOUS
 62
               7
100
AcDbLine
 10
30.899993896484375
 20
26.399993896484375
 30
0.0
 11
30.899993896484375
 21
26.999984741210938
 31
0.0
  0
LINE
  5
39E
100
AcDbEntity
  8
0
  6
CONTINUOUS
 62
               7
100
AcDbLine
 10
31.5
 20
26.399993896484375
 30
0.0
 11
30.899993896484375
 21
26.399993896484375
 31
0.0
  0
LINE
  5
39F
100
AcDbEntity
  8
0
  6
CONTINUOUS
 62
               7
100
AcDbLine
 10
31.5
 20
27.0
 30
0.0
 11
30.899993896484375
 21
27.0
 31
0.0
  0
LINE
  5
3A0
100
AcDbEntity
  8
0
  6
CONTINUOUS
 62
               7
100
AcDbLine
 10
31.5
 20
26.999984741210938
 30
0.0
 11
31.5
 21
28.649993896484375
 31
0.0
  0
LINE
  5
3A1
100
AcDbEntity
  8
0
  6
CONTINUOUS
 62
               7
100
AcDbLine
 10
30.5
 20
11.399993896484375
 30
0.0
 11
30.5
 21
29.999984741210937
 31
0.0
  0
LINE
  5
3A2
100
AcDbEntity
  8
0
  6
CONTINUOUS
 62
               7
100
AcDbLine
 10
3.4999847412109375
 20
-27.599999999999994
 30
0.0
 11
3.4999847412109375
 21
29.999984741210937
 31
0.0
  0
LINE
  5
3A3
100
AcDbEntity
  8
0
  6
CONTINUOUS
 62
               7
100
AcDbLine
 10
22.5
 20
11.0
 30
0.0
 11
22.5
 21
-21.0
 31
0.0
  0
LINE
  5
3A4
100
AcDbEntity
  8
0
  6
CONTINUOUS
 62
               7
100
AcDbLine
 10
30.100006103515625
 20
11.0
 30
0.0
 11
3.4999847412109375
 21
11.0
 31
0.0
  0
LINE
  5
3A5
100
AcDbEntity
  8
0
  6
CONTINUOUS
 62
               7
100
AcDbLine
 10
27.5
 20
-21.0
 30
0.0
 11
3.4999847412109375
 21
-21.0
 31
0.0
  0
LINE
  5
3A6
100
AcDbEntity
  8
0
  6
CONTINUOUS
 62
               7
100
AcDbLine
 10
27.5
 20
-27.599990844726563
 30
0.0
 11
27.5
 21
-21.0
 31
0.0
  0
LINE
  5
3A7
100
AcDbEntity
  8
0
  6
CONTINUOUS
 62
               7
100
AcDbLine
 10
27.100006103515625
 20
-28.0
 30
0.0
 11
3.899993896484375
 21
-28.0
 31
0.0
  0
LINE
  5
3A8
100
AcDbEntity
  8
0
  6
CONTINUOUS
 62
               7
100
AcDbLine
 10
30.5
 20
18.5
 30
0.0
 11
3.4999847412109375
 21
18.5
 31
0.0
  0
LINE
  5
3A9
100
AcDbEntity
  8
0
  6
CONTINUOUS
 62
               7
100
AcDbLine
 10
22.300003051757813
 20
-28.0
 30
0.0
 11
22.300003051757813
 21
-27.0
 31
0.0
  0
LINE
  5
3AA
100
AcDbEntity
  8
0
  6
CONTINUOUS
 62
               7
100
AcDbLine
 10
22.300003051757813
 20
-27.0
 30
0.0
 11
19.099990844726563
 21
-27.0
 31
0.0
  0
LINE
  5
3AB
100
AcDbEntity
  8
0
  6
CONTINUOUS
 62
               7
100
AcDbLine
 10
23.0
 20
-17.049995422363281
 30
0.0
 11
23.0
 21
-18.549995422363281
 31
0.0
  0
LINE
  5
3AC
100
AcDbEntity
  8
0
  6
CONTINUOUS
 62
               7
100
AcDbLine
 10
19.099990844726563
 20
-28.0
 30
0.0
 11
19.099990844726563
 21
-27.0
 31
0.0
  0
LINE
  5
3AD
100
AcDbEntity
  8
0
  6
CONTINUOUS
 62
               7
100
AcDbLine
 10
4.4999847412109375
 20
18.5
 30
0.0
 11
4.4999847412109375
 21
20.499984741210938
 31
0.0
  0
LINE
  5
3AE
100
AcDbEntity
  8
0
  6
CONTINUOUS
 62
               7
100
AcDbLine
 10
6.9999847412109375
 20
18.5
 30
0.0
 11
6.9999847412109375
 21
20.499984741210938
 31
0.0
  0
LINE
  5
3AF
100
AcDbEntity
  8
0
  6
CONTINUOUS
 62
               7
100
AcDbLine
 10
26.199996948242188
 20
18.5
 30
0.0
 11
26.199996948242188
 21
20.499984741210938
 31
0.0
  0
LINE
  5
3B0
100
AcDbEntity
  8
0
  6
CONTINUOUS
 62
               7
100
AcDbLine
 10
29.199996948242188
 20
18.5
 30
0.0
 11
29.199996948242188
 21
20.499984741210938
 31
0.0
  0
LINE
  5
3B1
100
AcDbEntity
  8
0
  6
CONTINUOUS
 62
               7
100
AcDbLine
 10
4.4999847412109375
 20
20.499984741210938
 30
0.0
 11
3.4999847412109375
 21
20.499984741210938
 31
0.0
  0
LINE
  5
3B2
100
AcDbEntity
  8
0
  6
CONTINUOUS
 62
               7
100
AcDbLine
 10
26.199996948242188
 20
20.499984741210938
 30
0.0
 11
6.9999847412109375
 21
20.499984741210938
 31
0.0
  0
LINE
  5
3B3
100
AcDbEntity
  8
0
  6
CONTINUOUS
 62
               7
100
AcDbLine
 10
-5.0
 20
11.5
 30
0.0
 11
-5.0
 21
-21.5
 31
0.0
  0
LINE
  5
3B4
100
AcDbEntity
  8
0
  6
CONTINUOUS
 62
               7
100
AcDbLine
 10
3.0
 20
11.5
 30
0.0
 11
3.0
 21
-21.5
 31
0.0
  0
LINE
  5
3B5
100
AcDbEntity
  8
0
  6
CONTINUOUS
 62
               7
100
AcDbLine
 10
-5.0
 20
-21.5
 30
0.0
 11
3.0
 21
-21.5
 31
0.0
  0
LINE
  5
3B6
100
AcDbEntity
  8
0
  6
CONTINUOUS
 62
               7
100
AcDbLine
 10
-5.0
 20
11.5
 30
0.0
 11
3.0
 21
11.5
 31
0.0
  0
LINE
  5
3B7
100
AcDbEntity
  8
0
  6
CONTINUOUS
 62
               2
100
AcDbLine
 10
-2.5
 20
0.0
 30
0.0
 11
2.5
 21
0.0
 31
0.0
  0
LINE
  5
3B8
100
AcDbEntity
  8
0
  6
CONTINUOUS
 62
               2
100
AcDbLine
 10
-2.5
 20
-10.0
 30
0.0
 11
2.5
 21
-10.0
 31
0.0
  0
LINE
  5
3B9
100
AcDbEntity
  8
0
  6
CONTINUOUS
 62
               2
100
AcDbLine
 10
0.0
 20
2.5
 30
0.0
 11
0.0
 21
-2.5
 31
0.0
  0
LINE
  5
3BA
100
AcDbEntity
  8
0
  6
CONTINUOUS
 62
               2
100
AcDbLine
 10
0.0
 20
-7.5
 30
0.0
 11
0.0
 21
-12.5
 31
0.0
  0
LINE
  5
3BB
100
AcDbEntity
  8
0
  6
DASHED
 62
               4
100
AcDbLine
 10
-4.0
 20
9.5
 30
0.0
 11
-4.0
 21
-38.0
 31
0.0
  0
LINE
  5
3BC
100
AcDbEntity
  8
0
  6
DASHED
 62
               4
100
AcDbLine
 10
-4.0
 20
9.5
 30
0.0
 11
10.0
 21
9.5
 31
0.0
  0
LINE
  5
3BD
100
AcDbEntity
  8
0
  6
DASHED
 62
               4
100
AcDbLine
 10
-25.0
 20
-38.0
 30
0.0
 11
10.0
 21
-38.0
 31
0.0
  0
LINE
  5
3BE
100
AcDbEntity
  8
0
  6
DASHED
 62
               4
100
AcDbLine
 10
-25.0
 20
-36.79998779296875
 30
0.0
 11
10.0
 21
-36.79998779296875
 31
0.0
  0
LINE
  5
3BF
100
AcDbEntity
  8
0
  6
DASHED
 62
               4
100
AcDbLine
 10
10.0
 20
9.5
 30
0.0
 11
10.0
 21
-38.0
 31
0.0
  0
LINE
  5
3C0
100
AcDbEntity
  8
0
  6
DASHED
 62
               4
100
AcDbLine
 10
-25.0
 20
-36.79998779296875
 30
0.0
 11
-25.0
 21
-38.0
 31
0.0
  0
LINE
  5
3C1
100
AcDbEntity
  8
0
  6
CONTINUOUS
 62
               7
100
AcDbLine
 10
21.449996948242187
 20
-27.5
 30
0.0
 11
19.949996948242188
 21
-27.5
 31
0.0
  0
LINE
  5
3C2
100
AcDbEntity
  8
0
  6
CONTINUOUS
 62
               7
100
AcDbLine
 10
27.5
 20
-20.399994850158691
 30
0.0
 11
27.5
 21
10.399993896484375
 31
0.0
  0
LINE
  5
3C3
100
AcDbEntity
  8
0
  6
CONTINUOUS
 62
               7
100
AcDbLine
 10
22.5
 20
10.800003051757813
 30
0.0
 11
27.099990844726563
 21
10.800003051757813
 31
0.0
  0
LINE
  5
3C4
100
AcDbEntity
  8
0
  6
CONTINUOUS
 62
               7
100
AcDbLine
 10
22.499984741210938
 20
-20.799994468688965
 30
0.0
 11
27.099990844726563
 21
-20.799994468688965
 31
0.0
  0
LINE
  5
3C5
100
AcDbEntity
  8
0
  6
CONTINUOUS
 62
               7
100
AcDbLine
 10
22.5
 20
-16.199994087219238
 30
0.0
 11
27.5
 21
-16.199994087219238
 31
0.0
  0
ARC
  5
3C6
100
AcDbEntity
  8
0
  6
CONTINUOUS
 62
               7
100
AcDbCircle
 10
27.100006103515625
 20
-27.599990844726563
 30
0.0
 40
0.4000000357627869
100
AcDbArc
 50
270.00007262760209
 51
0.0000409811350201
  0
ARC
  5
3C7
100
AcDbEntity
  8
0
  6
CONTINUOUS
 62
               7
100
AcDbCircle
 10
30.100006103515625
 20
11.399993896484375
 30
0.0
 40
0.4000000357627869
100
AcDbArc
 50
270.00007262760209
 51
0.0000409811350201
  0
ARC
  5
3C8
100
AcDbEntity
  8
0
  6
CONTINUOUS
 62
               7
100
AcDbCircle
 10
22.5
 20
-18.549995422363281
 30
0.0
 40
0.5
100
AcDbArc
 50
269.99996334457541
 51
359.99994535848583
  0
ARC
  5
3C9
100
AcDbEntity
  8
0
  6
CONTINUOUS
 62
               7
100
AcDbCircle
 10
22.5
 20
-17.049995422363281
 30
0.0
 40
0.5
100
AcDbArc
 50
359.99994535848583
 51
89.999982013910454
  0
CIRCLE
  5
3CA
100
AcDbEntity
  8
0
  6
CONTINUOUS
 62
               7
100
AcDbCircle
 10
0.0
 20
0.0
 30
0.0
 40
1.5999994277954102
  0
CIRCLE
  5
3CB
100
AcDbEntity
  8
0
  6
CONTINUOUS
 62
               7
100
AcDbCircle
 10
0.0
 20
-10.0
 30
0.0
 40
1.5999994277954102
  0
ARC
  5
3CC
100
AcDbEntity
  8
0
  6
CONTINUOUS
 62
               7
100
AcDbCircle
 10
19.949996948242188
 20
-27.0
 30
0.0
 40
0.5
100
AcDbArc
 50
180.0000359721783
 51
270.00001798608872
  0
ARC
  5
3CD
100
AcDbEntity
  8
0
  6
CONTINUOUS
 62
               7
100
AcDbCircle
 10
21.449996948242187
 20
-27.0
 30
0.0
 40
0.5
100
AcDbArc
 50
270.00001798608872
 51
0.0000546415133601
  0
ARC
  5
3CE
100
AcDbEntity
  8
0
  6
CONTINUOUS
 62
               7
100
AcDbCircle
 10
27.099990844726563
 20
10.399993896484375
 30
0.0
 40
0.3999999761581421
100
AcDbArc
 50
0.0
 51
89.999982013910454
  0
ARC
  5
3CF
100
AcDbEntity
  8
0
  6
CONTINUOUS
 62
               7
100
AcDbCircle
 10
27.099990844726563
 20
-20.399994850158691
 30
0.0
 40
0.3999999761581421
100
AcDbArc
 50
270.00001798608872
 51
0.0
  0
LINE
  5
3D0
100
AcDbEntity
  8
0
  6
CONTINUOUS
 62
               4
100
AcDbLine
 10
30.5
 20
29.999984741210937
 30
0.0
 11
30.5
 21
53.999984741210938
 31
0.0
  0
LINE
  5
3D1
100
AcDbEntity
  8
0
  6
CONTINUOUS
 62
               4
100
AcDbLine
 10
3.5
 20
29.999984741210937
 30
0.0
 11
3.5
 21
53.999984741210938
 31
0.0
  0
LINE
  5
3D2
100
AcDbEntity
  8
0
  6
CONTINUOUS
 62
               4
100
AcDbLine
 10
3.4999862670898381
 20
62.499984741210938
 30
0.0
 11
3.4999862670898381
 21
53.999984741210938
 31
0.0
  0
LINE
  5
3D3
100
AcDbEntity
  8
0
  6
CONTINUOUS
 62
               4
100
AcDbLine
 10
15.749986267089838
 20
54.499984741210938
 30
0.0
 11
15.749986267089838
 21
53.999984741210938
 31
0.0
  0
LINE
  5
3D4
100
AcDbEntity
  8
0
  6
CONTINUOUS
 62
               4
100
AcDbLine
 10
18.249986267089866
 20
54.499984741210938
 30
0.0
 11
18.249986267089866
 21
53.999984741210938
 31
0.0
  0
LINE
  5
3D5
100
AcDbEntity
  8
0
  6
CONTINUOUS
 62
               4
100
AcDbLine
 10
23.499986267089838
 20
56.399984741210943
 30
0.0
 11
23.499986267089838
 21
55.449984741210955
 31
0.0
  0
LINE
  5
3D6
100
AcDbEntity
  8
0
  6
CONTINUOUS
 62
               4
100
AcDbLine
 10
10.599986267089832
 20
56.399984741210943
 30
0.0
 11
10.599986267089832
 21
55.449984741210955
 31
0.0
  0
LINE
  5
3D7
100
AcDbEntity
  8
0
  6
CONTINUOUS
 62
               4
100
AcDbLine
 10
18.249986267089866
 20
54.499984741210938
 30
0.0
 11
15.749986267089838
 21
54.499984741210938
 31
0.0
  0
LINE
  5
3D8
100
AcDbEntity
  8
0
  6
CONTINUOUS
 62
               4
100
AcDbLine
 10
25.599986267089832
 20
56.399984741210943
 30
0.0
 11
23.499986267089838
 21
56.399984741210943
 31
0.0
  0
LINE
  5
3D9
100
AcDbEntity
  8
0
  6
CONTINUOUS
 62
               4
100
AcDbLine
 10
10.599986267089832
 20
56.399984741210943
 30
0.0
 11
8.4999862670898381
 21
56.399984741210943
 31
0.0
  0
LINE
  5
3DA
100
AcDbEntity
  8
0
  6
CONTINUOUS
 62
               4
100
AcDbLine
 10
30.499986267089838
 20
58.179984741210944
 30
0.0
 11
30.499986267089838
 21
53.999984741210938
 31
0.0
  0
LINE
  5
3DB
100
AcDbEntity
  8
0
  6
CONTINUOUS
 62
               4
100
AcDbLine
 10
28.174007105653885
 20
62.999984741210938
 30
0.0
 11
14.599986267089832
 21
62.999984741210938
 31
0.0
  0
LINE
  5
3DC
100
AcDbEntity
  8
0
  6
CONTINUOUS
 62
               4
100
AcDbLine
 10
28.629986267089834
 20
62.70498474121095
 30
0.0
 11
30.369986267089843
 21
58.78998474121093
 31
0.0
  0
ARC
  5
3DD
100
AcDbEntity
  8
0
  6
CONTINUOUS
 62
               4
100
AcDbCircle
 10
28.174007105653885
 20
62.500084678657203
 30
0.0
 40
0.4999010215015999
100
AcDbArc
 50
24.197376208904771
 51
89.887774076864815
  0
ARC
  5
3DE
100
AcDbEntity
  8
0
  6
CONTINUOUS
 62
               4
100
AcDbCircle
 10
29.002006662450412
 20
58.179595645140239
 30
0.0
 40
1.4979796551727449
100
AcDbArc
 50
0.0148824203654679
 51
24.046309772710686
  0
LINE
  5
3DF
100
AcDbEntity
  8
0
  6
CONTINUOUS
 62
               4
100
AcDbLine
 10
25.599986267089832
 20
56.399984741210943
 30
0.0
 11
25.599986267089832
 21
55.449984741210955
 31
0.0
  0
LINE
  5
3E0
100
AcDbEntity
  8
0
  6
CONTINUOUS
 62
               4
100
AcDbLine
 10
8.4999862670898381
 20
56.399984741210943
 30
0.0
 11
8.4999862670898381
 21
55.449984741210955
 31
0.0
  0
LINE
  5
3E1
100
AcDbEntity
  8
0
  6
CONTINUOUS
 62
               4
100
AcDbLine
 10
10.599986267089832
 20
55.449984741210955
 30
0.0
 11
8.4999862670898381
 21
55.449984741210955
 31
0.0
  0
LINE
  5
3E2
100
AcDbEntity
  8
0
  6
CONTINUOUS
 62
               4
100
AcDbLine
 10
25.599986267089832
 20
55.449984741210955
 30
0.0
 11
23.499986267089838
 21
55.449984741210955
 31
0.0
  0
LINE
  5
3E3
100
AcDbEntity
  8
0
  6
CONTINUOUS
 62
               4
100
AcDbLine
 10
14.599986267089832
 20
67.499984741210938
 30
0.0
 11
14.599986267089832
 21
62.999984741210938
 31
0.0
  0
LINE
  5
3E4
100
AcDbEntity
  8
0
  6
CONTINUOUS
 62
               4
100
AcDbLine
 10
5.9999862670898381
 20
67.499984741210938
 30
0.0
 11
5.9999862670898381
 21
62.999984741210938
 31
0.0
  0
LINE
  5
3E5
100
AcDbEntity
  8
0
  6
CONTINUOUS
 62
               4
100
AcDbLine
 10
5.9999862670898381
 20
62.999984741210938
 30
0.0
 11
3.9999862670898381
 21
62.999984741210938
 31
0.0
  0
ARC
  5
3E6
100
AcDbEntity
  8
0
  6
CONTINUOUS
 62
               4
100
AcDbCircle
 10
3.9999862670898381
 20
62.499984741210938
 30
0.0
 40
0.5
100
AcDbArc
 50
89.999999999999815
 51
179.99999999999963
  0
LINE
  5
3E7
100
AcDbEntity
  8
0
  6
CONTINUOUS
 62
               4
100
AcDbLine
 10
18.249986267089838
 20
54.499984741210938
 30
0.0
 11
18.249986267089838
 21
53.999984741210938
 31
0.0
  0
LINE
  5
3E8
100
AcDbEntity
  8
0
  6
CONTINUOUS
 62
               4
100
AcDbLine
 10
15.749986267089838
 20
54.499984741210938
 30
0.0
 11
15.749986267089838
 21
53.999984741210938
 31
0.0
  0
LINE
  5
3E9
100
AcDbEntity
  8
0
  6
CONTINUOUS
 62
               4
100
AcDbLine
 10
15.749986267089838
 20
54.499984741210938
 30
0.0
 11
18.249986267089838
 21
54.499984741210938
 31
0.0
  0
LINE
  5
3EA
100
AcDbEntity
  8
0
  6
CONTINUOUS
 62
             200
100
AcDbLine
 10
13.314980610187547
 20
79.464449556289765
 30
0.0
 11
6.3849704566684409
 21
75.463397651774358
 31
0.0
  0
LINE
  5
3EB
100
AcDbEntity
  8
0
  6
CONTINUOUS
 62
             200
100
AcDbLine
 10
13.31500515856186
 20
80.619090551145746
 30
0.0
 11
6.3849760669983766
 21
76.61804198736445
 31
0.0
  0
LINE
  5
3EC
100
AcDbEntity
  8
0
  6
CONTINUOUS
 62
               4
100
AcDbLine
 10
7.8849899291992074
 20
73.999984741210937
 30
0.0
 11
7.8849899291992074
 21
76.32940673828125
 31
0.0
  0
LINE
  5
3ED
100
AcDbEntity
  8
0
  6
CONTINUOUS
 62
               4
100
AcDbLine
 10
9.3149978637695199
 20
73.999984741210937
 30
0.0
 11
9.3149978637695199
 21
77.155014038085938
 31
0.0
  0
LINE
  5
3EE
100
AcDbEntity
  8
0
  6
CONTINUOUS
 62
               4
100
AcDbLine
 10
8.1999923706054574
 20
86.999984741210938
 30
0.0
 11
8.9999954223632699
 21
86.999984741210938
 31
0.0
  0
LINE
  5
3EF
100
AcDbEntity
  8
0
  6
CONTINUOUS
 62
               4
100
AcDbLine
 10
8.1999923706054574
 20
81.999984741210937
 30
0.0
 11
8.1999923706054574
 21
86.999969482421875
 31
0.0
  0
LINE
  5
3F0
100
AcDbEntity
  8
0
  6
CONTINUOUS
 62
               4
100
AcDbLine
 10
8.9999954223632699
 20
81.999984741210937
 30
0.0
 11
8.9999954223632699
 21
86.999984741210938
 31
0.0
  0
LINE
  5
3F1
100
AcDbEntity
  8
0
  6
CONTINUOUS
 62
               4
100
AcDbLine
 10
7.8849899291992074
 20
81.999984741210937
 30
0.0
 11
9.3149978637695199
 21
81.999984741210937
 31
0.0
  0
LINE
  5
3F2
100
AcDbEntity
  8
0
  6
CONTINUOUS
 62
               4
100
AcDbLine
 10
7.8849899291992074
 20
77.484100341796875
 30
0.0
 11
7.8849899291992074
 21
81.999984741210937
 31
0.0
  0
LINE
  5
3F3
100
AcDbEntity
  8
0
  6
CONTINUOUS
 62
               4
100
AcDbLine
 10
9.3149978637695199
 20
78.309722900390625
 30
0.0
 11
9.3149978637695199
 21
81.999984741210937
 31
0.0
  0
LINE
  5
3F4
100
AcDbEntity
  8
0
  6
CONTINUOUS
 62
               7
100
AcDbLine
 10
3.5
 20
29.999984741210937
 30
0.0
 11
30.5
 21
29.999984741210937
 31
0.0
  0
LINE
  5
3F5
100
AcDbEntity
  8
0
  6
CONTINUOUS
 62
               4
100
AcDbLine
 10
11.81499786376952
 20
79.753097534179688
 30
0.0
 11
11.81499786376952
 21
81.999984741210937
 31
0.0
  0
LINE
  5
3F6
100
AcDbEntity
  8
0
  6
CONTINUOUS
 62
               4
100
AcDbLine
 10
10.384989929199207
 20
78.927474975585938
 30
0.0
 11
10.384989929199207
 21
81.999984741210937
 31
0.0
  0
LINE
  5
3F7
100
AcDbEntity
  8
0
  6
CONTINUOUS
 62
               4
100
AcDbLine
 10
11.81499786376952
 20
81.999984741210937
 30
0.0
 11
10.384989929199207
 21
81.999984741210937
 31
0.0
  0
LINE
  5
3F8
100
AcDbEntity
  8
0
  6
CONTINUOUS
 62
               4
100
AcDbLine
 10
10.384989929199207
 20
73.999984741210937
 30
0.0
 11
10.384989929199207
 21
77.772781372070313
 31
0.0
  0
LINE
  5
3F9
100
AcDbEntity
  8
0
  6
CONTINUOUS
 62
               4
100
AcDbLine
 10
11.81499786376952
 20
73.999984741210937
 30
0.0
 11
11.81499786376952
 21
78.598388671875
 31
0.0
  0
LINE
  5
3FA
100
AcDbEntity
  8
0
  6
CONTINUOUS
 62
               4
100
AcDbLine
 10
11.49999542236327
 20
81.999984741210937
 30
0.0
 11
11.49999542236327
 21
86.999984741210938
 31
0.0
  0
LINE
  5
3FB
100
AcDbEntity
  8
0
  6
CONTINUOUS
 62
               4
100
AcDbLine
 10
10.699992370605457
 20
81.999984741210937
 30
0.0
 11
10.699992370605457
 21
86.999984741210938
 31
0.0
  0
LINE
  5
3FC
100
AcDbEntity
  8
0
  6
CONTINUOUS
 62
               4
100
AcDbLine
 10
11.49999542236327
 20
86.999984741210938
 30
0.0
 11
10.699992370605457
 21
86.999984741210938
 31
0.0
  0
LINE
  5
3FD
100
AcDbEntity
  8
0
  6
CONTINUOUS
 62
               4
100
AcDbLine
 10
16.649989318847645
 20
72.499984741210937
 30
0.0
 11
16.649989318847645
 21
73.999984741210937
 31
0.0
  0
LINE
  5
3FE
100
AcDbEntity
  8
0
  6
CONTINUOUS
 62
               4
100
AcDbLine
 10
14.650030778693861
 20
72.999943684112623
 30
0.0
 11
15.227382594457765
 21
73.999952389067403
 31
0.0
  0
LINE
  5
3FF
100
AcDbEntity
  8
0
  6
CONTINUOUS
 62
               4
100
AcDbLine
 10
14.649989318847645
 20
67.499984741210938
 30
0.0
 11
14.649989318847645
 21
73.999984741210937
 31
0.0
  0
LINE
  5
400
100
AcDbEntity
  8
0
  6
CONTINUOUS
 62
               4
100
AcDbLine
 10
15.649987569326356
 20
63.498435482970308
 30
0.0
 11
16.149986678203447
 21
67.056123566659153
 31
0.0
  0
LINE
  5
401
100
AcDbEntity
  8
0
  6
CONTINUOUS
 62
               4
100
AcDbLine
 10
16.149989318847645
 20
67.056137084960938
 30
0.0
 11
16.149989318847645
 21
72.499984741210937
 31
0.0
  0
LINE
  5
402
100
AcDbEntity
  8
0
  6
CONTINUOUS
 62
               4
100
AcDbLine
 10
5.6499740600585824
 20
72.999984741210937
 30
0.0
 11
6.1499740600585824
 21
72.999984741210937
 31
0.0
  0
LINE
  5
403
100
AcDbEntity
  8
0
  6
CONTINUOUS
 62
               4
100
AcDbLine
 10
5.6499893188476449
 20
72.999984741210937
 30
0.0
 11
5.6499893188476449
 21
73.999984741210937
 31
0.0
  0
LINE
  5
404
100
AcDbEntity
  8
0
  6
CONTINUOUS
 62
               4
100
AcDbLine
 10
6.1499893188476449
 20
67.499984741210938
 30
0.0
 11
6.1499893188476449
 21
72.999984741210937
 31
0.0
  0
LINE
  5
405
100
AcDbEntity
  8
0
  6
CONTINUOUS
 62
               4
100
AcDbLine
 10
14.649986476497531
 20
63.498458893081079
 30
0.0
 11
14.599965923191291
 21
63.548479446387319
 31
0.0
  0
LINE
  5
406
100
AcDbEntity
  8
0
  6
CONTINUOUS
 62
               4
100
AcDbLine
 10
16.149981689453114
 20
72.499984741210937
 30
0.0
 11
16.649981689453114
 21
72.499984741210937
 31
0.0
  0
LINE
  5
407
100
AcDbEntity
  8
0
  6
CONTINUOUS
 62
               4
100
AcDbLine
 10
14.649989318847645
 20
64.998443603515625
 30
0.0
 11
14.649989318847645
 21
67.499984741210938
 31
0.0
  0
LINE
  5
408
100
AcDbEntity
  8
0
  6
CONTINUOUS
 62
               4
100
AcDbLine
 10
14.649989318847645
 20
63.498443603515625
 30
0.0
 11
15.649981689453114
 21
63.498443603515625
 31
0.0
  0
LINE
  5
409
100
AcDbEntity
  8
0
  6
CONTINUOUS
 62
               4
100
AcDbLine
 10
14.599986267089832
 20
64.998443603515625
 30
0.0
 11
14.649989318847645
 21
64.998443603515625
 31
0.0
  0
LINE
  5
40A
100
AcDbEntity
  8
0
  6
CONTINUOUS
 62
               4
100
AcDbLine
 10
15.227336120605457
 20
73.999984741210937
 30
0.0
 11
16.649981689453114
 21
73.999984741210937
 31
0.0
  0
LINE
  5
40B
100
AcDbEntity
  8
0
  6
CONTINUOUS
 62
               4
100
AcDbLine
 10
5.9999862670898381
 20
67.499984741210938
 30
0.0
 11
14.649989318847645
 21
67.499984741210938
 31
0.0
  0
LINE
  5
40C
100
AcDbEntity
  8
0
  6
CONTINUOUS
 62
               4
100
AcDbLine
 10
5.6499740600585824
 20
73.999984741210937
 30
0.0
 11
14.649974060058582
 21
73.999984741210937
 31
0.0
  0
LINE
  5
40D
100
AcDbEntity
  8
0
  6
CONTINUOUS
 62
               4
100
AcDbLine
 10
14.599986267089832
 20
67.499984741210938
 30
0.0
 11
14.599986267089832
 21
62.999984741210938
 31
0.0
  0
LINE
  5
40E
100
AcDbEntity
  8
0
  6
CONTINUOUS
 62
               4
100
AcDbLine
 10
3.4999862670898381
 20
53.999984741210938
 30
0.0
 11
30.499992370605469
 21
53.999984741210938
 31
0.0
  0
LINE
  5
40F
100
AcDbEntity
  8
0
  6
CONTINUOUS
 62
               4
100
AcDbLine
 10
5.0999999999999943
 20
46.999984741210937
 30
0.0
 11
5.0999999999999943
 21
53.999984741210938
 31
0.0
  0
LINE
  5
410
100
AcDbEntity
  8
0
  6
CONTINUOUS
 62
               4
100
AcDbLine
 10
4.1999999999999886
 20
46.999984741210937
 30
0.0
 11
4.1999999999999886
 21
53.999984741210938
 31
0.0
  0
LINE
  5
411
100
AcDbEntity
  8
0
  6
CONTINUOUS
 62
               4
100
AcDbLine
 10
3.4999862670898381
 20
46.999984741210937
 30
0.0
 11
5.0999999999999943
 21
46.999984741210937
 31
0.0
  0
LINE
  5
412
100
AcDbEntity
  8
0
  6
CONTINUOUS
 62
               4
100
AcDbLine
 10
15.500000009584767
 20
50.999984779550061
 30
0.0
 11
15.500000067093481
 21
32.999984779550061
 31
0.0
  0
LINE
  5
413
100
AcDbEntity
  8
0
  6
CONTINUOUS
 62
               4
100
AcDbLine
 10
8.5000000095847668
 20
50.999984757185587
 30
0.0
 11
8.500000067093481
 21
32.999984757185587
 31
0.0
  0
LINE
  5
414
100
AcDbEntity
  8
0
  6
CONTINUOUS
 62
               4
100
AcDbLine
 10
17.500000009584767
 20
50.999984785939944
 30
0.0
 11
8.5000000095847668
 21
50.999984757185587
 31
0.0
  0
LINE
  5
415
100
AcDbEntity
  8
0
  6
CONTINUOUS
 62
               4
100
AcDbLine
 10
17.500000067093481
 20
32.999984785939944
 30
0.0
 11
8.500000067093481
 21
32.999984757185587
 31
0.0
  0
ARC
  5
416
100
AcDbEntity
  8
0
  6
CONTINUOUS
 62
               7
100
AcDbCircle
 10
3.8999847412109432
 20
-27.599999999999994
 30
0.0
 40
0.4
100
AcDbArc
 50
179.99999999999963
 51
269.99999999999937
  0
LINE
  5
417
100
AcDbEntity
  8
0
  6
CONTINUOUS
 62
               2
100
AcDbLine
 10
44.400000000000006
 20
0.5000030517578011
 30
0.0
 11
22.099999999999994
 21
0.5000030517578011
 31
0.0
  0
LINE
  5
418
100
AcDbEntity
  8
0
  6
CONTINUOUS
 62
               2
100
AcDbLine
 10
44.400000000000006
 20
-10.499996948242199
 30
0.0
 11
22.099999999999994
 21
-10.499996948242199
 31
0.0
  0
LINE
  5
419
100
AcDbEntity
  8
0
  6
CONTINUOUS
 62
               7
100
AcDbLine
 10
32.299999999999983
 20
-15.499996948242199
 30
0.0
 11
27.5
 21
-15.499996948242199
 31
0.0
  0
LINE
  5
41A
100
AcDbEntity
  8
0
  6
CONTINUOUS
 62
               7
100
AcDbLine
 10
32.300000000000011
 20
-5.4999969482421704
 30
0.0
 11
27.5
 21
-5.4999969482421704
 31
0.0
  0
LINE
  5
41B
100
AcDbEntity
  8
0
  6
CONTINUOUS
 62
               7
100
AcDbLine
 10
32.300000000000011
 20
-4.4999969482421989
 30
0.0
 11
27.5
 21
-4.4999969482421989
 31
0.0
  0
LINE
  5
41C
100
AcDbEntity
  8
0
  6
CONTINUOUS
 62
               7
100
AcDbLine
 10
32.300000000000011
 20
5.5000030517578011
 30
0.0
 11
27.5
 21
5.5000030517578011
 31
0.0
  0
LINE
  5
41D
100
AcDbEntity
  8
0
  6
CONTINUOUS
 62
               7
100
AcDbLine
 10
32.5
 20
5.5000030517578011
 30
0.0
 11
32.400000000000006
 21
5.4000030517578068
 31
0.0
  0
LINE
  5
41E
100
AcDbEntity
  8
0
  6
CONTINUOUS
 62
               7
100
AcDbLine
 10
32.400000000000006
 20
5.4000030517578068
 30
0.0
 11
32.300000000000011
 21
5.5000030517578011
 31
0.0
  0
LINE
  5
41F
100
AcDbEntity
  8
0
  6
CONTINUOUS
 62
               7
100
AcDbLine
 10
32.400000000000006
 20
-4.3999969482421761
 30
0.0
 11
32.300000000000011
 21
-4.4999969482421989
 31
0.0
  0
LINE
  5
420
100
AcDbEntity
  8
0
  6
CONTINUOUS
 62
               7
100
AcDbLine
 10
32.5
 20
-4.4999969482421989
 30
0.0
 11
32.400000000000006
 21
-4.3999969482421761
 31
0.0
  0
LINE
  5
421
100
AcDbEntity
  8
0
  6
CONTINUOUS
 62
               7
100
AcDbLine
 10
32.300000000000011
 20
-15.499996948242199
 30
0.0
 11
32.300000000000011
 21
5.5000030517578011
 31
0.0
  0
LINE
  5
422
100
AcDbEntity
  8
0
  6
CONTINUOUS
 62
               7
100
AcDbLine
 10
32.5
 20
5.5000030517578011
 30
0.0
 11
32.5
 21
-4.4999969482421989
 31
0.0
  0
LINE
  5
423
100
AcDbEntity
  8
0
  6
CONTINUOUS
 62
               7
100
AcDbLine
 10
32.400000000000006
 20
5.4000030517578068
 30
0.0
 11
32.400000000000006
 21
-4.3999969482421761
 31
0.0
  0
LINE
  5
424
100
AcDbEntity
  8
0
  6
CONTINUOUS
 62
               7
100
AcDbLine
 10
41.200000204906019
 20
5.4339774966239816
 30
0.0
 11
41.200000204906019
 21
-4.4339713931083793
 31
0.0
  0
LINE
  5
425
100
AcDbEntity
  8
0
  6
CONTINUOUS
 62
               7
100
AcDbLine
 10
41.161879999999996
 20
5.5000030517578011
 30
0.0
 11
41.161879999999996
 21
-4.4999969482421989
 31
0.0
  0
LINE
  5
426
100
AcDbEntity
  8
0
  6
CONTINUOUS
 62
               7
100
AcDbLine
 10
42.0
 20
4.5500030517578125
 30
0.0
 11
42.0
 21
-3.5499969482421818
 31
0.0
  0
LINE
  5
427
100
AcDbEntity
  8
0
  6
CONTINUOUS
 62
               7
100
AcDbLine
 10
41.161879999999996
 20
5.5000030517578011
 30
0.0
 11
41.199999999999989
 21
5.4339778517578168
 31
0.0
  0
LINE
  5
428
100
AcDbEntity
  8
0
  6
CONTINUOUS
 62
               7
100
AcDbLine
 10
41.199999999999989
 20
5.4339775517578062
 30
0.0
 11
41.699999999999989
 21
5.3000026517578078
 31
0.0
  0
LINE
  5
429
100
AcDbEntity
  8
0
  6
CONTINUOUS
 62
               7
100
AcDbLine
 10
41.699999999999989
 20
4.5500030517578125
 30
0.0
 11
42.0
 21
4.5500030517578125
 31
0.0
  0
LINE
  5
42A
100
AcDbEntity
  8
0
  6
CONTINUOUS
 62
               7
100
AcDbLine
 10
42.0
 20
4.5500030517578125
 30
0.0
 11
42.099999999999994
 21
4.4500030517578182
 31
0.0
  0
LINE
  5
42B
100
AcDbEntity
  8
0
  6
CONTINUOUS
 62
               7
100
AcDbLine
 10
41.161879999999996
 20
5.5000030517578011
 30
0.0
 11
37.199999999999989
 21
5.5000030517578011
 31
0.0
  0
LINE
  5
42C
100
AcDbEntity
  8
0
  6
CONTINUOUS
 62
               7
100
AcDbLine
 10
43.0
 20
4.0000030517578011
 30
0.0
 11
42.099999999999994
 21
4.0000030517578011
 31
0.0
  0
LINE
  5
42D
100
AcDbEntity
  8
0
  6
CONTINUOUS
 62
               7
100
AcDbLine
 10
41.699999999999989
 20
5.3000026517578078
 30
0.0
 11
41.699999999999989
 21
-4.2999965429306144
 31
0.0
  0
LINE
  5
42E
100
AcDbEntity
  8
0
  6
CONTINUOUS
 62
               7
100
AcDbLine
 10
42.099999999999994
 20
4.4500030517578182
 30
0.0
 11
42.099999999999994
 21
-3.4499969482421875
 31
0.0
  0
LINE
  5
42F
100
AcDbEntity
  8
0
  6
CONTINUOUS
 62
               7
100
AcDbLine
 10
42.0
 20
-3.5499969482421818
 30
0.0
 11
42.099999999999994
 21
-3.4499969482421875
 31
0.0
  0
LINE
  5
430
100
AcDbEntity
  8
0
  6
CONTINUOUS
 62
               7
100
AcDbLine
 10
41.699999999999989
 20
-3.5499969482421818
 30
0.0
 11
42.0
 21
-3.5499969482421818
 31
0.0
  0
LINE
  5
431
100
AcDbEntity
  8
0
  6
CONTINUOUS
 62
               7
100
AcDbLine
 10
41.199999999999989
 20
-4.4339714482421755
 30
0.0
 11
41.699999999999989
 21
-4.2999965482421771
 31
0.0
  0
LINE
  5
432
100
AcDbEntity
  8
0
  6
CONTINUOUS
 62
               7
100
AcDbLine
 10
41.161879999999996
 20
-4.4999969482421989
 30
0.0
 11
41.199999999999989
 21
-4.4339717482421861
 31
0.0
  0
LINE
  5
433
100
AcDbEntity
  8
0
  6
CONTINUOUS
 62
               7
100
AcDbLine
 10
37.199999999999989
 20
5.5000030517578011
 30
0.0
 11
37.0
 21
5.3000030517578125
 31
0.0
  0
LINE
  5
434
100
AcDbEntity
  8
0
  6
CONTINUOUS
 62
               7
100
AcDbLine
 10
37.199999999999989
 20
-4.4999969482421989
 30
0.0
 11
37.0
 21
-4.2999969482421818
 31
0.0
  0
LINE
  5
435
100
AcDbEntity
  8
0
  6
CONTINUOUS
 62
               7
100
AcDbLine
 10
36.300000000000011
 20
4.7500030517578011
 30
0.0
 11
37.0
 21
4.7500030517578011
 31
0.0
  0
LINE
  5
436
100
AcDbEntity
  8
0
  6
CONTINUOUS
 62
               7
100
AcDbLine
 10
37.0
 20
-3.7499969482421989
 30
0.0
 11
36.300000000000011
 21
-3.7499969482421989
 31
0.0
  0
LINE
  5
437
100
AcDbEntity
  8
0
  6
CONTINUOUS
 62
               7
100
AcDbLine
 10
37.199999999999989
 20
5.5000030517578011
 30
0.0
 11
37.199999999999989
 21
-4.4999969482421989
 31
0.0
  0
LINE
  5
438
100
AcDbEntity
  8
0
  6
CONTINUOUS
 62
               7
100
AcDbLine
 10
37.0
 20
5.3000030517578125
 30
0.0
 11
37.0
 21
-4.2999969482421818
 31
0.0
  0
LINE
  5
439
100
AcDbEntity
  8
0
  6
CONTINUOUS
 62
               7
100
AcDbLine
 10
36.300000000000011
 20
5.3000030517578125
 30
0.0
 11
36.099999999999994
 21
5.5000030517578011
 31
0.0
  0
LINE
  5
43A
100
AcDbEntity
  8
0
  6
CONTINUOUS
 62
               7
100
AcDbLine
 10
36.300000000000011
 20
-4.2999969482421818
 30
0.0
 11
36.099999999999994
 21
-4.4999969482421989
 31
0.0
  0
LINE
  5
43B
100
AcDbEntity
  8
0
  6
CONTINUOUS
 62
               7
100
AcDbLine
 10
36.300000000000011
 20
5.3000030517578125
 30
0.0
 11
36.300000000000011
 21
-4.2999969482421818
 31
0.0
  0
LINE
  5
43C
100
AcDbEntity
  8
0
  6
CONTINUOUS
 62
               7
100
AcDbLine
 10
36.099999999999994
 20
5.5000030517578011
 30
0.0
 11
36.099999999999994
 21
-4.4999969482421989
 31
0.0
  0
LINE
  5
43D
100
AcDbEntity
  8
0
  6
CONTINUOUS
 62
               7
100
AcDbLine
 10
36.099999999999994
 20
-4.4999969482421989
 30
0.0
 11
32.5
 21
-4.4999969482421989
 31
0.0
  0
LINE
  5
43E
100
AcDbEntity
  8
0
  6
CONTINUOUS
 62
               7
100
AcDbLine
 10
36.099999999999994
 20
5.5000030517578011
 30
0.0
 11
32.5
 21
5.5000030517578011
 31
0.0
  0
LINE
  5
43F
100
AcDbEntity
  8
0
  6
CONTINUOUS
 62
               7
100
AcDbLine
 10
43.800000000000011
 20
5.4000030517578068
 30
0.0
 11
43.0
 21
5.4000030517578068
 31
0.0
  0
ARC
  5
440
100
AcDbEntity
  8
0
  6
CONTINUOUS
 62
               7
100
AcDbCircle
 10
43.800000000000011
 20
5.2000030517578182
 30
0.0
 40
0.2
100
AcDbArc
 50
0.0
 51
89.999999999999815
  0
LINE
  5
441
100
AcDbEntity
  8
0
  6
CONTINUOUS
 62
               7
100
AcDbLine
 10
41.161879999999996
 20
-4.4999969482421989
 30
0.0
 11
37.199999999999989
 21
-4.4999969482421989
 31
0.0
  0
LINE
  5
442
100
AcDbEntity
  8
0
  6
CONTINUOUS
 62
               7
100
AcDbLine
 10
43.0
 20
5.4000030517578068
 30
0.0
 11
43.0
 21
-4.3999969542026633
 31
0.0
  0
LINE
  5
443
100
AcDbEntity
  8
0
  6
CONTINUOUS
 62
               7
100
AcDbLine
 10
43.0
 20
-2.9999969482421989
 30
0.0
 11
42.099999999999994
 21
-2.9999969482421989
 31
0.0
  0
ARC
  5
444
100
AcDbEntity
  8
0
  6
CONTINUOUS
 62
               7
100
AcDbCircle
 10
43.800000000000011
 20
-4.1999969482421875
 30
0.0
 40
0.2
100
AcDbArc
 50
269.99999999999937
 51
0.0
  0
LINE
  5
445
100
AcDbEntity
  8
0
  6
CONTINUOUS
 62
               7
100
AcDbLine
 10
43.800000000000011
 20
-4.3999969482421761
 30
0.0
 11
43.0
 21
-4.3999969482421761
 31
0.0
  0
LINE
  5
446
100
AcDbEntity
  8
0
  6
CONTINUOUS
 62
               7
100
AcDbLine
 10
44.0
 20
5.2000030517578182
 30
0.0
 11
44.0
 21
-4.1999969363212699
 31
0.0
  0
LINE
  5
447
100
AcDbEntity
  8
0
  6
CONTINUOUS
 62
               7
100
AcDbLine
 10
44.0
 20
-15.199996948242187
 30
0.0
 11
44.0
 21
-5.7999969601631278
 31
0.0
  0
LINE
  5
448
100
AcDbEntity
  8
0
  6
CONTINUOUS
 62
               7
100
AcDbLine
 10
43.800000000000011
 20
-5.5999969482421932
 30
0.0
 11
43.0
 21
-5.5999969482421932
 31
0.0
  0
ARC
  5
449
100
AcDbEntity
  8
0
  6
CONTINUOUS
 62
               7
100
AcDbCircle
 10
43.800000000000011
 20
-5.7999969482422102
 30
0.0
 40
0.2
100
AcDbArc
 50
0.0
 51
89.999999999999815
  0
LINE
  5
44A
100
AcDbEntity
  8
0
  6
CONTINUOUS
 62
               7
100
AcDbLine
 10
43.0
 20
-6.9999969482421989
 30
0.0
 11
42.099999999999994
 21
-6.9999969482421989
 31
0.0
  0
LINE
  5
44B
100
AcDbEntity
  8
0
  6
CONTINUOUS
 62
               7
100
AcDbLine
 10
43.0
 20
-15.399996948242176
 30
0.0
 11
43.0
 21
-5.5999969422817344
 31
0.0
  0
LINE
  5
44C
100
AcDbEntity
  8
0
  6
CONTINUOUS
 62
               7
100
AcDbLine
 10
41.161879999999996
 20
-5.4999969482421989
 30
0.0
 11
37.199999999999989
 21
-5.4999969482421989
 31
0.0
  0
ARC
  5
44D
100
AcDbEntity
  8
0
  6
CONTINUOUS
 62
               7
100
AcDbCircle
 10
43.800000000000011
 20
-15.199996948242187
 30
0.0
 40
0.2
100
AcDbArc
 50
270.00000000000023
 51
0.0
  0
LINE
  5
44E
100
AcDbEntity
  8
0
  6
CONTINUOUS
 62
               7
100
AcDbLine
 10
43.800000000000011
 20
-15.399996948242176
 30
0.0
 11
43.0
 21
-15.399996948242176
 31
0.0
  0
LINE
  5
44F
100
AcDbEntity
  8
0
  6
CONTINUOUS
 62
               7
100
AcDbLine
 10
36.099999999999994
 20
-15.499996948242199
 30
0.0
 11
32.5
 21
-15.499996948242199
 31
0.0
  0
LINE
  5
450
100
AcDbEntity
  8
0
  6
CONTINUOUS
 62
               7
100
AcDbLine
 10
36.099999999999994
 20
-5.4999969482421989
 30
0.0
 11
32.5
 21
-5.4999969482421704
 31
0.0
  0
LINE
  5
451
100
AcDbEntity
  8
0
  6
CONTINUOUS
 62
               7
100
AcDbLine
 10
36.099999999999994
 20
-15.499996948242199
 30
0.0
 11
36.099999999999994
 21
-5.4999969482421989
 31
0.0
  0
LINE
  5
452
100
AcDbEntity
  8
0
  6
CONTINUOUS
 62
               7
100
AcDbLine
 10
36.300000000000011
 20
-15.29999694824221
 30
0.0
 11
36.300000000000011
 21
-5.6999969482421875
 31
0.0
  0
LINE
  5
453
100
AcDbEntity
  8
0
  6
CONTINUOUS
 62
               7
100
AcDbLine
 10
36.300000000000011
 20
-5.6999969482421875
 30
0.0
 11
36.099999999999994
 21
-5.4999969482421989
 31
0.0
  0
LINE
  5
454
100
AcDbEntity
  8
0
  6
CONTINUOUS
 62
               7
100
AcDbLine
 10
36.300000000000011
 20
-15.29999694824221
 30
0.0
 11
36.099999999999994
 21
-15.499996948242199
 31
0.0
  0
LINE
  5
455
100
AcDbEntity
  8
0
  6
CONTINUOUS
 62
               7
100
AcDbLine
 10
37.0
 20
-15.29999694824221
 30
0.0
 11
37.0
 21
-5.6999969482421875
 31
0.0
  0
LINE
  5
456
100
AcDbEntity
  8
0
  6
CONTINUOUS
 62
               7
100
AcDbLine
 10
37.199999999999989
 20
-15.499996948242199
 30
0.0
 11
37.199999999999989
 21
-5.4999969482421989
 31
0.0
  0
LINE
  5
457
100
AcDbEntity
  8
0
  6
CONTINUOUS
 62
               7
100
AcDbLine
 10
37.0
 20
-6.2499969482421989
 30
0.0
 11
36.300000000000011
 21
-6.2499969482421989
 31
0.0
  0
LINE
  5
458
100
AcDbEntity
  8
0
  6
CONTINUOUS
 62
               7
100
AcDbLine
 10
36.300000000000011
 20
-14.749996948242199
 30
0.0
 11
37.0
 21
-14.749996948242199
 31
0.0
  0
LINE
  5
459
100
AcDbEntity
  8
0
  6
CONTINUOUS
 62
               7
100
AcDbLine
 10
37.199999999999989
 20
-5.4999969482421989
 30
0.0
 11
37.0
 21
-5.6999969482421875
 31
0.0
  0
LINE
  5
45A
100
AcDbEntity
  8
0
  6
CONTINUOUS
 62
               7
100
AcDbLine
 10
37.199999999999989
 20
-15.499996948242199
 30
0.0
 11
37.0
 21
-15.29999694824221
 31
0.0
  0
LINE
  5
45B
100
AcDbEntity
  8
0
  6
CONTINUOUS
 62
               7
100
AcDbLine
 10
41.161879999999996
 20
-5.4999969482421989
 30
0.0
 11
41.199999999999989
 21
-5.5660221482421832
 31
0.0
  0
LINE
  5
45C
100
AcDbEntity
  8
0
  6
CONTINUOUS
 62
               7
100
AcDbLine
 10
41.199999999999989
 20
-5.5660224482421938
 30
0.0
 11
41.699999999999989
 21
-5.6999973482421922
 31
0.0
  0
LINE
  5
45D
100
AcDbEntity
  8
0
  6
CONTINUOUS
 62
               7
100
AcDbLine
 10
41.699999999999989
 20
-6.4499969482421875
 30
0.0
 11
42.0
 21
-6.4499969482421875
 31
0.0
  0
LINE
  5
45E
100
AcDbEntity
  8
0
  6
CONTINUOUS
 62
               7
100
AcDbLine
 10
42.0
 20
-6.4499969482421875
 30
0.0
 11
42.099999999999994
 21
-6.5499969482421818
 31
0.0
  0
LINE
  5
45F
100
AcDbEntity
  8
0
  6
CONTINUOUS
 62
               7
100
AcDbLine
 10
42.099999999999994
 20
-14.449996948242188
 30
0.0
 11
42.099999999999994
 21
-6.5499969482421818
 31
0.0
  0
LINE
  5
460
100
AcDbEntity
  8
0
  6
CONTINUOUS
 62
               7
100
AcDbLine
 10
41.699999999999989
 20
-15.299996548242177
 30
0.0
 11
41.699999999999989
 21
-5.6999973535537833
 31
0.0
  0
LINE
  5
461
100
AcDbEntity
  8
0
  6
CONTINUOUS
 62
               7
100
AcDbLine
 10
43.0
 20
-13.999996948242199
 30
0.0
 11
42.099999999999994
 21
-13.999996948242199
 31
0.0
  0
LINE
  5
462
100
AcDbEntity
  8
0
  6
CONTINUOUS
 62
               7
100
AcDbLine
 10
41.161879999999996
 20
-15.499996948242199
 30
0.0
 11
37.199999999999989
 21
-15.499996948242199
 31
0.0
  0
LINE
  5
463
100
AcDbEntity
  8
0
  6
CONTINUOUS
 62
               7
100
AcDbLine
 10
42.0
 20
-14.54999694824221
 30
0.0
 11
42.099999999999994
 21
-14.449996948242188
 31
0.0
  0
LINE
  5
464
100
AcDbEntity
  8
0
  6
CONTINUOUS
 62
               7
100
AcDbLine
 10
41.699999999999989
 20
-14.54999694824221
 30
0.0
 11
42.0
 21
-14.54999694824221
 31
0.0
  0
LINE
  5
465
100
AcDbEntity
  8
0
  6
CONTINUOUS
 62
               7
100
AcDbLine
 10
41.199999999999989
 20
-15.433971448242175
 30
0.0
 11
41.699999999999989
 21
-15.299996548242177
 31
0.0
  0
LINE
  5
466
100
AcDbEntity
  8
0
  6
CONTINUOUS
 62
               7
100
AcDbLine
 10
41.161879999999996
 20
-15.499996948242199
 30
0.0
 11
41.199999999999989
 21
-15.433971748242186
 31
0.0
  0
LINE
  5
467
100
AcDbEntity
  8
0
  6
CONTINUOUS
 62
               7
100
AcDbLine
 10
42.0
 20
-14.54999694824221
 30
0.0
 11
42.0
 21
-6.4499969482421875
 31
0.0
  0
LINE
  5
468
100
AcDbEntity
  8
0
  6
CONTINUOUS
 62
               7
100
AcDbLine
 10
41.161879999999996
 20
-15.499996948242199
 30
0.0
 11
41.161879999999996
 21
-5.4999969482421989
 31
0.0
  0
LINE
  5
469
100
AcDbEntity
  8
0
  6
CONTINUOUS
 62
               7
100
AcDbLine
 10
41.200000204906019
 20
-15.433971393108379
 30
0.0
 11
41.200000204906019
 21
-5.5660225033760184
 31
0.0
  0
LINE
  5
46A
100
AcDbEntity
  8
0
  6
CONTINUOUS
 62
               7
100
AcDbLine
 10
32.400000000000006
 20
-15.399996948242176
 30
0.0
 11
32.400000000000006
 21
-5.5999969482421648
 31
0.0
  0
LINE
  5
46B
100
AcDbEntity
  8
0
  6
CONTINUOUS
 62
               7
100
AcDbLine
 10
32.5
 20
-15.499996948242199
 30
0.0
 11
32.5
 21
-5.4999969482421704
 31
0.0
  0
LINE
  5
46C
100
AcDbEntity
  8
0
  6
CONTINUOUS
 62
               7
100
AcDbLine
 10
32.5
 20
-5.4999969482421704
 30
0.0
 11
32.400000000000006
 21
-5.5999969482421648
 31
0.0
  0
LINE
  5
46D
100
AcDbEntity
  8
0
  6
CONTINUOUS
 62
               7
100
AcDbLine
 10
32.400000000000006
 20
-5.5999969482421648
 30
0.0
 11
32.300000000000011
 21
-5.4999969482421704
 31
0.0
  0
LINE
  5
46E
100
AcDbEntity
  8
0
  6
CONTINUOUS
 62
               7
100
AcDbLine
 10
32.400000000000006
 20
-15.399996948242176
 30
0.0
 11
32.299999999999983
 21
-15.499996948242199
 31
0.0
  0
LINE
  5
46F
100
AcDbEntity
  8
0
  6
CONTINUOUS
 62
               7
100
AcDbLine
 10
32.5
 20
-15.499996948242199
 30
0.0
 11
32.400000000000006
 21
-15.399996948242176
 31
0.0
  0
LINE
  5
470
100
AcDbEntity
  8
0
  6
CONTINUOUS
 62
             200
100
AcDbLine
 10
-19.999801635742188
 20
-31.799862670898435
 30
0.0
 11
-19.999801635742188
 21
-41.799862670898435
 31
0.0
  0
LINE
  5
471
100
AcDbEntity
  8
0
  6
CONTINUOUS
 62
             200
100
AcDbLine
 10
-9.9998016357421875
 20
-31.799862670898435
 30
0.0
 11
-9.9998016357421875
 21
-41.799862670898435
 31
0.0
  0
LINE
  5
472
100
AcDbEntity
  8
0
  6
CONTINUOUS
 62
               7
100
AcDbLine
 10
3.4999847412109375
 20
11.0
 30
0.0
 11
2.9999885559082031
 21
11.0
 31
0.0
  0
LINE
  5
473
100
AcDbEntity
  8
0
  6
CONTINUOUS
 62
               7
100
AcDbLine
 10
3.4999847412109375
 20
-21.0
 30
0.0
 11
2.9999885559082031
 21
-21.0
 31
0.0
  0
LINE
  5
474
100
AcDbEntity
  8
0
  6
CONTINUOUS
 62
               7
100
AcDbLine
 10
3.4999847412109375
 20
11.0
 30
0.0
 11
3.4999847412109375
 21
-21.0
 31
0.0
  0
LINE
  5
475
100
AcDbEntity
  8
0
  6
CONTINUOUS
 62
               7
100
AcDbLine
 10
2.9999885559082031
 20
-21.0
 30
0.0
 11
2.9999885559082031
 21
11.0
 31
0.0
  0
ENDBLK
  5
476
100
AcDbEntity
  8
0
100
AcDbBlockEnd
  0
BLOCK
  5
477
100
AcDbEntity
  8
0
100
AcDbBlockBegin
  2
F10T0-12
 70
               0
 10
0.0
 20
0.0
 30
0.0
  3
F10T0-12
  1

  0
LINE
  5
478
100
AcDbEntity
  8
0
  6
CONTINUOUS
 62
               7
100
AcDbLine
 10
0.9999633789062443
 20
18.500015258789063
 30
0.0
 11
10.999963378906244
 21
18.500015258789063
 31
0.0
  0
LINE
  5
479
100
AcDbEntity
  8
0
  6
CONTINUOUS
 62
               2
100
AcDbLine
 10
5.9999633789062443
 20
-38.606658935546875
 30
0.0
 11
5.9999633789062443
 21
75.755096435546875
 31
0.0
  0
LINE
  5
47A
100
AcDbEntity
  8
0
  6
CONTINUOUS
 62
               7
100
AcDbLine
 10
1.3999572753906193
 20
-27.999984741210937
 30
0.0
 11
10.599954223632807
 21
-27.999984741210937
 31
0.0
  0
LINE
  5
47B
100
AcDbEntity
  8
0
  6
CONTINUOUS
 62
               7
100
AcDbLine
 10
3.5499664306640568
 20
-27.499984741210938
 30
0.0
 11
2.0499664306640568
 21
-27.499984741210938
 31
0.0
  0
LINE
  5
47C
100
AcDbEntity
  8
0
  6
CONTINUOUS
 62
               2
100
AcDbLine
 10
-0.5000366210937557
 20
-4.9999771118164062
 30
0.0
 11
12.499963378906244
 21
-4.9999771118164062
 31
0.0
  0
LINE
  5
47D
100
AcDbEntity
  8
0
  6
CONTINUOUS
 62
               2
100
AcDbLine
 10
0.8999572753906193
 20
-14.999977111816406
 30
0.0
 11
7.8999572753906193
 21
-14.999977111816406
 31
0.0
  0
LINE
  5
47E
100
AcDbEntity
  8
0
  6
CONTINUOUS
 62
               2
100
AcDbLine
 10
4.3999572753906193
 20
-11.499977111816406
 30
0.0
 11
4.3999572753906193
 21
-18.499977111816406
 31
0.0
  0
LINE
  5
47F
100
AcDbEntity
  8
0
  6
CONTINUOUS
 62
               2
100
AcDbLine
 10
7.5999694824218693
 20
8.5000152587890625
 30
0.0
 11
7.5999694824218693
 21
1.5000228881835937
 31
0.0
  0
LINE
  5
480
100
AcDbEntity
  8
0
  6
CONTINUOUS
 62
               2
100
AcDbLine
 10
4.0999694824218693
 20
5.0000152587890625
 30
0.0
 11
11.099969482421869
 21
5.0000152587890625
 31
0.0
  0
LINE
  5
481
100
AcDbEntity
  8
0
  6
CONTINUOUS
 62
               7
100
AcDbLine
 10
0.9999633789062443
 20
20.500015258789063
 30
0.0
 11
10.999963378906244
 21
20.500015258789063
 31
0.0
  0
LINE
  5
482
100
AcDbEntity
  8
0
  6
CONTINUOUS
 62
               4
100
AcDbLine
 10
0.9999786376953068
 20
54.000030517578125
 30
0.0
 11
10.999978637695307
 21
54.000030517578125
 31
0.0
  0
LINE
  5
483
100
AcDbEntity
  8
0
  6
CONTINUOUS
 62
               7
100
AcDbLine
 10
0.9999633789062443
 20
30.000015258789063
 30
0.0
 11
10.999963378906244
 21
30.000015258789063
 31
0.0
  0
LINE
  5
484
100
AcDbEntity
  8
0
  6
CONTINUOUS
 62
               4
100
AcDbLine
 10
1.0499664306640568
 20
54.000030517578125
 30
0.0
 11
1.0499664306640568
 21
74.000015258789063
 31
0.0
  0
LINE
  5
485
100
AcDbEntity
  8
0
  6
CONTINUOUS
 62
               4
100
AcDbLine
 10
10.949960327148432
 20
54.000030517578125
 30
0.0
 11
10.949960327148432
 21
74.000015258789063
 31
0.0
  0
LINE
  5
486
100
AcDbEntity
  8
0
  6
CONTINUOUS
 62
               4
100
AcDbLine
 10
1.0499664306640568
 20
74.000015258789063
 30
0.0
 11
10.949960327148432
 21
74.000015258789063
 31
0.0
  0
LINE
  5
487
100
AcDbEntity
  8
0
  6
CONTINUOUS
 62
               7
100
AcDbLine
 10
10.999963378906244
 20
-27.5999755859375
 30
0.0
 11
10.999963378906244
 21
-21.499977111816406
 31
0.0
  0
LINE
  5
488
100
AcDbEntity
  8
0
  6
CONTINUOUS
 62
               7
100
AcDbLine
 10
0.9999633789062443
 20
-27.5999755859375
 30
0.0
 11
0.9999633789062443
 21
-21.499977111816406
 31
0.0
  0
LINE
  5
489
100
AcDbEntity
  8
0
  6
CONTINUOUS
 62
               4
100
AcDbLine
 10
5.3999725341796818
 20
64.500015258789063
 30
0.0
 11
6.5999694824218693
 21
64.500015258789063
 31
0.0
  0
LINE
  5
48A
100
AcDbEntity
  8
0
  6
CONTINUOUS
 62
               4
100
AcDbLine
 10
6.5999694824218693
 20
67.500015258789063
 30
0.0
 11
6.5999694824218693
 21
64.500015258789063
 31
0.0
  0
LINE
  5
48B
100
AcDbEntity
  8
0
  6
CONTINUOUS
 62
               4
100
AcDbLine
 10
5.3999725341796818
 20
67.500015258789063
 30
0.0
 11
5.3999725341796818
 21
64.500015258789063
 31
0.0
  0
LINE
  5
48C
100
AcDbEntity
  8
0
  6
CONTINUOUS
 62
               4
100
AcDbLine
 10
7.0999902039646656
 20
67.500022673291141
 30
0.0
 11
6.5999879872941563
 21
67.00002382837215
 31
0.0
  0
LINE
  5
48D
100
AcDbEntity
  8
0
  6
CONTINUOUS
 62
               4
100
AcDbLine
 10
4.8999758320015587
 20
67.500004338671715
 30
0.0
 11
5.399976573530779
 21
67.000004018611435
 31
0.0
  0
LINE
  5
48E
100
AcDbEntity
  8
0
  6
CONTINUOUS
 62
               4
100
AcDbLine
 10
1.0499664306640568
 20
73.000015258789063
 30
0.0
 11
10.949960327148432
 21
73.000015258789063
 31
0.0
  0
LINE
  5
48F
100
AcDbEntity
  8
0
  6
CONTINUOUS
 62
               4
100
AcDbLine
 10
1.0499664306640568
 20
67.500015258789063
 30
0.0
 11
5.3999725341796818
 21
67.500015258789063
 31
0.0
  0
LINE
  5
490
100
AcDbEntity
  8
0
  6
CONTINUOUS
 62
               4
100
AcDbLine
 10
6.5999694824218693
 20
67.500015258789063
 30
0.0
 11
10.949960327148432
 21
67.500015258789063
 31
0.0
  0
LINE
  5
491
100
AcDbEntity
  8
0
  6
CONTINUOUS
 62
               7
100
AcDbLine
 10
0.9999633789062443
 20
11.500015258789063
 30
0.0
 11
0.9999633789062443
 21
30.000015258789063
 31
0.0
  0
LINE
  5
492
100
AcDbEntity
  8
0
  6
CONTINUOUS
 62
               7
100
AcDbLine
 10
10.999963378906244
 20
11.500015258789063
 30
0.0
 11
10.999963378906244
 21
30.000015258789063
 31
0.0
  0
LINE
  5
493
100
AcDbEntity
  8
0
  6
CONTINUOUS
 62
               7
100
AcDbLine
 10
-0.0000366210937557
 20
11.500015258789063
 30
0.0
 11
-0.0000366210937557
 21
-21.499977111816406
 31
0.0
  0
LINE
  5
494
100
AcDbEntity
  8
0
  6
CONTINUOUS
 62
               7
100
AcDbLine
 10
-0.0000366210937557
 20
11.500015258789063
 30
0.0
 11
11.999963378906244
 21
11.500015258789063
 31
0.0
  0
LINE
  5
495
100
AcDbEntity
  8
0
  6
CONTINUOUS
 62
               7
100
AcDbLine
 10
11.999963378906244
 20
11.500015258789063
 30
0.0
 11
11.999963378906244
 21
-21.499977111816406
 31
0.0
  0
LINE
  5
496
100
AcDbEntity
  8
0
  6
CONTINUOUS
 62
               7
100
AcDbLine
 10
-0.0000366210937557
 20
-21.499977111816406
 30
0.0
 11
11.999963378906244
 21
-21.499977111816406
 31
0.0
  0
LINE
  5
497
100
AcDbEntity
  8
0
  6
DASHED
 62
               4
100
AcDbLine
 10
13.199960327148432
 20
9.5000152587890625
 30
0.0
 11
13.199960327148432
 21
-36.999984741210938
 31
0.0
  0
LINE
  5
498
100
AcDbEntity
  8
0
  6
DASHED
 62
               4
100
AcDbLine
 10
11.999963378906244
 20
9.5000152587890625
 30
0.0
 11
13.199960327148432
 21
9.5000152587890625
 31
0.0
  0
LINE
  5
499
100
AcDbEntity
  8
0
  6
DASHED
 62
               4
100
AcDbLine
 10
-0.0000366210937557
 20
-36.799972534179688
 30
0.0
 11
11.999963378906244
 21
-36.799972534179688
 31
0.0
  0
LINE
  5
49A
100
AcDbEntity
  8
0
  6
DASHED
 62
               4
100
AcDbLine
 10
-0.0000366210937557
 20
-37.999984741210937
 30
0.0
 11
12.199960327148432
 21
-37.999984741210937
 31
0.0
  0
LINE
  5
49B
100
AcDbEntity
  8
0
  6
DASHED
 62
               4
100
AcDbLine
 10
11.999963378906244
 20
-21.499977111816406
 30
0.0
 11
11.999963378906244
 21
-36.799972534179688
 31
0.0
  0
LINE
  5
49C
100
AcDbEntity
  8
0
  6
DASHED
 62
               4
100
AcDbLine
 10
-0.0000366210937557
 20
-36.799972534179688
 30
0.0
 11
-0.0000366210937557
 21
-37.999984741210937
 31
0.0
  0
LINE
  5
49D
100
AcDbEntity
  8
0
  6
DASHED
 62
               4
100
AcDbLine
 10
-1.8718627929687557
 20
-7.1999845504760742
 30
0.0
 11
-0.7000335693359432
 21
-7.1999845504760742
 31
0.0
  0
LINE
  5
49E
100
AcDbEntity
  8
0
  6
DASHED
 62
               4
100
AcDbLine
 10
-1.8718627929687557
 20
-12.799984931945801
 30
0.0
 11
-0.7000335693359432
 21
-12.799984931945801
 31
0.0
  0
LINE
  5
49F
100
AcDbEntity
  8
0
  6
DASHED
 62
               4
100
AcDbLine
 10
-1.8718627929687557
 20
2.8000144958496094
 30
0.0
 11
-0.7000335693359432
 21
2.8000144958496094
 31
0.0
  0
LINE
  5
4A0
100
AcDbEntity
  8
0
  6
DASHED
 62
               4
100
AcDbLine
 10
-1.8718627929687557
 20
-2.7999839782714844
 30
0.0
 11
-0.7000335693359432
 21
-2.7999839782714844
 31
0.0
  0
LINE
  5
4A1
100
AcDbEntity
  8
0
  6
CENTER
 62
               2
100
AcDbLine
 10
4.9999633789062443
 20
14.500015258789063
 30
0.0
 11
6.9999633789062443
 21
14.500015258789063
 31
0.0
  0
LINE
  5
4A2
100
AcDbEntity
  8
0
  6
CONTINUOUS
 62
               7
100
AcDbLine
 10
0.9999633789062443
 20
-26.999984741210938
 30
0.0
 11
4.3999725341796818
 21
-26.999984741210938
 31
0.0
  0
LINE
  5
4A3
100
AcDbEntity
  8
0
  6
CONTINUOUS
 62
               7
100
AcDbLine
 10
4.3999725341796818
 20
-27.999984741210937
 30
0.0
 11
4.3999725341796818
 21
-26.999984741210938
 31
0.0
  0
ARC
  5
4A4
100
AcDbEntity
  8
0
  6
CONTINUOUS
 62
               7
100
AcDbCircle
 10
10.599954223632807
 20
-27.5999755859375
 30
0.0
 40
0.4000000357627869
100
AcDbArc
 50
270.00001798608872
 51
0.00001366037834
  0
ARC
  5
4A5
100
AcDbEntity
  8
0
  6
CONTINUOUS
 62
               7
100
AcDbCircle
 10
1.3999572753906193
 20
-27.5999755859375
 30
0.0
 40
0.4000000357627869
100
AcDbArc
 50
179.99996402782091
 51
269.99994604173139
  0
ARC
  5
4A6
100
AcDbEntity
  8
0
  6
CONTINUOUS
 62
               7
100
AcDbCircle
 10
2.0499664306640568
 20
-26.999984741210938
 30
0.0
 40
0.5
100
AcDbArc
 50
180.0000359721783
 51
270.00001798608872
  0
ARC
  5
4A7
100
AcDbEntity
  8
0
  6
CONTINUOUS
 62
               7
100
AcDbCircle
 10
3.5499664306640568
 20
-26.999984741210938
 30
0.0
 40
0.5
100
AcDbArc
 50
270.00001798608872
 51
0.0000546415133601
  0
CIRCLE
  5
4A8
100
AcDbEntity
  8
0
  6
CONTINUOUS
 62
               2
100
AcDbCircle
 10
7.5999694824218693
 20
5.0000152587890625
 30
0.0
 40
2.5
  0
CIRCLE
  5
4A9
100
AcDbEntity
  8
0
  6
CONTINUOUS
 62
               2
100
AcDbCircle
 10
4.3999572753906193
 20
-14.999977111816406
 30
0.0
 40
2.5
  0
CIRCLE
  5
4AA
100
AcDbEntity
  8
0
  6
CONTINUOUS
 62
               2
100
AcDbCircle
 10
5.9999633789062443
 20
-4.9999771118164062
 30
0.0
 40
2.5
  0
CIRCLE
  5
4AB
100
AcDbEntity
  8
0
  6
CONTINUOUS
 62
               7
100
AcDbCircle
 10
4.3999572753906193
 20
-14.999977111816406
 30
0.0
 40
2.0999994277954102
  0
CIRCLE
  5
4AC
100
AcDbEntity
  8
0
  6
CONTINUOUS
 62
               7
100
AcDbCircle
 10
7.5999694824218693
 20
5.0000152587890625
 30
0.0
 40
2.0999994277954102
  0
CIRCLE
  5
4AD
100
AcDbEntity
  8
0
  6
CONTINUOUS
 62
               7
100
AcDbCircle
 10
5.9999633789062443
 20
-4.9999771118164062
 30
0.0
 40
2.0999994277954102
  0
ARC
  5
4AE
100
AcDbEntity
  8
0
  6
DASHED
 62
               4
100
AcDbCircle
 10
12.199960327148432
 20
-36.999984741210938
 30
0.0
 40
1.0
100
AcDbArc
 50
270.00001798608872
 51
0.0
  0
ARC
  5
4AF
100
AcDbEntity
  8
0
  6
DASHED
 62
               4
100
AcDbCircle
 10
1.8999725341796818
 20
-9.9999847412109375
 30
0.0
 40
5.0
100
AcDbArc
 50
150.5076443238128
 51
209.49233837334239
  0
ARC
  5
4B0
100
AcDbEntity
  8
0
  6
DASHED
 62
               4
100
AcDbCircle
 10
-1.8718627929687557
 20
-7.8666515350341797
 30
0.0
 40
0.6666666865348816
100
AcDbArc
 50
89.999982013910454
 51
150.5076443238128
  0
ARC
  5
4B1
100
AcDbEntity
  8
0
  6
DASHED
 62
               4
100
AcDbCircle
 10
-1.8718627929687557
 20
-12.133317947387695
 30
0.0
 40
0.6666666865348816
100
AcDbArc
 50
209.49235567618641
 51
270.00001798608872
  0
ARC
  5
4B2
100
AcDbEntity
  8
0
  6
DASHED
 62
               4
100
AcDbCircle
 10
1.8999725341796818
 20
0.0000152587890625
 30
0.0
 40
5.0
100
AcDbArc
 50
150.5076443238128
 51
209.49233837334239
  0
ARC
  5
4B3
100
AcDbEntity
  8
0
  6
DASHED
 62
               4
100
AcDbCircle
 10
-1.8718627929687557
 20
2.1333484649658203
 30
0.0
 40
0.6666666865348816
100
AcDbArc
 50
89.999982013910454
 51
150.5076443238128
  0
ARC
  5
4B4
100
AcDbEntity
  8
0
  6
DASHED
 62
               4
100
AcDbCircle
 10
-1.8718627929687557
 20
-2.1333179473876953
 30
0.0
 40
0.6666666865348816
100
AcDbArc
 50
209.49235567618641
 51
270.00001798608872
  0
CIRCLE
  5
4B5
100
AcDbEntity
  8
0
  6
CONTINUOUS
 62
               7
100
AcDbCircle
 10
5.9999633789062443
 20
14.500015258789063
 30
0.0
 40
0.6000000238418579
  0
LINE
  5
4B6
100
AcDbEntity
  8
0
  6
DASHED
 62
               4
100
AcDbLine
 10
-0.7000335693359432
 20
-7.0499849319457724
 30
0.0
 11
-0.7000335693359432
 21
-12.949984550476046
 31
0.0
  0
LINE
  5
4B7
100
AcDbEntity
  8
0
  6
DASHED
 62
               4
100
AcDbLine
 10
-0.0000392227542818
 20
-10.349984241225684
 30
0.0
 11
-0.7000465553559536
 21
-10.53755064226425
 31
0.0
  0
LINE
  5
4B8
100
AcDbEntity
  8
0
  6
DASHED
 62
               4
100
AcDbLine
 10
-0.7000453543145397
 20
-9.6499864662428081
 30
0.0
 11
-0.0000379785173266
 21
-9.4624201083997832
 31
0.0
  0
LINE
  5
4B9
100
AcDbEntity
  8
0
  6
DASHED
 62
               4
100
AcDbLine
 10
-0.7000335693359432
 20
-7.0499849319457724
 30
0.0
 11
-0.0000366210937557
 21
-7.0499849319457724
 31
0.0
  0
LINE
  5
4BA
100
AcDbEntity
  8
0
  6
DASHED
 62
               4
100
AcDbLine
 10
-0.7000335693359432
 20
-12.949984550476046
 30
0.0
 11
-0.0000366210937557
 21
-12.949984550476046
 31
0.0
  0
LINE
  5
4BB
100
AcDbEntity
  8
0
  6
DASHED
 62
               4
100
AcDbLine
 10
-0.7000335693359432
 20
2.9500150680541992
 30
0.0
 11
-0.7000335693359432
 21
-2.9499845504760458
 31
0.0
  0
LINE
  5
4BC
100
AcDbEntity
  8
0
  6
DASHED
 62
               4
100
AcDbLine
 10
-0.000033485759019
 20
-0.3499851951637538
 30
0.0
 11
-0.7000408183606908
 21
-0.5375515962023201
 31
0.0
  0
LINE
  5
4BD
100
AcDbEntity
  8
0
  6
DASHED
 62
               4
100
AcDbLine
 10
-0.700038887314264
 20
0.3500130012871523
 30
0.0
 11
-0.0000462503761867
 21
0.5375754098658945
 31
0.0
  0
LINE
  5
4BE
100
AcDbEntity
  8
0
  6
DASHED
 62
               4
100
AcDbLine
 10
-0.7000335693359432
 20
2.9500150680541992
 30
0.0
 11
-0.0000366210937557
 21
2.9500150680541992
 31
0.0
  0
LINE
  5
4BF
100
AcDbEntity
  8
0
  6
DASHED
 62
               4
100
AcDbLine
 10
-0.7000335693359432
 20
-2.9499845504760458
 30
0.0
 11
-0.0000366210937557
 21
-2.9499845504760458
 31
0.0
  0
LINE
  5
4C0
100
AcDbEntity
  8
0
  6
DASHED
 62
               4
100
AcDbLine
 10
14.399957275390619
 20
-1.9999847412109375
 30
0.0
 11
14.399957275390619
 21
2.0000152587890625
 31
0.0
  0
LINE
  5
4C1
100
AcDbEntity
  8
0
  6
DASHED
 62
               4
100
AcDbLine
 10
13.699960327148432
 20
2.0000152587890625
 30
0.0
 11
14.399957275390619
 21
2.0000152587890625
 31
0.0
  0
LINE
  5
4C2
100
AcDbEntity
  8
0
  6
DASHED
 62
               4
100
AcDbLine
 10
13.699960327148432
 20
-1.9999847412109375
 30
0.0
 11
14.399957275390619
 21
-1.9999847412109375
 31
0.0
  0
ARC
  5
4C3
100
AcDbEntity
  8
0
  6
DASHED
 62
               4
100
AcDbCircle
 10
13.699960327148432
 20
2.5000152587890625
 30
0.0
 40
0.5
100
AcDbArc
 50
179.99996402782091
 51
270.00000068324471
  0
ARC
  5
4C4
100
AcDbEntity
  8
0
  6
DASHED
 62
               4
100
AcDbCircle
 10
13.699960327148432
 20
-2.4999847412109375
 30
0.0
 40
0.5
100
AcDbArc
 50
89.999982013910454
 51
179.99996402782091
  0
LINE
  5
4C5
100
AcDbEntity
  8
0
  6
DASHED
 62
               4
100
AcDbLine
 10
14.399957275390619
 20
-11.999984741210938
 30
0.0
 11
14.399957275390619
 21
-7.9999847412109375
 31
0.0
  0
LINE
  5
4C6
100
AcDbEntity
  8
0
  6
DASHED
 62
               4
100
AcDbLine
 10
13.699960327148432
 20
-7.9999847412109375
 30
0.0
 11
14.399957275390619
 21
-7.9999847412109375
 31
0.0
  0
LINE
  5
4C7
100
AcDbEntity
  8
0
  6
DASHED
 62
               4
100
AcDbLine
 10
13.699960327148432
 20
-11.999984741210938
 30
0.0
 11
14.399957275390619
 21
-11.999984741210938
 31
0.0
  0
ARC
  5
4C8
100
AcDbEntity
  8
0
  6
DASHED
 62
               4
100
AcDbCircle
 10
13.699960327148432
 20
-7.4999847412109375
 30
0.0
 40
0.5
100
AcDbArc
 50
179.99996402782091
 51
270.00000068324471
  0
ARC
  5
4C9
100
AcDbEntity
  8
0
  6
DASHED
 62
               4
100
AcDbCircle
 10
13.699960327148432
 20
-12.499984741210938
 30
0.0
 40
0.5
100
AcDbArc
 50
89.999982013910454
 51
179.99996402782091
  0
LINE
  5
4CA
100
AcDbEntity
  8
0
  6
CONTINUOUS
 62
               4
100
AcDbLine
 10
7.2849670410156193
 20
78.861968994140625
 30
0.0
 11
7.2849670410156193
 21
82.000015258789063
 31
0.0
  0
LINE
  5
4CB
100
AcDbEntity
  8
0
  6
CONTINUOUS
 62
               4
100
AcDbLine
 10
8.7149749755859318
 20
79.245132446289063
 30
0.0
 11
8.7149749755859318
 21
82.000015258789063
 31
0.0
  0
LINE
  5
4CC
100
AcDbEntity
  8
0
  6
CONTINUOUS
 62
               4
100
AcDbLine
 10
8.7149749755859318
 20
82.000015258789063
 30
0.0
 11
7.2849670410156193
 21
82.000015258789063
 31
0.0
  0
LINE
  5
4CD
100
AcDbEntity
  8
0
  6
CONTINUOUS
 62
               4
100
AcDbLine
 10
7.5999694824218693
 20
82.000015258789063
 30
0.0
 11
7.5999694824218693
 21
87.000015258789063
 31
0.0
  0
LINE
  5
4CE
100
AcDbEntity
  8
0
  6
CONTINUOUS
 62
               4
100
AcDbLine
 10
8.3999725341796818
 20
82.000015258789063
 30
0.0
 11
8.3999725341796818
 21
87.000015258789063
 31
0.0
  0
LINE
  5
4CF
100
AcDbEntity
  8
0
  6
CONTINUOUS
 62
               4
100
AcDbLine
 10
8.3999725341796818
 20
87.000015258789063
 30
0.0
 11
7.5999694824218693
 21
87.000015258789063
 31
0.0
  0
LINE
  5
4D0
100
AcDbEntity
  8
0
  6
CONTINUOUS
 62
               4
100
AcDbLine
 10
7.2849670410156193
 20
74.000015258789063
 30
0.0
 11
7.2849670410156193
 21
77.826690673828125
 31
0.0
  0
LINE
  5
4D1
100
AcDbEntity
  8
0
  6
CONTINUOUS
 62
               4
100
AcDbLine
 10
8.7149749755859318
 20
74.000015258789063
 30
0.0
 11
8.7149749755859318
 21
78.209869384765625
 31
0.0
  0
LINE
  5
4D2
100
AcDbEntity
  8
0
  6
CONTINUOUS
 62
             200
100
AcDbLine
 10
5.9999633789062443
 20
77.482374618932084
 30
0.0
 11
9.9999678158252152
 21
78.554172586508685
 31
0.0
  0
LINE
  5
4D3
100
AcDbEntity
  8
0
  6
CONTINUOUS
 62
             200
100
AcDbLine
 10
5.9999633789062443
 20
78.517650785962758
 30
0.0
 11
9.9999631226433792
 21
79.58944749600505
 31
0.0
  0
LINE
  5
4D4
100
AcDbEntity
  8
0
  6
CONTINUOUS
 62
               4
100
AcDbLine
 10
10.949960327148432
 20
63.0
 30
0.0
 11
1.0499664306640568
 21
63.0
 31
0.0
  0
LINE
  5
4D5
100
AcDbEntity
  8
0
  6
CONTINUOUS
 62
               4
100
AcDbLine
 10
0.9999633789062443
 20
47.0
 30
0.0
 11
1.6165149569511357
 21
47.0
 31
0.0
  0
LINE
  5
4D6
100
AcDbEntity
  8
0
  6
CONTINUOUS
 62
               4
100
AcDbLine
 10
10.299963378906241
 20
47.0
 30
0.0
 11
10.299963378906241
 21
54.000030517578125
 31
0.0
  0
LINE
  5
4D7
100
AcDbEntity
  8
0
  6
CONTINUOUS
 62
               4
100
AcDbLine
 10
1.6165149554506968
 20
47.0
 30
0.0
 11
1.6165149554506968
 21
54.000030517578125
 31
0.0
  0
LINE
  5
4D8
100
AcDbEntity
  8
0
  6
CONTINUOUS
 62
               4
100
AcDbLine
 10
10.299963378906241
 20
47.0
 30
0.0
 11
10.999963378906244
 21
47.0
 31
0.0
  0
LINE
  5
4D9
100
AcDbEntity
  8
0
  6
CONTINUOUS
 62
               4
100
AcDbLine
 10
3.39996337890625
 20
48.700030517578114
 30
0.0
 11
3.39996337890625
 21
54.000030517578125
 31
0.0
  0
LINE
  5
4DA
100
AcDbEntity
  8
0
  6
CONTINUOUS
 62
               4
100
AcDbLine
 10
4.5999633789062386
 20
48.700030517578114
 30
0.0
 11
4.5999633789062386
 21
54.000030517578125
 31
0.0
  0
LINE
  5
4DB
100
AcDbEntity
  8
0
  6
CONTINUOUS
 62
               4
100
AcDbLine
 10
7.3999633789062429
 20
48.700030517578114
 30
0.0
 11
7.3999633789062429
 21
54.000030517578125
 31
0.0
  0
LINE
  5
4DC
100
AcDbEntity
  8
0
  6
CONTINUOUS
 62
               4
100
AcDbLine
 10
8.5999633789062386
 20
48.700030517578114
 30
0.0
 11
8.5999633789062386
 21
54.000030517578125
 31
0.0
  0
LINE
  5
4DD
100
AcDbEntity
  8
0
  6
CONTINUOUS
 62
               4
100
AcDbLine
 10
3.169963378906246
 20
48.700030517578114
 30
0.0
 11
3.169963378906246
 21
54.000030517578125
 31
0.0
  0
LINE
  5
4DE
100
AcDbEntity
  8
0
  6
CONTINUOUS
 62
               4
100
AcDbLine
 10
4.8299633789062426
 20
48.700030517578114
 30
0.0
 11
4.8299633789062426
 21
54.000030517578125
 31
0.0
  0
LINE
  5
4DF
100
AcDbEntity
  8
0
  6
CONTINUOUS
 62
               4
100
AcDbLine
 10
7.169963378906246
 20
48.700030517578114
 30
0.0
 11
7.169963378906246
 21
54.000030517578125
 31
0.0
  0
LINE
  5
4E0
100
AcDbEntity
  8
0
  6
CONTINUOUS
 62
               4
100
AcDbLine
 10
8.8299633789062426
 20
48.700030517578114
 30
0.0
 11
8.8299633789062426
 21
54.000030517578125
 31
0.0
  0
LINE
  5
4E1
100
AcDbEntity
  8
0
  6
CONTINUOUS
 62
               4
100
AcDbLine
 10
3.169963378906246
 20
48.700030517578114
 30
0.0
 11
4.8299633789062426
 21
48.700030517578114
 31
0.0
  0
LINE
  5
4E2
100
AcDbEntity
  8
0
  6
CONTINUOUS
 62
               4
100
AcDbLine
 10
7.169963378906246
 20
48.700030517578114
 30
0.0
 11
8.8299633789062426
 21
48.700030517578114
 31
0.0
  0
LINE
  5
4E3
100
AcDbEntity
  8
0
  6
CONTINUOUS
 62
               4
100
AcDbLine
 10
10.999963378906244
 20
30.000015258789063
 30
0.0
 11
10.999963378906244
 21
54.000030517578125
 31
0.0
  0
LINE
  5
4E4
100
AcDbEntity
  8
0
  6
CONTINUOUS
 62
               4
100
AcDbLine
 10
0.9999633789062443
 20
30.000015258789063
 30
0.0
 11
0.9999633789062443
 21
54.000030517578125
 31
0.0
  0
ENDBLK
  5
4E5
100
AcDbEntity
  8
0
100
AcDbBlockEnd
  0
BLOCK
  5
4E6
100
AcDbEntity
  8
0
100
AcDbBlockBegin
  2
F10T0-13
 70
               0
 10
0.0
 20
0.0
 30
0.0
  3
F10T0-13
  1

  0
LINE
  5
4E7
100
AcDbEntity
  8
0
  6
CONTINUOUS
 62
               7
100
AcDbLine
 10
-12.0
 20
11.100009536743158
 30
0.0
 11
-12.0
 21
-21.899984741210943
 31
0.0
  0
LINE
  5
4E8
100
AcDbEntity
  8
0
  6
CONTINUOUS
 62
               7
100
AcDbLine
 10
0.0
 20
11.100009536743158
 30
0.0
 11
0.0
 21
-21.899984741210943
 31
0.0
  0
LINE
  5
4E9
100
AcDbEntity
  8
0
  6
CONTINUOUS
 62
               7
100
AcDbLine
 10
-12.0
 20
11.100009536743158
 30
0.0
 11
-11.0
 21
11.100009536743158
 31
0.0
  0
LINE
  5
4EA
100
AcDbEntity
  8
0
  6
CONTINUOUS
 62
               7
100
AcDbLine
 10
-12.0
 20
-21.899984741210943
 30
0.0
 11
-11.0
 21
-21.899984741210943
 31
0.0
  0
LINE
  5
4EB
100
AcDbEntity
  8
0
  6
CONTINUOUS
 62
               7
100
AcDbLine
 10
-11.0
 20
18.100009536743158
 30
0.0
 11
-1.0
 21
18.100009536743158
 31
0.0
  0
LINE
  5
4EC
100
AcDbEntity
  8
0
  6
CONTINUOUS
 62
               7
100
AcDbLine
 10
-11.0
 20
20.100009536743158
 30
0.0
 11
-1.0
 21
20.100009536743158
 31
0.0
  0
LINE
  5
4ED
100
AcDbEntity
  8
0
  6
CENTER
 62
               2
100
AcDbLine
 10
-8.5
 20
26.300006484985346
 30
0.0
 11
-3.5
 21
26.300006484985346
 31
0.0
  0
LINE
  5
4EE
100
AcDbEntity
  8
0
  6
CONTINUOUS
 62
               2
100
AcDbLine
 10
-6.0
 20
-39.006664657592779
 30
0.0
 11
-6.0
 21
75.355090713500971
 31
0.0
  0
LINE
  5
4EF
100
AcDbEntity
  8
0
  6
CONTINUOUS
 62
               4
100
AcDbLine
 10
-11.0
 20
53.600009536743158
 30
0.0
 11
-1.0
 21
53.600009536743158
 31
0.0
  0
LINE
  5
4F0
100
AcDbEntity
  8
0
  6
CONTINUOUS
 62
               7
100
AcDbLine
 10
-11.0
 20
29.600009536743158
 30
0.0
 11
-1.0
 21
29.600009536743158
 31
0.0
  0
LINE
  5
4F1
100
AcDbEntity
  8
0
  6
CONTINUOUS
 62
               7
100
AcDbLine
 10
-7.926788330078125
 20
26.000003433227533
 30
0.0
 11
-4.073211669921875
 21
26.000003433227533
 31
0.0
  0
LINE
  5
4F2
100
AcDbEntity
  8
0
  6
CONTINUOUS
 62
               7
100
AcDbLine
 10
-7.926788330078125
 20
26.600009536743158
 30
0.0
 11
-4.073211669921875
 21
26.600009536743158
 31
0.0
  0
LINE
  5
4F3
100
AcDbEntity
  8
0
  6
CONTINUOUS
 62
               4
100
AcDbLine
 10
-10.95001220703125
 20
53.600024795532221
 30
0.0
 11
-10.95001220703125
 21
67.100024795532221
 31
0.0
  0
LINE
  5
4F4
100
AcDbEntity
  8
0
  6
CONTINUOUS
 62
               4
100
AcDbLine
 10
-1.5
 20
62.600009536743158
 30
0.0
 11
-10.5
 21
62.600009536743158
 31
0.0
  0
LINE
  5
4F5
100
AcDbEntity
  8
0
  6
CENTER
 62
               2
100
AcDbLine
 10
-1.0500030517578125
 20
58.100009536743158
 30
0.0
 11
-10.95001220703125
 21
58.100009536743158
 31
0.0
  0
LINE
  5
4F6
100
AcDbEntity
  8
0
  6
CONTINUOUS
 62
               4
100
AcDbLine
 10
-1.0500030517578125
 20
53.600009536743158
 30
0.0
 11
-1.0500030517578125
 21
67.100024795532221
 31
0.0
  0
LINE
  5
4F7
100
AcDbEntity
  8
0
  6
CONTINUOUS
 62
               4
100
AcDbLine
 10
-10.949996948242188
 20
67.100009536743158
 30
0.0
 11
-9.5
 21
67.100009536743158
 31
0.0
  0
LINE
  5
4F8
100
AcDbEntity
  8
0
  6
CONTINUOUS
 62
               4
100
AcDbLine
 10
-10.050003051757812
 20
62.600024795532221
 30
0.0
 11
-10.050003051757812
 21
65.100024795532221
 31
0.0
  0
LINE
  5
4F9
100
AcDbEntity
  8
0
  6
CONTINUOUS
 62
               4
100
AcDbLine
 10
-1.9499969482421875
 20
62.600009536743158
 30
0.0
 11
-1.9499969482421875
 21
65.100024795532221
 31
0.0
  0
LINE
  5
4FA
100
AcDbEntity
  8
0
  6
CONTINUOUS
 62
               4
100
AcDbLine
 10
-2.5
 20
63.098468399047846
 30
0.0
 11
-2.5
 21
73.600009536743158
 31
0.0
  0
LINE
  5
4FB
100
AcDbEntity
  8
0
  6
CONTINUOUS
 62
               4
100
AcDbLine
 10
-9.5
 20
63.098468399047846
 30
0.0
 11
-9.5
 21
73.600009536743158
 31
0.0
  0
LINE
  5
4FC
100
AcDbEntity
  8
0
  6
CONTINUOUS
 62
               4
100
AcDbLine
 10
-9.5
 20
63.098468399047846
 30
0.0
 11
-2.5
 21
63.098468399047846
 31
0.0
  0
LINE
  5
4FD
100
AcDbEntity
  8
0
  6
CONTINUOUS
 62
               4
100
AcDbLine
 10
-9.5
 20
66.656161880493158
 30
0.0
 11
-2.5
 21
66.656161880493158
 31
0.0
  0
LINE
  5
4FE
100
AcDbEntity
  8
0
  6
CONTINUOUS
 62
               4
100
AcDbLine
 10
-9.5
 20
72.100009536743158
 30
0.0
 11
-2.5
 21
72.100009536743158
 31
0.0
  0
LINE
  5
4FF
100
AcDbEntity
  8
0
  6
CONTINUOUS
 62
               4
100
AcDbLine
 10
-10.899993896484375
 20
73.600009536743158
 30
0.0
 11
-1.100006103515625
 21
73.600009536743158
 31
0.0
  0
LINE
  5
500
100
AcDbEntity
  8
0
  6
CONTINUOUS
 62
               4
100
AcDbLine
 10
-2.5
 20
67.100009536743158
 30
0.0
 11
-1.0500030517578125
 21
67.100009536743158
 31
0.0
  0
LINE
  5
501
100
AcDbEntity
  8
0
  6
CONTINUOUS
 62
               4
100
AcDbLine
 10
-2.5
 20
66.100009536743158
 30
0.0
 11
-1.9499969482421875
 21
66.100009536743158
 31
0.0
  0
LINE
  5
502
100
AcDbEntity
  8
0
  6
CONTINUOUS
 62
               4
100
AcDbLine
 10
-2.5
 20
65.100009536743158
 30
0.0
 11
-1.9499969482421875
 21
65.100009536743158
 31
0.0
  0
LINE
  5
503
100
AcDbEntity
  8
0
  6
CONTINUOUS
 62
               4
100
AcDbLine
 10
-10.050003051757812
 20
66.100009536743158
 30
0.0
 11
-9.5
 21
66.100009536743158
 31
0.0
  0
LINE
  5
504
100
AcDbEntity
  8
0
  6
CONTINUOUS
 62
               4
100
AcDbLine
 10
-10.050003051757812
 20
65.100009536743158
 30
0.0
 11
-9.5
 21
65.100009536743158
 31
0.0
  0
LINE
  5
505
100
AcDbEntity
  8
0
  6
CONTINUOUS
 62
               4
100
AcDbLine
 10
-10.050003051757812
 20
66.100024795532221
 30
0.0
 11
-10.050003051757812
 21
67.100024795532221
 31
0.0
  0
LINE
  5
506
100
AcDbEntity
  8
0
  6
CONTINUOUS
 62
               4
100
AcDbLine
 10
-1.9499969482421875
 20
66.100024795532221
 30
0.0
 11
-1.9499969482421875
 21
67.100024795532221
 31
0.0
  0
LINE
  5
507
100
AcDbEntity
  8
0
  6
CONTINUOUS
 62
               7
100
AcDbLine
 10
-1.0
 20
-27.999981307983404
 30
0.0
 11
-1.0
 21
7.0500217437744084
 31
0.0
  0
LINE
  5
508
100
AcDbEntity
  8
0
  6
CONTINUOUS
 62
               7
100
AcDbLine
 10
-11.0
 20
-27.999981307983404
 30
0.0
 11
-11.0
 21
-18.549995803833013
 31
0.0
  0
LINE
  5
509
100
AcDbEntity
  8
0
  6
CONTINUOUS
 62
               4
100
AcDbLine
 10
-1.100006103515625
 20
67.100024795532221
 30
0.0
 11
-1.100006103515625
 21
73.600009536743158
 31
0.0
  0
LINE
  5
50A
100
AcDbEntity
  8
0
  6
CONTINUOUS
 62
               4
100
AcDbLine
 10
-10.900009155273437
 20
67.100024795532221
 30
0.0
 11
-10.900009155273437
 21
73.600009536743158
 31
0.0
  0
LINE
  5
50B
100
AcDbEntity
  8
0
  6
CONTINUOUS
 62
               4
100
AcDbLine
 10
-10.0
 20
67.100024795532221
 30
0.0
 11
-10.0
 21
73.600009536743158
 31
0.0
  0
LINE
  5
50C
100
AcDbEntity
  8
0
  6
CONTINUOUS
 62
               4
100
AcDbLine
 10
-2.0
 20
67.100024795532221
 30
0.0
 11
-2.0
 21
73.600009536743158
 31
0.0
  0
LINE
  5
50D
100
AcDbEntity
  8
0
  6
CONTINUOUS
 62
               7
100
AcDbLine
 10
-11.0
 20
10.600009536743158
 30
0.0
 11
-1.0
 21
10.600009536743158
 31
0.0
  0
LINE
  5
50E
100
AcDbEntity
  8
0
  6
CONTINUOUS
 62
               7
100
AcDbLine
 10
-7.8000030517578125
 20
-21.199985885620123
 30
0.0
 11
-1.4000091552734375
 21
-21.199985885620123
 31
0.0
  0
LINE
  5
50F
100
AcDbEntity
  8
0
  6
CONTINUOUS
 62
               7
100
AcDbLine
 10
-10.600006103515625
 20
10.400012588500971
 30
0.0
 11
-4.20001220703125
 21
10.400012588500971
 31
0.0
  0
LINE
  5
510
100
AcDbEntity
  8
0
  6
CONTINUOUS
 62
               7
100
AcDbLine
 10
-3.8000030517578125
 20
7.3999973297119084
 30
0.0
 11
-3.8000030517578125
 21
10.000003433227533
 31
0.0
  0
LINE
  5
511
100
AcDbEntity
  8
0
  6
CONTINUOUS
 62
               7
100
AcDbLine
 10
-8.1999969482421875
 20
-18.199993515014654
 30
0.0
 11
-8.1999969482421875
 21
-20.799991989135748
 31
0.0
  0
LINE
  5
512
100
AcDbEntity
  8
0
  6
CONTINUOUS
 62
               7
100
AcDbLine
 10
-9.8000030517578125
 20
-16.599987411499029
 30
0.0
 11
-10.600006103515625
 21
-16.599987411499029
 31
0.0
  0
LINE
  5
513
100
AcDbEntity
  8
0
  6
CONTINUOUS
 62
               7
100
AcDbLine
 10
-2.20001220703125
 20
5.8000064849853459
 30
0.0
 11
-1.4000091552734375
 21
5.8000064849853459
 31
0.0
  0
LINE
  5
514
100
AcDbEntity
  8
0
  6
CONTINUOUS
 62
               7
100
AcDbLine
 10
-2.1161001131913508
 20
-19.283865695725041
 30
0.0
 11
-3.8838668868920649
 21
-17.516098474989491
 31
0.0
  0
LINE
  5
515
100
AcDbEntity
  8
0
  6
CONTINUOUS
 62
               7
100
AcDbLine
 10
-8.1161034481547176
 20
6.7161421808783359
 30
0.0
 11
-9.8838702218554317
 21
8.4839094016138858
 31
0.0
  0
LINE
  5
516
100
AcDbEntity
  8
0
  6
CONTINUOUS
 62
               7
100
AcDbLine
 10
-9.8838828041916713
 20
6.7161206664100916
 30
0.0
 11
-8.1161157324677333
 21
8.4838875891224177
 31
0.0
  0
LINE
  5
517
100
AcDbEntity
  8
0
  6
CONTINUOUS
 62
               7
100
AcDbLine
 10
-3.8838880671855804
 20
-19.283897494023591
 30
0.0
 11
-2.1161102058676988
 21
-17.516119781718231
 31
0.0
  0
LINE
  5
518
100
AcDbEntity
  8
0
  6
CONTINUOUS
 62
               7
100
AcDbLine
 10
-11.000015258789063
 20
-21.399990463256842
 30
0.0
 11
-1.0
 21
-21.399990463256842
 31
0.0
  0
LINE
  5
519
100
AcDbEntity
  8
0
  6
CONTINUOUS
 62
               7
100
AcDbLine
 10
-10.600006103515625
 20
-28.399990463256842
 30
0.0
 11
-1.4000091552734375
 21
-28.399990463256842
 31
0.0
  0
LINE
  5
51A
100
AcDbEntity
  8
0
  6
CONTINUOUS
 62
               7
100
AcDbLine
 10
-10.40102909558118
 20
-18.801030541938786
 30
0.0
 11
-9.1989496447276906
 21
-17.598951192413011
 31
0.0
  0
LINE
  5
51B
100
AcDbEntity
  8
0
  6
CONTINUOUS
 62
               7
100
AcDbLine
 10
-2.8010325757377359
 20
6.7989628666979058
 30
0.0
 11
-1.5989531248842468
 21
8.0010422162236807
 31
0.0
  0
LINE
  5
51C
100
AcDbEntity
  8
0
  6
CONTINUOUS
 62
               7
100
AcDbLine
 10
-2.801023413013354
 20
8.0010750739080265
 30
0.0
 11
-1.5989331725659213
 21
6.7989849347892175
 31
0.0
  0
LINE
  5
51D
100
AcDbEntity
  8
0
  6
CONTINUOUS
 62
               7
100
AcDbLine
 10
-10.401028564531771
 20
-17.598929764954306
 30
0.0
 11
-9.1989491136782817
 21
-18.801009114480081
 31
0.0
  0
LINE
  5
51E
100
AcDbEntity
  8
0
  6
CONTINUOUS
 62
               7
100
AcDbLine
 10
-11.0
 20
-17.849975013732916
 30
0.0
 11
-11.0
 21
29.600009536743158
 31
0.0
  0
LINE
  5
51F
100
AcDbEntity
  8
0
  6
CONTINUOUS
 62
               7
100
AcDbLine
 10
-1.0
 20
7.7499881744384709
 30
0.0
 11
-1.0
 21
29.600009536743158
 31
0.0
  0
LINE
  5
520
100
AcDbEntity
  8
0
  6
CONTINUOUS
 62
               7
100
AcDbLine
 10
-1.0
 20
11.100009536743158
 30
0.0
 11
0.0
 21
11.100009536743158
 31
0.0
  0
LINE
  5
521
100
AcDbEntity
  8
0
  6
CONTINUOUS
 62
               7
100
AcDbLine
 10
-1.0
 20
-21.899984741210943
 30
0.0
 11
0.0
 21
-21.899984741210943
 31
0.0
  0
LINE
  5
522
100
AcDbEntity
  8
0
  6
DASHED
 62
               4
100
AcDbLine
 10
-13.199996948242188
 20
9.1000095367431584
 30
0.0
 11
-13.199996948242188
 21
-37.399990463256842
 31
0.0
  0
LINE
  5
523
100
AcDbEntity
  8
0
  6
DASHED
 62
               4
100
AcDbLine
 10
-13.199996948242188
 20
9.1000095367431584
 30
0.0
 11
-12.0
 21
9.1000095367431584
 31
0.0
  0
LINE
  5
524
100
AcDbEntity
  8
0
  6
DASHED
 62
               4
100
AcDbLine
 10
-12.0
 20
-37.199978256225592
 30
0.0
 11
0.0
 21
-37.199978256225592
 31
0.0
  0
LINE
  5
525
100
AcDbEntity
  8
0
  6
DASHED
 62
               4
100
AcDbLine
 10
-12.199996948242188
 20
-38.399990463256842
 30
0.0
 11
0.0
 21
-38.399990463256842
 31
0.0
  0
LINE
  5
526
100
AcDbEntity
  8
0
  6
DASHED
 62
               4
100
AcDbLine
 10
-12.0
 20
-21.899984741210943
 30
0.0
 11
-12.0
 21
-37.199978256225592
 31
0.0
  0
LINE
  5
527
100
AcDbEntity
  8
0
  6
DASHED
 62
               4
100
AcDbLine
 10
0.0
 20
-37.199978256225592
 30
0.0
 11
0.0
 21
-38.399990463256842
 31
0.0
  0
LINE
  5
528
100
AcDbEntity
  8
0
  6
DASHED
 62
               4
100
AcDbLine
 10
1.871826171875
 20
-13.199990653991705
 30
0.0
 11
0.6999969482421875
 21
-13.199990653991705
 31
0.0
  0
LINE
  5
529
100
AcDbEntity
  8
0
  6
DASHED
 62
               4
100
AcDbLine
 10
1.871826171875
 20
-7.5999902725219783
 30
0.0
 11
0.6999969482421875
 21
-7.5999902725219783
 31
0.0
  0
LINE
  5
52A
100
AcDbEntity
  8
0
  6
DASHED
 62
               4
100
AcDbLine
 10
1.871826171875
 20
-3.1999897003173885
 30
0.0
 11
0.6999969482421875
 21
-3.1999897003173885
 31
0.0
  0
LINE
  5
52B
100
AcDbEntity
  8
0
  6
DASHED
 62
               4
100
AcDbLine
 10
1.871826171875
 20
2.4000087738037053
 30
0.0
 11
0.6999969482421875
 21
2.4000087738037053
 31
0.0
  0
CIRCLE
  5
52C
100
AcDbEntity
  8
0
  6
CONTINUOUS
 62
               7
100
AcDbCircle
 10
-6.0
 20
26.300006484985346
 30
0.0
 40
2.0
  0
CIRCLE
  5
52D
100
AcDbEntity
  8
0
  6
CONTINUOUS
 62
               7
100
AcDbCircle
 10
-6.0
 20
26.300006484985346
 30
0.0
 40
1.9499998092651367
  0
ARC
  5
52E
100
AcDbEntity
  8
0
  6
CONTINUOUS
 62
               4
100
AcDbCircle
 10
-1.5500030517578125
 20
62.100009536743158
 30
0.0
 40
0.5
100
AcDbArc
 50
359.99995901886416
 51
89.999982013910454
  0
ARC
  5
52F
100
AcDbEntity
  8
0
  6
CONTINUOUS
 62
               4
100
AcDbCircle
 10
-10.449996948242187
 20
62.100024795532221
 30
0.0
 40
0.5
100
AcDbArc
 50
89.999982013910454
 51
179.99996402782091
  0
ARC
  5
530
100
AcDbEntity
  8
0
  6
CONTINUOUS
 62
               7
100
AcDbCircle
 10
-1.4000091552734375
 20
-27.999981307983404
 30
0.0
 40
0.4000000357627869
100
AcDbArc
 50
270.00001798608872
 51
0.00001366037834
  0
ARC
  5
531
100
AcDbEntity
  8
0
  6
CONTINUOUS
 62
               7
100
AcDbCircle
 10
-10.600006103515625
 20
-27.999981307983404
 30
0.0
 40
0.4000000357627869
100
AcDbArc
 50
179.99996402782091
 51
269.99994604173139
  0
ARC
  5
532
100
AcDbEntity
  8
0
  6
CONTINUOUS
 62
               7
100
AcDbCircle
 10
-1.399993896484375
 20
11.000003433227533
 30
0.0
 40
0.4000000357627869
100
AcDbArc
 50
270.00001798608872
 51
0.0
  0
ARC
  5
533
100
AcDbEntity
  8
0
  6
CONTINUOUS
 62
               7
100
AcDbCircle
 10
-10.600006103515625
 20
11.000003433227533
 30
0.0
 40
0.4000000357627869
100
AcDbArc
 50
179.99996402782091
 51
270.00000068324471
  0
ARC
  5
534
100
AcDbEntity
  8
0
  6
CONTINUOUS
 62
               7
100
AcDbCircle
 10
-10.600006103515625
 20
-16.199985885620123
 30
0.0
 40
0.4000000357627869
100
AcDbArc
 50
179.99996402782091
 51
270.00000068324471
  0
ARC
  5
535
100
AcDbEntity
  8
0
  6
CONTINUOUS
 62
               7
100
AcDbCircle
 10
-10.600006103515625
 20
10.000003433227533
 30
0.0
 40
0.4000000357627869
100
AcDbArc
 50
89.999982013910454
 51
179.99996402782091
  0
ARC
  5
536
100
AcDbEntity
  8
0
  6
CONTINUOUS
 62
               7
100
AcDbCircle
 10
-4.20001220703125
 20
10.000003433227533
 30
0.0
 40
0.4000000357627869
100
AcDbArc
 50
0.0
 51
89.999982013910454
  0
ARC
  5
537
100
AcDbEntity
  8
0
  6
CONTINUOUS
 62
               7
100
AcDbCircle
 10
-1.4000091552734375
 20
5.3999973297119084
 30
0.0
 40
0.4000000357627869
100
AcDbArc
 50
0.0
 51
89.999982013910454
  0
ARC
  5
538
100
AcDbEntity
  8
0
  6
CONTINUOUS
 62
               7
100
AcDbCircle
 10
-1.4000091552734375
 20
-20.799991989135748
 30
0.0
 40
0.4000000357627869
100
AcDbArc
 50
270.00001798608872
 51
0.0
  0
ARC
  5
539
100
AcDbEntity
  8
0
  6
CONTINUOUS
 62
               7
100
AcDbCircle
 10
-7.8000030517578125
 20
-20.799991989135748
 30
0.0
 40
0.4000000357627869
100
AcDbArc
 50
179.99996402782091
 51
270.00000068324471
  0
ARC
  5
53A
100
AcDbEntity
  8
0
  6
CONTINUOUS
 62
               7
100
AcDbCircle
 10
-2.20001220703125
 20
7.3999973297119084
 30
0.0
 40
1.5999994277954102
100
AcDbArc
 50
179.99996402782091
 51
270.00000068324471
  0
ARC
  5
53B
100
AcDbEntity
  8
0
  6
CONTINUOUS
 62
               7
100
AcDbCircle
 10
-9.8000030517578125
 20
-18.199985885620123
 30
0.0
 40
1.5999994277954102
100
AcDbArc
 50
0.0
 51
89.999982013910454
  0
CIRCLE
  5
53C
100
AcDbEntity
  8
0
  6
CONTINUOUS
 62
               7
100
AcDbCircle
 10
-3.0
 20
-18.399990463256842
 30
0.0
 40
1.3999996185302734
  0
CIRCLE
  5
53D
100
AcDbEntity
  8
0
  6
CONTINUOUS
 62
               7
100
AcDbCircle
 10
-9.0
 20
7.6000095367431584
 30
0.0
 40
1.3999996185302734
  0
CIRCLE
  5
53E
100
AcDbEntity
  8
0
  6
CONTINUOUS
 62
               7
100
AcDbCircle
 10
-3.0
 20
-18.399990463256842
 30
0.0
 40
1.25
  0
CIRCLE
  5
53F
100
AcDbEntity
  8
0
  6
CONTINUOUS
 62
               7
100
AcDbCircle
 10
-9.0
 20
7.6000095367431584
 30
0.0
 40
1.25
  0
CIRCLE
  5
540
100
AcDbEntity
  8
0
  6
CONTINUOUS
 62
               7
100
AcDbCircle
 10
-2.20001220703125
 20
7.4000125885009709
 30
0.0
 40
1.25
  0
CIRCLE
  5
541
100
AcDbEntity
  8
0
  6
CONTINUOUS
 62
               7
100
AcDbCircle
 10
-9.8000030517578125
 20
-18.199985885620123
 30
0.0
 40
1.25
  0
ARC
  5
542
100
AcDbEntity
  8
0
  6
DASHED
 62
               4
100
AcDbCircle
 10
-12.199996948242188
 20
-37.399990463256842
 30
0.0
 40
1.0
100
AcDbArc
 50
179.99998133066492
 51
270.00001798608872
  0
ARC
  5
543
100
AcDbEntity
  8
0
  6
DASHED
 62
               4
100
AcDbCircle
 10
-1.9000091552734375
 20
-10.399991416931158
 30
0.0
 40
5.0
100
AcDbArc
 50
330.50763931485608
 51
29.492333364386468
  0
ARC
  5
544
100
AcDbEntity
  8
0
  6
DASHED
 62
               4
100
AcDbCircle
 10
1.871826171875
 20
-12.533323669433599
 30
0.0
 40
0.6666666865348816
100
AcDbArc
 50
270.00001798608872
 51
330.50763931485608
  0
ARC
  5
545
100
AcDbEntity
  8
0
  6
DASHED
 62
               4
100
AcDbCircle
 10
1.8718109130859375
 20
-8.2666572570800838
 30
0.0
 40
0.6666666865348816
100
AcDbArc
 50
29.492319704008114
 51
89.999982013910454
  0
ARC
  5
546
100
AcDbEntity
  8
0
  6
DASHED
 62
               4
100
AcDbCircle
 10
-1.9000091552734375
 20
-0.3999904632568416
 30
0.0
 40
5.0
100
AcDbArc
 50
330.50763931485608
 51
29.492333364386468
  0
ARC
  5
547
100
AcDbEntity
  8
0
  6
DASHED
 62
               4
100
AcDbCircle
 10
1.871826171875
 20
-2.5333236694335994
 30
0.0
 40
0.6666666865348816
100
AcDbArc
 50
270.00001798608872
 51
330.50763931485608
  0
ARC
  5
548
100
AcDbEntity
  8
0
  6
DASHED
 62
               4
100
AcDbCircle
 10
1.8718109130859375
 20
1.7333427429199162
 30
0.0
 40
0.6666666865348816
100
AcDbArc
 50
29.492319704008114
 51
89.999982013910454
  0
LINE
  5
549
100
AcDbEntity
  8
0
  6
DASHED
 62
               4
100
AcDbLine
 10
0.6999969482421875
 20
-3.3499902725219783
 30
0.0
 11
0.6999969482421875
 21
2.5500093460082951
 31
0.0
  0
LINE
  5
54A
100
AcDbEntity
  8
0
  6
DASHED
 62
               4
100
AcDbLine
 10
0.0000035237681004
 20
-0.0499937985972849
 30
0.0
 11
0.7000108563697722
 21
0.1375726024412813
 31
0.0
  0
LINE
  5
54B
100
AcDbEntity
  8
0
  6
DASHED
 62
               4
100
AcDbLine
 10
0.7000133860265123
 20
-0.7499958437032603
 30
0.0
 11
0.0000060102292991
 21
-0.9375622015462852
 31
0.0
  0
LINE
  5
54C
100
AcDbEntity
  8
0
  6
DASHED
 62
               4
100
AcDbLine
 10
0.6999969482421875
 20
-3.3499902725219783
 30
0.0
 11
0.0
 21
-3.3499902725219783
 31
0.0
  0
LINE
  5
54D
100
AcDbEntity
  8
0
  6
DASHED
 62
               4
100
AcDbLine
 10
0.6999969482421875
 20
2.5500093460082951
 30
0.0
 11
0.0
 21
2.5500093460082951
 31
0.0
  0
LINE
  5
54E
100
AcDbEntity
  8
0
  6
DASHED
 62
               4
100
AcDbLine
 10
0.6999969482421875
 20
-13.349990272521978
 30
0.0
 11
0.6999969482421875
 21
-7.4499906539917049
 31
0.0
  0
LINE
  5
54F
100
AcDbEntity
  8
0
  6
DASHED
 62
               4
100
AcDbLine
 10
-0.0000022132271624
 20
-10.049992844659215
 30
0.0
 11
0.7000051193745094
 21
-9.8624264436206488
 31
0.0
  0
LINE
  5
550
100
AcDbEntity
  8
0
  6
DASHED
 62
               4
100
AcDbLine
 10
0.7000069190262366
 20
-10.749995311233221
 30
0.0
 11
0.0000142820881592
 21
-10.937557719811963
 31
0.0
  0
LINE
  5
551
100
AcDbEntity
  8
0
  6
DASHED
 62
               4
100
AcDbLine
 10
0.6999969482421875
 20
-13.349990272521978
 30
0.0
 11
0.0
 21
-13.349990272521978
 31
0.0
  0
LINE
  5
552
100
AcDbEntity
  8
0
  6
DASHED
 62
               4
100
AcDbLine
 10
0.6999969482421875
 20
-7.4499906539917049
 30
0.0
 11
0.0
 21
-7.4499906539917049
 31
0.0
  0
LINE
  5
553
100
AcDbEntity
  8
0
  6
DASHED
 62
               4
100
AcDbLine
 10
-14.399993896484375
 20
1.60000953674313
 30
0.0
 11
-14.399993896484375
 21
-2.39999046325687
 31
0.0
  0
LINE
  5
554
100
AcDbEntity
  8
0
  6
DASHED
 62
               4
100
AcDbLine
 10
-13.699996948242188
 20
-2.39999046325687
 30
0.0
 11
-14.399993896484375
 21
-2.39999046325687
 31
0.0
  0
LINE
  5
555
100
AcDbEntity
  8
0
  6
DASHED
 62
               4
100
AcDbLine
 10
-13.699996948242188
 20
1.60000953674313
 30
0.0
 11
-14.399993896484375
 21
1.60000953674313
 31
0.0
  0
ARC
  5
556
100
AcDbEntity
  8
0
  6
DASHED
 62
               4
100
AcDbCircle
 10
-13.699996948242188
 20
-2.8999904632568416
 30
0.0
 40
0.5
100
AcDbArc
 50
359.99996402782114
 51
89.999982013910454
  0
ARC
  5
557
100
AcDbEntity
  8
0
  6
DASHED
 62
               4
100
AcDbCircle
 10
-13.699996948242188
 20
2.1000095367431584
 30
0.0
 40
0.5
100
AcDbArc
 50
269.99996334457541
 51
359.99996402782114
  0
LINE
  5
558
100
AcDbEntity
  8
0
  6
DASHED
 62
               4
100
AcDbLine
 10
-14.399993896484375
 20
-8.39999046325687
 30
0.0
 11
-14.399993896484375
 21
-12.39999046325687
 31
0.0
  0
LINE
  5
559
100
AcDbEntity
  8
0
  6
DASHED
 62
               4
100
AcDbLine
 10
-13.699996948242188
 20
-12.39999046325687
 30
0.0
 11
-14.399993896484375
 21
-12.39999046325687
 31
0.0
  0
LINE
  5
55A
100
AcDbEntity
  8
0
  6
DASHED
 62
               4
100
AcDbLine
 10
-13.699996948242188
 20
-8.39999046325687
 30
0.0
 11
-14.399993896484375
 21
-8.39999046325687
 31
0.0
  0
ARC
  5
55B
100
AcDbEntity
  8
0
  6
DASHED
 62
               4
100
AcDbCircle
 10
-13.699996948242188
 20
-12.899990463256842
 30
0.0
 40
0.5
100
AcDbArc
 50
359.99996402782114
 51
89.999982013910454
  0
ARC
  5
55C
100
AcDbEntity
  8
0
  6
DASHED
 62
               4
100
AcDbCircle
 10
-13.699996948242188
 20
-7.8999904632568416
 30
0.0
 40
0.5
100
AcDbArc
 50
269.99996334457541
 51
359.99996402782114
  0
LINE
  5
55D
100
AcDbEntity
  8
0
  6
CONTINUOUS
 62
               4
100
AcDbLine
 10
-7.285003662109375
 20
77.773334121704096
 30
0.0
 11
-7.285003662109375
 21
81.600009536743158
 31
0.0
  0
LINE
  5
55E
100
AcDbEntity
  8
0
  6
CONTINUOUS
 62
               4
100
AcDbLine
 10
-8.7150115966796875
 20
77.390170669555658
 30
0.0
 11
-8.7150115966796875
 21
81.600009536743158
 31
0.0
  0
LINE
  5
55F
100
AcDbEntity
  8
0
  6
CONTINUOUS
 62
               4
100
AcDbLine
 10
-8.7150115966796875
 20
81.600009536743158
 30
0.0
 11
-7.285003662109375
 21
81.600009536743158
 31
0.0
  0
LINE
  5
560
100
AcDbEntity
  8
0
  6
CONTINUOUS
 62
               4
100
AcDbLine
 10
-7.600006103515625
 20
81.600009536743158
 30
0.0
 11
-7.600006103515625
 21
86.600009536743158
 31
0.0
  0
LINE
  5
561
100
AcDbEntity
  8
0
  6
CONTINUOUS
 62
               4
100
AcDbLine
 10
-8.4000091552734375
 20
81.600009536743158
 30
0.0
 11
-8.4000091552734375
 21
86.600009536743158
 31
0.0
  0
LINE
  5
562
100
AcDbEntity
  8
0
  6
CONTINUOUS
 62
               4
100
AcDbLine
 10
-8.4000091552734375
 20
86.600009536743158
 30
0.0
 11
-7.600006103515625
 21
86.600009536743158
 31
0.0
  0
LINE
  5
563
100
AcDbEntity
  8
0
  6
CONTINUOUS
 62
               4
100
AcDbLine
 10
-7.285003662109375
 20
73.600009536743158
 30
0.0
 11
-7.285003662109375
 21
76.738055801391596
 31
0.0
  0
LINE
  5
564
100
AcDbEntity
  8
0
  6
CONTINUOUS
 62
               4
100
AcDbLine
 10
-8.7150115966796875
 20
73.600009536743158
 30
0.0
 11
-8.7150115966796875
 21
76.354892349243158
 31
0.0
  0
LINE
  5
565
100
AcDbEntity
  8
0
  6
CONTINUOUS
 62
             200
100
AcDbLine
 10
-10.000008025742318
 20
76.010574208178326
 30
0.0
 11
-6.0
 21
77.08237313737726
 31
0.0
  0
LINE
  5
566
100
AcDbEntity
  8
0
  6
CONTINUOUS
 62
             200
100
AcDbLine
 10
-10.000012718924154
 20
77.045849117674692
 30
0.0
 11
-6.0
 21
78.117649304407905
 31
0.0
  0
LINE
  5
567
100
AcDbEntity
  8
0
  6
CONTINUOUS
 62
               2
100
AcDbLine
 10
-10.5
 20
-10.500134741210957
 30
0.0
 11
-1.5
 21
-10.500134741210957
 31
0.0
  0
LINE
  5
568
100
AcDbEntity
  8
0
  6
CONTINUOUS
 62
             200
100
AcDbLine
 10
-10.5
 20
0.5000152587890625
 30
0.0
 11
-1.5
 21
0.5000152587890625
 31
0.0
  0
LINE
  5
569
100
AcDbEntity
  8
0
  6
CONTINUOUS
 62
               4
100
AcDbLine
 10
-1.0
 20
29.600009536743158
 30
0.0
 11
-1.0
 21
53.600009536743158
 31
0.0
  0
LINE
  5
56A
100
AcDbEntity
  8
0
  6
CONTINUOUS
 62
               4
100
AcDbLine
 10
-11.0
 20
29.600009536743158
 30
0.0
 11
-11.0
 21
53.600024795532221
 31
0.0
  0
CIRCLE
  5
56B
100
AcDbEntity
  8
0
  6
CONTINUOUS
 62
               7
100
AcDbCircle
 10
-6.0
 20
0.5000152587890625
 30
0.0
 40
5.0
  0
ARC
  5
56C
100
AcDbEntity
  8
0
  6
CONTINUOUS
 62
               7
100
AcDbCircle
 10
-6.0
 20
0.5000152587890625
 30
0.0
 40
4.9000000000000004
100
AcDbArc
 50
10.399137031557631
 51
169.60086296844196
  0
CIRCLE
  5
56D
100
AcDbEntity
  8
0
  6
CONTINUOUS
 62
               7
100
AcDbCircle
 10
-6.0
 20
0.5000152587890625
 30
0.0
 40
3.0500000000000003
  0
CIRCLE
  5
56E
100
AcDbEntity
  8
0
  6
CONTINUOUS
 62
               7
100
AcDbCircle
 10
-6.0
 20
0.5000152587890625
 30
0.0
 40
2.0500000000000003
  0
LINE
  5
56F
100
AcDbEntity
  8
0
  6
CONTINUOUS
 62
               7
100
AcDbLine
 10
-10.5
 20
-0.1999847412109546
 30
0.0
 11
-10.5
 21
1.2000152587890511
 31
0.0
  0
LINE
  5
570
100
AcDbEntity
  8
0
  6
CONTINUOUS
 62
               7
100
AcDbLine
 10
-10.5
 20
1.2000152587890511
 30
0.0
 11
-10.819513529119945
 21
1.3844864808361876
 31
0.0
  0
CIRCLE
  5
571
100
AcDbEntity
  8
0
  6
CONTINUOUS
 62
               7
100
AcDbCircle
 10
-6.0
 20
-10.499984741210937
 30
0.0
 40
5.0
  0
ARC
  5
572
100
AcDbEntity
  8
0
  6
CONTINUOUS
 62
               7
100
AcDbCircle
 10
-6.0
 20
-10.499984741210937
 30
0.0
 40
4.9000000000000004
100
AcDbArc
 50
10.399137031557631
 51
169.60086296844196
  0
ARC
  5
573
100
AcDbEntity
  8
0
  6
CONTINUOUS
 62
               7
100
AcDbCircle
 10
-6.0
 20
0.5000152587890625
 30
0.0
 40
4.9000000000000004
100
AcDbArc
 50
190.39913703155722
 51
349.60086296844156
  0
LINE
  5
574
100
AcDbEntity
  8
0
  6
CONTINUOUS
 62
               7
100
AcDbLine
 10
-1.5
 20
-0.1999847412109546
 30
0.0
 11
-1.5
 21
1.2000152587890511
 31
0.0
  0
LINE
  5
575
100
AcDbEntity
  8
0
  6
CONTINUOUS
 62
               7
100
AcDbLine
 10
-1.5
 20
-0.1999847412109546
 30
0.0
 11
-1.1804864708800551
 21
-0.3844559632580911
 31
0.0
  0
ARC
  5
576
100
AcDbEntity
  8
0
  6
CONTINUOUS
 62
               7
100
AcDbCircle
 10
-4.8500000000000227
 20
-5.223859268859087
 30
0.0
 40
0.4
100
AcDbArc
 50
179.99999999999963
 51
257.7039537993532
  0
LINE
  5
577
100
AcDbEntity
  8
0
  6
CONTINUOUS
 62
               7
100
AcDbLine
 10
-5.25
 20
-5.223859268859087
 30
0.0
 11
-5.25
 21
-4.776110213562788
 31
0.0
  0
ARC
  5
578
100
AcDbEntity
  8
0
  6
CONTINUOUS
 62
               7
100
AcDbCircle
 10
-4.8500000000000227
 20
-4.776110213562788
 30
0.0
 40
0.4
100
AcDbArc
 50
102.29604620064599
 51
179.99999999999963
  0
LINE
  5
579
100
AcDbEntity
  8
0
  6
CONTINUOUS
 62
               7
100
AcDbLine
 10
-1.5
 20
1.2000152587890511
 30
0.0
 11
-1.1804864708800551
 21
1.3844864808361876
 31
0.0
  0
LINE
  5
57A
100
AcDbEntity
  8
0
  6
CONTINUOUS
 62
               7
100
AcDbLine
 10
-10.5
 20
-0.1999847412109546
 30
0.0
 11
-10.819513529119945
 21
-0.3844559632580911
 31
0.0
  0
ARC
  5
57B
100
AcDbEntity
  8
0
  6
CONTINUOUS
 62
               7
100
AcDbCircle
 10
-6.0
 20
-10.499984741210937
 30
0.0
 40
4.9000000000000004
100
AcDbArc
 50
190.39913703155722
 51
349.60086296844156
  0
LINE
  5
57C
100
AcDbEntity
  8
0
  6
CONTINUOUS
 62
               7
100
AcDbLine
 10
-10.5
 20
-11.199984741210955
 30
0.0
 11
-10.5
 21
-9.7999847412109489
 31
0.0
  0
LINE
  5
57D
100
AcDbEntity
  8
0
  6
CONTINUOUS
 62
               7
100
AcDbLine
 10
-10.5
 20
-11.199984741210955
 30
0.0
 11
-10.819513529119945
 21
-11.384455963258091
 31
0.0
  0
CIRCLE
  5
57E
100
AcDbEntity
  8
0
  6
CONTINUOUS
 62
               7
100
AcDbCircle
 10
-6.0
 20
-10.499984741210937
 30
0.0
 40
3.0500000000000003
  0
CIRCLE
  5
57F
100
AcDbEntity
  8
0
  6
CONTINUOUS
 62
             200
100
AcDbCircle
 10
-6.0
 20
-10.499984741210937
 30
0.0
 40
2.0500000000000003
  0
LINE
  5
580
100
AcDbEntity
  8
0
  6
CONTINUOUS
 62
               7
100
AcDbLine
 10
-10.5
 20
-9.7999847412109489
 30
0.0
 11
-10.819513529119945
 21
-9.6155135191638124
 31
0.0
  0
LINE
  5
581
100
AcDbEntity
  8
0
  6
CONTINUOUS
 62
               7
100
AcDbLine
 10
-1.5
 20
-11.199984741210955
 30
0.0
 11
-1.5
 21
-9.7999847412109489
 31
0.0
  0
LINE
  5
582
100
AcDbEntity
  8
0
  6
CONTINUOUS
 62
               7
100
AcDbLine
 10
-1.5
 20
-11.199984741210955
 30
0.0
 11
-1.1804864708800551
 21
-11.384455963258091
 31
0.0
  0
LINE
  5
583
100
AcDbEntity
  8
0
  6
CONTINUOUS
 62
               7
100
AcDbLine
 10
-1.5
 20
-9.7999847412109489
 30
0.0
 11
-1.1804864708800551
 21
-9.6155135191638124
 31
0.0
  0
ARC
  5
584
100
AcDbEntity
  8
0
  6
CONTINUOUS
 62
               7
100
AcDbCircle
 10
-7.1499999999999773
 20
-4.776110213562788
 30
0.0
 40
0.4
100
AcDbArc
 50
0.0
 51
77.703953799353613
  0
ARC
  5
585
100
AcDbEntity
  8
0
  6
CONTINUOUS
 62
               7
100
AcDbCircle
 10
-7.1499999999999773
 20
-5.223859268859087
 30
0.0
 40
0.4
100
AcDbArc
 50
282.2960462006464
 51
0.0
  0
LINE
  5
586
100
AcDbEntity
  8
0
  6
CONTINUOUS
 62
               7
100
AcDbLine
 10
-6.75
 20
-5.223859268859087
 30
0.0
 11
-6.75
 21
-4.776110213562788
 31
0.0
  0
ENDBLK
  5
587
100
AcDbEntity
  8
0
100
AcDbBlockEnd
  0
BLOCK
  5
588
100
AcDbEntity
  8
0
100
AcDbBlockBegin
  2
F10T0-14
 70
               0
 10
0.0
 20
0.0
 30
0.0
  3
F10T0-14
  1

  0
LINE
  5
589
100
AcDbEntity
  8
0
  6
CONTINUOUS
 62
               2
100
AcDbLine
 10
-26.000015258789063
 20
-6.0
 30
0.0
 11
44.999984741210937
 21
-6.0
 31
0.0
  0
LINE
  5
58A
100
AcDbEntity
  8
0
  6
CONTINUOUS
 62
               7
100
AcDbLine
 10
3.499969482421875
 20
-1.0
 30
0.0
 11
3.499969482421875
 21
-11.0
 31
0.0
  0
LINE
  5
58B
100
AcDbEntity
  8
0
  6
CONTINUOUS
 62
               7
100
AcDbLine
 10
27.499984741210938
 20
-1.0
 30
0.0
 11
3.499969482421875
 21
-1.0
 31
0.0
  0
LINE
  5
58C
100
AcDbEntity
  8
0
  6
CONTINUOUS
 62
               7
100
AcDbLine
 10
27.499984741210938
 20
-11.0
 30
0.0
 11
3.499969482421875
 21
-11.0
 31
0.0
  0
LINE
  5
58D
100
AcDbEntity
  8
0
  6
CONTINUOUS
 62
               7
100
AcDbLine
 10
27.499984741210938
 20
-1.399993896484375
 30
0.0
 11
27.499984741210938
 21
-10.599990844726563
 31
0.0
  0
LINE
  5
58E
100
AcDbEntity
  8
0
  6
CONTINUOUS
 62
               7
100
AcDbLine
 10
22.29998779296875
 20
-1.0
 30
0.0
 11
22.29998779296875
 21
-2.8000030517578125
 31
0.0
  0
LINE
  5
58F
100
AcDbEntity
  8
0
  6
CONTINUOUS
 62
               7
100
AcDbLine
 10
19.0999755859375
 20
-1.0
 30
0.0
 11
19.0999755859375
 21
-2.8000030517578125
 31
0.0
  0
LINE
  5
590
100
AcDbEntity
  8
0
  6
CONTINUOUS
 62
               7
100
AcDbLine
 10
5.2999725341796875
 20
-7.5999908447265625
 30
0.0
 11
3.499969482421875
 21
-7.5999908447265625
 31
0.0
  0
LINE
  5
591
100
AcDbEntity
  8
0
  6
CONTINUOUS
 62
               7
100
AcDbLine
 10
6.8999786376953125
 20
-9.1999969482421875
 30
0.0
 11
6.8999786376953125
 21
-11.0
 31
0.0
  0
LINE
  5
592
100
AcDbEntity
  8
0
  6
CONTINUOUS
 62
               7
100
AcDbLine
 10
4.6989362942640582
 20
-8.5989792664513516
 30
0.0
 11
5.9010157451175473
 21
-9.8010586159771265
 31
0.0
  0
LINE
  5
593
100
AcDbEntity
  8
0
  6
CONTINUOUS
 62
               7
100
AcDbLine
 10
20.098936298194303
 20
-2.198966698159893
 30
0.0
 11
21.301026538641736
 21
-3.401056837278702
 31
0.0
  0
LINE
  5
594
100
AcDbEntity
  8
0
  6
CONTINUOUS
 62
               7
100
AcDbLine
 10
21.301038432309383
 20
-2.1989766952164587
 30
0.0
 11
20.098959184111322
 21
-3.401056247397662
 31
0.0
  0
LINE
  5
595
100
AcDbEntity
  8
0
  6
CONTINUOUS
 62
               7
100
AcDbLine
 10
5.9010221091166386
 20
-8.5989642619988444
 30
0.0
 11
4.6989428609185779
 21
-9.8010438141800478
 31
0.0
  0
LINE
  5
596
100
AcDbEntity
  8
0
  6
DASHED
 62
               4
100
AcDbLine
 10
-25.000015258789063
 20
-12.0
 30
0.0
 11
-5.0000152587890625
 21
-12.0
 31
0.0
  0
LINE
  5
597
100
AcDbEntity
  8
0
  6
DASHED
 62
               4
100
AcDbLine
 10
-25.000015258789063
 20
0.0
 30
0.0
 11
-5.0000152587890625
 21
0.0
 31
0.0
  0
LINE
  5
598
100
AcDbEntity
  8
0
  6
CONTINUOUS
 62
               7
100
AcDbLine
 10
-5.0000152587890625
 20
0.0
 30
0.0
 11
-5.0000152587890625
 21
-12.0
 31
0.0
  0
LINE
  5
599
100
AcDbEntity
  8
0
  6
CONTINUOUS
 62
               7
100
AcDbLine
 10
2.9999847412109375
 20
0.0
 30
0.0
 11
2.9999847412109375
 21
-12.0
 31
0.0
  0
LINE
  5
59A
100
AcDbEntity
  8
0
  6
DASHED
 62
               4
100
AcDbLine
 10
-4.0000152587890625
 20
1.1999969482421875
 30
0.0
 11
9.9999847412109375
 21
1.1999969482421875
 31
0.0
  0
LINE
  5
59B
100
AcDbEntity
  8
0
  6
DASHED
 62
               4
100
AcDbLine
 10
9.9999847412109375
 20
1.1999969482421875
 30
0.0
 11
9.9999847412109375
 21
-12.0
 31
0.0
  0
LINE
  5
59C
100
AcDbEntity
  8
0
  6
DASHED
 62
               4
100
AcDbLine
 10
-25.000015258789063
 20
0.0
 30
0.0
 11
-25.000015258789063
 21
-12.0
 31
0.0
  0
LINE
  5
59D
100
AcDbEntity
  8
0
  6
CONTINUOUS
 62
               7
100
AcDbLine
 10
-5.0000152587890625
 20
0.0
 30
0.0
 11
2.9999847412109375
 21
0.0
 31
0.0
  0
LINE
  5
59E
100
AcDbEntity
  8
0
  6
CONTINUOUS
 62
               7
100
AcDbLine
 10
-5.0000152587890625
 20
-12.0
 30
0.0
 11
2.9999847412109375
 21
-12.0
 31
0.0
  0
LINE
  5
59F
100
AcDbEntity
  8
0
  6
DASHED
 62
               4
100
AcDbLine
 10
-4.0000152587890625
 20
1.1999969482421875
 30
0.0
 11
-4.0000152587890625
 21
0.0
 31
0.0
  0
LINE
  5
5A0
100
AcDbEntity
  8
0
  6
DASHED
 62
               4
100
AcDbLine
 10
2.9999847412109375
 20
-12.0
 30
0.0
 11
9.9999847412109375
 21
-12.0
 31
0.0
  0
LINE
  5
5A1
100
AcDbEntity
  8
0
  6
DASHED
 62
               4
100
AcDbLine
 10
2.9999847412109375
 20
0.0
 30
0.0
 11
9.9999847412109375
 21
0.0
 31
0.0
  0
LINE
  5
5A2
100
AcDbEntity
  8
0
  6
CONTINUOUS
 62
             200
100
AcDbLine
 10
-20.000015258789063
 20
-3.5
 30
0.0
 11
-20.000015258789063
 21
-8.5
 31
0.0
  0
LINE
  5
5A3
100
AcDbEntity
  8
0
  6
CONTINUOUS
 62
             200
100
AcDbLine
 10
-10.000015258789062
 20
-3.5
 30
0.0
 11
-10.000015258789062
 21
-8.5
 31
0.0
  0
LINE
  5
5A4
100
AcDbEntity
  8
0
  6
DASHED
 62
               4
100
AcDbLine
 10
-2.800018310546875
 20
-13.871826171875
 30
0.0
 11
-2.800018310546875
 21
-12.699996948242188
 31
0.0
  0
LINE
  5
5A5
100
AcDbEntity
  8
0
  6
DASHED
 62
               4
100
AcDbLine
 10
2.7999725341796875
 20
-13.871826171875
 30
0.0
 11
2.7999725341796875
 21
-12.699996948242188
 31
0.0
  0
ARC
  5
5A6
100
AcDbEntity
  8
0
  6
CONTINUOUS
 62
               7
100
AcDbCircle
 10
3.8999786376953125
 20
-1.399993896484375
 30
0.0
 40
0.3999999761581421
100
AcDbArc
 50
89.999982013910454
 51
179.99996402782091
  0
ARC
  5
5A7
100
AcDbEntity
  8
0
  6
CONTINUOUS
 62
               7
100
AcDbCircle
 10
27.0999755859375
 20
-1.399993896484375
 30
0.0
 40
0.3999999761581421
100
AcDbArc
 50
359.99998633962088
 51
89.999927372397096
  0
ARC
  5
5A8
100
AcDbEntity
  8
0
  6
CONTINUOUS
 62
               7
100
AcDbCircle
 10
3.8999786376953125
 20
-10.599990844726563
 30
0.0
 40
0.3999999761581421
100
AcDbArc
 50
180.0000359721783
 51
270.00001798608872
  0
CIRCLE
  5
5A9
100
AcDbEntity
  8
0
  6
CONTINUOUS
 62
               7
100
AcDbCircle
 10
5.2999725341796875
 20
-9.1999969482421875
 30
0.0
 40
1.25
  0
CIRCLE
  5
5AA
100
AcDbEntity
  8
0
  6
CONTINUOUS
 62
               7
100
AcDbCircle
 10
20.699981689453125
 20
-2.8000030517578125
 30
0.0
 40
1.25
  0
ARC
  5
5AB
100
AcDbEntity
  8
0
  6
CONTINUOUS
 62
               7
100
AcDbCircle
 10
5.2999725341796875
 20
-9.1999969482421875
 30
0.0
 40
1.5999994277954102
100
AcDbArc
 50
359.99998633962088
 51
89.999927372397096
  0
ARC
  5
5AC
100
AcDbEntity
  8
0
  6
CONTINUOUS
 62
               7
100
AcDbCircle
 10
20.699981689453125
 20
-2.8000030517578125
 30
0.0
 40
1.5999984741210938
100
AcDbArc
 50
180.0000359721783
 51
359.99998633962088
  0
CIRCLE
  5
5AD
100
AcDbEntity
  8
0
  6
DASHED
 62
               4
100
AcDbCircle
 10
-10.000015258789062
 20
-6.0
 30
0.0
 40
1.5999994277954102
  0
CIRCLE
  5
5AE
100
AcDbEntity
  8
0
  6
DASHED
 62
               4
100
AcDbCircle
 10
-20.000015258789063
 20
-6.0
 30
0.0
 40
1.5999994277954102
  0
ARC
  5
5AF
100
AcDbEntity
  8
0
  6
DASHED
 62
               4
100
AcDbCircle
 10
-0.0000152587890625
 20
-10.099990844726562
 30
0.0
 40
5.0
100
AcDbArc
 50
240.5076436405673
 51
299.49233769009686
  0
ARC
  5
5B0
100
AcDbEntity
  8
0
  6
DASHED
 62
               4
100
AcDbCircle
 10
-2.1333465576171875
 20
-13.871826171875
 30
0.0
 40
0.6666666865348816
100
AcDbArc
 50
179.99990938630756
 51
240.50757169620994
  0
ARC
  5
5B1
100
AcDbEntity
  8
0
  6
DASHED
 62
               4
100
AcDbCircle
 10
2.1333160400390625
 20
-13.871810913085938
 30
0.0
 40
0.6666666865348816
100
AcDbArc
 50
299.49228304858349
 51
359.99994535848583
  0
LINE
  5
5B2
100
AcDbEntity
  8
0
  6
DASHED
 62
               4
100
AcDbLine
 10
-2.95001220703125
 20
-12.699996948242188
 30
0.0
 11
2.949981689453125
 21
-12.699996948242188
 31
0.0
  0
LINE
  5
5B3
100
AcDbEntity
  8
0
  6
DASHED
 62
               4
100
AcDbLine
 10
0.3499904852851614
 20
-11.999998742770003
 30
0.0
 11
0.5375568863237277
 21
-12.700006075371675
 31
0.0
  0
LINE
  5
5B4
100
AcDbEntity
  8
0
  6
DASHED
 62
               4
100
AcDbLine
 10
-0.3500060865935666
 20
-12.700008559747403
 30
0.0
 11
-0.5375724444365915
 21
-12.000001183950189
 31
0.0
  0
LINE
  5
5B5
100
AcDbEntity
  8
0
  6
DASHED
 62
               4
100
AcDbLine
 10
-2.95001220703125
 20
-12.699996948242188
 30
0.0
 11
-2.95001220703125
 21
-12.0
 31
0.0
  0
LINE
  5
5B6
100
AcDbEntity
  8
0
  6
DASHED
 62
               4
100
AcDbLine
 10
2.949981689453125
 20
-12.699996948242188
 30
0.0
 11
2.949981689453125
 21
-12.0
 31
0.0
  0
LINE
  5
5B7
100
AcDbEntity
  8
0
  6
DASHED
 62
               4
100
AcDbLine
 10
1.9999847412109375
 20
2.3999938964843608
 30
0.0
 11
-2.0000152587890625
 21
2.3999938964843608
 31
0.0
  0
LINE
  5
5B8
100
AcDbEntity
  8
0
  6
DASHED
 62
               4
100
AcDbLine
 10
-2.0000152587890625
 20
1.6999969482421733
 30
0.0
 11
-2.0000152587890625
 21
2.3999938964843608
 31
0.0
  0
LINE
  5
5B9
100
AcDbEntity
  8
0
  6
DASHED
 62
               4
100
AcDbLine
 10
1.9999847412109375
 20
1.6999969482421733
 30
0.0
 11
1.9999847412109375
 21
2.3999938964843608
 31
0.0
  0
ARC
  5
5BA
100
AcDbEntity
  8
0
  6
DASHED
 62
               4
100
AcDbCircle
 10
-2.5000152587890625
 20
1.6999969482421875
 30
0.0
 40
0.5
100
AcDbArc
 50
269.99996334457541
 51
0.00000068324523
  0
ARC
  5
5BB
100
AcDbEntity
  8
0
  6
DASHED
 62
               4
100
AcDbCircle
 10
2.4999847412109375
 20
1.6999969482421875
 30
0.0
 40
0.5
100
AcDbArc
 50
179.99996402782091
 51
269.99994604173139
  0
ARC
  5
5BC
100
AcDbEntity
  8
0
  6
CONTINUOUS
 62
               7
100
AcDbCircle
 10
27.099984741210932
 20
-10.599999999999994
 30
0.0
 40
0.4
100
AcDbArc
 50
269.99999999999937
 51
0.0
  0
LINE
  5
5BD
100
AcDbEntity
  8
0
  6
CONTINUOUS
 62
               7
100
AcDbLine
 10
32.29998474121092
 20
-11.0
 30
0.0
 11
27.499984741210938
 21
-11.0
 31
0.0
  0
LINE
  5
5BE
100
AcDbEntity
  8
0
  6
CONTINUOUS
 62
               7
100
AcDbLine
 10
32.299984741210949
 20
-1.0
 30
0.0
 11
27.499984741210938
 21
-1.0
 31
0.0
  0
LINE
  5
5BF
100
AcDbEntity
  8
0
  6
CONTINUOUS
 62
               7
100
AcDbLine
 10
32.499984741210937
 20
-11.0
 30
0.0
 11
32.399984741210943
 21
-10.899999999999991
 31
0.0
  0
LINE
  5
5C0
100
AcDbEntity
  8
0
  6
CONTINUOUS
 62
               7
100
AcDbLine
 10
32.399984741210943
 20
-10.900000000000006
 30
0.0
 11
32.29998474121092
 21
-11.0
 31
0.0
  0
LINE
  5
5C1
100
AcDbEntity
  8
0
  6
CONTINUOUS
 62
               7
100
AcDbLine
 10
32.399984741210943
 20
-1.0999999999999943
 30
0.0
 11
32.299984741210949
 21
-1.0
 31
0.0
  0
LINE
  5
5C2
100
AcDbEntity
  8
0
  6
CONTINUOUS
 62
               7
100
AcDbLine
 10
32.499984741210937
 20
-1.0
 30
0.0
 11
32.399984741210943
 21
-1.0999999999999943
 31
0.0
  0
LINE
  5
5C3
100
AcDbEntity
  8
0
  6
CONTINUOUS
 62
               7
100
AcDbLine
 10
32.499984741210937
 20
-11.0
 30
0.0
 11
32.499984741210937
 21
-1.0
 31
0.0
  0
LINE
  5
5C4
100
AcDbEntity
  8
0
  6
CONTINUOUS
 62
               7
100
AcDbLine
 10
32.399984741210943
 20
-10.900000000000006
 30
0.0
 11
32.399984741210943
 21
-1.0999999999999943
 31
0.0
  0
LINE
  5
5C5
100
AcDbEntity
  8
0
  6
CONTINUOUS
 62
               7
100
AcDbLine
 10
41.199984946116956
 20
-10.93397444486618
 30
0.0
 11
41.199984946116956
 21
-1.0660255551338196
 31
0.0
  0
LINE
  5
5C6
100
AcDbEntity
  8
0
  6
CONTINUOUS
 62
               7
100
AcDbLine
 10
41.161864741210934
 20
-11.0
 30
0.0
 11
41.161864741210934
 21
-1.0
 31
0.0
  0
LINE
  5
5C7
100
AcDbEntity
  8
0
  6
CONTINUOUS
 62
               7
100
AcDbLine
 10
41.999984741210938
 20
-10.050000000000011
 30
0.0
 11
41.999984741210938
 21
-1.9500000000000171
 31
0.0
  0
LINE
  5
5C8
100
AcDbEntity
  8
0
  6
CONTINUOUS
 62
               7
100
AcDbLine
 10
41.161864741210934
 20
-11.0
 30
0.0
 11
41.199984741210926
 21
-10.933974800000016
 31
0.0
  0
LINE
  5
5C9
100
AcDbEntity
  8
0
  6
CONTINUOUS
 62
               7
100
AcDbLine
 10
41.199984741210926
 20
-10.933974500000005
 30
0.0
 11
41.699984741210926
 21
-10.799999600000007
 31
0.0
  0
LINE
  5
5CA
100
AcDbEntity
  8
0
  6
CONTINUOUS
 62
               7
100
AcDbLine
 10
41.699984741210926
 20
-10.050000000000011
 30
0.0
 11
41.999984741210938
 21
-10.050000000000011
 31
0.0
  0
LINE
  5
5CB
100
AcDbEntity
  8
0
  6
CONTINUOUS
 62
               7
100
AcDbLine
 10
41.999984741210938
 20
-10.050000000000011
 30
0.0
 11
42.099984741210932
 21
-9.9500000000000171
 31
0.0
  0
LINE
  5
5CC
100
AcDbEntity
  8
0
  6
CONTINUOUS
 62
               7
100
AcDbLine
 10
41.161864741210934
 20
-11.0
 30
0.0
 11
37.199984741210926
 21
-11.0
 31
0.0
  0
LINE
  5
5CD
100
AcDbEntity
  8
0
  6
CONTINUOUS
 62
               7
100
AcDbLine
 10
42.999984741210937
 20
-9.5
 30
0.0
 11
42.099984741210932
 21
-9.5
 31
0.0
  0
LINE
  5
5CE
100
AcDbEntity
  8
0
  6
CONTINUOUS
 62
               7
100
AcDbLine
 10
41.699984741210926
 20
-10.799999600000007
 30
0.0
 11
41.699984741210926
 21
-1.2000004053115845
 31
0.0
  0
LINE
  5
5CF
100
AcDbEntity
  8
0
  6
CONTINUOUS
 62
               7
100
AcDbLine
 10
42.099984741210932
 20
-9.9500000000000171
 30
0.0
 11
42.099984741210932
 21
-2.0499999999999972
 31
0.0
  0
LINE
  5
5D0
100
AcDbEntity
  8
0
  6
CONTINUOUS
 62
               7
100
AcDbLine
 10
41.999984741210938
 20
-1.9500000000000171
 30
0.0
 11
42.099984741210932
 21
-2.0499999999999972
 31
0.0
  0
LINE
  5
5D1
100
AcDbEntity
  8
0
  6
CONTINUOUS
 62
               7
100
AcDbLine
 10
41.699984741210926
 20
-1.9500000000000171
 30
0.0
 11
41.999984741210938
 21
-1.9500000000000171
 31
0.0
  0
LINE
  5
5D2
100
AcDbEntity
  8
0
  6
CONTINUOUS
 62
               7
100
AcDbLine
 10
41.199984741210926
 20
-1.0660255000000092
 30
0.0
 11
41.699984741210926
 21
-1.2000004000000075
 31
0.0
  0
LINE
  5
5D3
100
AcDbEntity
  8
0
  6
CONTINUOUS
 62
               7
100
AcDbLine
 10
41.161864741210934
 20
-1.0
 30
0.0
 11
41.199984741210926
 21
-1.0660251999999986
 31
0.0
  0
LINE
  5
5D4
100
AcDbEntity
  8
0
  6
CONTINUOUS
 62
               7
100
AcDbLine
 10
37.199984741210926
 20
-11.0
 30
0.0
 11
36.999984741210938
 21
-10.800000000000011
 31
0.0
  0
LINE
  5
5D5
100
AcDbEntity
  8
0
  6
CONTINUOUS
 62
               7
100
AcDbLine
 10
37.199984741210926
 20
-1.0
 30
0.0
 11
36.999984741210938
 21
-1.2000000000000171
 31
0.0
  0
LINE
  5
5D6
100
AcDbEntity
  8
0
  6
CONTINUOUS
 62
               7
100
AcDbLine
 10
36.299984741210949
 20
-10.25
 30
0.0
 11
36.999984741210938
 21
-10.25
 31
0.0
  0
LINE
  5
5D7
100
AcDbEntity
  8
0
  6
CONTINUOUS
 62
               7
100
AcDbLine
 10
36.999984741210938
 20
-1.75
 30
0.0
 11
36.299984741210949
 21
-1.75
 31
0.0
  0
LINE
  5
5D8
100
AcDbEntity
  8
0
  6
CONTINUOUS
 62
               7
100
AcDbLine
 10
37.199984741210926
 20
-11.0
 30
0.0
 11
37.199984741210926
 21
-1.0
 31
0.0
  0
LINE
  5
5D9
100
AcDbEntity
  8
0
  6
CONTINUOUS
 62
               7
100
AcDbLine
 10
36.999984741210938
 20
-10.800000000000011
 30
0.0
 11
36.999984741210938
 21
-1.2000000000000171
 31
0.0
  0
LINE
  5
5DA
100
AcDbEntity
  8
0
  6
CONTINUOUS
 62
               7
100
AcDbLine
 10
36.299984741210949
 20
-10.800000000000011
 30
0.0
 11
36.099984741210932
 21
-11.0
 31
0.0
  0
LINE
  5
5DB
100
AcDbEntity
  8
0
  6
CONTINUOUS
 62
               7
100
AcDbLine
 10
36.299984741210949
 20
-1.2000000000000171
 30
0.0
 11
36.099984741210932
 21
-1.0
 31
0.0
  0
LINE
  5
5DC
100
AcDbEntity
  8
0
  6
CONTINUOUS
 62
               7
100
AcDbLine
 10
36.299984741210949
 20
-10.800000000000011
 30
0.0
 11
36.299984741210949
 21
-1.2000000000000171
 31
0.0
  0
LINE
  5
5DD
100
AcDbEntity
  8
0
  6
CONTINUOUS
 62
               7
100
AcDbLine
 10
36.099984741210932
 20
-11.0
 30
0.0
 11
36.099984741210932
 21
-1.0
 31
0.0
  0
LINE
  5
5DE
100
AcDbEntity
  8
0
  6
CONTINUOUS
 62
               7
100
AcDbLine
 10
36.099984741210932
 20
-1.0
 30
0.0
 11
32.499984741210937
 21
-1.0
 31
0.0
  0
LINE
  5
5DF
100
AcDbEntity
  8
0
  6
CONTINUOUS
 62
               7
100
AcDbLine
 10
36.099984741210932
 20
-11.0
 30
0.0
 11
32.499984741210937
 21
-11.0
 31
0.0
  0
LINE
  5
5E0
100
AcDbEntity
  8
0
  6
CONTINUOUS
 62
               7
100
AcDbLine
 10
43.799984741210949
 20
-10.900000000000006
 30
0.0
 11
42.999984741210937
 21
-10.900000000000006
 31
0.0
  0
ARC
  5
5E1
100
AcDbEntity
  8
0
  6
CONTINUOUS
 62
               7
100
AcDbCircle
 10
43.799984741210949
 20
-10.700000000000017
 30
0.0
 40
0.2
100
AcDbArc
 50
270.00000000000023
 51
0.0
  0
LINE
  5
5E2
100
AcDbEntity
  8
0
  6
CONTINUOUS
 62
               7
100
AcDbLine
 10
41.161864741210934
 20
-1.0
 30
0.0
 11
37.199984741210926
 21
-1.0
 31
0.0
  0
LINE
  5
5E3
100
AcDbEntity
  8
0
  6
CONTINUOUS
 62
               7
100
AcDbLine
 10
42.999984741210937
 20
-10.900000000000006
 30
0.0
 11
42.999984741210937
 21
-1.0999999940395355
 31
0.0
  0
LINE
  5
5E4
100
AcDbEntity
  8
0
  6
CONTINUOUS
 62
               7
100
AcDbLine
 10
42.999984741210937
 20
-2.5
 30
0.0
 11
42.099984741210932
 21
-2.5
 31
0.0
  0
ARC
  5
5E5
100
AcDbEntity
  8
0
  6
CONTINUOUS
 62
               7
100
AcDbCircle
 10
43.799984741210949
 20
-1.3000000000000114
 30
0.0
 40
0.2
100
AcDbArc
 50
0.0
 51
89.999999999999815
  0
LINE
  5
5E6
100
AcDbEntity
  8
0
  6
CONTINUOUS
 62
               7
100
AcDbLine
 10
43.799984741210949
 20
-1.1000000000000085
 30
0.0
 11
42.999984741210937
 21
-1.1000000000000085
 31
0.0
  0
LINE
  5
5E7
100
AcDbEntity
  8
0
  6
CONTINUOUS
 62
               7
100
AcDbLine
 10
43.999984741210938
 20
-10.700000000000017
 30
0.0
 11
43.999984741210938
 21
-1.300000011920929
 31
0.0
  0
LINE
  5
5E8
100
AcDbEntity
  8
0
  6
CONTINUOUS
 62
               7
100
AcDbLine
 10
32.299984741210949
 20
-11.0
 30
0.0
 11
32.299984741210949
 21
-1.0
 31
0.0
  0
LINE
  5
5E9
100
AcDbEntity
  8
0
  6
CONTINUOUS
 62
               7
100
AcDbLine
 10
2.9999691049324051
 20
-1.0000000000000142
 30
0.0
 11
2.9999698599113449
 21
-10.999999999999986
 31
0.0
  0
LINE
  5
5EA
100
AcDbEntity
  8
0
  6
CONTINUOUS
 62
               7
100
AcDbLine
 10
3.4999691049324038
 20
-0.9999999622510671
 30
0.0
 11
3.4999698599113436
 21
-10.999999962251039
 31
0.0
  0
LINE
  5
5EB
100
AcDbEntity
  8
0
  6
CONTINUOUS
 62
               7
100
AcDbLine
 10
3.4999691049324038
 20
-0.9999999622510671
 30
0.0
 11
2.9999691049324051
 21
-1.0000000000000142
 31
0.0
  0
LINE
  5
5EC
100
AcDbEntity
  8
0
  6
CONTINUOUS
 62
               7
100
AcDbLine
 10
3.4999698599113436
 20
-10.999999962251039
 30
0.0
 11
2.9999698599113449
 21
-10.999999999999986
 31
0.0
  0
ENDBLK
  5
5ED
100
AcDbEntity
  8
0
100
AcDbBlockEnd
  0
BLOCK
  5
5EE
100
AcDbEntity
  8
0
100
AcDbBlockBegin
  2
F10T0-15
 70
               0
 10
0.0
 20
0.0
 30
0.0
  3
F10T0-15
  1

  0
LINE
  5
5EF
100
AcDbEntity
  8
0
  6
CONTINUOUS
 62
               7
100
AcDbLine
 10
30.5
 20
20.499984741210938
 30
0.0
 11
29.199996948242188
 21
20.499984741210938
 31
0.0
  0
LINE
  5
5F0
100
AcDbEntity
  8
0
  6
CENTER
 62
               2
100
AcDbLine
 10
32.5
 20
26.699996948242188
 30
0.0
 11
29.79998779296875
 21
26.699996948242188
 31
0.0
  0
LINE
  5
5F1
100
AcDbEntity
  8
0
  6
CONTINUOUS
 62
               7
100
AcDbLine
 10
31.5
 20
24.749984741210938
 30
0.0
 11
31.5
 21
26.399993896484375
 31
0.0
  0
LINE
  5
5F2
100
AcDbEntity
  8
0
  6
CONTINUOUS
 62
               7
100
AcDbLine
 10
31.5
 20
24.75
 30
0.0
 11
30.5
 21
24.75
 31
0.0
  0
LINE
  5
5F3
100
AcDbEntity
  8
0
  6
CONTINUOUS
 62
               7
100
AcDbLine
 10
31.499984741210938
 20
28.649993896484375
 30
0.0
 11
30.5
 21
28.649993896484375
 31
0.0
  0
LINE
  5
5F4
100
AcDbEntity
  8
0
  6
CONTINUOUS
 62
               7
100
AcDbLine
 10
30.899993896484375
 20
26.399993896484375
 30
0.0
 11
30.899993896484375
 21
26.999984741210938
 31
0.0
  0
LINE
  5
5F5
100
AcDbEntity
  8
0
  6
CONTINUOUS
 62
               7
100
AcDbLine
 10
31.5
 20
26.399993896484375
 30
0.0
 11
30.899993896484375
 21
26.399993896484375
 31
0.0
  0
LINE
  5
5F6
100
AcDbEntity
  8
0
  6
CONTINUOUS
 62
               7
100
AcDbLine
 10
31.5
 20
27.0
 30
0.0
 11
30.899993896484375
 21
27.0
 31
0.0
  0
LINE
  5
5F7
100
AcDbEntity
  8
0
  6
CONTINUOUS
 62
               7
100
AcDbLine
 10
31.5
 20
26.999984741210938
 30
0.0
 11
31.5
 21
28.649993896484375
 31
0.0
  0
LINE
  5
5F8
100
AcDbEntity
  8
0
  6
CONTINUOUS
 62
               7
100
AcDbLine
 10
30.5
 20
11.399993896484375
 30
0.0
 11
30.5
 21
29.999984741210937
 31
0.0
  0
LINE
  5
5F9
100
AcDbEntity
  8
0
  6
CONTINUOUS
 62
               7
100
AcDbLine
 10
3.4999847412109375
 20
-27.599999999999994
 30
0.0
 11
3.4999847412109375
 21
29.999984741210937
 31
0.0
  0
LINE
  5
5FA
100
AcDbEntity
  8
0
  6
CONTINUOUS
 62
               7
100
AcDbLine
 10
22.5
 20
11.0
 30
0.0
 11
22.5
 21
-21.0
 31
0.0
  0
LINE
  5
5FB
100
AcDbEntity
  8
0
  6
CONTINUOUS
 62
               7
100
AcDbLine
 10
30.100006103515625
 20
11.0
 30
0.0
 11
3.4999847412109375
 21
11.0
 31
0.0
  0
LINE
  5
5FC
100
AcDbEntity
  8
0
  6
CONTINUOUS
 62
               7
100
AcDbLine
 10
27.5
 20
-21.0
 30
0.0
 11
3.4999847412109375
 21
-21.0
 31
0.0
  0
LINE
  5
5FD
100
AcDbEntity
  8
0
  6
CONTINUOUS
 62
               7
100
AcDbLine
 10
27.5
 20
-27.599990844726563
 30
0.0
 11
27.5
 21
-21.0
 31
0.0
  0
LINE
  5
5FE
100
AcDbEntity
  8
0
  6
CONTINUOUS
 62
               7
100
AcDbLine
 10
27.100006103515625
 20
-28.0
 30
0.0
 11
3.899993896484375
 21
-28.0
 31
0.0
  0
LINE
  5
5FF
100
AcDbEntity
  8
0
  6
CONTINUOUS
 62
               7
100
AcDbLine
 10
30.5
 20
18.5
 30
0.0
 11
3.4999847412109375
 21
18.5
 31
0.0
  0
LINE
  5
600
100
AcDbEntity
  8
0
  6
CONTINUOUS
 62
               7
100
AcDbLine
 10
22.300003051757813
 20
-28.0
 30
0.0
 11
22.300003051757813
 21
-27.0
 31
0.0
  0
LINE
  5
601
100
AcDbEntity
  8
0
  6
CONTINUOUS
 62
               7
100
AcDbLine
 10
22.300003051757813
 20
-27.0
 30
0.0
 11
19.099990844726563
 21
-27.0
 31
0.0
  0
LINE
  5
602
100
AcDbEntity
  8
0
  6
CONTINUOUS
 62
               7
100
AcDbLine
 10
23.0
 20
-17.049995422363281
 30
0.0
 11
23.0
 21
-18.549995422363281
 31
0.0
  0
LINE
  5
603
100
AcDbEntity
  8
0
  6
CONTINUOUS
 62
               7
100
AcDbLine
 10
19.099990844726563
 20
-28.0
 30
0.0
 11
19.099990844726563
 21
-27.0
 31
0.0
  0
LINE
  5
604
100
AcDbEntity
  8
0
  6
CONTINUOUS
 62
               7
100
AcDbLine
 10
4.4999847412109375
 20
18.5
 30
0.0
 11
4.4999847412109375
 21
20.499984741210938
 31
0.0
  0
LINE
  5
605
100
AcDbEntity
  8
0
  6
CONTINUOUS
 62
               7
100
AcDbLine
 10
6.9999847412109375
 20
18.5
 30
0.0
 11
6.9999847412109375
 21
20.499984741210938
 31
0.0
  0
LINE
  5
606
100
AcDbEntity
  8
0
  6
CONTINUOUS
 62
               7
100
AcDbLine
 10
26.199996948242188
 20
18.5
 30
0.0
 11
26.199996948242188
 21
20.499984741210938
 31
0.0
  0
LINE
  5
607
100
AcDbEntity
  8
0
  6
CONTINUOUS
 62
               7
100
AcDbLine
 10
29.199996948242188
 20
18.5
 30
0.0
 11
29.199996948242188
 21
20.499984741210938
 31
0.0
  0
LINE
  5
608
100
AcDbEntity
  8
0
  6
CONTINUOUS
 62
               7
100
AcDbLine
 10
4.4999847412109375
 20
20.499984741210938
 30
0.0
 11
3.4999847412109375
 21
20.499984741210938
 31
0.0
  0
LINE
  5
609
100
AcDbEntity
  8
0
  6
CONTINUOUS
 62
               7
100
AcDbLine
 10
26.199996948242188
 20
20.499984741210938
 30
0.0
 11
6.9999847412109375
 21
20.499984741210938
 31
0.0
  0
LINE
  5
60A
100
AcDbEntity
  8
0
  6
CONTINUOUS
 62
               7
100
AcDbLine
 10
-5.0
 20
11.5
 30
0.0
 11
-5.0
 21
-21.5
 31
0.0
  0
LINE
  5
60B
100
AcDbEntity
  8
0
  6
CONTINUOUS
 62
               7
100
AcDbLine
 10
3.0
 20
11.5
 30
0.0
 11
3.0
 21
-21.5
 31
0.0
  0
LINE
  5
60C
100
AcDbEntity
  8
0
  6
CONTINUOUS
 62
               7
100
AcDbLine
 10
-5.0
 20
-21.5
 30
0.0
 11
3.0
 21
-21.5
 31
0.0
  0
LINE
  5
60D
100
AcDbEntity
  8
0
  6
CONTINUOUS
 62
               7
100
AcDbLine
 10
-5.0
 20
11.5
 30
0.0
 11
3.0
 21
11.5
 31
0.0
  0
LINE
  5
60E
100
AcDbEntity
  8
0
  6
CONTINUOUS
 62
               2
100
AcDbLine
 10
-2.5
 20
0.0
 30
0.0
 11
2.5
 21
0.0
 31
0.0
  0
LINE
  5
60F
100
AcDbEntity
  8
0
  6
CONTINUOUS
 62
               2
100
AcDbLine
 10
-2.5
 20
-10.0
 30
0.0
 11
2.5
 21
-10.0
 31
0.0
  0
LINE
  5
610
100
AcDbEntity
  8
0
  6
CONTINUOUS
 62
               2
100
AcDbLine
 10
0.0
 20
2.5
 30
0.0
 11
0.0
 21
-2.5
 31
0.0
  0
LINE
  5
611
100
AcDbEntity
  8
0
  6
CONTINUOUS
 62
               2
100
AcDbLine
 10
0.0
 20
-7.5
 30
0.0
 11
0.0
 21
-12.5
 31
0.0
  0
LINE
  5
612
100
AcDbEntity
  8
0
  6
DASHED
 62
               4
100
AcDbLine
 10
-4.0
 20
9.5
 30
0.0
 11
-4.0
 21
-38.0
 31
0.0
  0
LINE
  5
613
100
AcDbEntity
  8
0
  6
DASHED
 62
               4
100
AcDbLine
 10
-4.0
 20
9.5
 30
0.0
 11
10.0
 21
9.5
 31
0.0
  0
LINE
  5
614
100
AcDbEntity
  8
0
  6
DASHED
 62
               4
100
AcDbLine
 10
-25.0
 20
-38.0
 30
0.0
 11
10.0
 21
-38.0
 31
0.0
  0
LINE
  5
615
100
AcDbEntity
  8
0
  6
DASHED
 62
               4
100
AcDbLine
 10
-25.0
 20
-36.79998779296875
 30
0.0
 11
10.0
 21
-36.79998779296875
 31
0.0
  0
LINE
  5
616
100
AcDbEntity
  8
0
  6
DASHED
 62
               4
100
AcDbLine
 10
10.0
 20
9.5
 30
0.0
 11
10.0
 21
-38.0
 31
0.0
  0
LINE
  5
617
100
AcDbEntity
  8
0
  6
DASHED
 62
               4
100
AcDbLine
 10
-25.0
 20
-36.79998779296875
 30
0.0
 11
-25.0
 21
-38.0
 31
0.0
  0
LINE
  5
618
100
AcDbEntity
  8
0
  6
CONTINUOUS
 62
               7
100
AcDbLine
 10
21.449996948242187
 20
-27.5
 30
0.0
 11
19.949996948242188
 21
-27.5
 31
0.0
  0
LINE
  5
619
100
AcDbEntity
  8
0
  6
CONTINUOUS
 62
               7
100
AcDbLine
 10
27.5
 20
-20.399994850158691
 30
0.0
 11
27.5
 21
10.399993896484375
 31
0.0
  0
LINE
  5
61A
100
AcDbEntity
  8
0
  6
CONTINUOUS
 62
               7
100
AcDbLine
 10
22.5
 20
10.800003051757813
 30
0.0
 11
27.099990844726563
 21
10.800003051757813
 31
0.0
  0
LINE
  5
61B
100
AcDbEntity
  8
0
  6
CONTINUOUS
 62
               7
100
AcDbLine
 10
22.499984741210938
 20
-20.799994468688965
 30
0.0
 11
27.099990844726563
 21
-20.799994468688965
 31
0.0
  0
LINE
  5
61C
100
AcDbEntity
  8
0
  6
CONTINUOUS
 62
               7
100
AcDbLine
 10
22.5
 20
-16.199994087219238
 30
0.0
 11
27.5
 21
-16.199994087219238
 31
0.0
  0
ARC
  5
61D
100
AcDbEntity
  8
0
  6
CONTINUOUS
 62
               7
100
AcDbCircle
 10
27.100006103515625
 20
-27.599990844726563
 30
0.0
 40
0.4000000357627869
100
AcDbArc
 50
270.00007262760209
 51
0.0000409811350201
  0
ARC
  5
61E
100
AcDbEntity
  8
0
  6
CONTINUOUS
 62
               7
100
AcDbCircle
 10
30.100006103515625
 20
11.399993896484375
 30
0.0
 40
0.4000000357627869
100
AcDbArc
 50
270.00007262760209
 51
0.0000409811350201
  0
ARC
  5
61F
100
AcDbEntity
  8
0
  6
CONTINUOUS
 62
               7
100
AcDbCircle
 10
22.5
 20
-18.549995422363281
 30
0.0
 40
0.5
100
AcDbArc
 50
269.99996334457541
 51
359.99994535848583
  0
ARC
  5
620
100
AcDbEntity
  8
0
  6
CONTINUOUS
 62
               7
100
AcDbCircle
 10
22.5
 20
-17.049995422363281
 30
0.0
 40
0.5
100
AcDbArc
 50
359.99994535848583
 51
89.999982013910454
  0
CIRCLE
  5
621
100
AcDbEntity
  8
0
  6
CONTINUOUS
 62
               7
100
AcDbCircle
 10
0.0
 20
0.0
 30
0.0
 40
1.5999994277954102
  0
CIRCLE
  5
622
100
AcDbEntity
  8
0
  6
CONTINUOUS
 62
               7
100
AcDbCircle
 10
0.0
 20
-10.0
 30
0.0
 40
1.5999994277954102
  0
ARC
  5
623
100
AcDbEntity
  8
0
  6
CONTINUOUS
 62
               7
100
AcDbCircle
 10
19.949996948242188
 20
-27.0
 30
0.0
 40
0.5
100
AcDbArc
 50
180.0000359721783
 51
270.00001798608872
  0
ARC
  5
624
100
AcDbEntity
  8
0
  6
CONTINUOUS
 62
               7
100
AcDbCircle
 10
21.449996948242187
 20
-27.0
 30
0.0
 40
0.5
100
AcDbArc
 50
270.00001798608872
 51
0.0000546415133601
  0
ARC
  5
625
100
AcDbEntity
  8
0
  6
CONTINUOUS
 62
               7
100
AcDbCircle
 10
27.099990844726563
 20
10.399993896484375
 30
0.0
 40
0.3999999761581421
100
AcDbArc
 50
0.0
 51
89.999982013910454
  0
ARC
  5
626
100
AcDbEntity
  8
0
  6
CONTINUOUS
 62
               7
100
AcDbCircle
 10
27.099990844726563
 20
-20.399994850158691
 30
0.0
 40
0.3999999761581421
100
AcDbArc
 50
270.00001798608872
 51
0.0
  0
LINE
  5
627
100
AcDbEntity
  8
0
  6
CONTINUOUS
 62
               4
100
AcDbLine
 10
30.5
 20
29.999984741210937
 30
0.0
 11
30.5
 21
53.999984741210938
 31
0.0
  0
LINE
  5
628
100
AcDbEntity
  8
0
  6
CONTINUOUS
 62
               4
100
AcDbLine
 10
3.5
 20
29.999984741210937
 30
0.0
 11
3.5
 21
53.999984741210938
 31
0.0
  0
LINE
  5
629
100
AcDbEntity
  8
0
  6
CONTINUOUS
 62
               4
100
AcDbLine
 10
3.4999862670898381
 20
62.499984741210938
 30
0.0
 11
3.4999862670898381
 21
53.999984741210938
 31
0.0
  0
LINE
  5
62A
100
AcDbEntity
  8
0
  6
CONTINUOUS
 62
               4
100
AcDbLine
 10
15.749986267089838
 20
54.499984741210938
 30
0.0
 11
15.749986267089838
 21
53.999984741210938
 31
0.0
  0
LINE
  5
62B
100
AcDbEntity
  8
0
  6
CONTINUOUS
 62
               4
100
AcDbLine
 10
18.249986267089866
 20
54.499984741210938
 30
0.0
 11
18.249986267089866
 21
53.999984741210938
 31
0.0
  0
LINE
  5
62C
100
AcDbEntity
  8
0
  6
CONTINUOUS
 62
               4
100
AcDbLine
 10
23.499986267089838
 20
56.399984741210943
 30
0.0
 11
23.499986267089838
 21
55.449984741210955
 31
0.0
  0
LINE
  5
62D
100
AcDbEntity
  8
0
  6
CONTINUOUS
 62
               4
100
AcDbLine
 10
10.599986267089832
 20
56.399984741210943
 30
0.0
 11
10.599986267089832
 21
55.449984741210955
 31
0.0
  0
LINE
  5
62E
100
AcDbEntity
  8
0
  6
CONTINUOUS
 62
               4
100
AcDbLine
 10
18.249986267089866
 20
54.499984741210938
 30
0.0
 11
15.749986267089838
 21
54.499984741210938
 31
0.0
  0
LINE
  5
62F
100
AcDbEntity
  8
0
  6
CONTINUOUS
 62
               4
100
AcDbLine
 10
25.599986267089832
 20
56.399984741210943
 30
0.0
 11
23.499986267089838
 21
56.399984741210943
 31
0.0
  0
LINE
  5
630
100
AcDbEntity
  8
0
  6
CONTINUOUS
 62
               4
100
AcDbLine
 10
10.599986267089832
 20
56.399984741210943
 30
0.0
 11
8.4999862670898381
 21
56.399984741210943
 31
0.0
  0
LINE
  5
631
100
AcDbEntity
  8
0
  6
CONTINUOUS
 62
               4
100
AcDbLine
 10
30.499986267089838
 20
58.179984741210944
 30
0.0
 11
30.499986267089838
 21
53.999984741210938
 31
0.0
  0
LINE
  5
632
100
AcDbEntity
  8
0
  6
CONTINUOUS
 62
               4
100
AcDbLine
 10
28.174007105653885
 20
62.999984741210938
 30
0.0
 11
14.599986267089832
 21
62.999984741210938
 31
0.0
  0
LINE
  5
633
100
AcDbEntity
  8
0
  6
CONTINUOUS
 62
               4
100
AcDbLine
 10
28.629986267089834
 20
62.70498474121095
 30
0.0
 11
30.369986267089843
 21
58.78998474121093
 31
0.0
  0
ARC
  5
634
100
AcDbEntity
  8
0
  6
CONTINUOUS
 62
               4
100
AcDbCircle
 10
28.174007105653885
 20
62.500084678657203
 30
0.0
 40
0.4999010215015999
100
AcDbArc
 50
24.197376208904771
 51
89.887774076864815
  0
ARC
  5
635
100
AcDbEntity
  8
0
  6
CONTINUOUS
 62
               4
100
AcDbCircle
 10
29.002006662450412
 20
58.179595645140239
 30
0.0
 40
1.4979796551727449
100
AcDbArc
 50
0.0148824203654679
 51
24.046309772710686
  0
LINE
  5
636
100
AcDbEntity
  8
0
  6
CONTINUOUS
 62
               4
100
AcDbLine
 10
25.599986267089832
 20
56.399984741210943
 30
0.0
 11
25.599986267089832
 21
55.449984741210955
 31
0.0
  0
LINE
  5
637
100
AcDbEntity
  8
0
  6
CONTINUOUS
 62
               4
100
AcDbLine
 10
8.4999862670898381
 20
56.399984741210943
 30
0.0
 11
8.4999862670898381
 21
55.449984741210955
 31
0.0
  0
LINE
  5
638
100
AcDbEntity
  8
0
  6
CONTINUOUS
 62
               4
100
AcDbLine
 10
10.599986267089832
 20
55.449984741210955
 30
0.0
 11
8.4999862670898381
 21
55.449984741210955
 31
0.0
  0
LINE
  5
639
100
AcDbEntity
  8
0
  6
CONTINUOUS
 62
               4
100
AcDbLine
 10
25.599986267089832
 20
55.449984741210955
 30
0.0
 11
23.499986267089838
 21
55.449984741210955
 31
0.0
  0
LINE
  5
63A
100
AcDbEntity
  8
0
  6
CONTINUOUS
 62
               4
100
AcDbLine
 10
14.599986267089832
 20
67.499984741210938
 30
0.0
 11
14.599986267089832
 21
62.999984741210938
 31
0.0
  0
LINE
  5
63B
100
AcDbEntity
  8
0
  6
CONTINUOUS
 62
               4
100
AcDbLine
 10
5.9999862670898381
 20
67.499984741210938
 30
0.0
 11
5.9999862670898381
 21
62.999984741210938
 31
0.0
  0
LINE
  5
63C
100
AcDbEntity
  8
0
  6
CONTINUOUS
 62
               4
100
AcDbLine
 10
5.9999862670898381
 20
62.999984741210938
 30
0.0
 11
3.9999862670898381
 21
62.999984741210938
 31
0.0
  0
ARC
  5
63D
100
AcDbEntity
  8
0
  6
CONTINUOUS
 62
               4
100
AcDbCircle
 10
3.9999862670898381
 20
62.499984741210938
 30
0.0
 40
0.5
100
AcDbArc
 50
89.999999999999815
 51
179.99999999999963
  0
LINE
  5
63E
100
AcDbEntity
  8
0
  6
CONTINUOUS
 62
               4
100
AcDbLine
 10
18.249986267089838
 20
54.499984741210938
 30
0.0
 11
18.249986267089838
 21
53.999984741210938
 31
0.0
  0
LINE
  5
63F
100
AcDbEntity
  8
0
  6
CONTINUOUS
 62
               4
100
AcDbLine
 10
15.749986267089838
 20
54.499984741210938
 30
0.0
 11
15.749986267089838
 21
53.999984741210938
 31
0.0
  0
LINE
  5
640
100
AcDbEntity
  8
0
  6
CONTINUOUS
 62
               4
100
AcDbLine
 10
15.749986267089838
 20
54.499984741210938
 30
0.0
 11
18.249986267089838
 21
54.499984741210938
 31
0.0
  0
LINE
  5
641
100
AcDbEntity
  8
0
  6
CONTINUOUS
 62
             200
100
AcDbLine
 10
13.314980610187547
 20
79.464449556289765
 30
0.0
 11
6.3849704566684409
 21
75.463397651774358
 31
0.0
  0
LINE
  5
642
100
AcDbEntity
  8
0
  6
CONTINUOUS
 62
             200
100
AcDbLine
 10
13.31500515856186
 20
80.619090551145746
 30
0.0
 11
6.3849760669983766
 21
76.61804198736445
 31
0.0
  0
LINE
  5
643
100
AcDbEntity
  8
0
  6
CONTINUOUS
 62
               4
100
AcDbLine
 10
7.8849899291992074
 20
73.999984741210937
 30
0.0
 11
7.8849899291992074
 21
76.32940673828125
 31
0.0
  0
LINE
  5
644
100
AcDbEntity
  8
0
  6
CONTINUOUS
 62
               4
100
AcDbLine
 10
9.3149978637695199
 20
73.999984741210937
 30
0.0
 11
9.3149978637695199
 21
77.155014038085938
 31
0.0
  0
LINE
  5
645
100
AcDbEntity
  8
0
  6
CONTINUOUS
 62
               4
100
AcDbLine
 10
8.1999923706054574
 20
86.999984741210938
 30
0.0
 11
8.9999954223632699
 21
86.999984741210938
 31
0.0
  0
LINE
  5
646
100
AcDbEntity
  8
0
  6
CONTINUOUS
 62
               4
100
AcDbLine
 10
8.1999923706054574
 20
81.999984741210937
 30
0.0
 11
8.1999923706054574
 21
86.999969482421875
 31
0.0
  0
LINE
  5
647
100
AcDbEntity
  8
0
  6
CONTINUOUS
 62
               4
100
AcDbLine
 10
8.9999954223632699
 20
81.999984741210937
 30
0.0
 11
8.9999954223632699
 21
86.999984741210938
 31
0.0
  0
LINE
  5
648
100
AcDbEntity
  8
0
  6
CONTINUOUS
 62
               4
100
AcDbLine
 10
7.8849899291992074
 20
81.999984741210937
 30
0.0
 11
9.3149978637695199
 21
81.999984741210937
 31
0.0
  0
LINE
  5
649
100
AcDbEntity
  8
0
  6
CONTINUOUS
 62
               4
100
AcDbLine
 10
7.8849899291992074
 20
77.484100341796875
 30
0.0
 11
7.8849899291992074
 21
81.999984741210937
 31
0.0
  0
LINE
  5
64A
100
AcDbEntity
  8
0
  6
CONTINUOUS
 62
               4
100
AcDbLine
 10
9.3149978637695199
 20
78.309722900390625
 30
0.0
 11
9.3149978637695199
 21
81.999984741210937
 31
0.0
  0
LINE
  5
64B
100
AcDbEntity
  8
0
  6
CONTINUOUS
 62
               7
100
AcDbLine
 10
3.5
 20
29.999984741210937
 30
0.0
 11
30.5
 21
29.999984741210937
 31
0.0
  0
LINE
  5
64C
100
AcDbEntity
  8
0
  6
CONTINUOUS
 62
               4
100
AcDbLine
 10
11.81499786376952
 20
79.753097534179688
 30
0.0
 11
11.81499786376952
 21
81.999984741210937
 31
0.0
  0
LINE
  5
64D
100
AcDbEntity
  8
0
  6
CONTINUOUS
 62
               4
100
AcDbLine
 10
10.384989929199207
 20
78.927474975585938
 30
0.0
 11
10.384989929199207
 21
81.999984741210937
 31
0.0
  0
LINE
  5
64E
100
AcDbEntity
  8
0
  6
CONTINUOUS
 62
               4
100
AcDbLine
 10
11.81499786376952
 20
81.999984741210937
 30
0.0
 11
10.384989929199207
 21
81.999984741210937
 31
0.0
  0
LINE
  5
64F
100
AcDbEntity
  8
0
  6
CONTINUOUS
 62
               4
100
AcDbLine
 10
10.384989929199207
 20
73.999984741210937
 30
0.0
 11
10.384989929199207
 21
77.772781372070313
 31
0.0
  0
LINE
  5
650
100
AcDbEntity
  8
0
  6
CONTINUOUS
 62
               4
100
AcDbLine
 10
11.81499786376952
 20
73.999984741210937
 30
0.0
 11
11.81499786376952
 21
78.598388671875
 31
0.0
  0
LINE
  5
651
100
AcDbEntity
  8
0
  6
CONTINUOUS
 62
               4
100
AcDbLine
 10
11.49999542236327
 20
81.999984741210937
 30
0.0
 11
11.49999542236327
 21
86.999984741210938
 31
0.0
  0
LINE
  5
652
100
AcDbEntity
  8
0
  6
CONTINUOUS
 62
               4
100
AcDbLine
 10
10.699992370605457
 20
81.999984741210937
 30
0.0
 11
10.699992370605457
 21
86.999984741210938
 31
0.0
  0
LINE
  5
653
100
AcDbEntity
  8
0
  6
CONTINUOUS
 62
               4
100
AcDbLine
 10
11.49999542236327
 20
86.999984741210938
 30
0.0
 11
10.699992370605457
 21
86.999984741210938
 31
0.0
  0
LINE
  5
654
100
AcDbEntity
  8
0
  6
CONTINUOUS
 62
               4
100
AcDbLine
 10
16.649989318847645
 20
72.499984741210937
 30
0.0
 11
16.649989318847645
 21
73.999984741210937
 31
0.0
  0
LINE
  5
655
100
AcDbEntity
  8
0
  6
CONTINUOUS
 62
               4
100
AcDbLine
 10
14.650030778693861
 20
72.999943684112623
 30
0.0
 11
15.227382594457765
 21
73.999952389067403
 31
0.0
  0
LINE
  5
656
100
AcDbEntity
  8
0
  6
CONTINUOUS
 62
               4
100
AcDbLine
 10
14.649989318847645
 20
67.499984741210938
 30
0.0
 11
14.649989318847645
 21
73.999984741210937
 31
0.0
  0
LINE
  5
657
100
AcDbEntity
  8
0
  6
CONTINUOUS
 62
               4
100
AcDbLine
 10
15.649987569326356
 20
63.498435482970308
 30
0.0
 11
16.149986678203447
 21
67.056123566659153
 31
0.0
  0
LINE
  5
658
100
AcDbEntity
  8
0
  6
CONTINUOUS
 62
               4
100
AcDbLine
 10
16.149989318847645
 20
67.056137084960938
 30
0.0
 11
16.149989318847645
 21
72.499984741210937
 31
0.0
  0
LINE
  5
659
100
AcDbEntity
  8
0
  6
CONTINUOUS
 62
               4
100
AcDbLine
 10
5.6499740600585824
 20
72.999984741210937
 30
0.0
 11
6.1499740600585824
 21
72.999984741210937
 31
0.0
  0
LINE
  5
65A
100
AcDbEntity
  8
0
  6
CONTINUOUS
 62
               4
100
AcDbLine
 10
5.6499893188476449
 20
72.999984741210937
 30
0.0
 11
5.6499893188476449
 21
73.999984741210937
 31
0.0
  0
LINE
  5
65B
100
AcDbEntity
  8
0
  6
CONTINUOUS
 62
               4
100
AcDbLine
 10
6.1499893188476449
 20
67.499984741210938
 30
0.0
 11
6.1499893188476449
 21
72.999984741210937
 31
0.0
  0
LINE
  5
65C
100
AcDbEntity
  8
0
  6
CONTINUOUS
 62
               4
100
AcDbLine
 10
14.649986476497531
 20
63.498458893081079
 30
0.0
 11
14.599965923191291
 21
63.548479446387319
 31
0.0
  0
LINE
  5
65D
100
AcDbEntity
  8
0
  6
CONTINUOUS
 62
               4
100
AcDbLine
 10
16.149981689453114
 20
72.499984741210937
 30
0.0
 11
16.649981689453114
 21
72.499984741210937
 31
0.0
  0
LINE
  5
65E
100
AcDbEntity
  8
0
  6
CONTINUOUS
 62
               4
100
AcDbLine
 10
14.649989318847645
 20
64.998443603515625
 30
0.0
 11
14.649989318847645
 21
67.499984741210938
 31
0.0
  0
LINE
  5
65F
100
AcDbEntity
  8
0
  6
CONTINUOUS
 62
               4
100
AcDbLine
 10
14.649989318847645
 20
63.498443603515625
 30
0.0
 11
15.649981689453114
 21
63.498443603515625
 31
0.0
  0
LINE
  5
660
100
AcDbEntity
  8
0
  6
CONTINUOUS
 62
               4
100
AcDbLine
 10
14.599986267089832
 20
64.998443603515625
 30
0.0
 11
14.649989318847645
 21
64.998443603515625
 31
0.0
  0
LINE
  5
661
100
AcDbEntity
  8
0
  6
CONTINUOUS
 62
               4
100
AcDbLine
 10
15.227336120605457
 20
73.999984741210937
 30
0.0
 11
16.649981689453114
 21
73.999984741210937
 31
0.0
  0
LINE
  5
662
100
AcDbEntity
  8
0
  6
CONTINUOUS
 62
               4
100
AcDbLine
 10
5.9999862670898381
 20
67.499984741210938
 30
0.0
 11
14.649989318847645
 21
67.499984741210938
 31
0.0
  0
LINE
  5
663
100
AcDbEntity
  8
0
  6
CONTINUOUS
 62
               4
100
AcDbLine
 10
5.6499740600585824
 20
73.999984741210937
 30
0.0
 11
14.649974060058582
 21
73.999984741210937
 31
0.0
  0
LINE
  5
664
100
AcDbEntity
  8
0
  6
CONTINUOUS
 62
               4
100
AcDbLine
 10
14.599986267089832
 20
67.499984741210938
 30
0.0
 11
14.599986267089832
 21
62.999984741210938
 31
0.0
  0
LINE
  5
665
100
AcDbEntity
  8
0
  6
CONTINUOUS
 62
               4
100
AcDbLine
 10
3.4999862670898381
 20
53.999984741210938
 30
0.0
 11
30.499992370605469
 21
53.999984741210938
 31
0.0
  0
LINE
  5
666
100
AcDbEntity
  8
0
  6
CONTINUOUS
 62
               4
100
AcDbLine
 10
5.0999999999999943
 20
46.999984741210937
 30
0.0
 11
5.0999999999999943
 21
53.999984741210938
 31
0.0
  0
LINE
  5
667
100
AcDbEntity
  8
0
  6
CONTINUOUS
 62
               4
100
AcDbLine
 10
4.1999999999999886
 20
46.999984741210937
 30
0.0
 11
4.1999999999999886
 21
53.999984741210938
 31
0.0
  0
LINE
  5
668
100
AcDbEntity
  8
0
  6
CONTINUOUS
 62
               4
100
AcDbLine
 10
3.4999862670898381
 20
46.999984741210937
 30
0.0
 11
5.0999999999999943
 21
46.999984741210937
 31
0.0
  0
LINE
  5
669
100
AcDbEntity
  8
0
  6
CONTINUOUS
 62
               4
100
AcDbLine
 10
15.500000009584767
 20
50.999984779550076
 30
0.0
 11
15.500000067093481
 21
32.999984779550076
 31
0.0
  0
LINE
  5
66A
100
AcDbEntity
  8
0
  6
CONTINUOUS
 62
               4
100
AcDbLine
 10
8.5000000095847668
 20
50.999984757185587
 30
0.0
 11
8.500000067093481
 21
32.999984757185587
 31
0.0
  0
LINE
  5
66B
100
AcDbEntity
  8
0
  6
CONTINUOUS
 62
               4
100
AcDbLine
 10
17.500000009584767
 20
50.99998478593993
 30
0.0
 11
8.5000000095847668
 21
50.999984757185587
 31
0.0
  0
LINE
  5
66C
100
AcDbEntity
  8
0
  6
CONTINUOUS
 62
               4
100
AcDbLine
 10
17.500000067093481
 20
32.99998478593993
 30
0.0
 11
8.500000067093481
 21
32.999984757185587
 31
0.0
  0
ARC
  5
66D
100
AcDbEntity
  8
0
  6
CONTINUOUS
 62
               7
100
AcDbCircle
 10
3.8999847412109432
 20
-27.599999999999994
 30
0.0
 40
0.4
100
AcDbArc
 50
179.99999999999963
 51
269.99999999999937
  0
LINE
  5
66E
100
AcDbEntity
  8
0
  6
CENTER
 62
             200
100
AcDbLine
 10
-20.0
 20
-32.490000000000009
 30
0.0
 11
-20.0
 21
-41.800000000000011
 31
0.0
  0
LINE
  5
66F
100
AcDbEntity
  8
0
  6
CENTER
 62
             200
100
AcDbLine
 10
-10.0
 20
-32.170000000000016
 30
0.0
 11
-10.0
 21
-41.800000000000011
 31
0.0
  0
LINE
  5
670
100
AcDbEntity
  8
0
  6
CONTINUOUS
 62
               7
100
AcDbLine
 10
3.4999847412109375
 20
11.0
 30
0.0
 11
2.9999885559082031
 21
11.0
 31
0.0
  0
LINE
  5
671
100
AcDbEntity
  8
0
  6
CONTINUOUS
 62
               7
100
AcDbLine
 10
3.4999847412109375
 20
-21.0
 30
0.0
 11
2.9999885559082031
 21
-21.0
 31
0.0
  0
LINE
  5
672
100
AcDbEntity
  8
0
  6
CONTINUOUS
 62
               7
100
AcDbLine
 10
3.4999847412109375
 20
11.0
 30
0.0
 11
3.4999847412109375
 21
-21.0
 31
0.0
  0
LINE
  5
673
100
AcDbEntity
  8
0
  6
CONTINUOUS
 62
               7
100
AcDbLine
 10
2.9999885559082031
 20
-21.0
 30
0.0
 11
2.9999885559082031
 21
11.0
 31
0.0
  0
ENDBLK
  5
674
100
AcDbEntity
  8
0
100
AcDbBlockEnd
  0
ENDSEC
  0
SECTION
  2
ENTITIES
  0
INSERT
  5
675
100
AcDbEntity
  8
0
  6
ByBlock
100
AcDbBlockReference
  2
F10T0-1
 10
-203.23736572265625
 20
138.68838500976562
 30
0.0
  0
INSERT
  5
676
100
AcDbEntity
  8
0
  6
ByBlock
100
AcDbBlockReference
  2
F10T0-8
 10
-344.8974609375
 20
138.68839982031901
 30
0.0
  0
INSERT
  5
677
100
AcDbEntity
  8
0
  6
ByBlock
100
AcDbBlockReference
  2
F10T0-9
 10
-61.237548828125
 20
138.6884765625
 30
0.0
 50
0.0009554143617328
  0
INSERT
  5
678
100
AcDbEntity
  8
0
  6
ByBlock
100
AcDbBlockReference
  2
F10T0-10
 10
-203.23736572265625
 20
-24.492065429687504
 30
0.0
  0
INSERT
  5
679
100
AcDbEntity
  8
0
  6
ByBlock
100
AcDbBlockReference
  2
F10T0-11
 10
176.43896484375
 20
148.68827819824219
 30
0.0
  0
INSERT
  5
67A
100
AcDbEntity
  8
0
  6
ByBlock
100
AcDbBlockReference
  2
F10T0-12
 10
56.339187622070312
 20
148.68841552734375
 30
0.0
 50
359.99989945931532
  0
INSERT
  5
67B
100
AcDbEntity
  8
0
  6
ByBlock
100
AcDbBlockReference
  2
F10T0-13
 10
321.0390625
 20
148.68841552734375
 30
0.0
 50
359.99982514715646
  0
INSERT
  5
67C
100
AcDbEntity
  8
0
  6
ByBlock
100
AcDbBlockReference
  2
F10T0-14
 10
176.43896484375
 20
55.229095459132544
 30
0.0
  0
INSERT
  5
67D
100
AcDbEntity
  8
0
  6
ByBlock
100
AcDbBlockReference
  2
F10T0-15
 10
186.43910217285156
 20
-128.69357299804687
 30
0.0
 50
0.0000317914612321
  0
INSERT
  5
67E
100
AcDbEntity
  8
0
  6
ByBlock
100
AcDbBlockReference
  2
F10T0-2
 10
60.939144516229838
 20
-128.69357388583163
 30
0.0
 50
0.0010054014773762
  0
INSERT
  5
67F
100
AcDbEntity
  8
0
  6
ByBlock
100
AcDbBlockReference
  2
F10T0-3
 10
325.03899683372708
 20
-128.69357388583163
 30
0.0
 50
0.0000801408862683
  0
INSERT
  5
680
100
AcDbEntity
  8
0
  6
ByBlock
100
AcDbBlockReference
  2
F10T0-4
 10
186.43916320800781
 20
-224.55523681640625
 30
0.0
 50
0.0001433219305344
  0
INSERT
  5
681
100
AcDbEntity
  8
0
  6
ByBlock
100
AcDbBlockReference
  2
F10T0-5
 10
-202.21862732879254
 20
-189.7507324213162
 30
0.0
  0
INSERT
  5
682
100
AcDbEntity
  8
0
  6
ByBlock
100
AcDbBlockReference
  2
F10T0-6
 10
-297.6969842847293
 20
-189.75072742131621
 30
0.0
 50
0.0000106103295014
  0
INSERT
  5
683
100
AcDbEntity
  8
0
  6
ByBlock
100
AcDbBlockReference
  2
F10T0-7
 10
-96.740239855277622
 20
-189.75072742131621
 30
0.0
  0
LINE
  5
684
100
AcDbEntity
  8
0
  6
CONTINUOUS
 62
               7
100
AcDbLine
 10
399.80000000000001
 20
276.25
 30
0.0
 11
399.80000000000001
 21
-276.75
 31
0.0
  0
LINE
  5
685
100
AcDbEntity
  8
0
  6
CONTINUOUS
 62
               7
100
AcDbLine
 10
-399.25
 20
276.25
 30
0.0
 11
-399.25
 21
-276.75
 31
0.0
  0
LINE
  5
686
100
AcDbEntity
  8
0
  6
CONTINUOUS
 62
               7
100
AcDbLine
 10
-399.25
 20
276.25
 30
0.0
 11
399.80000000000001
 21
276.25
 31
0.0
  0
LINE
  5
687
100
AcDbEntity
  8
0
  6
CONTINUOUS
 62
               7
100
AcDbLine
 10
-399.25
 20
-276.75
 30
0.0
 11
399.80000000000001
 21
-276.75
 31
0.0
  0
LINE
  5
688
100
AcDbEntity
  8
0
  6
CONTINUOUS
 62
               7
100
AcDbLine
 10
239.80000000000001
 20
-251.75
 30
0.0
 11
399.80000000000001
 21
-251.75
 31
0.0
  0
LINE
  5
689
100
AcDbEntity
  8
0
  6
CONTINUOUS
 62
               7
100
AcDbLine
 10
239.80000000000001
 20
251.25
 30
0.0
 11
399.80000000000001
 21
251.25
 31
0.0
  0
LINE
  5
68A
100
AcDbEntity
  8
0
  6
CONTINUOUS
 62
               7
100
AcDbLine
 10
-399.25
 20
251.25
 30
0.0
 11
-239.25
 21
251.25
 31
0.0
  0
LINE
  5
68B
100
AcDbEntity
  8
0
  6
CONTINUOUS
 62
               7
100
AcDbLine
 10
239.80000000000001
 20
-251.75
 30
0.0
 11
239.80000000000001
 21
-276.75
 31
0.0
  0
LINE
  5
68C
100
AcDbEntity
  8
0
  6
CONTINUOUS
 62
               7
100
AcDbLine
 10
239.80000000000001
 20
251.25
 30
0.0
 11
239.80000000000001
 21
276.25
 31
0.0
  0
LINE
  5
68D
100
AcDbEntity
  8
0
  6
CONTINUOUS
 62
               7
100
AcDbLine
 10
-239.25
 20
276.25
 30
0.0
 11
-239.25
 21
251.25
 31
0.0
  0
LINE
  5
68E
100
AcDbEntity
  8
0
  6
CONTINUOUS
 62
               7
100
AcDbLine
 10
0.27
 20
276.25
 30
0.0
 11
0.27
 21
-276.75
 31
0.0
  0
LINE
  5
68F
100
AcDbEntity
  8
0
  6
CONTINUOUS
 62
               7
100
AcDbLine
 10
0.27
 20
-0.25
 30
0.0
 11
399.80000000000001
 21
-0.25
 31
0.0
  0
LINE
  5
690
100
AcDbEntity
  8
0
  6
CONTINUOUS
 62
               7
100
AcDbLine
 10
-399.25
 20
-92.409999999999997
 30
0.0
 11
0.27
 21
-92.409999999999997
 31
0.0
  0
MTEXT
  5
691
100
AcDbEntity
  8
0
  6
CONTINUOUS
 62
               7
100
AcDbMText
 10
245.88456269755227
 20
-264.25
 30
0.0
 40
12.5
 41
0.0
 71
               4
 72
               1
  1
\W1.121;\A1;KOGANEI CORP.
  0
MTEXT
  5
692
100
AcDbEntity
  8
0
  6
CONTINUOUS
 62
               7
100
AcDbMText
 10
290.20888922989093
 20
263.75
 30
0.0
 40
9.0
 41
0.0
 71
               4
 72
               1
  1
\W1.273;\A1;Ver.1.0
  0
MTEXT
  5
693
100
AcDbEntity
  8
0
  6
CONTINUOUS
 62
               7
100
AcDbMText
 10
-382.12234105248706
 20
231.25
 30
0.0
 40
9.0
 41
0.0
 71
               4
 72
               1
  1
\W1.085;\A1;MODEL:F10T0-A2-PS
  0
MTEXT
  5
694
100
AcDbEntity
  8
0
  6
CONTINUOUS
 62
               7
100
AcDbMText
 10
-362.5389820623364
 20
263.75
 30
0.0
 40
9.0
 41
0.0
 71
               4
 72
               1
  1
\W1.141;\A1;F10 SERIES
  0
MTEXT
  5
695
100
AcDbEntity
  8
0
  6
CONTINUOUS
 62
               7
100
AcDbMText
 10
17.402652843997299
 20
256.25
 30
0.0
 40
9.0
 41
0.0
 71
               4
 72
               1
  1
\W1.085;\A1;MODEL:F10T0-F3-PS
  0
MTEXT
  5
696
100
AcDbEntity
  8
0
  6
CONTINUOUS
 62
               7
100
AcDbMText
 10
17.402652843997299
 20
-20.25
 30
0.0
 40
9.0
 41
0.0
 71
               4
 72
               1
  1
\W1.085;\A1;MODEL:F10T0-F4-PS
  0
MTEXT
  5
697
100
AcDbEntity
  8
0
  6
CONTINUOUS
 62
               7
100
AcDbMText
 10
-382.13000067858695
 20
-112.41665649414062
 30
0.0
 40
9.0
 41
0.0
 71
               4
 72
               1
  1
\W1.080;\A1;MODEL:-PL
  0
LINE
  5
698
100
AcDbEntity
  8
0
  6
CONTINUOUS
 62
               7
100
AcDbLine
 10
-96.740239751442431
 20
-189.75073233505316
 30
0.0
 11
-123.74023975144243
 21
-189.7507324213162
 31
0.0
  0
LINE
  5
699
100
AcDbEntity
  8
0
  6
CONTINUOUS
 62
               7
100
AcDbLine
 10
-202.21862732879254
 20
-189.7507324213162
 30
0.0
 11
-192.21862732879254
 21
-189.7507324213162
 31
0.0
  0
LINE
  5
69A
100
AcDbEntity
  8
0
  6
CONTINUOUS
 62
               7
100
AcDbLine
 10
-297.69698438856449
 20
-189.75073233505316
 30
0.0
 11
-270.69698438856449
 21
-189.7507324213162
 31
0.0
  0
ENDSEC
  0
SECTION
  2
OBJECTS
  0
DICTIONARY
  5
19
100
AcDbDictionary
  3
ACAD_GROUP
350
1A
  3
ACAD_MLINESTYLE
350
1B
  0
DICTIONARY
  5
1A
102
{ACAD_REACTORS
330
19
102
}
100
AcDbDictionary
  0
DICTIONARY
  5
1B
102
{ACAD_REACTORS
330
19
102
}
100
AcDbDictionary
  3
STANDARD
350
1C
  0
MLINESTYLE
  5
1C
102
{ACAD_REACTORS
330
1B
102
}
100
AcDbMlineStyle
  2
Standard
 70
               0
  3

 62
               0
 51
90.0
 52
90.0
 71
               2
 49
0.5
 62
             256
  6
ByLayer
 49
-0.5
 62
             256
  6
ByLayer
  0
ENDSEC
  0
EOF
