  0
SECTION
  2
HEADER
  0
ENDSEC
  0
SECTION
  2
TABLES
  0
TABLE
  2
LTYPE
 70
     4
  0
LTYPE
  2
CONTINUOUS
 70
    64
  3
Solid line
 72
    65
 73
     0
 40
0.000000
  0
LTYPE
  2
DASHED
 70
    64
  3
__ __ __ __ __ __ __ __ __ __ __ __ __ __ __
 72
    65
 73
     2
 40
3.500000
 49
2.000000
 49
-1.500000
  0
LTYPE
  2
CENTER
 70
    64
  3
____ _ ____ _ ____ _ ____ _ ____ _ ____ _ ____
 72
    65
 73
     4
 40
17.500000
 49
13.000000
 49
-1.500000
 49
1.500000
 49
-1.500000
  0
LTYPE
  2
PHANTOM
 70
    64
  3
_____ _ _ _____ _ _ _____ _ _ _____ _ _ ____  
 72
    65
 73
     6
 40
15.500000
 49
8.000000
 49
-1.500000
 49
1.500000
 49
-1.500000
 49
1.500000
 49
-1.500000
  0
LTYPE
  2
DASHED1
 70
    64
  3
__ __ __ __ __ __ __ __ __ __ __ __ __ __ __
 72
    65
 73
     2
 40
1.500000
 49
1.000000
 49
-0.500000
  0
LTYPE
  2
DASHED2
 70
    64
  3
__ __ __ __ __ __ __ __ __ __ __ __ __ __ __
 72
    65
 73
     2
 40
3.500000
 49
2.500000
 49
-1.000000
  0
LTYPE
  2
DASHED3
 70
    64
  3
__ __ __ __ __ __ __ __ __ __ __ __ __ __ __
 72
    65
 73
     2
 40
6.000000
 49
4.000000
 49
-2.000000
  0
LTYPE
  2
DASHED4
 70
    64
  3
__ __ __ __ __ __ __ __ __ __ __ __ __ __ __
 72
    65
 73
     2
 40
12.000000
 49
10.000000
 49
-2.000000
  0
LTYPE
  2
DASHED5
 70
    64
  3
__ __ __ __ __ __ __ __ __ __ __ __ __ __ __
 72
    65
 73
     2
 40
17.000000
 49
15.000000
 49
-2.000000
  0
LTYPE
  2
DASHED6
 70
    64
  3
__ __ __ __ __ __ __ __ __ __ __ __ __ __ __
 72
    65
 73
     2
 40
29.000000
 49
27.000000
 49
-2.000000
  0
LTYPE
  2
PHANTOM1
 70
    64
  3
_____ _ _ _____ _ _ _____ _ _ _____ _ _ ____  
 72
    65
 73
     6
 40
31.000000
 49
25.000000
 49
-1.500000
 49
1.000000
 49
-1.000000
 49
1.000000
 49
-1.500000
  0
LTYPE
  2
PHANTOM2
 70
    64
  3
_____ _ _ _____ _ _ _____ _ _ _____ _ _ ____  
 72
    65
 73
     6
 40
36.000000
 49
27.000000
 49
-1.500000
 49
2.500000
 49
-1.000000
 49
2.500000
 49
-1.500000
  0
LTYPE
  2
PHANTOM3
 70
    64
  3
_____ _ _ _____ _ _ _____ _ _ _____ _ _ ____  
 72
    65
 73
     6
 40
78.000000
 49
64.000000
 49
-2.000000
 49
4.000000
 49
-2.000000
 49
4.000000
 49
-2.000000
  0
LTYPE
  2
CENTER1
 70
    64
  3
____ _ ____ _ ____ _ ____ _ ____ _ ____ _ ____
 72
    65
 73
     4
 40
19.000000
 49
14.000000
 49
-1.000000
 49
3.000000
 49
-1.000000
  0
LTYPE
  2
CENTER2
 70
    64
  3
____ _ ____ _ ____ _ ____ _ ____ _ ____ _ ____
 72
    65
 73
     4
 40
28.500000
 49
25.000000
 49
-1.000000
 49
1.500000
 49
-1.000000
  0
LTYPE
  2
CENTER3
 70
    64
  3
____ _ ____ _ ____ _ ____ _ ____ _ ____ _ ____
 72
    65
 73
     4
 40
31.500000
 49
27.000000
 49
-1.000000
 49
2.500000
 49
-1.000000
  0
LTYPE
  2
CENTER4
 70
    64
  3
____ _ ____ _ ____ _ ____ _ ____ _ ____ _ ____
 72
    65
 73
     4
 40
50.000000
 49
45.000000
 49
-1.000000
 49
3.000000
 49
-1.000000
  0
LTYPE
  2
CENTER5
 70
    64
  3
____ _ ____ _ ____ _ ____ _ ____ _ ____ _ ____
 72
    65
 73
     4
 40
100.000000
 49
92.000000
 49
-2.000000
 49
4.000000
 49
-2.000000
  0
LTYPE
  2
SBK1
 70
    64
  3
______ _ _ _ ______ _ _ _ ______ _ _ _ _____  
 72
    65
 73
     8
 40
60.500000
 49
45.000000
 49
-2.000000
 49
2.500000
 49
-2.000000
 49
2.500000
 49
-2.000000
 49
2.500000
 49
-2.000000
  0
LTYPE
  2
SBK2
 70
    64
  3
______ _ _ _ ______ _ _ _ ______ _ _ _ _____  
 72
    65
 73
     8
 40
84.000000
 49
64.000000
 49
-2.000000
 49
4.000000
 49
-2.000000
 49
4.000000
 49
-2.000000
 49
4.000000
 49
-2.000000
  0
LTYPE
  2
STCH
 70
    64
  3
__ __ __ __ __ __ __ __ __ __ __ __ __ __ __
 72
    65
 73
     2
 40
3.000000
 49
1.000000
 49
-2.000000
  0
LTYPE
  2
MTCH
 70
    64
  3
_____ _ _ _____ _ _ _____ _ _ _____ _ _ ____  
 72
    65
 73
     6
 40
80.000000
 49
66.000000
 49
-2.000000
 49
4.000000
 49
-2.000000
 49
4.000000
 49
-2.000000
  0
ENDTAB
  0
TABLE
  2
LAYER
 70
     1
  0
LAYER
  2
0
 70
     0
 62
     7
  6
CONTINUOUS
  0
ENDTAB
  0
TABLE
  2
STYLE
 70
     1
  0
STYLE
  2
STANDARD
 70
     0
 40
0.000000
 41
1.000000
 50
0.000000
 71
     0
 42
0.200000
  3
txt
  4
BIGFONT
  0
ENDTAB
  0
TABLE
  2
VIEW
 70
     0
  0
ENDTAB
  0
ENDSEC
  0
SECTION
  2
BLOCKS
  0
ENDSEC
  0
SECTION
  2
ENTITIES
  0
LINE
  8
0
 10
-194.250000
 20
132.600006
 11
194.800003
 21
132.600006
  0
LINE
  8
0
 10
194.800003
 20
132.600006
 11
194.800003
 21
-133.500000
  0
LINE
  8
0
 10
-194.250000
 20
132.600006
 11
-194.250000
 21
-133.500000
  0
LINE
  8
0
 10
-194.250000
 20
-133.500000
 11
194.800003
 21
-133.500000
  0
LINE
  8
0
 10
210.000000
 20
148.500000
 11
210.000000
 21
-148.500000
  0
LINE
  8
0
 10
-210.000000
 20
148.500000
 11
-210.000000
 21
-148.500000
  0
LINE
  8
0
 10
-210.000000
 20
148.500000
 11
210.000000
 21
148.500000
  0
LINE
  8
0
 10
-210.000000
 20
-148.500000
 11
210.000000
 21
-148.500000
  0
LINE
  8
0
 10
109.800003
 20
-118.500000
 11
109.800003
 21
-133.500000
  0
LINE
  8
0
 10
109.800003
 20
-118.500000
 11
194.800003
 21
-118.500000
  0
LINE
  8
0
 10
109.800003
 20
132.600006
 11
109.800003
 21
117.600006
  0
LINE
  8
0
 10
109.800003
 20
117.600006
 11
194.800003
 21
117.600006
  0
LINE
  8
0
 10
-194.250000
 20
117.600006
 11
-109.250000
 21
117.600006
  0
LINE
  8
0
 10
-109.250000
 20
132.600006
 11
-109.250000
 21
117.600006
  0
LINE
  8
0
 10
-109.819733
 20
-8.795475
 11
-109.819733
 21
-104.895767
  0
TEXT
  8
0
 10
115.907150
 20
122.050003
 40
4.500000
  1
DATE : SEP ,1992
 50
0.000000
 41
1.052631
 51
0.000000
  7
STANDARD
  0
TEXT
  8
0
 10
113.700279
 20
-130.669998
 40
6.300000
  1
KOGANEI CORP.
 50
0.000000
 41
1.052632
 51
0.000000
  7
STANDARD
  0
TEXT
  8
0
 10
-165.642654
 20
122.050003
 40
4.500000
  1
FILTER
 50
0.000000
 41
1.052632
 51
0.000000
  7
STANDARD
  0
TEXT
  8
0
 10
-179.000000
 20
105.900009
 40
4.500000
  1
MODEL : F150-01
 50
0.000000
 41
1.052632
 51
0.000000
  7
STANDARD
  0
TEXT
  8
0
 10
-178.362976
 20
12.813501
 40
4.500000
  1
OPTION:-BG-F1
 50
0.000000
 41
1.052632
 51
0.000000
  7
STANDARD
  0
POINT
  8
0
 10
-17.807861
 20
6.339763
  0
POINT
  8
0
 10
22.192139
 20
6.339763
  0
LINE
  8
0
 10
-20.209778
 20
6.339763
 11
24.623535
 21
6.339763
  0
LINE
  8
0
 10
-16.807861
 20
16.339764
 11
21.192139
 21
16.339764
  0
LINE
  8
0
 10
-16.807861
 20
-16.660236
 11
21.192139
 21
-16.660236
  0
LINE
  8
0
 10
22.192139
 20
15.339763
 11
22.192139
 21
-15.660237
  0
LINE
  8
0
 10
-17.807861
 20
15.339763
 11
-17.807861
 21
-15.660237
  0
LINE
  8
0
 10
-17.807810
 20
15.339722
 11
-16.807821
 21
16.339712
  0
LINE
  8
0
 10
21.192173
 20
16.339787
 11
22.192150
 21
15.339808
  0
LINE
  8
0
 10
-17.807861
 20
-3.660237
 11
22.192139
 21
-3.660237
  0
LINE
  8
0
 10
10.331543
 20
13.339763
 11
10.331543
 21
-2.660237
  0
LINE
  8
0
 10
-5.947266
 20
13.339763
 11
-5.947266
 21
-2.660237
  0
LINE
  8
0
 10
-3.992493
 20
14.339732
 11
8.376770
 21
14.339732
  0
LINE
  8
0
 10
-5.947266
 20
13.339763
 11
10.331543
 21
13.339763
  0
LINE
  8
0
 10
-3.992575
 20
14.339843
 11
-5.947316
 21
13.339848
  0
LINE
  8
0
 10
8.376728
 20
14.339772
 11
10.331470
 21
13.339777
  0
LINE
  8
0
 10
-12.538757
 20
-2.660237
 11
16.923035
 21
-2.660237
  0
LINE
  8
0
 10
-12.538818
 20
-2.660213
 11
-13.807898
 21
-3.660212
  0
LINE
  8
0
 10
16.923046
 20
-2.660233
 11
18.192127
 21
-3.660232
  0
LINE
  8
0
 10
-15.307861
 20
16.839733
 11
-9.812927
 21
16.839733
  0
LINE
  8
0
 10
-15.307861
 20
16.839764
 11
-15.307861
 21
16.339764
  0
LINE
  8
0
 10
-9.812866
 20
16.839764
 11
-9.812866
 21
16.339764
  0
LINE
  8
0
 10
-17.807861
 20
15.339763
 11
22.192139
 21
15.339763
  0
LINE
  8
0
 10
-17.807856
 20
-15.660211
 11
-16.807833
 21
-16.660233
  0
LINE
  8
0
 10
21.192169
 20
-16.660294
 11
22.192158
 21
-15.660304
  0
LINE
  8
0
 10
-17.807861
 20
-15.660268
 11
22.192139
 21
-15.660268
  0
LINE
  8
0
 10
-15.807861
 20
13.339763
 11
-15.807861
 21
-0.660237
  0
LINE
  8
0
 10
-12.807861
 20
13.339763
 11
-12.807861
 21
-0.660237
  0
LINE
  8
0
 10
20.192139
 20
13.339763
 11
20.192139
 21
-0.660237
  0
LINE
  8
0
 10
17.192139
 20
13.339763
 11
17.192139
 21
-0.660237
  0
LINE
  8
0
 10
-15.807861
 20
13.339763
 11
-12.807861
 21
13.339763
  0
LINE
  8
0
 10
-15.807861
 20
-0.660268
 11
-12.807861
 21
-0.660268
  0
LINE
  8
0
 10
17.192139
 20
13.339763
 11
20.192139
 21
13.339763
  0
LINE
  8
0
 10
17.192139
 20
-0.660268
 11
20.192139
 21
-0.660268
  0
LINE
  8
0
 10
-16.807861
 20
16.339764
 11
-16.807861
 21
-3.660237
  0
LINE
  8
0
 10
21.192139
 20
16.339764
 11
21.192139
 21
-3.660237
  0
LINE
  8
0
 10
2.192139
 20
18.741924
 11
2.192139
 21
-82.275276
  0
LINE
  8
0
 10
-15.807861
 20
-16.660236
 11
-15.807861
 21
-30.160236
  0
LINE
  8
0
 10
0.692139
 20
-30.160236
 11
3.692139
 21
-30.160236
  0
LINE
  8
0
 10
0.692139
 20
-18.660236
 11
0.692139
 21
-30.160236
  0
LINE
  8
0
 10
3.692139
 20
-18.660236
 11
3.692139
 21
-30.160236
  0
LINE
  8
0
 10
-0.452148
 20
-19.660236
 11
-0.452148
 21
-31.160236
  0
LINE
  8
0
 10
4.836487
 20
-19.660236
 11
4.836487
 21
-31.160236
  0
LINE
  8
0
 10
-0.452148
 20
-31.160236
 11
4.836426
 21
-31.160236
  0
LINE
  8
0
 10
-9.430847
 20
-18.660236
 11
0.692139
 21
-18.660236
  0
LINE
  8
0
 10
-7.812561
 20
-19.660236
 11
-0.452148
 21
-19.660236
  0
LINE
  8
0
 10
3.692139
 20
-18.660236
 11
13.815125
 21
-18.660236
  0
LINE
  8
0
 10
4.836426
 20
-19.660236
 11
12.196838
 21
-19.660236
  0
LINE
  8
0
 10
0.692186
 20
-30.160236
 11
-0.452152
 21
-31.160248
  0
LINE
  8
0
 10
4.836426
 20
-31.160252
 11
3.692146
 21
-30.160271
  0
LINE
  8
0
 10
0.692156
 20
-18.660248
 11
-0.452183
 21
-19.660259
  0
LINE
  8
0
 10
3.692129
 20
-18.660213
 11
4.836456
 21
-19.660236
  0
LINE
  8
0
 10
-9.430847
 20
-18.660236
 11
-9.430847
 21
-30.160236
  0
LINE
  8
0
 10
-7.812561
 20
-19.660236
 11
-7.812561
 21
-31.160236
  0
LINE
  8
0
 10
-11.552185
 20
-18.660236
 11
-11.552185
 21
-31.160236
  0
LINE
  8
0
 10
-9.430847
 20
-30.160236
 11
-11.552185
 21
-30.160236
  0
LINE
  8
0
 10
-11.552185
 20
-31.160236
 11
-7.812561
 21
-31.160236
  0
LINE
  8
0
 10
-14.600952
 20
-19.660236
 11
-14.600952
 21
-31.160236
  0
LINE
  8
0
 10
-9.430823
 20
-30.160217
 11
-7.812572
 21
-31.160191
  0
LINE
  8
0
 10
-15.745239
 20
-18.660236
 11
-15.745239
 21
-30.160236
  0
LINE
  8
0
 10
-15.745239
 20
-18.660236
 11
-11.552185
 21
-18.660236
  0
LINE
  8
0
 10
-14.600952
 20
-19.660236
 11
-11.552185
 21
-19.660236
  0
LINE
  8
0
 10
-15.745189
 20
-18.660255
 11
-14.600904
 21
-19.660233
  0
LINE
  8
0
 10
-15.807861
 20
-30.160236
 11
-15.745239
 21
-30.160236
  0
LINE
  8
0
 10
-15.745220
 20
-30.160229
 11
-14.600935
 21
-31.160210
  0
LINE
  8
0
 10
-14.807861
 20
-31.160236
 11
-14.807861
 21
-61.160236
  0
LINE
  8
0
 10
-14.807861
 20
-31.160236
 11
-14.600952
 21
-31.160236
  0
LINE
  8
0
 10
-15.807802
 20
-30.160294
 11
-14.807823
 21
-31.160275
  0
LINE
  8
0
 10
20.192139
 20
-16.660236
 11
20.192139
 21
-30.160236
  0
LINE
  8
0
 10
13.815125
 20
-18.660236
 11
13.815125
 21
-30.160236
  0
LINE
  8
0
 10
12.196838
 20
-19.660236
 11
12.196838
 21
-31.160236
  0
LINE
  8
0
 10
15.936462
 20
-18.660236
 11
15.936462
 21
-31.160236
  0
LINE
  8
0
 10
13.815125
 20
-30.160236
 11
15.936462
 21
-30.160236
  0
LINE
  8
0
 10
15.936462
 20
-31.160236
 11
12.196838
 21
-31.160236
  0
LINE
  8
0
 10
18.985229
 20
-19.660236
 11
18.985229
 21
-31.160236
  0
LINE
  8
0
 10
13.815147
 20
-30.160248
 11
12.196869
 21
-31.160236
  0
LINE
  8
0
 10
20.129517
 20
-18.660236
 11
20.129517
 21
-30.160236
  0
LINE
  8
0
 10
20.129517
 20
-18.660236
 11
15.936462
 21
-18.660236
  0
LINE
  8
0
 10
18.985229
 20
-19.660236
 11
15.936462
 21
-19.660236
  0
LINE
  8
0
 10
20.129616
 20
-18.660233
 11
18.985287
 21
-19.660252
  0
LINE
  8
0
 10
20.192139
 20
-30.160236
 11
20.129517
 21
-30.160236
  0
LINE
  8
0
 10
20.129562
 20
-30.160271
 11
18.985233
 21
-31.160290
  0
LINE
  8
0
 10
19.192139
 20
-31.160236
 11
19.192139
 21
-61.160236
  0
LINE
  8
0
 10
19.192139
 20
-31.160236
 11
18.985229
 21
-31.160236
  0
LINE
  8
0
 10
20.192139
 20
-30.160267
 11
19.192127
 21
-31.160278
  0
LINE
  8
0
 10
-3.307861
 20
-77.660240
 11
7.692139
 21
-77.660240
  0
LINE
  8
0
 10
-4.307861
 20
-73.499199
 11
-4.307861
 21
-76.660240
  0
LINE
  8
0
 10
8.692139
 20
-73.499199
 11
8.692139
 21
-76.660240
  0
LINE
  8
0
 10
-4.307810
 20
-76.660217
 11
-3.307830
 21
-77.660194
  0
LINE
  8
0
 10
7.692165
 20
-77.660294
 11
8.692167
 21
-76.660294
  0
LINE
  8
0
 10
-4.307861
 20
-76.660255
 11
8.692139
 21
-76.660255
  0
LINE
  8
0
 10
1.192139
 20
-81.160240
 11
3.192139
 21
-81.160240
  0
LINE
  8
0
 10
2.692139
 20
-77.660240
 11
2.692139
 21
-80.160240
  0
LINE
  8
0
 10
1.692139
 20
-77.660240
 11
1.692139
 21
-80.160240
  0
LINE
  8
0
 10
3.192139
 20
-80.160240
 11
3.192139
 21
-81.160240
  0
LINE
  8
0
 10
1.192139
 20
-80.160240
 11
1.192139
 21
-81.160240
  0
LINE
  8
0
 10
1.192139
 20
-80.160240
 11
3.192139
 21
-80.160240
  0
ARC
  8
0
 10
11.192139
 20
-73.499214
 40
2.499996
 50
99.206947
 51
180.000000
  0
ARC
  8
0
 10
-4.807861
 20
-61.160236
 40
10.000000
 50
180.000000
 51
260.793091
  0
ARC
  8
0
 10
9.192139
 20
-61.160236
 40
10.000004
 50
279.206909
 51
0.000000
  0
ARC
  8
0
 10
-6.807861
 20
-73.499214
 40
2.500000
 50
0.000000
 51
80.793076
  0
POINT
  8
0
 10
111.083832
 20
6.339763
  0
POINT
  8
0
 10
125.583801
 20
6.339763
  0
LINE
  8
0
 10
93.083801
 20
-16.660236
 11
93.083801
 21
-30.160236
  0
LINE
  8
0
 10
109.583801
 20
-30.160236
 11
112.583801
 21
-30.160236
  0
LINE
  8
0
 10
109.583832
 20
-18.660236
 11
109.583832
 21
-30.160236
  0
LINE
  8
0
 10
112.583801
 20
-18.660236
 11
112.583801
 21
-30.160236
  0
LINE
  8
0
 10
108.439484
 20
-19.660236
 11
108.439484
 21
-31.160236
  0
LINE
  8
0
 10
113.728119
 20
-19.660236
 11
113.728119
 21
-31.160236
  0
LINE
  8
0
 10
108.439484
 20
-31.160236
 11
113.728088
 21
-31.160236
  0
LINE
  8
0
 10
99.460815
 20
-18.660236
 11
109.583801
 21
-18.660236
  0
LINE
  8
0
 10
101.079132
 20
-19.660236
 11
108.439484
 21
-19.660236
  0
LINE
  8
0
 10
112.583801
 20
-18.660236
 11
122.706787
 21
-18.660236
  0
LINE
  8
0
 10
113.728088
 20
-19.660236
 11
121.088501
 21
-19.660236
  0
LINE
  8
0
 10
109.583786
 20
-30.160255
 11
108.439461
 21
-31.160255
  0
LINE
  8
0
 10
113.728149
 20
-31.160229
 11
112.583870
 21
-30.160248
  0
LINE
  8
0
 10
109.583817
 20
-18.660267
 11
108.439491
 21
-19.660267
  0
LINE
  8
0
 10
112.583794
 20
-18.660255
 11
113.728073
 21
-19.660240
  0
LINE
  8
0
 10
99.460846
 20
-18.660236
 11
99.460846
 21
-30.160236
  0
LINE
  8
0
 10
101.079132
 20
-19.660236
 11
101.079132
 21
-31.160236
  0
LINE
  8
0
 10
97.339539
 20
-18.660236
 11
97.339539
 21
-31.160236
  0
LINE
  8
0
 10
99.460815
 20
-30.160236
 11
97.339539
 21
-30.160236
  0
LINE
  8
0
 10
97.339539
 20
-31.160236
 11
101.079132
 21
-31.160236
  0
LINE
  8
0
 10
94.290771
 20
-19.660236
 11
94.290771
 21
-31.160236
  0
LINE
  8
0
 10
99.460793
 20
-30.160210
 11
101.079094
 21
-31.160213
  0
LINE
  8
0
 10
93.146423
 20
-18.660236
 11
93.146423
 21
-30.160236
  0
LINE
  8
0
 10
93.146423
 20
-18.660236
 11
97.339539
 21
-18.660236
  0
LINE
  8
0
 10
94.290710
 20
-19.660236
 11
97.339539
 21
-19.660236
  0
LINE
  8
0
 10
93.146454
 20
-18.660213
 11
94.290741
 21
-19.660194
  0
LINE
  8
0
 10
93.083801
 20
-30.160236
 11
93.146423
 21
-30.160236
  0
LINE
  8
0
 10
93.146469
 20
-30.160229
 11
94.290756
 21
-31.160210
  0
LINE
  8
0
 10
94.083862
 20
-31.160236
 11
94.083862
 21
-61.160236
  0
LINE
  8
0
 10
94.083801
 20
-31.160236
 11
94.290710
 21
-31.160236
  0
LINE
  8
0
 10
93.083809
 20
-30.160271
 11
94.083832
 21
-31.160294
  0
LINE
  8
0
 10
129.083832
 20
-16.660236
 11
129.083832
 21
-30.160236
  0
LINE
  8
0
 10
122.706787
 20
-18.660236
 11
122.706787
 21
-30.160236
  0
LINE
  8
0
 10
121.088501
 20
-19.660236
 11
121.088501
 21
-31.160236
  0
LINE
  8
0
 10
124.828125
 20
-18.660236
 11
124.828125
 21
-31.160236
  0
LINE
  8
0
 10
122.706787
 20
-30.160236
 11
124.828125
 21
-30.160236
  0
LINE
  8
0
 10
124.828125
 20
-31.160236
 11
121.088501
 21
-31.160236
  0
LINE
  8
0
 10
127.876892
 20
-19.660236
 11
127.876892
 21
-31.160236
  0
LINE
  8
0
 10
122.706871
 20
-30.160259
 11
121.088562
 21
-31.160263
  0
LINE
  8
0
 10
129.021240
 20
-18.660236
 11
129.021240
 21
-30.160236
  0
LINE
  8
0
 10
129.021179
 20
-18.660236
 11
124.828125
 21
-18.660236
  0
LINE
  8
0
 10
127.876892
 20
-19.660236
 11
124.828125
 21
-19.660236
  0
LINE
  8
0
 10
129.021240
 20
-18.660320
 11
127.876930
 21
-19.660316
  0
LINE
  8
0
 10
129.083832
 20
-30.160236
 11
129.021179
 21
-30.160236
  0
LINE
  8
0
 10
129.021210
 20
-30.160248
 11
127.876900
 21
-31.160248
  0
LINE
  8
0
 10
128.083801
 20
-31.160236
 11
128.083801
 21
-61.160236
  0
LINE
  8
0
 10
128.083801
 20
-31.160236
 11
127.876892
 21
-31.160236
  0
LINE
  8
0
 10
129.083786
 20
-30.160221
 11
128.083786
 21
-31.160221
  0
LINE
  8
0
 10
105.583801
 20
-77.660240
 11
116.583832
 21
-77.660240
  0
LINE
  8
0
 10
104.583832
 20
-73.499199
 11
104.583832
 21
-76.660240
  0
LINE
  8
0
 10
117.583801
 20
-73.499199
 11
117.583801
 21
-76.660240
  0
LINE
  8
0
 10
104.583870
 20
-76.660225
 11
105.583870
 21
-77.660225
  0
LINE
  8
0
 10
116.583794
 20
-77.660210
 11
117.583809
 21
-76.660202
  0
LINE
  8
0
 10
104.583801
 20
-76.660255
 11
117.583801
 21
-76.660255
  0
LINE
  8
0
 10
110.083801
 20
-81.160240
 11
112.083801
 21
-81.160240
  0
LINE
  8
0
 10
111.583832
 20
-77.660240
 11
111.583832
 21
-80.160240
  0
LINE
  8
0
 10
110.583801
 20
-77.660240
 11
110.583801
 21
-80.160240
  0
LINE
  8
0
 10
112.083832
 20
-80.160240
 11
112.083832
 21
-81.160240
  0
LINE
  8
0
 10
110.083801
 20
-80.160240
 11
110.083801
 21
-81.160240
  0
LINE
  8
0
 10
110.083801
 20
-80.160240
 11
112.083801
 21
-80.160240
  0
LINE
  8
0
 10
111.083832
 20
20.896557
 11
111.083832
 21
-82.467751
  0
LINE
  8
0
 10
99.083832
 20
15.339763
 11
99.083832
 21
-3.660237
  0
LINE
  8
0
 10
123.083801
 20
15.339763
 11
123.083801
 21
-3.660237
  0
LINE
  8
0
 10
100.083801
 20
16.339764
 11
122.083801
 21
16.339764
  0
LINE
  8
0
 10
99.083801
 20
15.339728
 11
100.083809
 21
16.339741
  0
LINE
  8
0
 10
122.083847
 20
16.339777
 11
123.083870
 21
15.339753
  0
LINE
  8
0
 10
109.083832
 20
16.839733
 11
113.083801
 21
16.839733
  0
LINE
  8
0
 10
113.083801
 20
16.839764
 11
113.083801
 21
16.339764
  0
LINE
  8
0
 10
109.083832
 20
16.839764
 11
109.083832
 21
16.339764
  0
LINE
  8
0
 10
99.083832
 20
15.339763
 11
123.083801
 21
15.339763
  0
LINE
  8
0
 10
92.083801
 20
-16.660236
 11
130.083801
 21
-16.660236
  0
LINE
  8
0
 10
131.083832
 20
-3.660237
 11
131.083832
 21
-15.660237
  0
LINE
  8
0
 10
91.083801
 20
-3.660237
 11
91.083801
 21
-15.660237
  0
LINE
  8
0
 10
91.083801
 20
-3.660237
 11
131.083801
 21
-3.660237
  0
LINE
  8
0
 10
92.083832
 20
-16.660240
 11
91.083855
 21
-15.660260
  0
LINE
  8
0
 10
130.083862
 20
-16.660278
 11
131.083862
 21
-15.660274
  0
LINE
  8
0
 10
92.083801
 20
-2.660237
 11
99.083832
 21
-2.660237
  0
LINE
  8
0
 10
91.083824
 20
-3.660242
 11
92.083839
 21
-2.660231
  0
LINE
  8
0
 10
130.083801
 20
-2.660197
 11
131.083832
 21
-3.660218
  0
LINE
  8
0
 10
123.083801
 20
-2.660237
 11
130.083801
 21
-2.660237
  0
LINE
  8
0
 10
100.083801
 20
16.339764
 11
100.083801
 21
-3.660237
  0
LINE
  8
0
 10
122.083832
 20
16.339764
 11
122.083832
 21
-3.660237
  0
LINE
  8
0
 10
92.083801
 20
6.339763
 11
130.083801
 21
6.339763
  0
LINE
  8
0
 10
91.083801
 20
-15.660268
 11
131.083801
 21
-15.660268
  0
LINE
  8
0
 10
125.583801
 20
13.339763
 11
125.583801
 21
-2.660237
  0
LINE
  8
0
 10
96.583862
 20
13.339763
 11
96.583862
 21
-2.660237
  0
LINE
  8
0
 10
97.583801
 20
14.339732
 11
99.083832
 21
14.339732
  0
LINE
  8
0
 10
123.083801
 20
14.339732
 11
124.583801
 21
14.339732
  0
LINE
  8
0
 10
96.583870
 20
13.339682
 11
97.583878
 21
14.339682
  0
LINE
  8
0
 10
124.583862
 20
14.339756
 11
125.583839
 21
13.339775
  0
LINE
  8
0
 10
96.583801
 20
13.339763
 11
99.083832
 21
13.339763
  0
LINE
  8
0
 10
125.583801
 20
13.339732
 11
123.083801
 21
13.339732
  0
ARC
  8
0
 10
104.083832
 20
-61.160236
 40
10.000000
 50
180.000000
 51
260.793060
  0
ARC
  8
0
 10
118.083801
 20
-61.160236
 40
10.000004
 50
279.206879
 51
0.000000
  0
ARC
  8
0
 10
102.083832
 20
-73.499214
 40
2.500000
 50
0.000000
 51
80.793053
  0
ARC
  8
0
 10
120.083801
 20
-73.499214
 40
2.499996
 50
99.206947
 51
180.000000
  0
CIRCLE
  8
0
 10
111.083832
 20
6.339763
 40
8.000000
  0
CIRCLE
  8
0
 10
111.083832
 20
6.339763
 40
4.864000
  0
CIRCLE
  8
0
 10
111.083832
 20
6.339763
 40
4.283000
  0
POINT
  8
0
 10
-17.807861
 20
68.031158
  0
POINT
  8
0
 10
22.192139
 20
68.031158
  0
LINE
  8
0
 10
2.192139
 20
90.301117
 11
2.192139
 21
45.433350
  0
LINE
  8
0
 10
-20.106995
 20
68.031158
 11
24.594055
 21
68.031158
  0
LINE
  8
0
 10
-16.807861
 20
80.031189
 11
21.192139
 21
80.031189
  0
LINE
  8
0
 10
-16.807861
 20
56.031158
 11
21.192139
 21
56.031158
  0
LINE
  8
0
 10
22.192139
 20
79.031189
 11
22.192139
 21
57.031189
  0
LINE
  8
0
 10
-17.807861
 20
79.031189
 11
-17.807861
 21
57.031189
  0
LINE
  8
0
 10
-17.807795
 20
79.031090
 11
-16.807783
 21
80.031105
  0
LINE
  8
0
 10
-17.807835
 20
57.031227
 11
-16.807854
 21
56.031250
  0
LINE
  8
0
 10
21.192200
 20
56.031128
 11
22.192188
 21
57.031116
  0
LINE
  8
0
 10
21.192120
 20
80.031174
 11
22.192101
 21
79.031197
  0
LINE
  8
0
 10
-17.807861
 20
79.031158
 11
22.192139
 21
79.031158
  0
LINE
  8
0
 10
-17.807861
 20
57.031189
 11
22.192139
 21
57.031189
  0
LINE
  8
0
 10
-16.807861
 20
80.031189
 11
-16.807861
 21
56.031158
  0
LINE
  8
0
 10
21.192139
 20
80.031189
 11
21.192139
 21
56.031158
  0
LINE
  8
0
 10
-15.307861
 20
70.031189
 11
-15.307861
 21
66.031158
  0
LINE
  8
0
 10
-15.307831
 20
66.031166
 11
-9.812888
 21
68.031158
  0
LINE
  8
0
 10
-15.307892
 20
70.031166
 11
-9.812950
 21
68.031166
  0
ARC
  8
0
 10
2.192139
 20
68.031158
 40
20.000000
 50
36.869896
 51
143.130127
  0
ARC
  8
0
 10
2.192139
 20
68.031158
 40
20.000000
 50
216.869873
 51
323.130096
  0
ARC
  8
0
 10
2.192139
 20
68.031158
 40
19.000000
 50
39.166714
 51
140.833313
  0
ARC
  8
0
 10
2.192139
 20
68.031158
 40
19.000000
 50
219.166687
 51
320.833282
  0
ARC
  8
0
 10
2.192139
 20
68.031158
 40
14.500000
 50
55.851578
 51
124.148437
  0
ARC
  8
0
 10
2.192139
 20
68.031158
 40
13.500000
 50
62.733955
 51
117.266068
  0
ARC
  8
0
 10
2.192139
 20
68.031158
 40
14.500002
 50
235.851562
 51
304.148437
  0
ARC
  8
0
 10
2.192139
 20
68.031158
 40
13.499999
 50
242.733932
 51
297.266052
  0
POINT
  8
0
 10
-91.969734
 20
-16.660236
  0
POINT
  8
0
 10
-109.819733
 20
-16.660236
  0
LINE
  8
0
 10
-112.319733
 20
-26.660229
 11
-107.319733
 21
-26.660229
  0
LINE
  8
0
 10
-118.219734
 20
-78.160233
 11
-101.419739
 21
-78.160233
  0
LINE
  8
0
 10
-127.669739
 20
-16.660236
 11
-127.669739
 21
-63.660236
  0
LINE
  8
0
 10
-91.969734
 20
-16.660236
 11
-91.969734
 21
-63.660236
  0
LINE
  8
0
 10
-121.319733
 20
-71.660233
 11
-121.319733
 21
-71.660233
  0
LINE
  8
0
 10
-101.419739
 20
-74.760239
 11
-101.419739
 21
-78.160233
  0
LINE
  8
0
 10
-118.219734
 20
-74.760239
 11
-118.219734
 21
-78.160233
  0
LINE
  8
0
 10
-121.996742
 20
-71.314423
 11
-120.418053
 21
-71.794373
  0
LINE
  8
0
 10
-97.642731
 20
-71.314392
 11
-99.221420
 21
-71.794350
  0
LINE
  8
0
 10
-112.319733
 20
-61.660236
 11
-107.319733
 21
-61.660236
  0
LINE
  8
0
 10
-105.819733
 20
-28.160229
 11
-105.819733
 21
-60.160236
  0
LINE
  8
0
 10
-113.819733
 20
-28.160229
 11
-113.819733
 21
-60.160236
  0
LINE
  8
0
 10
-116.037788
 20
-71.660233
 11
-103.708076
 21
-71.660233
  0
LINE
  8
0
 10
-102.319733
 20
-78.160233
 11
-102.319733
 21
-81.160233
  0
LINE
  8
0
 10
-117.319733
 20
-78.160233
 11
-117.319733
 21
-81.160233
  0
LINE
  8
0
 10
-117.319733
 20
-81.160233
 11
-102.319733
 21
-81.160233
  0
LINE
  8
0
 10
-103.819733
 20
-81.160233
 11
-103.819733
 21
-89.160233
  0
LINE
  8
0
 10
-115.819733
 20
-81.160233
 11
-115.819733
 21
-89.160233
  0
LINE
  8
0
 10
-114.819733
 20
-90.160233
 11
-104.819733
 21
-90.160233
  0
LINE
  8
0
 10
-115.819733
 20
-89.160233
 11
-103.819733
 21
-89.160233
  0
LINE
  8
0
 10
-115.819725
 20
-89.160233
 11
-114.819733
 21
-90.160233
  0
LINE
  8
0
 10
-104.819725
 20
-90.160233
 11
-103.819733
 21
-89.160233
  0
LINE
  8
0
 10
-116.619736
 20
-78.160233
 11
-116.619736
 21
-81.160233
  0
LINE
  8
0
 10
-103.019730
 20
-78.160233
 11
-103.019730
 21
-81.160233
  0
LINE
  8
0
 10
-111.746536
 20
-100.660233
 11
-107.892921
 21
-100.660233
  0
LINE
  8
0
 10
-107.892906
 20
-100.660233
 11
-107.469719
 21
-98.260239
  0
LINE
  8
0
 10
-107.892914
 20
-98.260239
 11
-107.469727
 21
-95.860229
  0
LINE
  8
0
 10
-112.169724
 20
-98.260239
 11
-107.469734
 21
-98.260239
  0
LINE
  8
0
 10
-112.169724
 20
-95.860229
 11
-107.469734
 21
-95.860229
  0
LINE
  8
0
 10
-112.819733
 20
-93.660233
 11
-106.819733
 21
-93.660233
  0
LINE
  8
0
 10
-107.892921
 20
-93.660233
 11
-107.892921
 21
-95.860229
  0
LINE
  8
0
 10
-106.819733
 20
-90.160233
 11
-106.819733
 21
-93.660233
  0
LINE
  8
0
 10
-111.746552
 20
-98.260254
 11
-112.169739
 21
-95.860245
  0
LINE
  8
0
 10
-112.819733
 20
-90.160233
 11
-112.819733
 21
-93.660233
  0
LINE
  8
0
 10
-111.746536
 20
-93.660233
 11
-111.746536
 21
-95.860229
  0
LINE
  8
0
 10
-111.746544
 20
-100.660233
 11
-112.169731
 21
-98.260239
  0
ARC
  8
0
 10
-112.319733
 20
-28.160229
 40
1.500000
 50
90.000000
 51
180.000000
  0
ARC
  8
0
 10
-107.319733
 20
-28.160229
 40
1.500000
 50
0.000000
 51
90.000000
  0
ARC
  8
0
 10
-98.319733
 20
-74.760239
 40
3.099998
 50
106.910324
 51
180.000000
  0
ARC
  8
0
 10
-119.669739
 20
-63.660236
 40
8.000000
 50
179.999969
 51
253.089752
  0
ARC
  8
0
 10
-99.969734
 20
-63.660236
 40
8.000003
 50
286.910248
 51
0.000000
  0
ARC
  8
0
 10
-121.319733
 20
-74.760239
 40
3.099998
 50
0.000000
 51
73.089813
  0
ARC
  8
0
 10
-112.319733
 20
-60.160236
 40
1.500000
 50
180.000000
 51
270.000000
  0
ARC
  8
0
 10
-107.319733
 20
-60.160236
 40
1.500000
 50
270.000000
 51
0.000000
  0
ENDSEC
  0
EOF
