  0
SECTION
  2
HEADER
  9
$ACADVER
  1
AC1012
  9
$DWGCODEPAGE
  3
dos932
  9
$INSBASE
 10
0.0
 20
0.0
 30
0.0
  9
$EXTMIN
 10
-399.25
 20
-276.75
 30
0.0
  9
$EXTMAX
 10
406.09414987197181
 20
276.25
 30
0.0
  9
$LIMMIN
 10
-399.25
 20
-276.75
  9
$LIMMAX
 10
406.09414987197181
 20
276.25
  9
$ORTHOMODE
 70
               0
  9
$REGENMODE
 70
               1
  9
$FILLMODE
 70
               1
  9
$QTEXTMODE
 70
               0
  9
$MIRRTEXT
 70
               1
  9
$DRAGMODE
 70
               2
  9
$LTSCALE
 40
1.0
  9
$OSMODE
 70
               0
  9
$ATTMODE
 70
               1
  9
$TEXTSIZE
 40
3.2000000476837158
  9
$TRACEWID
 40
0.05
  9
$TEXTSTYLE
  7
MX_NOTE_STANDARD
  9
$CLAYER
  8
0
  9
$CELTYPE
  6
CONTINUOUS
  9
$CECOLOR
 62
             256
  9
$CELTSCALE
 40
1.0
  9
$DELOBJ
 70
               1
  9
$DISPSILH
 70
               0
  9
$DIMSCALE
 40
1.0
  9
$DIMASZ
 40
2.5
  9
$DIMEXO
 40
1.5
  9
$DIMDLI
 40
3.75
  9
$DIMRND
 40
0.0
  9
$DIMDLE
 40
0.0
  9
$DIMEXE
 40
1.5
  9
$DIMTP
 40
0.0
  9
$DIMTM
 40
0.0
  9
$DIMTXT
 40
3.2000000476837158
  9
$DIMCEN
 40
2.5
  9
$DIMTSZ
 40
0.0
  9
$DIMTOL
 70
               0
  9
$DIMLIM
 70
               0
  9
$DIMTIH
 70
               0
  9
$DIMTOH
 70
               0
  9
$DIMSE1
 70
               0
  9
$DIMSE2
 70
               0
  9
$DIMTAD
 70
               1
  9
$DIMZIN
 70
               8
  9
$DIMBLK
  1

  9
$DIMASO
 70
               1
  9
$DIMSHO
 70
               1
  9
$DIMPOST
  1

  9
$DIMAPOST
  1

  9
$DIMALT
 70
               0
  9
$DIMALTD
 70
               4
  9
$DIMALTF
 40
0.03937007874016
  9
$DIMLFAC
 40
1.0
  9
$DIMTOFL
 70
               1
  9
$DIMTVP
 40
0.0
  9
$DIMTIX
 70
               0
  9
$DIMSOXD
 70
               0
  9
$DIMSAH
 70
               0
  9
$DIMBLK1
  1

  9
$DIMBLK2
  1

  9
$DIMSTYLE
  2
MXDIMSTYLE
  9
$DIMCLRD
 70
               0
  9
$DIMCLRE
 70
               0
  9
$DIMCLRT
 70
               0
  9
$DIMTFAC
 40
1.0
  9
$DIMGAP
 40
1.0
  9
$DIMJUST
 70
               0
  9
$DIMSD1
 70
               0
  9
$DIMSD2
 70
               0
  9
$DIMTOLJ
 70
               1
  9
$DIMTZIN
 70
               0
  9
$DIMALTZ
 70
               0
  9
$DIMALTTZ
 70
               0
  9
$DIMFIT
 70
               3
  9
$DIMUPT
 70
               1
  9
$DIMUNIT
 70
               2
  9
$DIMDEC
 70
               4
  9
$DIMTDEC
 70
               4
  9
$DIMALTU
 70
               2
  9
$DIMALTTD
 70
               4
  9
$DIMTXSTY
  7
MX_NOTE_STANDARD
  9
$DIMAUNIT
 70
               0
  9
$LUNITS
 70
               2
  9
$LUPREC
 70
               4
  9
$SKETCHINC
 40
0.1
  9
$FILLETRAD
 40
0.0
  9
$AUNITS
 70
               0
  9
$AUPREC
 70
               0
  9
$MENU
  1
acad
  9
$ELEVATION
 40
0.0
  9
$PELEVATION
 40
0.0
  9
$THICKNESS
 40
0.0
  9
$LIMCHECK
 70
               0
  9
$BLIPMODE
 70
               1
  9
$CHAMFERA
 40
0.0
  9
$CHAMFERB
 40
0.0
  9
$CHAMFERC
 40
0.0
  9
$CHAMFERD
 40
0.0
  9
$SKPOLY
 70
               0
  9
$TDCREATE
 40
2453378.356458333
  9
$TDUPDATE
 40
2453378.356458333
  9
$TDINDWG
 40
0.0000000000
  9
$TDUSRTIMER
 40
0.0000000000
  9
$USRTIMER
 70
               1
  9
$ANGBASE
 50
0.0
  9
$ANGDIR
 70
               0
  9
$PDMODE
 70
               0
  9
$PDSIZE
 40
0.0
  9
$PLINEWID
 40
0.0
  9
$COORDS
 70
               1
  9
$SPLFRAME
 70
               0
  9
$SPLINETYPE
 70
               6
  9
$SPLINESEGS
 70
               8
  9
$ATTDIA
 70
               0
  9
$ATTREQ
 70
               1
  9
$HANDLING
 70
               1
  9
$HANDSEED
  5
77E
  9
$SURFTAB1
 70
               6
  9
$SURFTAB2
 70
               6
  9
$SURFTYPE
 70
               6
  9
$SURFU
 70
               6
  9
$SURFV
 70
               6
  9
$UCSNAME
  2

  9
$UCSORG
 10
0.0
 20
0.0
 30
0.0
  9
$UCSXDIR
 10
1.0
 20
0.0
 30
0.0
  9
$UCSYDIR
 10
0.0
 20
1.0
 30
0.0
  9
$PUCSNAME
  2

  9
$PUCSORG
 10
0.0
 20
0.0
 30
0.0
  9
$PUCSXDIR
 10
1.0
 20
0.0
 30
0.0
  9
$PUCSYDIR
 10
0.0
 20
1.0
 30
0.0
  9
$USERI1
 70
               0
  9
$USERI2
 70
               0
  9
$USERI3
 70
               0
  9
$USERI4
 70
               0
  9
$USERI5
 70
               0
  9
$USERR1
 40
0.0
  9
$USERR2
 40
0.0
  9
$USERR3
 40
0.0
  9
$USERR4
 40
0.0
  9
$USERR5
 40
0.0
  9
$WORLDVIEW
 70
               1
  9
$SHADEDGE
 70
               3
  9
$SHADEDIF
 70
              70
  9
$TILEMODE
 70
               1
  9
$MAXACTVP
 70
              16
  9
$PINSBASE
 10
0.0
 20
0.0
 30
0.0
  9
$PLIMCHECK
 70
               0
  9
$PEXTMIN
 10
1.0000000000000000E+20
 20
1.0000000000000000E+20
 30
1.0000000000000000E+20
  9
$PEXTMAX
 10
-1.0000000000000000E+20
 20
-1.0000000000000000E+20
 30
-1.0000000000000000E+20
  9
$PLIMMIN
 10
0.0
 20
0.0
  9
$PLIMMAX
 10
12.0
 20
9.0
  9
$UNITMODE
 70
               0
  9
$VISRETAIN
 70
               0
  9
$PLINEGEN
 70
               1
  9
$PSLTSCALE
 70
               0
  9
$TREEDEPTH
 70
            3020
  9
$PICKSTYLE
 70
               1
  9
$CMLSTYLE
  2
Standard
  9
$CMLJUST
 70
               0
  9
$CMLSCALE
 40
1.0
  9
$SAVEIMAGES
 70
               0
  0
ENDSEC
  0
SECTION
  2
CLASSES
  0
CLASS
  1
LWPOLYLINE
  2
AcDbPolyline
  3
"AutoCAD"
 90
        0
280
               0
281
               1
  0
CLASS
  1
IMAGE
  2
AcDbRasterImage
  3
ISM
 90
      127
280
               0
281
               1
  0
CLASS
  1
OLE2FRAME
  2
AcDbOle2Frame
  3
""
 90
        0
280
               0
281
               1
  0
CLASS
  1
HATCH
  2
AcDbHatch
  3
"ACAD_SEDONA"
 90
        0
280
               0
281
               1
  0
CLASS
  1
DICTIONARYVAR
  2
AcDbDictionaryVar
  3
"AutoCAD"
 90
        0
280
               0
281
               0
  0
CLASS
  1
RASTERVARIABLES
  2
AcDbRasterVariables
  3
ISM
 90
        0
280
               0
281
               0
  0
CLASS
  1
IMAGEDEF
  2
AcDbRasterImageDef
  3
ISM
 90
        0
280
               0
281
               0
  0
CLASS
  1
IMAGEDEF_REACTOR
  2
AcDbRasterImageDefReactor
  3
ISM
 90
        1
280
               0
281
               0
  0
CLASS
  1
IDBUFFER
  2
AcDbIdBuffer
  3
"Acad"
 90
        0
280
               0
281
               0
  0
CLASS
  1
SPATIAL_FILTER
  2
AcDbSpatialFilter
  3
"Acad"
 90
        0
280
               0
281
               0
  0
CLASS
  1
XRECORD
  2
AcDbXrecord
  3
"<Built In>"
 90
        0
280
               0
281
               0
  0
CLASS
  1
SORTENTSTABLE
  2
AcDbSortentsTable
  3
"AutoCAD"
 90
        0
280
               0
281
               0
  0
CLASS
  1
LAYER_INDEX
  2
AcDbLayerIndex
  3
"Acad"
 90
        0
280
               0
281
               0
  0
CLASS
  1
SPATIAL_INDEX
  2
AcDbSpatialIndex
  3
"Acad"
 90
        0
280
               0
281
               0
  0
CLASS
  1
OBJECT_PTR
  2
CAseDLPNTableRecord
  3
"ASE-LPNTableRecord"
 90
        1
280
               0
281
               0
  0
CLASS
  1
LAYOUT
  2
AcDbLayout
  3
"AutoCAD 2000"
 90
        1
280
               0
281
               0
  0
CLASS
  1
PLOTSETTINGS
  2
AcDbPlotSettings
  3
"AutoCAD 2000"
 90
        1
280
               0
281
               0
  0
CLASS
  1
ACDBDICTIONARYWDFLT
  2
AcDbDictionaryWithDefault
  3
"AutoCAD 2000"
 90
        1
280
               0
281
               0
  0
CLASS
  1
ACDBPLACEHOLDER
  2
AcDbPlaceHolder
  3
"AutoCAD 2000"
 90
        1
280
               0
281
               0
  0
ENDSEC
  0
SECTION
  2
TABLES
  0
TABLE
  2
VPORT
  5
7
100
AcDbSymbolTable
 70
               1
  0
VPORT
  5
15
100
AcDbSymbolTableRecord
100
AcDbViewportTableRecord
  2
*ACTIVE
 70
               0
 10
0.0
 20
0.0
 11
1.0
 21
1.0
 12
3.4220749359859042
 22
-0.25
 13
0.0
 23
0.0
 14
1.0
 24
1.0
 15
0.0
 25
0.0
 16
0.0
 26
0.0
 36
1.0
 17
0.0
 27
0.0
 37
0.0
 40
558.52999999999997
 41
1.7320508075688772
 42
50.0
 43
0.0
 44
0.0
 50
0.0
 51
0.0
 71
               0
 72
             100
 73
               1
 74
               1
 75
               0
 76
               0
 77
               0
 78
               0
  0
ENDTAB
  0
TABLE
  2
LTYPE
  5
4
100
AcDbSymbolTable
 70
               4
  0
LTYPE
  5
11
100
AcDbSymbolTableRecord
100
AcDbLinetypeTableRecord
  2
BYBLOCK
 70
              64
  3

 72
              65
 73
               0
 40
0.0
  0
LTYPE
  5
12
100
AcDbSymbolTableRecord
100
AcDbLinetypeTableRecord
  2
BYLAYER
 70
              64
  3

 72
              65
 73
               0
 40
0.0
  0
LTYPE
  5
13
100
AcDbSymbolTableRecord
100
AcDbLinetypeTableRecord
  2
CONTINUOUS
 70
              64
  3
Solid line
 72
              65
 73
               0
 40
0.0
  0
LTYPE
  5
707
100
AcDbSymbolTableRecord
100
AcDbLinetypeTableRecord
  2
DASHED
 70
              64
  3
Dashed __ __ __ __ __ __ __ __ __ __ __ __ __ _
 72
              65
 73
               2
 40
4.0
 49
2.0
 74
               0
 49
-2.0
 74
               0
  0
ENDTAB
  0
TABLE
  2
LAYER
  5
2
100
AcDbSymbolTable
 70
               2
  0
LAYER
  5
14
100
AcDbSymbolTableRecord
100
AcDbLayerTableRecord
  2
0
 70
               0
 62
               7
  6
CONTINUOUS
  0
LAYER
  5
1D
100
AcDbSymbolTableRecord
100
AcDbLayerTableRecord
  2
DEFPOINTS
 70
               0
 62
               7
  6
CONTINUOUS
  0
ENDTAB
  0
TABLE
  2
STYLE
  5
3
100
AcDbSymbolTable
 70
               1
  0
STYLE
  5
17
100
AcDbSymbolTableRecord
100
AcDbTextStyleTableRecord
  2
MX_NOTE_STANDARD
 70
               0
 40
0.0
 41
1.0
 50
0.0
 71
               0
 42
3.2000000476837158
  3
txt.shx
  4
extfont.shx
  0
ENDTAB
  0
TABLE
  2
VIEW
  5
5
100
AcDbSymbolTable
 70
               0
  0
ENDTAB
  0
TABLE
  2
UCS
  5
6
100
AcDbSymbolTable
 70
               0
  0
ENDTAB
  0
TABLE
  2
APPID
  5
8
100
AcDbSymbolTable
 70
               1
  0
APPID
  5
16
100
AcDbSymbolTableRecord
100
AcDbRegAppTableRecord
  2
ACAD
 70
               0
  0
ENDTAB
  0
TABLE
  2
DIMSTYLE
  5
9
100
AcDbSymbolTable
 70
               1
  0
DIMSTYLE
105
18
100
AcDbSymbolTableRecord
100
AcDbDimStyleTableRecord
  2
MXDIMSTYLE
 70
               0
  3

  4

  5

  6

  7

 40
1.0
 41
2.5
 42
1.5
 43
3.75
 44
1.5
 45
0.0
 46
0.0
 47
0.0
 48
0.0
 71
               0
 72
               0
 73
               0
 74
               0
 75
               0
 76
               0
 77
               1
 78
               8
140
3.2000000476837158
141
2.5
142
0.0
143
0.03937007874016
144
1.0
145
0.0
146
1.0
147
1.0
170
               0
171
               4
172
               1
173
               0
174
               0
175
               0
176
               0
177
               0
178
               0
270
               2
271
               4
272
               4
273
               2
274
               4
275
               0
280
               0
281
               0
282
               0
283
               1
284
               0
285
               0
286
               0
287
               3
288
               1
340
17
  0
ENDTAB
  0
TABLE
  2
BLOCK_RECORD
  5
1
100
AcDbSymbolTable
 70
              18
  0
BLOCK_RECORD
  5
A
100
AcDbSymbolTableRecord
100
AcDbBlockTableRecord
  2
*MODEL_SPACE
  0
BLOCK_RECORD
  5
B
100
AcDbSymbolTableRecord
100
AcDbBlockTableRecord
  2
*PAPER_SPACE
  0
BLOCK_RECORD
  5
1E
100
AcDbSymbolTableRecord
100
AcDbBlockTableRecord
  2
F15MP-1
  0
BLOCK_RECORD
  5
1F
100
AcDbSymbolTableRecord
100
AcDbBlockTableRecord
  2
F15MP-2
  0
BLOCK_RECORD
  5
20
100
AcDbSymbolTableRecord
100
AcDbBlockTableRecord
  2
F15MP-3
  0
BLOCK_RECORD
  5
21
100
AcDbSymbolTableRecord
100
AcDbBlockTableRecord
  2
F15MP-4
  0
BLOCK_RECORD
  5
22
100
AcDbSymbolTableRecord
100
AcDbBlockTableRecord
  2
F15MP-5
  0
BLOCK_RECORD
  5
23
100
AcDbSymbolTableRecord
100
AcDbBlockTableRecord
  2
F15MP-6
  0
BLOCK_RECORD
  5
24
100
AcDbSymbolTableRecord
100
AcDbBlockTableRecord
  2
F15MP-7
  0
BLOCK_RECORD
  5
25
100
AcDbSymbolTableRecord
100
AcDbBlockTableRecord
  2
F15MP-8
  0
BLOCK_RECORD
  5
26
100
AcDbSymbolTableRecord
100
AcDbBlockTableRecord
  2
F15MP-9
  0
BLOCK_RECORD
  5
27
100
AcDbSymbolTableRecord
100
AcDbBlockTableRecord
  2
F15MP-10
  0
BLOCK_RECORD
  5
28
100
AcDbSymbolTableRecord
100
AcDbBlockTableRecord
  2
F15MP-11
  0
BLOCK_RECORD
  5
29
100
AcDbSymbolTableRecord
100
AcDbBlockTableRecord
  2
F15MP-12
  0
BLOCK_RECORD
  5
2A
100
AcDbSymbolTableRecord
100
AcDbBlockTableRecord
  2
F15MP-13
  0
BLOCK_RECORD
  5
2B
100
AcDbSymbolTableRecord
100
AcDbBlockTableRecord
  2
F15MP-14
  0
BLOCK_RECORD
  5
2C
100
AcDbSymbolTableRecord
100
AcDbBlockTableRecord
  2
F15MP-15
  0
BLOCK_RECORD
  5
2D
100
AcDbSymbolTableRecord
100
AcDbBlockTableRecord
  2
F15MP-16
  0
BLOCK_RECORD
  5
2E
100
AcDbSymbolTableRecord
100
AcDbBlockTableRecord
  2
F15MP-17
  0
BLOCK_RECORD
  5
2F
100
AcDbSymbolTableRecord
100
AcDbBlockTableRecord
  2
F15MP-18
  0
ENDTAB
  0
ENDSEC
  0
SECTION
  2
BLOCKS
  0
BLOCK
  5
D
100
AcDbEntity
  8
0
100
AcDbBlockBegin
  2
*MODEL_SPACE
 70
               0
 10
0.0
 20
0.0
 30
0.0
  3
*MODEL_SPACE
  1

  0
ENDBLK
  5
E
100
AcDbEntity
  8
0
100
AcDbBlockEnd
  0
BLOCK
  5
F
100
AcDbEntity
 67
               1
  8
0
100
AcDbBlockBegin
  2
*PAPER_SPACE
 70
               0
 10
0.0
 20
0.0
 30
0.0
  3
*PAPER_SPACE
  1

  0
ENDBLK
  5
10
100
AcDbEntity
 67
               1
  8
0
100
AcDbBlockEnd
  0
BLOCK
  5
30
100
AcDbEntity
  8
0
100
AcDbBlockBegin
  2
F15MP-1
 70
               0
 10
0.0
 20
0.0
 30
0.0
  3
F15MP-1
  1

  0
LINE
  5
31
100
AcDbEntity
  8
0
  6
CONTINUOUS
 62
               7
100
AcDbLine
 10
145.75
 20
-44.600000000000001
 30
0.0
 11
145.75
 21
60.399999999999999
 31
0.0
  0
LINE
  5
32
100
AcDbEntity
  8
0
  6
CONTINUOUS
 62
               7
100
AcDbLine
 10
32.75
 20
-44.600000000000001
 30
0.0
 11
41.75
 21
-44.600000000000001
 31
0.0
  0
LINE
  5
33
100
AcDbEntity
  8
0
  6
CONTINUOUS
 62
               7
100
AcDbLine
 10
32.75
 20
-44.600000000000001
 30
0.0
 11
32.75
 21
60.399999999999999
 31
0.0
  0
LINE
  5
34
100
AcDbEntity
  8
0
  6
CONTINUOUS
 62
               7
100
AcDbLine
 10
32.75
 20
-42.600000000000001
 30
0.0
 11
41.75
 21
-42.600000000000001
 31
0.0
  0
LINE
  5
35
100
AcDbEntity
  8
0
  6
CONTINUOUS
 62
               7
100
AcDbLine
 10
154.75
 20
-44.600000000000001
 30
0.0
 11
154.75
 21
60.399999999999999
 31
0.0
  0
LINE
  5
36
100
AcDbEntity
  8
0
  6
CONTINUOUS
 62
               7
100
AcDbLine
 10
145.75
 20
-44.600000000000001
 30
0.0
 11
154.75
 21
-44.600000000000001
 31
0.0
  0
LINE
  5
37
100
AcDbEntity
  8
0
  6
CONTINUOUS
 62
               7
100
AcDbLine
 10
145.75
 20
-42.600000000000001
 30
0.0
 11
154.75
 21
-42.600000000000001
 31
0.0
  0
LINE
  5
38
100
AcDbEntity
  8
0
  6
CONTINUOUS
 62
               7
100
AcDbLine
 10
41.75
 20
-44.600000000000001
 30
0.0
 11
41.75
 21
60.399999999999999
 31
0.0
  0
LINE
  5
39
100
AcDbEntity
  8
0
  6
CONTINUOUS
 62
               7
100
AcDbLine
 10
154.75
 20
60.399999999999999
 30
0.0
 11
145.75
 21
60.399999999999999
 31
0.0
  0
LINE
  5
3A
100
AcDbEntity
  8
0
  6
CONTINUOUS
 62
               7
100
AcDbLine
 10
24.120000000000001
 20
-23.370000000000001
 30
0.0
 11
27.370000000000001
 21
-26.620000000000001
 31
0.0
  0
LINE
  5
3B
100
AcDbEntity
  8
0
  6
CONTINUOUS
 62
               7
100
AcDbLine
 10
24.120000000000001
 20
-26.620000000000001
 30
0.0
 11
27.370000000000001
 21
-23.370000000000001
 31
0.0
  0
LINE
  5
3C
100
AcDbEntity
  8
0
  6
CONTINUOUS
 62
               7
100
AcDbLine
 10
16.75
 20
-40.600000000000001
 30
0.0
 11
32.75
 21
-42.0
 31
0.0
  0
LINE
  5
3D
100
AcDbEntity
  8
0
  6
CONTINUOUS
 62
               7
100
AcDbLine
 10
16.75
 20
40.600000000000001
 30
0.0
 11
16.75
 21
-40.600000000000001
 31
0.0
  0
LINE
  5
3E
100
AcDbEntity
  8
0
  6
CONTINUOUS
 62
               7
100
AcDbLine
 10
16.75
 20
40.600000000000001
 30
0.0
 11
32.75
 21
42.0
 31
0.0
  0
LINE
  5
3F
100
AcDbEntity
  8
0
  6
CONTINUOUS
 62
               7
100
AcDbLine
 10
24.120000000000001
 20
26.620000000000001
 30
0.0
 11
27.370000000000001
 21
23.370000000000001
 31
0.0
  0
LINE
  5
40
100
AcDbEntity
  8
0
  6
CONTINUOUS
 62
               7
100
AcDbLine
 10
24.120000000000001
 20
23.370000000000001
 30
0.0
 11
27.370000000000001
 21
26.620000000000001
 31
0.0
  0
LINE
  5
41
100
AcDbEntity
  8
0
  6
CONTINUOUS
 62
               7
100
AcDbLine
 10
24.120000000000001
 20
1.6200000000000001
 30
0.0
 11
27.370000000000001
 21
-1.6200000000000001
 31
0.0
  0
LINE
  5
42
100
AcDbEntity
  8
0
  6
CONTINUOUS
 62
               7
100
AcDbLine
 10
24.120000000000001
 20
-1.6200000000000001
 30
0.0
 11
27.370000000000001
 21
1.6200000000000001
 31
0.0
  0
LINE
  5
43
100
AcDbEntity
  8
0
  6
CONTINUOUS
 62
               7
100
AcDbLine
 10
23.25
 20
47.0
 30
0.0
 11
23.25
 21
41.159999999999997
 31
0.0
  0
LINE
  5
44
100
AcDbEntity
  8
0
  6
CONTINUOUS
 62
               7
100
AcDbLine
 10
23.25
 20
47.0
 30
0.0
 11
28.25
 21
47.0
 31
0.0
  0
LINE
  5
45
100
AcDbEntity
  8
0
  6
CONTINUOUS
 62
               7
100
AcDbLine
 10
23.25
 20
45.399999999999999
 30
0.0
 11
28.25
 21
45.399999999999999
 31
0.0
  0
LINE
  5
46
100
AcDbEntity
  8
0
  6
CONTINUOUS
 62
               7
100
AcDbLine
 10
163.37
 20
-23.370000000000001
 30
0.0
 11
160.12
 21
-26.620000000000001
 31
0.0
  0
LINE
  5
47
100
AcDbEntity
  8
0
  6
CONTINUOUS
 62
               7
100
AcDbLine
 10
163.37
 20
-26.620000000000001
 30
0.0
 11
160.12
 21
-23.370000000000001
 31
0.0
  0
LINE
  5
48
100
AcDbEntity
  8
0
  6
CONTINUOUS
 62
               7
100
AcDbLine
 10
170.75
 20
-40.600000000000001
 30
0.0
 11
154.75
 21
-42.0
 31
0.0
  0
LINE
  5
49
100
AcDbEntity
  8
0
  6
CONTINUOUS
 62
               7
100
AcDbLine
 10
170.75
 20
40.600000000000001
 30
0.0
 11
170.75
 21
-40.600000000000001
 31
0.0
  0
LINE
  5
4A
100
AcDbEntity
  8
0
  6
CONTINUOUS
 62
               7
100
AcDbLine
 10
170.75
 20
40.600000000000001
 30
0.0
 11
154.75
 21
42.0
 31
0.0
  0
LINE
  5
4B
100
AcDbEntity
  8
0
  6
CONTINUOUS
 62
               7
100
AcDbLine
 10
163.37
 20
26.620000000000001
 30
0.0
 11
160.12
 21
23.370000000000001
 31
0.0
  0
LINE
  5
4C
100
AcDbEntity
  8
0
  6
CONTINUOUS
 62
               7
100
AcDbLine
 10
163.37
 20
23.370000000000001
 30
0.0
 11
160.12
 21
26.620000000000001
 31
0.0
  0
LINE
  5
4D
100
AcDbEntity
  8
0
  6
CONTINUOUS
 62
               7
100
AcDbLine
 10
163.37
 20
1.6200000000000001
 30
0.0
 11
160.12
 21
-1.6200000000000001
 31
0.0
  0
LINE
  5
4E
100
AcDbEntity
  8
0
  6
CONTINUOUS
 62
               7
100
AcDbLine
 10
163.37
 20
-1.6200000000000001
 30
0.0
 11
160.12
 21
1.6200000000000001
 31
0.0
  0
LINE
  5
4F
100
AcDbEntity
  8
0
  6
CONTINUOUS
 62
               7
100
AcDbLine
 10
159.25
 20
47.0
 30
0.0
 11
159.25
 21
41.600000000000001
 31
0.0
  0
LINE
  5
50
100
AcDbEntity
  8
0
  6
CONTINUOUS
 62
               7
100
AcDbLine
 10
164.25
 20
47.0
 30
0.0
 11
164.25
 21
41.159999999999997
 31
0.0
  0
LINE
  5
51
100
AcDbEntity
  8
0
  6
CONTINUOUS
 62
               7
100
AcDbLine
 10
164.25
 20
47.0
 30
0.0
 11
159.25
 21
47.0
 31
0.0
  0
LINE
  5
52
100
AcDbEntity
  8
0
  6
CONTINUOUS
 62
               7
100
AcDbLine
 10
164.25
 20
45.399999999999999
 30
0.0
 11
159.25
 21
45.399999999999999
 31
0.0
  0
LINE
  5
53
100
AcDbEntity
  8
0
  6
CONTINUOUS
 62
               7
100
AcDbLine
 10
41.75
 20
60.399999999999999
 30
0.0
 11
32.75
 21
60.399999999999999
 31
0.0
  0
LINE
  5
54
100
AcDbEntity
  8
0
  6
CONTINUOUS
 62
               7
100
AcDbLine
 10
-5.25
 20
17.5
 30
0.0
 11
-5.25
 21
-17.5
 31
0.0
  0
LINE
  5
55
100
AcDbEntity
  8
0
  6
CONTINUOUS
 62
               2
100
AcDbLine
 10
-12.539999999999999
 20
0.0
 30
0.0
 11
202.28
 21
0.0
 31
0.0
  0
LINE
  5
56
100
AcDbEntity
  8
0
  6
CONTINUOUS
 62
               7
100
AcDbLine
 10
-5.25
 20
17.5
 30
0.0
 11
16.75
 21
17.5
 31
0.0
  0
LINE
  5
57
100
AcDbEntity
  8
0
  6
CONTINUOUS
 62
               7
100
AcDbLine
 10
-5.25
 20
-17.5
 30
0.0
 11
16.75
 21
-17.5
 31
0.0
  0
LINE
  5
58
100
AcDbEntity
  8
0
  6
CONTINUOUS
 62
               7
100
AcDbLine
 10
-5.25
 20
-12.5
 30
0.0
 11
16.75
 21
-12.5
 31
0.0
  0
LINE
  5
59
100
AcDbEntity
  8
0
  6
CONTINUOUS
 62
               7
100
AcDbLine
 10
-5.25
 20
12.5
 30
0.0
 11
16.75
 21
12.5
 31
0.0
  0
LINE
  5
5A
100
AcDbEntity
  8
0
  6
CONTINUOUS
 62
               7
100
AcDbLine
 10
28.25
 20
47.0
 30
0.0
 11
28.25
 21
41.600000000000001
 31
0.0
  0
LINE
  5
5B
100
AcDbEntity
  8
0
  6
CONTINUOUS
 62
               7
100
AcDbLine
 10
11.25
 20
-2.75
 30
0.0
 11
13.75
 21
-2.75
 31
0.0
  0
LINE
  5
5C
100
AcDbEntity
  8
0
  6
CONTINUOUS
 62
               7
100
AcDbLine
 10
11.25
 20
2.75
 30
0.0
 11
13.75
 21
2.75
 31
0.0
  0
LINE
  5
5D
100
AcDbEntity
  8
0
  6
CONTINUOUS
 62
               2
100
AcDbLine
 10
12.5
 20
5.0
 30
0.0
 11
12.5
 21
-5.0
 31
0.0
  0
LINE
  5
5E
100
AcDbEntity
  8
0
  6
CONTINUOUS
 62
               7
100
AcDbLine
 10
-1.25
 20
2.75
 30
0.0
 11
1.25
 21
2.75
 31
0.0
  0
LINE
  5
5F
100
AcDbEntity
  8
0
  6
CONTINUOUS
 62
               2
100
AcDbLine
 10
0.0
 20
5.0
 30
0.0
 11
0.0
 21
-5.0
 31
0.0
  0
LINE
  5
60
100
AcDbEntity
  8
0
  6
CONTINUOUS
 62
               7
100
AcDbLine
 10
-1.25
 20
-2.75
 30
0.0
 11
1.25
 21
-2.75
 31
0.0
  0
LINE
  5
61
100
AcDbEntity
  8
0
  6
CONTINUOUS
 62
               7
100
AcDbLine
 10
192.75
 20
17.5
 30
0.0
 11
192.75
 21
-17.5
 31
0.0
  0
LINE
  5
62
100
AcDbEntity
  8
0
  6
CONTINUOUS
 62
               7
100
AcDbLine
 10
192.75
 20
17.5
 30
0.0
 11
170.75
 21
17.5
 31
0.0
  0
LINE
  5
63
100
AcDbEntity
  8
0
  6
CONTINUOUS
 62
               7
100
AcDbLine
 10
192.75
 20
-17.5
 30
0.0
 11
170.75
 21
-17.5
 31
0.0
  0
LINE
  5
64
100
AcDbEntity
  8
0
  6
CONTINUOUS
 62
               7
100
AcDbLine
 10
192.75
 20
-12.5
 30
0.0
 11
170.75
 21
-12.5
 31
0.0
  0
LINE
  5
65
100
AcDbEntity
  8
0
  6
CONTINUOUS
 62
               7
100
AcDbLine
 10
192.75
 20
12.5
 30
0.0
 11
170.75
 21
12.5
 31
0.0
  0
LINE
  5
66
100
AcDbEntity
  8
0
  6
CONTINUOUS
 62
               7
100
AcDbLine
 10
176.25
 20
-2.75
 30
0.0
 11
173.75
 21
-2.75
 31
0.0
  0
LINE
  5
67
100
AcDbEntity
  8
0
  6
CONTINUOUS
 62
               7
100
AcDbLine
 10
176.25
 20
2.75
 30
0.0
 11
173.75
 21
2.75
 31
0.0
  0
LINE
  5
68
100
AcDbEntity
  8
0
  6
CONTINUOUS
 62
               2
100
AcDbLine
 10
175.0
 20
5.0
 30
0.0
 11
175.0
 21
-5.0
 31
0.0
  0
LINE
  5
69
100
AcDbEntity
  8
0
  6
CONTINUOUS
 62
               7
100
AcDbLine
 10
188.75
 20
2.75
 30
0.0
 11
186.25
 21
2.75
 31
0.0
  0
LINE
  5
6A
100
AcDbEntity
  8
0
  6
CONTINUOUS
 62
               2
100
AcDbLine
 10
187.5
 20
5.0
 30
0.0
 11
187.5
 21
-5.0
 31
0.0
  0
LINE
  5
6B
100
AcDbEntity
  8
0
  6
CONTINUOUS
 62
               7
100
AcDbLine
 10
188.75
 20
-2.75
 30
0.0
 11
186.25
 21
-2.75
 31
0.0
  0
CIRCLE
  5
6C
100
AcDbEntity
  8
0
  6
CONTINUOUS
 62
               7
100
AcDbCircle
 10
25.75
 20
0.0
 30
0.0
 40
4.0
  0
CIRCLE
  5
6D
100
AcDbEntity
  8
0
  6
CONTINUOUS
 62
               7
100
AcDbCircle
 10
25.75
 20
-25.0
 30
0.0
 40
4.0
  0
CIRCLE
  5
6E
100
AcDbEntity
  8
0
  6
CONTINUOUS
 62
               7
100
AcDbCircle
 10
25.75
 20
25.0
 30
0.0
 40
4.0
  0
CIRCLE
  5
6F
100
AcDbEntity
  8
0
  6
CONTINUOUS
 62
               7
100
AcDbCircle
 10
161.75
 20
0.0
 30
0.0
 40
4.0
  0
CIRCLE
  5
70
100
AcDbEntity
  8
0
  6
CONTINUOUS
 62
               7
100
AcDbCircle
 10
161.75
 20
25.0
 30
0.0
 40
4.0
  0
CIRCLE
  5
71
100
AcDbEntity
  8
0
  6
CONTINUOUS
 62
               7
100
AcDbCircle
 10
161.75
 20
-25.0
 30
0.0
 40
4.0
  0
ARC
  5
72
100
AcDbEntity
  8
0
  6
CONTINUOUS
 62
               7
100
AcDbCircle
 10
13.75
 20
0.0
 30
0.0
 40
2.75
100
AcDbArc
 50
270.0
 51
90.0
  0
ARC
  5
73
100
AcDbEntity
  8
0
  6
CONTINUOUS
 62
               7
100
AcDbCircle
 10
11.25
 20
0.0
 30
0.0
 40
2.75
100
AcDbArc
 50
90.0
 51
270.0
  0
ARC
  5
74
100
AcDbEntity
  8
0
  6
CONTINUOUS
 62
               7
100
AcDbCircle
 10
1.25
 20
0.0
 30
0.0
 40
2.75
100
AcDbArc
 50
270.0
 51
90.0
  0
ARC
  5
75
100
AcDbEntity
  8
0
  6
CONTINUOUS
 62
               7
100
AcDbCircle
 10
-1.25
 20
0.0
 30
0.0
 40
2.75
100
AcDbArc
 50
90.0
 51
270.0
  0
ARC
  5
76
100
AcDbEntity
  8
0
  6
CONTINUOUS
 62
               7
100
AcDbCircle
 10
186.25
 20
0.0
 30
0.0
 40
2.75
100
AcDbArc
 50
90.0
 51
270.0
  0
ARC
  5
77
100
AcDbEntity
  8
0
  6
CONTINUOUS
 62
               7
100
AcDbCircle
 10
188.75
 20
0.0
 30
0.0
 40
2.75
100
AcDbArc
 50
270.0
 51
90.0
  0
ARC
  5
78
100
AcDbEntity
  8
0
  6
CONTINUOUS
 62
               7
100
AcDbCircle
 10
173.75
 20
0.0
 30
0.0
 40
2.75
100
AcDbArc
 50
90.0
 51
270.0
  0
ARC
  5
79
100
AcDbEntity
  8
0
  6
CONTINUOUS
 62
               7
100
AcDbCircle
 10
176.25
 20
0.0
 30
0.0
 40
2.75
100
AcDbArc
 50
270.0
 51
90.0
  0
ENDBLK
  5
7A
100
AcDbEntity
  8
0
100
AcDbBlockEnd
  0
BLOCK
  5
7B
100
AcDbEntity
  8
0
100
AcDbBlockBegin
  2
F15MP-2
 70
               0
 10
0.0
 20
0.0
 30
0.0
  3
F15MP-2
  1

  0
LINE
  5
7C
100
AcDbEntity
  8
0
  6
CONTINUOUS
 62
               7
100
AcDbLine
 10
0.0
 20
-39.600000000000001
 30
0.0
 11
0.5
 21
-39.600000000000001
 31
0.0
  0
LINE
  5
7D
100
AcDbEntity
  8
0
  6
CONTINUOUS
 62
               7
100
AcDbLine
 10
15.5
 20
-39.600000000000001
 30
0.0
 11
16.0
 21
-39.600000000000001
 31
0.0
  0
LINE
  5
7E
100
AcDbEntity
  8
0
  6
CONTINUOUS
 62
               7
100
AcDbLine
 10
0.0
 20
-39.600000000000001
 30
0.0
 11
0.0
 21
60.399999999999999
 31
0.0
  0
LINE
  5
7F
100
AcDbEntity
  8
0
  6
CONTINUOUS
 62
               7
100
AcDbLine
 10
16.0
 20
-39.600000000000001
 30
0.0
 11
16.0
 21
60.399999999999999
 31
0.0
  0
LINE
  5
80
100
AcDbEntity
  8
0
  6
CONTINUOUS
 62
               7
100
AcDbLine
 10
12.949999999999999
 20
57.899999999999999
 30
0.0
 11
16.0
 21
57.899999999999999
 31
0.0
  0
LINE
  5
81
100
AcDbEntity
  8
0
  6
CONTINUOUS
 62
               7
100
AcDbLine
 10
13.0
 20
48.0
 30
0.0
 11
13.199999999999999
 21
48.0
 31
0.0
  0
LINE
  5
82
100
AcDbEntity
  8
0
  6
CONTINUOUS
 62
               7
100
AcDbLine
 10
13.199999999999999
 20
48.0
 30
0.0
 11
13.199999999999999
 21
57.899999999999999
 31
0.0
  0
LINE
  5
83
100
AcDbEntity
  8
0
  6
CONTINUOUS
 62
               7
100
AcDbLine
 10
2.7999999999999998
 20
48.0
 30
0.0
 11
2.7999999999999998
 21
57.899999999999999
 31
0.0
  0
LINE
  5
84
100
AcDbEntity
  8
0
  6
CONTINUOUS
 62
               7
100
AcDbLine
 10
2.7999999999999998
 20
48.0
 30
0.0
 11
3.0
 21
48.0
 31
0.0
  0
LINE
  5
85
100
AcDbEntity
  8
0
  6
CONTINUOUS
 62
               7
100
AcDbLine
 10
3.0499999999999998
 20
57.899999999999999
 30
0.0
 11
0.0
 21
57.899999999999999
 31
0.0
  0
LINE
  5
86
100
AcDbEntity
  8
0
  6
CONTINUOUS
 62
               7
100
AcDbLine
 10
0.0
 20
60.399999999999999
 30
0.0
 11
0.0
 21
48.399999999999999
 31
0.0
  0
LINE
  5
87
100
AcDbEntity
  8
0
  6
CONTINUOUS
 62
               7
100
AcDbLine
 10
3.0
 20
20.399999999999999
 30
0.0
 11
13.0
 21
20.399999999999999
 31
0.0
  0
LINE
  5
88
100
AcDbEntity
  8
0
  6
CONTINUOUS
 62
               7
100
AcDbLine
 10
3.0
 20
31.800000000000001
 30
0.0
 11
13.0
 21
31.800000000000001
 31
0.0
  0
LINE
  5
89
100
AcDbEntity
  8
0
  6
CONTINUOUS
 62
               7
100
AcDbLine
 10
3.0
 20
22.399999999999999
 30
0.0
 11
13.0
 21
22.399999999999999
 31
0.0
  0
LINE
  5
8A
100
AcDbEntity
  8
0
  6
CONTINUOUS
 62
               2
100
AcDbLine
 10
5.5
 20
28.600000000000001
 30
0.0
 11
10.5
 21
28.600000000000001
 31
0.0
  0
LINE
  5
8B
100
AcDbEntity
  8
0
  6
CONTINUOUS
 62
               2
100
AcDbLine
 10
8.0
 20
-52.259999999999998
 30
0.0
 11
8.0
 21
68.549999999999997
 31
0.0
  0
LINE
  5
8C
100
AcDbEntity
  8
0
  6
CONTINUOUS
 62
               4
100
AcDbLine
 10
3.0
 20
55.899999999999999
 30
0.0
 11
13.0
 21
55.899999999999999
 31
0.0
  0
LINE
  5
8D
100
AcDbEntity
  8
0
  6
CONTINUOUS
 62
               7
100
AcDbLine
 10
6.0700000000000003
 20
28.300000000000001
 30
0.0
 11
9.9199999999999999
 21
28.300000000000001
 31
0.0
  0
LINE
  5
8E
100
AcDbEntity
  8
0
  6
CONTINUOUS
 62
               7
100
AcDbLine
 10
6.0700000000000003
 20
28.899999999999999
 30
0.0
 11
9.9199999999999999
 21
28.899999999999999
 31
0.0
  0
LINE
  5
8F
100
AcDbEntity
  8
0
  6
CONTINUOUS
 62
               4
100
AcDbLine
 10
3.0499999999999998
 20
55.899999999999999
 30
0.0
 11
3.0499999999999998
 21
64.400000000000006
 31
0.0
  0
LINE
  5
90
100
AcDbEntity
  8
0
  6
CONTINUOUS
 62
               4
100
AcDbLine
 10
12.5
 20
64.900000000000006
 30
0.0
 11
3.5
 21
64.900000000000006
 31
0.0
  0
LINE
  5
91
100
AcDbEntity
  8
0
  6
CONTINUOUS
 62
               4
100
AcDbLine
 10
12.949999999999999
 20
60.399999999999999
 30
0.0
 11
3.0499999999999998
 21
60.399999999999999
 31
0.0
  0
LINE
  5
92
100
AcDbEntity
  8
0
  6
CONTINUOUS
 62
               4
100
AcDbLine
 10
12.949999999999999
 20
55.899999999999999
 30
0.0
 11
12.949999999999999
 21
64.400000000000006
 31
0.0
  0
LINE
  5
93
100
AcDbEntity
  8
0
  6
CONTINUOUS
 62
               7
100
AcDbLine
 10
13.0
 20
20.399999999999999
 30
0.0
 11
13.0
 21
31.800000000000001
 31
0.0
  0
LINE
  5
94
100
AcDbEntity
  8
0
  6
CONTINUOUS
 62
               7
100
AcDbLine
 10
3.0
 20
20.399999999999999
 30
0.0
 11
3.0
 21
31.800000000000001
 31
0.0
  0
LINE
  5
95
100
AcDbEntity
  8
0
  6
CONTINUOUS
 62
               7
100
AcDbLine
 10
15.5
 20
-54.100000000000001
 30
0.0
 11
15.5
 21
-35.399999999999999
 31
0.0
  0
LINE
  5
96
100
AcDbEntity
  8
0
  6
CONTINUOUS
 62
               7
100
AcDbLine
 10
0.5
 20
-54.100000000000001
 30
0.0
 11
0.5
 21
-35.399999999999999
 31
0.0
  0
LINE
  5
97
100
AcDbEntity
  8
0
  6
CONTINUOUS
 62
               7
100
AcDbLine
 10
0.5
 20
10.4
 30
0.0
 11
15.5
 21
10.4
 31
0.0
  0
LINE
  5
98
100
AcDbEntity
  8
0
  6
CONTINUOUS
 62
               7
100
AcDbLine
 10
2.5
 20
20.899999999999999
 30
0.0
 11
0.5
 21
18.899999999999999
 31
0.0
  0
LINE
  5
99
100
AcDbEntity
  8
0
  6
CONTINUOUS
 62
               7
100
AcDbLine
 10
13.5
 20
20.899999999999999
 30
0.0
 11
15.5
 21
18.899999999999999
 31
0.0
  0
LINE
  5
9A
100
AcDbEntity
  8
0
  6
CONTINUOUS
 62
               7
100
AcDbLine
 10
0.5
 20
-35.600000000000001
 30
0.0
 11
15.5
 21
-35.600000000000001
 31
0.0
  0
LINE
  5
9B
100
AcDbEntity
  8
0
  6
CONTINUOUS
 62
               7
100
AcDbLine
 10
0.5
 20
-45.600000000000001
 30
0.0
 11
15.5
 21
-45.600000000000001
 31
0.0
  0
LINE
  5
9C
100
AcDbEntity
  8
0
  6
CONTINUOUS
 62
               7
100
AcDbLine
 10
1.5
 20
-44.600000000000001
 30
0.0
 11
14.5
 21
-44.600000000000001
 31
0.0
  0
LINE
  5
9D
100
AcDbEntity
  8
0
  6
CONTINUOUS
 62
               7
100
AcDbLine
 10
1.5
 20
-36.600000000000001
 30
0.0
 11
14.5
 21
-36.600000000000001
 31
0.0
  0
LINE
  5
9E
100
AcDbEntity
  8
0
  6
CONTINUOUS
 62
               7
100
AcDbLine
 10
14.5
 20
-44.600000000000001
 30
0.0
 11
14.5
 21
-36.600000000000001
 31
0.0
  0
LINE
  5
9F
100
AcDbEntity
  8
0
  6
CONTINUOUS
 62
               7
100
AcDbLine
 10
1.5
 20
-44.600000000000001
 30
0.0
 11
1.5
 21
-36.600000000000001
 31
0.0
  0
LINE
  5
A0
100
AcDbEntity
  8
0
  6
CONTINUOUS
 62
               7
100
AcDbLine
 10
0.5
 20
-35.600000000000001
 30
0.0
 11
1.5
 21
-36.600000000000001
 31
0.0
  0
LINE
  5
A1
100
AcDbEntity
  8
0
  6
CONTINUOUS
 62
               7
100
AcDbLine
 10
15.5
 20
-35.600000000000001
 30
0.0
 11
14.5
 21
-36.600000000000001
 31
0.0
  0
LINE
  5
A2
100
AcDbEntity
  8
0
  6
CONTINUOUS
 62
               7
100
AcDbLine
 10
14.5
 20
-44.600000000000001
 30
0.0
 11
15.5
 21
-45.600000000000001
 31
0.0
  0
LINE
  5
A3
100
AcDbEntity
  8
0
  6
CONTINUOUS
 62
               7
100
AcDbLine
 10
1.5
 20
-44.600000000000001
 30
0.0
 11
0.5
 21
-45.600000000000001
 31
0.0
  0
LINE
  5
A4
100
AcDbEntity
  8
0
  6
CONTINUOUS
 62
               7
100
AcDbLine
 10
1.0
 20
-54.600000000000001
 30
0.0
 11
15.0
 21
-54.600000000000001
 31
0.0
  0
LINE
  5
A5
100
AcDbEntity
  8
0
  6
CONTINUOUS
 62
               7
100
AcDbLine
 10
0.5
 20
10.199999999999999
 30
0.0
 11
0.5
 21
18.899999999999999
 31
0.0
  0
LINE
  5
A6
100
AcDbEntity
  8
0
  6
CONTINUOUS
 62
               7
100
AcDbLine
 10
15.5
 20
10.199999999999999
 30
0.0
 11
15.5
 21
18.899999999999999
 31
0.0
  0
LINE
  5
A7
100
AcDbEntity
  8
0
  6
CONTINUOUS
 62
               7
100
AcDbLine
 10
2.5
 20
20.899999999999999
 30
0.0
 11
3.0
 21
20.899999999999999
 31
0.0
  0
LINE
  5
A8
100
AcDbEntity
  8
0
  6
CONTINUOUS
 62
               7
100
AcDbLine
 10
13.0
 20
20.899999999999999
 30
0.0
 11
13.5
 21
20.899999999999999
 31
0.0
  0
LINE
  5
A9
100
AcDbEntity
  8
0
  6
CONTINUOUS
 62
               4
100
AcDbLine
 10
3.0
 20
31.800000000000001
 30
0.0
 11
3.0
 21
55.899999999999999
 31
0.0
  0
LINE
  5
AA
100
AcDbEntity
  8
0
  6
CONTINUOUS
 62
               4
100
AcDbLine
 10
13.0
 20
31.800000000000001
 30
0.0
 11
13.0
 21
55.899999999999999
 31
0.0
  0
LINE
  5
AB
100
AcDbEntity
  8
0
  6
CONTINUOUS
 62
               7
100
AcDbLine
 10
16.0
 20
60.399999999999999
 30
0.0
 11
12.949999999999999
 21
60.399999999999999
 31
0.0
  0
LINE
  5
AC
100
AcDbEntity
  8
0
  6
CONTINUOUS
 62
               4
100
AcDbLine
 10
13.5
 20
6.5999999999999996
 30
0.0
 11
15.5
 21
6.5999999999999996
 31
0.0
  0
LINE
  5
AD
100
AcDbEntity
  8
0
  6
CONTINUOUS
 62
               4
100
AcDbLine
 10
2.5
 20
-31.800000000000001
 30
0.0
 11
0.5
 21
-31.800000000000001
 31
0.0
  0
LINE
  5
AE
100
AcDbEntity
  8
0
  6
CONTINUOUS
 62
               4
100
AcDbLine
 10
2.5
 20
-26.399999999999999
 30
0.0
 11
0.5
 21
-26.399999999999999
 31
0.0
  0
LINE
  5
AF
100
AcDbEntity
  8
0
  6
CONTINUOUS
 62
               4
100
AcDbLine
 10
13.5
 20
1.2
 30
0.0
 11
15.5
 21
1.2
 31
0.0
  0
LINE
  5
B0
100
AcDbEntity
  8
0
  6
CONTINUOUS
 62
               4
100
AcDbLine
 10
15.5
 20
10.199999999999999
 30
0.0
 11
0.5
 21
10.199999999999999
 31
0.0
  0
LINE
  5
B1
100
AcDbEntity
  8
0
  6
CONTINUOUS
 62
               4
100
AcDbLine
 10
15.5
 20
-35.399999999999999
 30
0.0
 11
0.5
 21
-35.399999999999999
 31
0.0
  0
LINE
  5
B2
100
AcDbEntity
  8
0
  6
CONTINUOUS
 62
               4
100
AcDbLine
 10
2.5
 20
3.2000000000000002
 30
0.0
 11
0.5
 21
3.2000000000000002
 31
0.0
  0
LINE
  5
B3
100
AcDbEntity
  8
0
  6
CONTINUOUS
 62
               4
100
AcDbLine
 10
13.5
 20
-28.399999999999999
 30
0.0
 11
15.5
 21
-28.399999999999999
 31
0.0
  0
LINE
  5
B4
100
AcDbEntity
  8
0
  6
CONTINUOUS
 62
               4
100
AcDbLine
 10
10.800000000000001
 20
-31.100000000000001
 30
0.0
 11
10.800000000000001
 21
-35.399999999999999
 31
0.0
  0
LINE
  5
B5
100
AcDbEntity
  8
0
  6
CONTINUOUS
 62
               4
100
AcDbLine
 10
5.2000000000000002
 20
10.199999999999999
 30
0.0
 11
5.2000000000000002
 21
5.9000000000000004
 31
0.0
  0
LINE
  5
B6
100
AcDbEntity
  8
0
  6
CONTINUOUS
 62
               4
100
AcDbLine
 10
10.800000000000001
 20
-33.399999999999999
 30
0.0
 11
0.5
 21
-33.399999999999999
 31
0.0
  0
LINE
  5
B7
100
AcDbEntity
  8
0
  6
CONTINUOUS
 62
               4
100
AcDbLine
 10
15.5
 20
8.1999999999999993
 30
0.0
 11
5.2000000000000002
 21
8.1999999999999993
 31
0.0
  0
LINE
  5
B8
100
AcDbEntity
  8
0
  6
CONTINUOUS
 62
               4
100
AcDbLine
 10
3.4100000000000001
 20
4.9800000000000004
 30
0.0
 11
1.5800000000000001
 21
6.8099999999999996
 31
0.0
  0
LINE
  5
B9
100
AcDbEntity
  8
0
  6
CONTINUOUS
 62
               4
100
AcDbLine
 10
1.5800000000000001
 20
4.9800000000000004
 30
0.0
 11
3.4100000000000001
 21
6.8099999999999996
 31
0.0
  0
LINE
  5
BA
100
AcDbEntity
  8
0
  6
CONTINUOUS
 62
               4
100
AcDbLine
 10
15.5
 20
-30.059999999999999
 30
0.0
 11
15.5
 21
1.2
 31
0.0
  0
LINE
  5
BB
100
AcDbEntity
  8
0
  6
CONTINUOUS
 62
               4
100
AcDbLine
 10
12.58
 20
-32.009999999999998
 30
0.0
 11
14.41
 21
-30.18
 31
0.0
  0
LINE
  5
BC
100
AcDbEntity
  8
0
  6
CONTINUOUS
 62
               4
100
AcDbLine
 10
14.41
 20
-32.009999999999998
 30
0.0
 11
12.58
 21
-30.18
 31
0.0
  0
LINE
  5
BD
100
AcDbEntity
  8
0
  6
CONTINUOUS
 62
               4
100
AcDbLine
 10
0.5
 20
-26.399999999999999
 30
0.0
 11
0.5
 21
4.8600000000000003
 31
0.0
  0
LINE
  5
BE
100
AcDbEntity
  8
0
  6
CONTINUOUS
 62
               4
100
AcDbLine
 10
15.5
 20
-35.399999999999999
 30
0.0
 11
15.5
 21
-32.130000000000003
 31
0.0
  0
LINE
  5
BF
100
AcDbEntity
  8
0
  6
CONTINUOUS
 62
               4
100
AcDbLine
 10
0.5
 20
-35.399999999999999
 30
0.0
 11
0.5
 21
-31.800000000000001
 31
0.0
  0
LINE
  5
C0
100
AcDbEntity
  8
0
  6
CONTINUOUS
 62
               4
100
AcDbLine
 10
0.5
 20
6.9299999999999997
 30
0.0
 11
0.5
 21
10.199999999999999
 31
0.0
  0
LINE
  5
C1
100
AcDbEntity
  8
0
  6
CONTINUOUS
 62
               4
100
AcDbLine
 10
15.5
 20
6.5999999999999996
 30
0.0
 11
15.5
 21
10.199999999999999
 31
0.0
  0
LINE
  5
C2
100
AcDbEntity
  8
0
  6
CONTINUOUS
 62
             200
100
AcDbLine
 10
-1.03
 20
-20.350000000000001
 30
0.0
 11
16.949999999999999
 21
-20.350000000000001
 31
0.0
  0
LINE
  5
C3
100
AcDbEntity
  8
0
  6
CONTINUOUS
 62
             200
100
AcDbLine
 10
-1.03
 20
-4.8499999999999996
 30
0.0
 11
16.949999999999999
 21
-4.8499999999999996
 31
0.0
  0
LINE
  5
C4
100
AcDbEntity
  8
0
  6
CONTINUOUS
 62
               4
100
AcDbLine
 10
3.4100000000000001
 20
-30.010000000000002
 30
0.0
 11
1.5800000000000001
 21
-28.18
 31
0.0
  0
LINE
  5
C5
100
AcDbEntity
  8
0
  6
CONTINUOUS
 62
               4
100
AcDbLine
 10
1.5800000000000001
 20
-30.010000000000002
 30
0.0
 11
3.4100000000000001
 21
-28.18
 31
0.0
  0
LINE
  5
C6
100
AcDbEntity
  8
0
  6
CONTINUOUS
 62
               4
100
AcDbLine
 10
12.58
 20
2.98
 30
0.0
 11
14.41
 21
4.8099999999999996
 31
0.0
  0
LINE
  5
C7
100
AcDbEntity
  8
0
  6
CONTINUOUS
 62
               4
100
AcDbLine
 10
14.41
 20
2.98
 30
0.0
 11
12.58
 21
4.8099999999999996
 31
0.0
  0
CIRCLE
  5
C8
100
AcDbEntity
  8
0
  6
CONTINUOUS
 62
               7
100
AcDbCircle
 10
8.0
 20
28.599990844726562
 30
0.0
 40
1.9499998092651367
  0
ARC
  5
C9
100
AcDbEntity
  8
0
  6
CONTINUOUS
 62
               4
100
AcDbCircle
 10
12.450003051673994
 20
64.400003051673991
 30
0.0
 40
0.4999969483353183
100
AcDbArc
 50
359.99965030178521
 51
90.00034969821499
  0
ARC
  5
CA
100
AcDbEntity
  8
0
  6
CONTINUOUS
 62
               4
100
AcDbCircle
 10
3.5499893188499838
 20
64.400010681150007
 30
0.0
 40
0.4999893189640733
100
AcDbArc
 50
89.998776004220304
 51
180.0012239957797
  0
ARC
  5
CB
100
AcDbEntity
  8
0
  6
CONTINUOUS
 62
               7
100
AcDbCircle
 10
1.0000122071802622
 20
-54.099987792819739
 30
0.0
 40
0.5000122073292739
100
AcDbArc
 50
180.00139880566633
 51
269.99860119433367
  0
ARC
  5
CC
100
AcDbEntity
  8
0
  6
CONTINUOUS
 62
               7
100
AcDbCircle
 10
14.999987792819738
 20
-54.099987792819739
 30
0.0
 40
0.5000122073292739
100
AcDbArc
 50
270.00139880566633
 51
359.99860119433367
  0
ARC
  5
CD
100
AcDbEntity
  8
0
  6
CONTINUOUS
 62
               4
100
AcDbCircle
 10
13.5
 20
3.8999999999999999
 30
0.0
 40
2.6999999999999997
100
AcDbArc
 50
90.0
 51
270.0
  0
ARC
  5
CE
100
AcDbEntity
  8
0
  6
CONTINUOUS
 62
               4
100
AcDbCircle
 10
2.5
 20
-29.100000000000001
 30
0.0
 40
2.7000000000000011
100
AcDbArc
 50
270.0
 51
90.0
  0
ARC
  5
CF
100
AcDbEntity
  8
0
  6
CONTINUOUS
 62
               4
100
AcDbCircle
 10
2.4999992370604391
 20
5.9000007629395617
 30
0.0
 40
2.700000762939669
100
AcDbArc
 50
270.00001619007571
 51
359.99998380992423
  0
ARC
  5
D0
100
AcDbEntity
  8
0
  6
CONTINUOUS
 62
               4
100
AcDbCircle
 10
13.499995422367162
 20
-31.099995422367162
 30
0.0
 40
2.6999954223710425
100
AcDbArc
 50
89.999902859449463
 51
180.00009714055057
  0
CIRCLE
  5
D1
100
AcDbEntity
  8
0
  6
CONTINUOUS
 62
               4
100
AcDbCircle
 10
2.5
 20
5.8999862670898437
 30
0.0
 40
2.25
  0
CIRCLE
  5
D2
100
AcDbEntity
  8
0
  6
CONTINUOUS
 62
               4
100
AcDbCircle
 10
13.5
 20
-31.099990844726562
 30
0.0
 40
2.25
  0
CIRCLE
  5
D3
100
AcDbEntity
  8
0
  6
CONTINUOUS
 62
             200
100
AcDbCircle
 10
8.0
 20
-20.349990844726563
 30
0.0
 40
5.0
  0
CIRCLE
  5
D4
100
AcDbEntity
  8
0
  6
CONTINUOUS
 62
               4
100
AcDbCircle
 10
8.0
 20
-20.349990844726563
 30
0.0
 40
4.25
  0
CIRCLE
  5
D5
100
AcDbEntity
  8
0
  6
CONTINUOUS
 62
             200
100
AcDbCircle
 10
8.0
 20
-4.8499984741210937
 30
0.0
 40
5.0
  0
CIRCLE
  5
D6
100
AcDbEntity
  8
0
  6
CONTINUOUS
 62
               4
100
AcDbCircle
 10
8.0
 20
-4.8499984741210937
 30
0.0
 40
4.25
  0
CIRCLE
  5
D7
100
AcDbEntity
  8
0
  6
CONTINUOUS
 62
               4
100
AcDbCircle
 10
7.9950000000000001
 20
-4.8499971133030071
 30
0.0
 40
7.4916193359944279
  0
CIRCLE
  5
D8
100
AcDbEntity
  8
0
  6
CONTINUOUS
 62
               4
100
AcDbCircle
 10
7.9950000000000001
 20
-20.349992204808892
 30
0.0
 40
7.4997686355594739
  0
CIRCLE
  5
D9
100
AcDbEntity
  8
0
  6
CONTINUOUS
 62
               4
100
AcDbCircle
 10
2.5000152587890625
 20
-29.0999755859375
 30
0.0
 40
2.25
  0
CIRCLE
  5
DA
100
AcDbEntity
  8
0
  6
CONTINUOUS
 62
               4
100
AcDbCircle
 10
13.500015258789063
 20
3.9000167846679687
 30
0.0
 40
2.25
  0
LINE
  5
DB
100
AcDbEntity
  8
0
  6
CONTINUOUS
 62
               7
100
AcDbLine
 10
3.0500000000000007
 20
60.399999999999999
 30
0.0
 11
0.0
 21
60.399999999999999
 31
0.0
  0
ENDBLK
  5
DC
100
AcDbEntity
  8
0
100
AcDbBlockEnd
  0
BLOCK
  5
DD
100
AcDbEntity
  8
0
100
AcDbBlockBegin
  2
F15MP-3
 70
               0
 10
0.0
 20
0.0
 30
0.0
  3
F15MP-3
  1

  0
LINE
  5
DE
100
AcDbEntity
  8
0
  6
CONTINUOUS
 62
               2
100
AcDbLine
 10
78.0
 20
28.600000000000001
 30
0.0
 11
75.299999999999997
 21
28.600000000000001
 31
0.0
  0
LINE
  5
DF
100
AcDbEntity
  8
0
  6
CONTINUOUS
 62
               7
100
AcDbLine
 10
76.0
 20
20.399999999999999
 30
0.0
 11
76.0
 21
22.399999999999999
 31
0.0
  0
LINE
  5
E0
100
AcDbEntity
  8
0
  6
CONTINUOUS
 62
               7
100
AcDbLine
 10
77.0
 20
26.649999999999999
 30
0.0
 11
77.0
 21
28.300000000000001
 31
0.0
  0
LINE
  5
E1
100
AcDbEntity
  8
0
  6
CONTINUOUS
 62
               7
100
AcDbLine
 10
77.0
 20
26.649999999999999
 30
0.0
 11
76.0
 21
26.649999999999999
 31
0.0
  0
LINE
  5
E2
100
AcDbEntity
  8
0
  6
CONTINUOUS
 62
               7
100
AcDbLine
 10
77.0
 20
30.550000000000001
 30
0.0
 11
76.0
 21
30.550000000000001
 31
0.0
  0
LINE
  5
E3
100
AcDbEntity
  8
0
  6
CONTINUOUS
 62
               7
100
AcDbLine
 10
76.400000000000006
 20
28.300000000000001
 30
0.0
 11
76.400000000000006
 21
28.899999999999999
 31
0.0
  0
LINE
  5
E4
100
AcDbEntity
  8
0
  6
CONTINUOUS
 62
               7
100
AcDbLine
 10
77.0
 20
28.300000000000001
 30
0.0
 11
76.400000000000006
 21
28.300000000000001
 31
0.0
  0
LINE
  5
E5
100
AcDbEntity
  8
0
  6
CONTINUOUS
 62
               7
100
AcDbLine
 10
77.0
 20
28.899999999999999
 30
0.0
 11
76.400000000000006
 21
28.899999999999999
 31
0.0
  0
LINE
  5
E6
100
AcDbEntity
  8
0
  6
CONTINUOUS
 62
               7
100
AcDbLine
 10
77.0
 20
28.899999999999999
 30
0.0
 11
77.0
 21
30.550000000000001
 31
0.0
  0
LINE
  5
E7
100
AcDbEntity
  8
0
  6
CONTINUOUS
 62
               7
100
AcDbLine
 10
49.0
 20
31.899999999999999
 30
0.0
 11
76.0
 21
31.899999999999999
 31
0.0
  0
LINE
  5
E8
100
AcDbEntity
  8
0
  6
CONTINUOUS
 62
               7
100
AcDbLine
 10
76.0
 20
10.4
 30
0.0
 11
49.0
 21
10.4
 31
0.0
  0
LINE
  5
E9
100
AcDbEntity
  8
0
  6
CONTINUOUS
 62
               7
100
AcDbLine
 10
80.0
 20
-35.600000000000001
 30
0.0
 11
49.0
 21
-35.600000000000001
 31
0.0
  0
LINE
  5
EA
100
AcDbEntity
  8
0
  6
CONTINUOUS
 62
               7
100
AcDbLine
 10
76.0
 20
-35.600000000000001
 30
0.0
 11
76.0
 21
31.899999999999999
 31
0.0
  0
LINE
  5
EB
100
AcDbEntity
  8
0
  6
CONTINUOUS
 62
               7
100
AcDbLine
 10
79.0
 20
-43.700000000000003
 30
0.0
 11
79.0
 21
-37.5
 31
0.0
  0
LINE
  5
EC
100
AcDbEntity
  8
0
  6
CONTINUOUS
 62
               7
100
AcDbLine
 10
81.0
 20
-44.600000000000001
 30
0.0
 11
81.0
 21
-36.600000000000001
 31
0.0
  0
LINE
  5
ED
100
AcDbEntity
  8
0
  6
CONTINUOUS
 62
               7
100
AcDbLine
 10
80.0
 20
-35.600000000000001
 30
0.0
 11
81.0
 21
-36.600000000000001
 31
0.0
  0
LINE
  5
EE
100
AcDbEntity
  8
0
  6
CONTINUOUS
 62
               7
100
AcDbLine
 10
80.0
 20
-45.600000000000001
 30
0.0
 11
81.0
 21
-44.600000000000001
 31
0.0
  0
LINE
  5
EF
100
AcDbEntity
  8
0
  6
CONTINUOUS
 62
               7
100
AcDbLine
 10
79.799999999999997
 20
-43.700000000000003
 30
0.0
 11
79.799999999999997
 21
-37.5
 31
0.0
  0
LINE
  5
F0
100
AcDbEntity
  8
0
  6
CONTINUOUS
 62
               7
100
AcDbLine
 10
80.0
 20
-45.600000000000001
 30
0.0
 11
49.0
 21
-45.600000000000001
 31
0.0
  0
LINE
  5
F1
100
AcDbEntity
  8
0
  6
CONTINUOUS
 62
               7
100
AcDbLine
 10
79.0
 20
-54.600000000000001
 30
0.0
 11
49.0
 21
-54.600000000000001
 31
0.0
  0
LINE
  5
F2
100
AcDbEntity
  8
0
  6
CONTINUOUS
 62
               7
100
AcDbLine
 10
79.0
 20
-54.600000000000001
 30
0.0
 11
79.0
 21
-45.600000000000001
 31
0.0
  0
LINE
  5
F3
100
AcDbEntity
  8
0
  6
CONTINUOUS
 62
               7
100
AcDbLine
 10
75.75
 20
-52.600000000000001
 30
0.0
 11
75.75
 21
-52.100000000000001
 31
0.0
  0
LINE
  5
F4
100
AcDbEntity
  8
0
  6
CONTINUOUS
 62
               7
100
AcDbLine
 10
70.25
 20
-52.600000000000001
 30
0.0
 11
70.25
 21
-52.100000000000001
 31
0.0
  0
LINE
  5
F5
100
AcDbEntity
  8
0
  6
CONTINUOUS
 62
               7
100
AcDbLine
 10
74.25
 20
-54.100000000000001
 30
0.0
 11
71.75
 21
-54.100000000000001
 31
0.0
  0
LINE
  5
F6
100
AcDbEntity
  8
0
  6
CONTINUOUS
 62
               7
100
AcDbLine
 10
77.099999999999994
 20
-45.600000000000001
 30
0.0
 11
77.099999999999994
 21
-43.700000000000003
 31
0.0
  0
LINE
  5
F7
100
AcDbEntity
  8
0
  6
CONTINUOUS
 62
               7
100
AcDbLine
 10
79.799999999999997
 20
-37.5
 30
0.0
 11
77.099999999999994
 21
-37.5
 31
0.0
  0
LINE
  5
F8
100
AcDbEntity
  8
0
  6
CONTINUOUS
 62
               7
100
AcDbLine
 10
79.799999999999997
 20
-43.700000000000003
 30
0.0
 11
77.099999999999994
 21
-43.700000000000003
 31
0.0
  0
LINE
  5
F9
100
AcDbEntity
  8
0
  6
CONTINUOUS
 62
               7
100
AcDbLine
 10
77.099999999999994
 20
-37.5
 30
0.0
 11
77.099999999999994
 21
-35.600000000000001
 31
0.0
  0
LINE
  5
FA
100
AcDbEntity
  8
0
  6
CONTINUOUS
 62
               7
100
AcDbLine
 10
80.0
 20
-45.600000000000001
 30
0.0
 11
80.0
 21
-35.600000000000001
 31
0.0
  0
LINE
  5
FB
100
AcDbEntity
  8
0
  6
CONTINUOUS
 62
               7
100
AcDbLine
 10
76.0
 20
18.899999999999999
 30
0.0
 11
49.0
 21
18.899999999999999
 31
0.0
  0
LINE
  5
FC
100
AcDbEntity
  8
0
  6
CONTINUOUS
 62
               7
100
AcDbLine
 10
69.799999999999997
 20
-54.600000000000001
 30
0.0
 11
69.799999999999997
 21
-52.100000000000001
 31
0.0
  0
LINE
  5
FD
100
AcDbEntity
  8
0
  6
CONTINUOUS
 62
               7
100
AcDbLine
 10
76.200000000000003
 20
-54.600000000000001
 30
0.0
 11
76.200000000000003
 21
-52.100000000000001
 31
0.0
  0
LINE
  5
FE
100
AcDbEntity
  8
0
  6
CONTINUOUS
 62
               7
100
AcDbLine
 10
76.200000000000003
 20
-52.100000000000001
 30
0.0
 11
69.799999999999997
 21
-52.100000000000001
 31
0.0
  0
LINE
  5
FF
100
AcDbEntity
  8
0
  6
CONTINUOUS
 62
               7
100
AcDbLine
 10
76.0
 20
20.899999999999999
 30
0.0
 11
49.0
 21
20.899999999999999
 31
0.0
  0
LINE
  5
100
100
AcDbEntity
  8
0
  6
CONTINUOUS
 62
               7
100
AcDbLine
 10
49.0
 20
-43.100000000000001
 30
0.0
 11
49.0
 21
-54.600000000000001
 31
0.0
  0
ARC
  5
101
100
AcDbEntity
  8
0
  6
CONTINUOUS
 62
               7
100
AcDbCircle
 10
74.249987792856984
 20
-52.599987792856993
 30
0.0
 40
1.5000122071926805
100
AcDbArc
 50
270.00046627472187
 51
359.99953372527835
  0
ARC
  5
102
100
AcDbEntity
  8
0
  6
CONTINUOUS
 62
               7
100
AcDbCircle
 10
71.749981689502803
 20
-52.600018310497205
 30
0.0
 40
1.4999816896145557
100
AcDbArc
 50
179.99930058198854
 51
270.00069941801121
  0
ARC
  5
103
100
AcDbEntity
  8
0
  6
CONTINUOUS
 62
               7
100
AcDbCircle
 10
51.995000000000005
 20
21.899980607964604
 30
0.0
 40
2.5033949381400551
100
AcDbArc
 50
203.54378734154827
 51
336.45621265845165
  0
LINE
  5
104
100
AcDbEntity
  8
0
  6
CONTINUOUS
 62
               4
100
AcDbLine
 10
76.0
 20
55.899999913736956
 30
0.0
 11
76.0
 21
31.899999913736956
 31
0.0
  0
LINE
  5
105
100
AcDbEntity
  8
0
  6
CONTINUOUS
 62
               7
100
AcDbLine
 10
76.0
 20
31.899999999999999
 30
0.0
 11
49.000000000000007
 21
31.899999999999999
 31
0.0
  0
LINE
  5
106
100
AcDbEntity
  8
0
  6
CONTINUOUS
 62
               4
100
AcDbLine
 10
50.399999999999991
 20
48.899999913736956
 30
0.0
 11
50.399999999999991
 21
57.39999990944542
 31
0.0
  0
LINE
  5
107
100
AcDbEntity
  8
0
  6
CONTINUOUS
 62
               4
100
AcDbLine
 10
49.0
 20
57.399999913736956
 30
0.0
 11
50.399999999999991
 21
57.399999913736956
 31
0.0
  0
LINE
  5
108
100
AcDbEntity
  8
0
  6
CONTINUOUS
 62
               4
100
AcDbLine
 10
49.0
 20
48.899999913736956
 30
0.0
 11
50.399999999999991
 21
48.899999913736956
 31
0.0
  0
LINE
  5
109
100
AcDbEntity
  8
0
  6
CONTINUOUS
 62
               4
100
AcDbLine
 10
76.0
 20
55.899999913736956
 30
0.0
 11
50.399999999999991
 21
55.899999913736956
 31
0.0
  0
LINE
  5
10A
100
AcDbEntity
  8
0
  6
CONTINUOUS
 62
               4
100
AcDbLine
 10
63.295000000000009
 20
55.899999913736956
 30
0.0
 11
61.795000000000009
 21
55.899999913736956
 31
0.0
  0
LINE
  5
10B
100
AcDbEntity
  8
0
  6
CONTINUOUS
 62
               4
100
AcDbLine
 10
50.5
 20
57.49999991373695
 30
0.0
 11
49.0
 21
57.49999991373695
 31
0.0
  0
ARC
  5
10C
100
AcDbEntity
  8
0
  6
CONTINUOUS
 62
               4
100
AcDbCircle
 10
46.498459549981717
 20
64.401540363755231
 30
0.0
 40
0.4984619302958243
100
AcDbArc
 50
89.822932465398097
 51
180.17706753460234
  0
LINE
  5
10D
100
AcDbEntity
  8
0
  6
CONTINUOUS
 62
               4
100
AcDbLine
 10
45.999999999999986
 20
64.399999913736963
 30
0.0
 11
45.999999999999986
 21
60.399999913736963
 31
0.0
  0
LINE
  5
10E
100
AcDbEntity
  8
0
  6
CONTINUOUS
 62
               4
100
AcDbLine
 10
50.5
 20
57.49999991373695
 30
0.0
 11
50.5
 21
55.899999913736956
 31
0.0
  0
ARC
  5
10F
100
AcDbEntity
  8
0
  6
CONTINUOUS
 62
               4
100
AcDbCircle
 10
74.501123948313889
 20
60.079394315853982
 30
0.0
 40
1.4988865337462252
100
AcDbArc
 50
0.2142776266259147
 51
24.039904443234679
  0
ARC
  5
110
100
AcDbEntity
  8
0
  6
CONTINUOUS
 62
               4
100
AcDbCircle
 10
73.675687863874501
 20
64.402671025814556
 30
0.0
 40
0.4973293636201366
100
AcDbArc
 50
24.005903588636848
 51
90.079246697133883
  0
LINE
  5
111
100
AcDbEntity
  8
0
  6
CONTINUOUS
 62
               4
100
AcDbLine
 10
74.129999999999995
 20
64.604999913736947
 30
0.0
 11
75.870000000000005
 21
60.689999913736948
 31
0.0
  0
LINE
  5
112
100
AcDbEntity
  8
0
  6
CONTINUOUS
 62
               4
100
AcDbLine
 10
73.674999999999997
 20
64.899999913736963
 30
0.0
 11
46.496919099966703
 21
64.899999913736963
 31
0.0
  0
LINE
  5
113
100
AcDbEntity
  8
0
  6
CONTINUOUS
 62
               4
100
AcDbLine
 10
76.0
 20
60.084999913736929
 30
0.0
 11
76.0
 21
55.899999913736956
 31
0.0
  0
LINE
  5
114
100
AcDbEntity
  8
0
  6
CONTINUOUS
 62
               4
100
AcDbLine
 10
81.0
 20
-20.350000000000001
 30
0.0
 11
83.0
 21
-20.350000000000001
 31
0.0
  0
LINE
  5
115
100
AcDbEntity
  8
0
  6
CONTINUOUS
 62
               4
100
AcDbLine
 10
81.0
 20
-4.8499847412109389
 30
0.0
 11
83.0
 21
-4.8499847412109389
 31
0.0
  0
LINE
  5
116
100
AcDbEntity
  8
0
  6
CONTINUOUS
 62
               4
100
AcDbLine
 10
83.0
 20
-20.350000000000001
 30
0.0
 11
83.0
 21
-33.275704956054689
 31
0.0
  0
LINE
  5
117
100
AcDbEntity
  8
0
  6
CONTINUOUS
 62
               4
100
AcDbLine
 10
81.0
 20
-4.8499847412109389
 30
0.0
 11
81.0
 21
-20.350000000000001
 31
0.0
  0
LINE
  5
118
100
AcDbEntity
  8
0
  6
CONTINUOUS
 62
               4
100
AcDbLine
 10
86.0
 20
-11.599984741210939
 30
0.0
 11
86.0
 21
1.9000152587890611
 31
0.0
  0
ARC
  5
119
100
AcDbEntity
  8
0
  6
CONTINUOUS
 62
               4
100
AcDbCircle
 10
76.800003051757813
 20
-28.350000000000001
 30
0.0
 40
1.5
100
AcDbArc
 50
0.0000409811350201
 51
89.999982013910653
  0
ARC
  5
11A
100
AcDbEntity
  8
0
  6
CONTINUOUS
 62
               4
100
AcDbCircle
 10
76.800003051757813
 20
-29.850000000000001
 30
0.0
 40
1.5
100
AcDbArc
 50
270.00007262760272
 51
0.0000409811350201
  0
ARC
  5
11B
100
AcDbEntity
  8
0
  6
CONTINUOUS
 62
               4
100
AcDbCircle
 10
79.199996948242187
 20
5.1499999999999986
 30
0.0
 40
1.5
100
AcDbArc
 50
270.00007262760272
 51
0.0000409811350201
  0
ARC
  5
11C
100
AcDbEntity
  8
0
  6
CONTINUOUS
 62
               4
100
AcDbCircle
 10
79.199996948242187
 20
6.6499999999999986
 30
0.0
 40
1.5
100
AcDbArc
 50
0.0000409811350201
 51
89.999982013910653
  0
ARC
  5
11D
100
AcDbEntity
  8
0
  6
CONTINUOUS
 62
               4
100
AcDbCircle
 10
80.875747680664063
 20
9.9000305175781236
 30
0.0
 40
0.300000011920929
100
AcDbArc
 50
44.999936365441968
 51
89.999927372397295
  0
ARC
  5
11E
100
AcDbEntity
  8
0
  6
CONTINUOUS
 62
               4
100
AcDbCircle
 10
82.70001220703125
 20
8.0757659912109361
 30
0.0
 40
0.300000011920929
100
AcDbArc
 50
359.99997267924334
 51
44.999936365441968
  0
ARC
  5
11F
100
AcDbEntity
  8
0
  6
CONTINUOUS
 62
               4
100
AcDbCircle
 10
80.875747680664063
 20
-35.099969482421876
 30
0.0
 40
0.300000011920929
100
AcDbArc
 50
269.99996334457597
 51
314.9999543515313
  0
ARC
  5
120
100
AcDbEntity
  8
0
  6
CONTINUOUS
 62
               4
100
AcDbCircle
 10
82.699996948242188
 20
-33.275704956054689
 30
0.0
 40
0.300000011920929
100
AcDbArc
 50
315.00000899304467
 51
359.99997267924334
  0
LINE
  5
121
100
AcDbEntity
  8
0
  6
CONTINUOUS
 62
               4
100
AcDbLine
 10
76.600006103515625
 20
-31.599984741210939
 30
0.0
 11
76.0
 21
-31.599984741210939
 31
0.0
  0
LINE
  5
122
100
AcDbEntity
  8
0
  6
CONTINUOUS
 62
               4
100
AcDbLine
 10
76.600006103515625
 20
-26.599984741210939
 30
0.0
 11
76.0
 21
-26.599984741210939
 31
0.0
  0
LINE
  5
123
100
AcDbEntity
  8
0
  6
CONTINUOUS
 62
               4
100
AcDbLine
 10
76.600006103515625
 20
-31.599984741210939
 30
0.0
 11
76.600006103515625
 21
-26.599984741210939
 31
0.0
  0
LINE
  5
124
100
AcDbEntity
  8
0
  6
CONTINUOUS
 62
               4
100
AcDbLine
 10
78.300003051757812
 20
-28.350000000000001
 30
0.0
 11
78.300003051757812
 21
-29.850000000000001
 31
0.0
  0
LINE
  5
125
100
AcDbEntity
  8
0
  6
CONTINUOUS
 62
               4
100
AcDbLine
 10
76.800003051757813
 20
-26.849984741210939
 30
0.0
 11
76.600006103515625
 21
-26.849984741210939
 31
0.0
  0
LINE
  5
126
100
AcDbEntity
  8
0
  6
CONTINUOUS
 62
               4
100
AcDbLine
 10
76.800003051757813
 20
-31.349984741210939
 30
0.0
 11
76.600006103515625
 21
-31.349984741210939
 31
0.0
  0
LINE
  5
127
100
AcDbEntity
  8
0
  6
CONTINUOUS
 62
             200
100
AcDbLine
 10
79.820968627929688
 20
-20.350000000000001
 30
0.0
 11
87.578445434570313
 21
-20.350000000000001
 31
0.0
  0
LINE
  5
128
100
AcDbEntity
  8
0
  6
CONTINUOUS
 62
               4
100
AcDbLine
 10
86.0
 20
-27.100000000000001
 30
0.0
 11
86.0
 21
-13.600000000000001
 31
0.0
  0
LINE
  5
129
100
AcDbEntity
  8
0
  6
CONTINUOUS
 62
             200
100
AcDbLine
 10
79.820968627929688
 20
-4.8499847412109389
 30
0.0
 11
87.578445434570313
 21
-4.8499847412109389
 31
0.0
  0
LINE
  5
12A
100
AcDbEntity
  8
0
  6
CONTINUOUS
 62
               4
100
AcDbLine
 10
79.0
 20
3.2000183105468736
 30
0.0
 11
79.0
 21
10.173086547851561
 31
0.0
  0
LINE
  5
12B
100
AcDbEntity
  8
0
  6
CONTINUOUS
 62
               4
100
AcDbLine
 10
79.199996948242187
 20
3.6500152587890611
 30
0.0
 11
79.0
 21
3.6500152587890611
 31
0.0
  0
LINE
  5
12C
100
AcDbEntity
  8
0
  6
CONTINUOUS
 62
               4
100
AcDbLine
 10
80.699996948242188
 20
6.6499999999999986
 30
0.0
 11
80.699996948242188
 21
5.1499999999999986
 31
0.0
  0
LINE
  5
12D
100
AcDbEntity
  8
0
  6
CONTINUOUS
 62
               4
100
AcDbLine
 10
79.199996948242187
 20
8.1500152587890611
 30
0.0
 11
79.0
 21
8.1500152587890611
 31
0.0
  0
LINE
  5
12E
100
AcDbEntity
  8
0
  6
CONTINUOUS
 62
               4
100
AcDbLine
 10
83.0
 20
-26.399987792968751
 30
0.0
 11
76.0
 21
-26.399987792968751
 31
0.0
  0
LINE
  5
12F
100
AcDbEntity
  8
0
  6
CONTINUOUS
 62
               4
100
AcDbLine
 10
83.0
 20
-31.799996948242189
 30
0.0
 11
76.0
 21
-31.799996948242189
 31
0.0
  0
LINE
  5
130
100
AcDbEntity
  8
0
  6
CONTINUOUS
 62
               4
100
AcDbLine
 10
83.0
 20
3.2000183105468736
 30
0.0
 11
79.0
 21
3.2000183105468736
 31
0.0
  0
LINE
  5
131
100
AcDbEntity
  8
0
  6
CONTINUOUS
 62
               4
100
AcDbLine
 10
82.912139771697923
 20
-33.487868038808962
 30
0.0
 11
81.087876387026711
 21
-35.312127271589567
 31
0.0
  0
LINE
  5
132
100
AcDbEntity
  8
0
  6
CONTINUOUS
 62
               4
100
AcDbLine
 10
82.912121545365153
 20
8.2879096888240369
 30
0.0
 11
81.087858468241393
 21
10.112169229152094
 31
0.0
  0
LINE
  5
133
100
AcDbEntity
  8
0
  6
CONTINUOUS
 62
               4
100
AcDbLine
 10
83.0
 20
8.0757659912109361
 30
0.0
 11
83.0
 21
-4.8499847412109389
 31
0.0
  0
LINE
  5
134
100
AcDbEntity
  8
0
  6
CONTINUOUS
 62
               4
100
AcDbLine
 10
80.875747488736707
 20
-35.399972534179689
 30
0.0
 11
76.0
 21
-35.399972534179689
 31
0.0
  0
LINE
  5
135
100
AcDbEntity
  8
0
  6
CONTINUOUS
 62
               4
100
AcDbLine
 10
80.87845530366144
 20
10.200018310546874
 30
0.0
 11
76.000015258789063
 21
10.200018310546874
 31
0.0
  0
LINE
  5
136
100
AcDbEntity
  8
0
  6
CONTINUOUS
 62
               4
100
AcDbLine
 10
83.0
 20
2.4000152587890611
 30
0.0
 11
85.5
 21
2.4000152587890611
 31
0.0
  0
LINE
  5
137
100
AcDbEntity
  8
0
  6
CONTINUOUS
 62
               4
100
AcDbLine
 10
81.0
 20
-12.099984741210939
 30
0.0
 11
85.5
 21
-12.099984741210939
 31
0.0
  0
LINE
  5
138
100
AcDbEntity
  8
0
  6
CONTINUOUS
 62
               4
100
AcDbLine
 10
81.0
 20
-13.100000000000001
 30
0.0
 11
85.5
 21
-13.100000000000001
 31
0.0
  0
LINE
  5
139
100
AcDbEntity
  8
0
  6
CONTINUOUS
 62
               4
100
AcDbLine
 10
83.0
 20
-27.600000000000001
 30
0.0
 11
85.5
 21
-27.600000000000001
 31
0.0
  0
ARC
  5
13A
100
AcDbEntity
  8
0
  6
CONTINUOUS
 62
               4
100
AcDbCircle
 10
85.5
 20
1.9000152587890611
 30
0.0
 40
0.5
100
AcDbArc
 50
0.0
 51
90.0
  0
ARC
  5
13B
100
AcDbEntity
  8
0
  6
CONTINUOUS
 62
               4
100
AcDbCircle
 10
85.5
 20
-11.599984741210939
 30
0.0
 40
0.5
100
AcDbArc
 50
270.0
 51
0.0
  0
ARC
  5
13C
100
AcDbEntity
  8
0
  6
CONTINUOUS
 62
               4
100
AcDbCircle
 10
85.5
 20
-13.600000000000001
 30
0.0
 40
0.5
100
AcDbArc
 50
0.0
 51
90.0
  0
ARC
  5
13D
100
AcDbEntity
  8
0
  6
CONTINUOUS
 62
               4
100
AcDbCircle
 10
85.5
 20
-27.100000000000001
 30
0.0
 40
0.5
100
AcDbArc
 50
270.0
 51
0.0
  0
ENDBLK
  5
13E
100
AcDbEntity
  8
0
100
AcDbBlockEnd
  0
BLOCK
  5
13F
100
AcDbEntity
  8
0
100
AcDbBlockBegin
  2
F15MP-4
 70
               0
 10
0.0
 20
0.0
 30
0.0
  3
F15MP-4
  1

  0
LINE
  5
140
100
AcDbEntity
  8
0
  6
CONTINUOUS
 62
               7
100
AcDbLine
 10
0.5
 20
49.0
 30
0.0
 11
0.5
 21
80.5
 31
0.0
  0
LINE
  5
141
100
AcDbEntity
  8
0
  6
CONTINUOUS
 62
               7
100
AcDbLine
 10
15.5
 20
49.0
 30
0.0
 11
15.5
 21
80.5
 31
0.0
  0
LINE
  5
142
100
AcDbEntity
  8
0
  6
CONTINUOUS
 62
               7
100
AcDbLine
 10
0.5
 20
79.0
 30
0.0
 11
15.5
 21
79.0
 31
0.0
  0
LINE
  5
143
100
AcDbEntity
  8
0
  6
CONTINUOUS
 62
               7
100
AcDbLine
 10
1.0
 20
81.0
 30
0.0
 11
15.0
 21
81.0
 31
0.0
  0
LINE
  5
144
100
AcDbEntity
  8
0
  6
CONTINUOUS
 62
               7
100
AcDbLine
 10
0.5
 20
80.0
 30
0.0
 11
15.5
 21
80.0
 31
0.0
  0
LINE
  5
145
100
AcDbEntity
  8
0
  6
CONTINUOUS
 62
               7
100
AcDbLine
 10
0.5
 20
80.0
 30
0.0
 11
1.5
 21
81.0
 31
0.0
  0
LINE
  5
146
100
AcDbEntity
  8
0
  6
CONTINUOUS
 62
               7
100
AcDbLine
 10
14.5
 20
81.0
 30
0.0
 11
15.5
 21
80.0
 31
0.0
  0
LINE
  5
147
100
AcDbEntity
  8
0
  6
CONTINUOUS
 62
               7
100
AcDbLine
 10
13.56
 20
53.060000000000002
 30
0.0
 11
11.43
 21
50.93
 31
0.0
  0
LINE
  5
148
100
AcDbEntity
  8
0
  6
CONTINUOUS
 62
               7
100
AcDbLine
 10
11.43
 20
53.060000000000002
 30
0.0
 11
13.56
 21
50.93
 31
0.0
  0
LINE
  5
149
100
AcDbEntity
  8
0
  6
CONTINUOUS
 62
               7
100
AcDbLine
 10
9.5
 20
52.0
 30
0.0
 11
9.5
 21
49.0
 31
0.0
  0
LINE
  5
14A
100
AcDbEntity
  8
0
  6
CONTINUOUS
 62
               7
100
AcDbLine
 10
12.5
 20
55.0
 30
0.0
 11
15.5
 21
55.0
 31
0.0
  0
LINE
  5
14B
100
AcDbEntity
  8
0
  6
CONTINUOUS
 62
               7
100
AcDbLine
 10
3.5
 20
70.0
 30
0.0
 11
0.5
 21
70.0
 31
0.0
  0
LINE
  5
14C
100
AcDbEntity
  8
0
  6
CONTINUOUS
 62
               7
100
AcDbLine
 10
2.4300000000000002
 20
71.930000000000007
 30
0.0
 11
4.5599999999999996
 21
74.060000000000002
 31
0.0
  0
LINE
  5
14D
100
AcDbEntity
  8
0
  6
CONTINUOUS
 62
               7
100
AcDbLine
 10
4.5599999999999996
 20
71.930000000000007
 30
0.0
 11
2.4300000000000002
 21
74.060000000000002
 31
0.0
  0
LINE
  5
14E
100
AcDbEntity
  8
0
  6
CONTINUOUS
 62
               7
100
AcDbLine
 10
3.5
 20
76.0
 30
0.0
 11
0.5
 21
76.0
 31
0.0
  0
LINE
  5
14F
100
AcDbEntity
  8
0
  6
CONTINUOUS
 62
               7
100
AcDbLine
 10
0.0
 20
49.0
 30
0.0
 11
0.0
 21
3.0
 31
0.0
  0
LINE
  5
150
100
AcDbEntity
  8
0
  6
CONTINUOUS
 62
               7
100
AcDbLine
 10
0.5
 20
12.1
 30
0.0
 11
2.5
 21
12.1
 31
0.0
  0
LINE
  5
151
100
AcDbEntity
  8
0
  6
CONTINUOUS
 62
               7
100
AcDbLine
 10
0.5
 20
6.9000000000000004
 30
0.0
 11
2.5
 21
6.9000000000000004
 31
0.0
  0
LINE
  5
152
100
AcDbEntity
  8
0
  6
CONTINUOUS
 62
               7
100
AcDbLine
 10
0.5
 20
12.1
 30
0.0
 11
0.5
 21
6.9000000000000004
 31
0.0
  0
LINE
  5
153
100
AcDbEntity
  8
0
  6
CONTINUOUS
 62
               7
100
AcDbLine
 10
15.5
 20
45.100000000000001
 30
0.0
 11
13.5
 21
45.100000000000001
 31
0.0
  0
LINE
  5
154
100
AcDbEntity
  8
0
  6
CONTINUOUS
 62
               7
100
AcDbLine
 10
15.5
 20
39.899999999999999
 30
0.0
 11
13.5
 21
39.899999999999999
 31
0.0
  0
LINE
  5
155
100
AcDbEntity
  8
0
  6
CONTINUOUS
 62
               7
100
AcDbLine
 10
15.5
 20
39.899999999999999
 30
0.0
 11
15.5
 21
45.100000000000001
 31
0.0
  0
LINE
  5
156
100
AcDbEntity
  8
0
  6
CONTINUOUS
 62
               7
100
AcDbLine
 10
0.5
 20
45.530000000000001
 30
0.0
 11
0.5
 21
48.799999999999997
 31
0.0
  0
LINE
  5
157
100
AcDbEntity
  8
0
  6
CONTINUOUS
 62
               7
100
AcDbLine
 10
0.5
 20
12.199999999999999
 30
0.0
 11
0.5
 21
43.460000000000001
 31
0.0
  0
LINE
  5
158
100
AcDbEntity
  8
0
  6
CONTINUOUS
 62
               7
100
AcDbLine
 10
1.5800000000000001
 20
43.579999999999998
 30
0.0
 11
3.4100000000000001
 21
45.409999999999997
 31
0.0
  0
LINE
  5
159
100
AcDbEntity
  8
0
  6
CONTINUOUS
 62
               7
100
AcDbLine
 10
3.4100000000000001
 20
43.579999999999998
 30
0.0
 11
1.5800000000000001
 21
45.409999999999997
 31
0.0
  0
LINE
  5
15A
100
AcDbEntity
  8
0
  6
CONTINUOUS
 62
               7
100
AcDbLine
 10
15.5
 20
48.799999999999997
 30
0.0
 11
0.5
 21
48.799999999999997
 31
0.0
  0
LINE
  5
15B
100
AcDbEntity
  8
0
  6
CONTINUOUS
 62
               7
100
AcDbLine
 10
5.2000000000000002
 20
48.799999999999997
 30
0.0
 11
5.2000000000000002
 21
44.5
 31
0.0
  0
LINE
  5
15C
100
AcDbEntity
  8
0
  6
CONTINUOUS
 62
               7
100
AcDbLine
 10
15.5
 20
46.799999999999997
 30
0.0
 11
5.2000000000000002
 21
46.799999999999997
 31
0.0
  0
LINE
  5
15D
100
AcDbEntity
  8
0
  6
CONTINUOUS
 62
               7
100
AcDbLine
 10
2.5
 20
41.799999999999997
 30
0.0
 11
0.5
 21
41.799999999999997
 31
0.0
  0
LINE
  5
15E
100
AcDbEntity
  8
0
  6
CONTINUOUS
 62
               7
100
AcDbLine
 10
15.5
 20
45.200000000000003
 30
0.0
 11
15.5
 21
48.799999999999997
 31
0.0
  0
LINE
  5
15F
100
AcDbEntity
  8
0
  6
CONTINUOUS
 62
               7
100
AcDbLine
 10
13.5
 20
45.200000000000003
 30
0.0
 11
15.5
 21
45.200000000000003
 31
0.0
  0
LINE
  5
160
100
AcDbEntity
  8
0
  6
CONTINUOUS
 62
               7
100
AcDbLine
 10
13.5
 20
39.799999999999997
 30
0.0
 11
15.5
 21
39.799999999999997
 31
0.0
  0
LINE
  5
161
100
AcDbEntity
  8
0
  6
CONTINUOUS
 62
               7
100
AcDbLine
 10
15.5
 20
8.5299999999999994
 30
0.0
 11
15.5
 21
39.799999999999997
 31
0.0
  0
LINE
  5
162
100
AcDbEntity
  8
0
  6
CONTINUOUS
 62
               7
100
AcDbLine
 10
13.5
 20
10.199999999999999
 30
0.0
 11
15.5
 21
10.199999999999999
 31
0.0
  0
LINE
  5
163
100
AcDbEntity
  8
0
  6
CONTINUOUS
 62
               7
100
AcDbLine
 10
14.41
 20
6.5800000000000001
 30
0.0
 11
12.58
 21
8.4100000000000001
 31
0.0
  0
LINE
  5
164
100
AcDbEntity
  8
0
  6
CONTINUOUS
 62
               7
100
AcDbLine
 10
12.58
 20
6.5800000000000001
 30
0.0
 11
14.41
 21
8.4100000000000001
 31
0.0
  0
LINE
  5
165
100
AcDbEntity
  8
0
  6
CONTINUOUS
 62
               7
100
AcDbLine
 10
15.5
 20
3.2000000000000002
 30
0.0
 11
15.5
 21
6.46
 31
0.0
  0
LINE
  5
166
100
AcDbEntity
  8
0
  6
CONTINUOUS
 62
               7
100
AcDbLine
 10
15.5
 20
3.2000000000000002
 30
0.0
 11
0.5
 21
3.2000000000000002
 31
0.0
  0
LINE
  5
167
100
AcDbEntity
  8
0
  6
CONTINUOUS
 62
               7
100
AcDbLine
 10
10.800000000000001
 20
7.5
 30
0.0
 11
10.800000000000001
 21
3.2000000000000002
 31
0.0
  0
LINE
  5
168
100
AcDbEntity
  8
0
  6
CONTINUOUS
 62
               7
100
AcDbLine
 10
10.800000000000001
 20
5.2000000000000002
 30
0.0
 11
0.5
 21
5.2000000000000002
 31
0.0
  0
LINE
  5
169
100
AcDbEntity
  8
0
  6
CONTINUOUS
 62
               7
100
AcDbLine
 10
0.5
 20
3.2000000000000002
 30
0.0
 11
0.5
 21
6.7999999999999998
 31
0.0
  0
LINE
  5
16A
100
AcDbEntity
  8
0
  6
CONTINUOUS
 62
               7
100
AcDbLine
 10
2.5
 20
6.7999999999999998
 30
0.0
 11
0.5
 21
6.7999999999999998
 31
0.0
  0
LINE
  5
16B
100
AcDbEntity
  8
0
  6
CONTINUOUS
 62
               7
100
AcDbLine
 10
2.5
 20
12.199999999999999
 30
0.0
 11
0.5
 21
12.199999999999999
 31
0.0
  0
LINE
  5
16C
100
AcDbEntity
  8
0
  6
CONTINUOUS
 62
               2
100
AcDbLine
 10
8.0
 20
1.5800000000000001
 30
0.0
 11
8.0
 21
81.0
 31
0.0
  0
LINE
  5
16D
100
AcDbEntity
  8
0
  6
CONTINUOUS
 62
               7
100
AcDbLine
 10
0.0
 20
49.0
 30
0.0
 11
16.0
 21
49.0
 31
0.0
  0
LINE
  5
16E
100
AcDbEntity
  8
0
  6
CONTINUOUS
 62
               7
100
AcDbLine
 10
0.0
 20
0.0
 30
0.0
 11
16.0
 21
0.0
 31
0.0
  0
LINE
  5
16F
100
AcDbEntity
  8
0
  6
CONTINUOUS
 62
               7
100
AcDbLine
 10
0.0
 20
3.0
 30
0.0
 11
16.0
 21
3.0
 31
0.0
  0
LINE
  5
170
100
AcDbEntity
  8
0
  6
CONTINUOUS
 62
               7
100
AcDbLine
 10
16.0
 20
49.0
 30
0.0
 11
16.0
 21
3.0
 31
0.0
  0
LINE
  5
171
100
AcDbEntity
  8
0
  6
CONTINUOUS
 62
               4
100
AcDbLine
 10
15.75
 20
79.200000000000003
 30
0.0
 11
15.75
 21
79.0
 31
0.0
  0
LINE
  5
172
100
AcDbEntity
  8
0
  6
CONTINUOUS
 62
             200
100
AcDbLine
 10
8.0
 20
81.0
 30
0.0
 11
8.0
 21
90.219999999999999
 31
0.0
  0
LINE
  5
173
100
AcDbEntity
  8
0
  6
CONTINUOUS
 62
               4
100
AcDbLine
 10
0.5
 20
80.5
 30
0.0
 11
0.5
 21
86.0
 31
0.0
  0
LINE
  5
174
100
AcDbEntity
  8
0
  6
CONTINUOUS
 62
               4
100
AcDbLine
 10
15.5
 20
86.0
 30
0.0
 11
0.5
 21
86.0
 31
0.0
  0
LINE
  5
175
100
AcDbEntity
  8
0
  6
CONTINUOUS
 62
               4
100
AcDbLine
 10
15.5
 20
81.0
 30
0.0
 11
15.0
 21
81.0
 31
0.0
  0
LINE
  5
176
100
AcDbEntity
  8
0
  6
CONTINUOUS
 62
               4
100
AcDbLine
 10
15.5
 20
80.5
 30
0.0
 11
15.5
 21
86.0
 31
0.0
  0
LINE
  5
177
100
AcDbEntity
  8
0
  6
CONTINUOUS
 62
               4
100
AcDbLine
 10
15.5
 20
79.0
 30
0.0
 11
15.73
 21
79.0
 31
0.0
  0
LINE
  5
178
100
AcDbEntity
  8
0
  6
CONTINUOUS
 62
               4
100
AcDbLine
 10
1.0
 20
81.0
 30
0.0
 11
0.5
 21
81.0
 31
0.0
  0
ARC
  5
179
100
AcDbEntity
  8
0
  6
CONTINUOUS
 62
               7
100
AcDbCircle
 10
1.0000152590218931
 20
80.499984740978107
 30
0.0
 40
0.5000152592547238
100
AcDbArc
 50
90.001748501746562
 51
179.99825149825347
  0
ARC
  5
17A
100
AcDbEntity
  8
0
  6
CONTINUOUS
 62
               7
100
AcDbCircle
 10
14.999984740978107
 20
80.499984740978107
 30
0.0
 40
0.5000152592547238
100
AcDbArc
 50
0.001748501746554
 51
89.998251498253452
  0
CIRCLE
  5
17B
100
AcDbEntity
  8
0
  6
CONTINUOUS
 62
               7
100
AcDbCircle
 10
12.499969482421875
 20
51.99993896484375
 30
0.0
 40
2.7999992370605469
  0
ARC
  5
17C
100
AcDbEntity
  8
0
  6
CONTINUOUS
 62
               7
100
AcDbCircle
 10
12.500015259138308
 20
51.999984740861692
 30
0.0
 40
3.0000152591771152
100
AcDbArc
 50
90.000291426592398
 51
179.99970857340762
  0
CIRCLE
  5
17D
100
AcDbEntity
  8
0
  6
CONTINUOUS
 62
               7
100
AcDbCircle
 10
3.5
 20
73.0
 30
0.0
 40
2.7999992370605469
  0
ARC
  5
17E
100
AcDbEntity
  8
0
  6
CONTINUOUS
 62
               7
100
AcDbCircle
 10
3.5
 20
73.0
 30
0.0
 40
3.0
100
AcDbArc
 50
270.0
 51
90.0
  0
ARC
  5
17F
100
AcDbEntity
  8
0
  6
CONTINUOUS
 62
               7
100
AcDbCircle
 10
2.5
 20
9.5
 30
0.0
 40
2.5999999999999996
100
AcDbArc
 50
270.0
 51
90.0
  0
ARC
  5
180
100
AcDbEntity
  8
0
  6
CONTINUOUS
 62
               7
100
AcDbCircle
 10
13.5
 20
42.5
 30
0.0
 40
2.6000000000000014
100
AcDbArc
 50
90.0
 51
270.0
  0
CIRCLE
  5
181
100
AcDbEntity
  8
0
  6
CONTINUOUS
 62
               7
100
AcDbCircle
 10
2.5
 20
44.5
 30
0.0
 40
2.25
  0
ARC
  5
182
100
AcDbEntity
  8
0
  6
CONTINUOUS
 62
               7
100
AcDbCircle
 10
2.4999999999999987
 20
44.5
 30
0.0
 40
2.7000000000000015
100
AcDbArc
 50
270.0
 51
0.0
  0
ARC
  5
183
100
AcDbEntity
  8
0
  6
CONTINUOUS
 62
               7
100
AcDbCircle
 10
13.5
 20
42.5
 30
0.0
 40
2.7000000001724698
100
AcDbArc
 50
90.0
 51
270.0
  0
ARC
  5
184
100
AcDbEntity
  8
0
  6
CONTINUOUS
 62
               7
100
AcDbCircle
 10
13.499992370616248
 20
7.5000076293837514
 30
0.0
 40
2.6999923706270268
100
AcDbArc
 50
89.999838098990949
 51
180.00016190100905
  0
CIRCLE
  5
185
100
AcDbEntity
  8
0
  6
CONTINUOUS
 62
               7
100
AcDbCircle
 10
13.499984741210937
 20
7.5
 30
0.0
 40
2.25
  0
ARC
  5
186
100
AcDbEntity
  8
0
  6
CONTINUOUS
 62
               7
100
AcDbCircle
 10
2.5
 20
9.5
 30
0.0
 40
2.7000000000431168
100
AcDbArc
 50
270.0
 51
90.0
  0
ARC
  5
187
100
AcDbEntity
  8
0
  6
CONTINUOUS
 62
               4
100
AcDbCircle
 10
14.252508929709025
 20
79.191557600521037
 30
0.0
 40
1.4975148679429444
100
AcDbArc
 50
0.3230127672057799
 51
33.587613336845124
  0
LINE
  5
188
100
AcDbEntity
  8
0
  6
CONTINUOUS
 62
               4
100
AcDbLine
 10
15.5
 20
83.0
 30
0.0
 11
0.5
 21
83.0
 31
0.0
  0
LINE
  5
189
100
AcDbEntity
  8
0
  6
CONTINUOUS
 62
               4
100
AcDbLine
 10
10.800000000000001
 20
81.0
 30
0.0
 11
10.800000000000001
 21
83.0
 31
0.0
  0
ENDBLK
  5
18A
100
AcDbEntity
  8
0
100
AcDbBlockEnd
  0
BLOCK
  5
18B
100
AcDbEntity
  8
0
100
AcDbBlockBegin
  2
F15MP-5
 70
               0
 10
0.0
 20
0.0
 30
0.0
  3
F15MP-5
  1

  0
LINE
  5
18C
100
AcDbEntity
  8
0
  6
CONTINUOUS
 62
               4
100
AcDbLine
 10
4.8518344723601956
 20
-28.539745962155592
 30
0.0
 11
5.7788394689559937
 21
-28.539745962155592
 31
0.0
  0
LINE
  5
18D
100
AcDbEntity
  8
0
  6
CONTINUOUS
 62
               4
100
AcDbLine
 10
13.221160531044006
 20
-28.539745962155592
 30
0.0
 11
18.5
 21
-28.539745962155592
 31
0.0
  0
LINE
  5
18E
100
AcDbEntity
  8
0
  6
CONTINUOUS
 62
               4
100
AcDbLine
 10
17.399999999999977
 20
-19.599999999999994
 30
0.0
 11
17.834041755690464
 21
-19.349405875512574
 31
0.0
  0
LINE
  5
18F
100
AcDbEntity
  8
0
  6
CONTINUOUS
 62
               4
100
AcDbLine
 10
17.399999999999977
 20
-21.200000000000003
 30
0.0
 11
17.834041755690464
 21
-21.450594124487438
 31
0.0
  0
LINE
  5
190
100
AcDbEntity
  8
0
  6
CONTINUOUS
 62
               4
100
AcDbLine
 10
17.399999999999977
 20
-21.200000000000003
 30
0.0
 11
17.399999999999977
 21
-19.600000005960467
 31
0.0
  0
LINE
  5
191
100
AcDbEntity
  8
0
  6
CONTINUOUS
 62
               4
100
AcDbLine
 10
17.399999999999977
 20
-2.2000000000000028
 30
0.0
 11
17.399999999999977
 21
-0.6000000059604673
 31
0.0
  0
LINE
  5
192
100
AcDbEntity
  8
0
  6
CONTINUOUS
 62
               4
100
AcDbLine
 10
17.399999999999977
 20
-0.6000000000000085
 30
0.0
 11
17.834041755690464
 21
-0.3494058755125735
 31
0.0
  0
LINE
  5
193
100
AcDbEntity
  8
0
  6
CONTINUOUS
 62
               4
100
AcDbLine
 10
17.399999999999977
 20
-2.2000000000000028
 30
0.0
 11
17.834041755690464
 21
-2.4505941244874379
 31
0.0
  0
ARC
  5
194
100
AcDbEntity
  8
0
  6
CONTINUOUS
 62
               4
100
AcDbCircle
 10
10.549999999999983
 20
-11.209787815289573
 30
0.0
 40
0.3
100
AcDbArc
 50
180.0
 51
263.48210579102283
  0
ARC
  5
195
100
AcDbEntity
  8
0
  6
CONTINUOUS
 62
               4
100
AcDbCircle
 10
10.549999999999983
 20
-10.590212184710424
 30
0.0
 40
0.3
100
AcDbArc
 50
96.517894208978589
 51
180.0
  0
LINE
  5
196
100
AcDbEntity
  8
0
  6
CONTINUOUS
 62
               4
100
AcDbLine
 10
10.25
 20
-11.209787815289573
 30
0.0
 11
10.25
 21
-10.590212184710424
 31
0.0
  0
LINE
  5
197
100
AcDbEntity
  8
0
  6
CONTINUOUS
 62
               4
100
AcDbLine
 10
1.5999999999999943
 20
-2.2000000000000028
 30
0.0
 11
1.1659582443095076
 21
-2.4505941244874379
 31
0.0
  0
LINE
  5
198
100
AcDbEntity
  8
0
  6
CONTINUOUS
 62
               4
100
AcDbLine
 10
1.5999999999999943
 20
-0.6000000000000085
 30
0.0
 11
1.1659582443095076
 21
-0.3494058755125735
 31
0.0
  0
LINE
  5
199
100
AcDbEntity
  8
0
  6
CONTINUOUS
 62
               4
100
AcDbLine
 10
1.5999999999999943
 20
-2.2000000000000028
 30
0.0
 11
1.5999999999999943
 21
-0.6000000059604673
 31
0.0
  0
ARC
  5
19A
100
AcDbEntity
  8
0
  6
CONTINUOUS
 62
               4
100
AcDbCircle
 10
8.4499999999999886
 20
-11.209787815289573
 30
0.0
 40
0.3
100
AcDbArc
 50
276.51789420897717
 51
0.0
  0
ARC
  5
19B
100
AcDbEntity
  8
0
  6
CONTINUOUS
 62
               4
100
AcDbCircle
 10
8.4499999999999886
 20
-10.590212184710424
 30
0.0
 40
0.3
100
AcDbArc
 50
0.0
 51
83.482105791022747
  0
LINE
  5
19C
100
AcDbEntity
  8
0
  6
CONTINUOUS
 62
               4
100
AcDbLine
 10
8.75
 20
-11.209787815289573
 30
0.0
 11
8.75
 21
-10.590212184710424
 31
0.0
  0
LINE
  5
19D
100
AcDbEntity
  8
0
  6
CONTINUOUS
 62
               4
100
AcDbLine
 10
1.5999999999999943
 20
-21.200000000000003
 30
0.0
 11
1.5999999999999943
 21
-19.600000005960467
 31
0.0
  0
LINE
  5
19E
100
AcDbEntity
  8
0
  6
CONTINUOUS
 62
               4
100
AcDbLine
 10
1.5999999999999943
 20
-19.599999999999994
 30
0.0
 11
1.1659582443095076
 21
-19.349405875512574
 31
0.0
  0
LINE
  5
19F
100
AcDbEntity
  8
0
  6
CONTINUOUS
 62
               4
100
AcDbLine
 10
1.5999999999999943
 20
-21.200000000000003
 30
0.0
 11
1.1659582443095076
 21
-21.450594124487438
 31
0.0
  0
CIRCLE
  5
1A0
100
AcDbEntity
  8
0
  6
CONTINUOUS
 62
               4
100
AcDbCircle
 10
9.5
 20
-1.4000000000000057
 30
0.0
 40
4.0499999999999998
  0
CIRCLE
  5
1A1
100
AcDbEntity
  8
0
  6
CONTINUOUS
 62
               4
100
AcDbCircle
 10
9.5
 20
-20.400000000000006
 30
0.0
 40
4.0499999999999998
  0
LINE
  5
1A2
100
AcDbEntity
  8
0
  6
CONTINUOUS
 62
               4
100
AcDbLine
 10
13.221160527519828
 20
6.7397459621555811
 30
0.0
 11
14.148214148469322
 21
6.7397459621555811
 31
0.0
  0
CIRCLE
  5
1A3
100
AcDbEntity
  8
0
  6
CONTINUOUS
 62
               4
100
AcDbCircle
 10
9.5
 20
-20.400000000000006
 30
0.0
 40
8.9499999999999993
  0
ARC
  5
1A4
100
AcDbEntity
  8
0
  6
CONTINUOUS
 62
               4
100
AcDbCircle
 10
9.5
 20
-20.400000000000006
 30
0.0
 40
8.4000000000000004
100
AcDbArc
 50
187.18484031495424
 51
352.81515968504578
  0
CIRCLE
  5
1A5
100
AcDbEntity
  8
0
  6
CONTINUOUS
 62
               4
100
AcDbCircle
 10
9.5
 20
-20.400000000000006
 30
0.0
 40
5.0499999999999998
  0
ARC
  5
1A6
100
AcDbEntity
  8
0
  6
CONTINUOUS
 62
               4
100
AcDbCircle
 10
9.5
 20
-20.400000000000006
 30
0.0
 40
8.4000000000000004
100
AcDbArc
 50
7.1848403149542639
 51
172.81515968504576
  0
ARC
  5
1A7
100
AcDbEntity
  8
0
  6
CONTINUOUS
 62
               4
100
AcDbCircle
 10
9.5
 20
-1.4000000000000057
 30
0.0
 40
8.4000000000000004
100
AcDbArc
 50
187.18484031495424
 51
352.81515968504578
  0
CIRCLE
  5
1A8
100
AcDbEntity
  8
0
  6
CONTINUOUS
 62
               4
100
AcDbCircle
 10
9.5
 20
-1.4000000000000057
 30
0.0
 40
8.9499999999999993
  0
ARC
  5
1A9
100
AcDbEntity
  8
0
  6
CONTINUOUS
 62
               4
100
AcDbCircle
 10
9.5
 20
-1.4000000000000057
 30
0.0
 40
8.4000000000000004
100
AcDbArc
 50
7.1848403149542639
 51
172.81515968504576
  0
CIRCLE
  5
1AA
100
AcDbEntity
  8
0
  6
CONTINUOUS
 62
               4
100
AcDbCircle
 10
9.5
 20
-1.4000000000000057
 30
0.0
 40
5.0499999999999998
  0
LINE
  5
1AB
100
AcDbEntity
  8
0
  6
CONTINUOUS
 62
               4
100
AcDbLine
 10
0.5
 20
6.7397459621555811
 30
0.0
 11
5.7788394724801435
 21
6.7397459621555811
 31
0.0
  0
CIRCLE
  5
1AC
100
AcDbEntity
  8
0
  6
CONTINUOUS
 62
               4
100
AcDbCircle
 10
3.0
 20
11.100015258789057
 30
0.0
 40
2.7999992370605469
  0
CIRCLE
  5
1AD
100
AcDbEntity
  8
0
  6
CONTINUOUS
 62
               4
100
AcDbCircle
 10
16.0
 20
-32.899984741210943
 30
0.0
 40
2.7999992370605469
  0
ARC
  5
1AE
100
AcDbEntity
  8
0
  6
CONTINUOUS
 62
               4
100
AcDbCircle
 10
16.0
 20
-32.899984741210943
 30
0.0
 40
3.0
100
AcDbArc
 50
89.999982013910653
 51
179.99996402782131
  0
ARC
  5
1AF
100
AcDbEntity
  8
0
  6
CONTINUOUS
 62
               4
100
AcDbCircle
 10
3.0
 20
11.100015258789057
 30
0.0
 40
3.0
100
AcDbArc
 50
270.00001798608935
 51
0.00001366037834
  0
ARC
  5
1B0
100
AcDbEntity
  8
0
  6
CONTINUOUS
 62
               4
100
AcDbCircle
 10
3.0
 20
-30.899984741210943
 30
0.0
 40
3.0
100
AcDbArc
 50
269.99996334457597
 51
89.999982013910653
  0
ARC
  5
1B1
100
AcDbEntity
  8
0
  6
CONTINUOUS
 62
               4
100
AcDbCircle
 10
16.0
 20
9.1000152587890568
 30
0.0
 40
3.0
100
AcDbArc
 50
89.999982013910653
 51
269.99994604173196
  0
LINE
  5
1B2
100
AcDbEntity
  8
0
  6
CONTINUOUS
 62
               4
100
AcDbLine
 10
18.5
 20
-31.639028930664068
 30
0.0
 11
18.5
 21
6.0999999999999943
 31
0.0
  0
LINE
  5
1B3
100
AcDbEntity
  8
0
  6
CONTINUOUS
 62
               4
100
AcDbLine
 10
0.5
 20
12.360971069335932
 30
0.0
 11
0.5
 21
15.399987792968744
 31
0.0
  0
LINE
  5
1B4
100
AcDbEntity
  8
0
  6
CONTINUOUS
 62
               4
100
AcDbLine
 10
18.5
 20
12.099999999999994
 30
0.0
 11
18.5
 21
15.399987792968744
 31
0.0
  0
LINE
  5
1B5
100
AcDbEntity
  8
0
  6
CONTINUOUS
 62
               4
100
AcDbLine
 10
0.5
 20
-27.900000000000006
 30
0.0
 11
0.5
 21
9.8390594482421818
 31
0.0
  0
LINE
  5
1B6
100
AcDbEntity
  8
0
  6
CONTINUOUS
 62
               4
100
AcDbLine
 10
1.9393663963001018
 20
12.160713862586448
 30
0.0
 11
4.060686703554893
 21
10.039393376517722
 31
0.0
  0
LINE
  5
1B7
100
AcDbEntity
  8
0
  6
CONTINUOUS
 62
               4
100
AcDbLine
 10
1.9393123589234165
 20
10.039339517959519
 30
0.0
 11
4.0606328449921421
 21
12.16065982521431
 31
0.0
  0
LINE
  5
1B8
100
AcDbEntity
  8
0
  6
CONTINUOUS
 62
               4
100
AcDbLine
 10
14.939368100818683
 20
-31.839281301756643
 30
0.0
 11
17.060688408073474
 21
-33.960601787825368
 31
0.0
  0
LINE
  5
1B9
100
AcDbEntity
  8
0
  6
CONTINUOUS
 62
               4
100
AcDbLine
 10
14.939357221815953
 20
-33.960655646385391
 30
0.0
 11
17.060677707884679
 21
-31.839335339130599
 31
0.0
  0
LINE
  5
1BA
100
AcDbEntity
  8
0
  6
CONTINUOUS
 62
               4
100
AcDbLine
 10
13.0
 20
-32.899984741210943
 30
0.0
 11
13.0
 21
-37.200003051757818
 31
0.0
  0
LINE
  5
1BB
100
AcDbEntity
  8
0
  6
CONTINUOUS
 62
               4
100
AcDbLine
 10
16.0
 20
-29.899984741210943
 30
0.0
 11
18.5
 21
-29.899984741210943
 31
0.0
  0
LINE
  5
1BC
100
AcDbEntity
  8
0
  6
CONTINUOUS
 62
             200
100
AcDbLine
 10
-1.0
 20
-20.400000000000006
 30
0.0
 11
20.0
 21
-20.400000000000006
 31
0.0
  0
LINE
  5
1BD
100
AcDbEntity
  8
0
  6
CONTINUOUS
 62
             200
100
AcDbLine
 10
-1.0
 20
-1.4000000000000057
 30
0.0
 11
20.0
 21
-1.4000000000000057
 31
0.0
  0
LINE
  5
1BE
100
AcDbEntity
  8
0
  6
CONTINUOUS
 62
               4
100
AcDbLine
 10
0.5
 20
-37.200003051757818
 30
0.0
 11
0.5
 21
-33.900000000000006
 31
0.0
  0
LINE
  5
1BF
100
AcDbEntity
  8
0
  6
CONTINUOUS
 62
               4
100
AcDbLine
 10
18.5
 20
-37.200003051757818
 30
0.0
 11
18.5
 21
-34.160925292968756
 31
0.0
  0
LINE
  5
1C0
100
AcDbEntity
  8
0
  6
CONTINUOUS
 62
               4
100
AcDbLine
 10
3.0
 20
8.0999999999999943
 30
0.0
 11
0.5
 21
8.0999999999999943
 31
0.0
  0
LINE
  5
1C1
100
AcDbEntity
  8
0
  6
CONTINUOUS
 62
               4
100
AcDbLine
 10
6.0
 20
11.100015258789057
 30
0.0
 11
6.0
 21
15.400003051757807
 31
0.0
  0
LINE
  5
1C2
100
AcDbEntity
  8
0
  6
CONTINUOUS
 62
               4
100
AcDbLine
 10
0.5
 20
-27.900000000000006
 30
0.0
 11
3.0
 21
-27.900000000000006
 31
0.0
  0
LINE
  5
1C3
100
AcDbEntity
  8
0
  6
CONTINUOUS
 62
               4
100
AcDbLine
 10
0.5
 20
-33.900000000000006
 30
0.0
 11
3.0
 21
-33.900000000000006
 31
0.0
  0
LINE
  5
1C4
100
AcDbEntity
  8
0
  6
CONTINUOUS
 62
               4
100
AcDbLine
 10
16.0
 20
6.0999999999999943
 30
0.0
 11
18.5
 21
6.0999999999999943
 31
0.0
  0
LINE
  5
1C5
100
AcDbEntity
  8
0
  6
CONTINUOUS
 62
               4
100
AcDbLine
 10
16.0
 20
12.099999999999994
 30
0.0
 11
18.5
 21
12.099999999999994
 31
0.0
  0
LINE
  5
1C6
100
AcDbEntity
  8
0
  6
CONTINUOUS
 62
               4
100
AcDbLine
 10
0.5
 20
-37.200003051757818
 30
0.0
 11
18.5
 21
-37.200003051757818
 31
0.0
  0
LINE
  5
1C7
100
AcDbEntity
  8
0
  6
CONTINUOUS
 62
               4
100
AcDbLine
 10
0.5
 20
15.399987792968744
 30
0.0
 11
18.5
 21
15.399987792968744
 31
0.0
  0
ARC
  5
1C8
100
AcDbEntity
  8
0
  6
CONTINUOUS
 62
               7
100
AcDbCircle
 10
1.0
 20
-44.099996948242193
 30
0.0
 40
0.5
100
AcDbArc
 50
179.99998133066532
 51
270.00001798608935
  0
ARC
  5
1C9
100
AcDbEntity
  8
0
  6
CONTINUOUS
 62
               7
100
AcDbCircle
 10
1.75
 20
-43.099996948242193
 30
0.0
 40
1.5
100
AcDbArc
 50
179.99998133066532
 51
270.00001798608935
  0
ARC
  5
1CA
100
AcDbEntity
  8
0
  6
CONTINUOUS
 62
               7
100
AcDbCircle
 10
4.25
 20
-43.099996948242193
 30
0.0
 40
1.5
100
AcDbArc
 50
270.00001798608935
 51
0.0
  0
ARC
  5
1CB
100
AcDbEntity
  8
0
  6
CONTINUOUS
 62
               7
100
AcDbCircle
 10
18.0
 20
-44.099996948242193
 30
0.0
 40
0.5
100
AcDbArc
 50
270.00001798608935
 51
0.0
  0
CIRCLE
  5
1CC
100
AcDbEntity
  8
0
  6
CONTINUOUS
 62
               7
100
AcDbCircle
 10
9.5
 20
42.900018310546869
 30
0.0
 40
2.75
  0
CIRCLE
  5
1CD
100
AcDbEntity
  8
0
  6
CONTINUOUS
 62
               7
100
AcDbCircle
 10
9.5
 20
42.900018310546869
 30
0.0
 40
3.0
  0
ARC
  5
1CE
100
AcDbEntity
  8
0
  6
CONTINUOUS
 62
               7
100
AcDbCircle
 10
16.0
 20
9.1000152587890568
 30
0.0
 40
2.7999992370605469
100
AcDbArc
 50
89.999982013910653
 51
270.00000068324533
  0
ARC
  5
1CF
100
AcDbEntity
  8
0
  6
CONTINUOUS
 62
               7
100
AcDbCircle
 10
3.0
 20
-30.899984741210943
 30
0.0
 40
2.7999992370605469
100
AcDbArc
 50
270.00001798608935
 51
89.999982013910653
  0
LINE
  5
1D0
100
AcDbEntity
  8
0
  6
CONTINUOUS
 62
               7
100
AcDbLine
 10
18.5
 20
-44.099996948242193
 30
0.0
 11
18.5
 21
-42.599996948242193
 31
0.0
  0
LINE
  5
1D1
100
AcDbEntity
  8
0
  6
CONTINUOUS
 62
               7
100
AcDbLine
 10
0.5
 20
-43.929144287109381
 30
0.0
 11
0.5
 21
-44.099996948242193
 31
0.0
  0
LINE
  5
1D2
100
AcDbEntity
  8
0
  6
CONTINUOUS
 62
               7
100
AcDbLine
 10
0.25
 20
-42.599996948242193
 30
0.0
 11
0.25
 21
-43.099996948242193
 31
0.0
  0
LINE
  5
1D3
100
AcDbEntity
  8
0
  6
CONTINUOUS
 62
               7
100
AcDbLine
 10
5.75
 20
-42.599996948242193
 30
0.0
 11
5.75
 21
-43.099996948242193
 31
0.0
  0
LINE
  5
1D4
100
AcDbEntity
  8
0
  6
CONTINUOUS
 62
               7
100
AcDbLine
 10
6.0
 20
-42.599996948242193
 30
0.0
 11
6.0
 21
-44.599996948242193
 31
0.0
  0
LINE
  5
1D5
100
AcDbEntity
  8
0
  6
CONTINUOUS
 62
               7
100
AcDbLine
 10
1.0
 20
-44.599996948242193
 30
0.0
 11
18.0
 21
-44.599996948242193
 31
0.0
  0
LINE
  5
1D6
100
AcDbEntity
  8
0
  6
CONTINUOUS
 62
               7
100
AcDbLine
 10
8.4394084967798335
 20
43.960712090444389
 30
0.0
 11
10.560728982848559
 21
41.839391783189598
 31
0.0
  0
LINE
  5
1D7
100
AcDbEntity
  8
0
  6
CONTINUOUS
 62
               7
100
AcDbLine
 10
8.4393316630739719
 20
41.839357079472023
 30
0.0
 11
10.560652149142697
 21
43.960677386726815
 31
0.0
  0
LINE
  5
1D8
100
AcDbEntity
  8
0
  6
CONTINUOUS
 62
               7
100
AcDbLine
 10
0.0
 20
-37.399984741210943
 30
0.0
 11
19.0
 21
-37.399984741210943
 31
0.0
  0
LINE
  5
1D9
100
AcDbEntity
  8
0
  6
CONTINUOUS
 62
               7
100
AcDbLine
 10
0.0
 20
15.600015258789057
 30
0.0
 11
19.0
 21
15.600015258789057
 31
0.0
  0
LINE
  5
1DA
100
AcDbEntity
  8
0
  6
CONTINUOUS
 62
               7
100
AcDbLine
 10
0.5
 20
-33.699987792968756
 30
0.0
 11
0.5
 21
-28.099996948242193
 31
0.0
  0
LINE
  5
1DB
100
AcDbEntity
  8
0
  6
CONTINUOUS
 62
               7
100
AcDbLine
 10
18.5
 20
6.3000122070312443
 30
0.0
 11
18.5
 21
11.900018310546869
 31
0.0
  0
LINE
  5
1DC
100
AcDbEntity
  8
0
  6
CONTINUOUS
 62
               7
100
AcDbLine
 10
16.0
 20
6.3000122070312443
 30
0.0
 11
18.5
 21
6.3000122070312443
 31
0.0
  0
LINE
  5
1DD
100
AcDbEntity
  8
0
  6
CONTINUOUS
 62
               7
100
AcDbLine
 10
16.0
 20
11.900018310546869
 30
0.0
 11
18.5
 21
11.900018310546869
 31
0.0
  0
LINE
  5
1DE
100
AcDbEntity
  8
0
  6
CONTINUOUS
 62
               7
100
AcDbLine
 10
0.5
 20
-33.699987792968756
 30
0.0
 11
3.0
 21
-33.699987792968756
 31
0.0
  0
LINE
  5
1DF
100
AcDbEntity
  8
0
  6
CONTINUOUS
 62
               7
100
AcDbLine
 10
0.5
 20
-28.099996948242193
 30
0.0
 11
3.0
 21
-28.099996948242193
 31
0.0
  0
LINE
  5
1E0
100
AcDbEntity
  8
0
  6
CONTINUOUS
 62
               2
100
AcDbLine
 10
9.5
 20
-45.693884277343756
 30
0.0
 11
9.5
 21
63.891778564453119
 31
0.0
  0
LINE
  5
1E1
100
AcDbEntity
  8
0
  6
CONTINUOUS
 62
               7
100
AcDbLine
 10
0.0
 20
-42.599996948242193
 30
0.0
 11
19.0
 21
-42.599996948242193
 31
0.0
  0
LINE
  5
1E2
100
AcDbEntity
  8
0
  6
CONTINUOUS
 62
               7
100
AcDbLine
 10
0.0
 20
-42.599996948242193
 30
0.0
 11
0.0
 21
60.400018310546869
 31
0.0
  0
LINE
  5
1E3
100
AcDbEntity
  8
0
  6
CONTINUOUS
 62
               7
100
AcDbLine
 10
19.0
 20
60.400018310546869
 30
0.0
 11
0.0
 21
60.400018310546869
 31
0.0
  0
LINE
  5
1E4
100
AcDbEntity
  8
0
  6
CONTINUOUS
 62
               7
100
AcDbLine
 10
19.0
 20
-42.599996948242193
 30
0.0
 11
19.0
 21
60.400018310546869
 31
0.0
  0
ENDBLK
  5
1E5
100
AcDbEntity
  8
0
100
AcDbBlockEnd
  0
BLOCK
  5
1E6
100
AcDbEntity
  8
0
100
AcDbBlockBegin
  2
F15MP-6
 70
               0
 10
0.0
 20
0.0
 30
0.0
  3
F15MP-6
  1

  0
LINE
  5
1E7
100
AcDbEntity
  8
0
  6
CONTINUOUS
 62
               4
100
AcDbLine
 10
80.690998945507829
 20
-11.396952514648376
 30
0.0
 11
69.990999145507828
 21
-11.39695251464839
 31
0.0
  0
LINE
  5
1E8
100
AcDbEntity
  8
0
  6
CONTINUOUS
 62
               4
100
AcDbLine
 10
80.690998945507829
 20
-10.396952514648376
 30
0.0
 11
69.990999145507828
 21
-10.39695251464839
 31
0.0
  0
LINE
  5
1E9
100
AcDbEntity
  8
0
  6
CONTINUOUS
 62
               7
100
AcDbLine
 10
57.540999145507755
 20
60.393062744140671
 30
0.0
 11
58.540999145507755
 21
60.393062744140671
 31
0.0
  0
LINE
  5
1EA
100
AcDbEntity
  8
0
  6
CONTINUOUS
 62
               7
100
AcDbLine
 10
64.990999145507757
 20
60.403062744140676
 30
0.0
 11
48.990999145507757
 21
60.403062744140662
 31
0.0
  0
ARC
  5
1EB
100
AcDbEntity
  8
0
  6
CONTINUOUS
 62
               7
100
AcDbCircle
 10
50.236509929173593
 20
-43.093149013605824
 30
0.0
 40
1.5037949430036037
100
AcDbArc
 50
188.94379508406396
 51
270.1710429553641
  0
ARC
  5
1EC
100
AcDbEntity
  8
0
  6
CONTINUOUS
 62
               4
100
AcDbCircle
 10
93.290999145507854
 20
-28.49695251464837
 30
0.0
 40
0.3
100
AcDbArc
 50
270.00000000000074
 51
0.0000000000008651
  0
ARC
  5
1ED
100
AcDbEntity
  8
0
  6
CONTINUOUS
 62
               4
100
AcDbCircle
 10
91.890999145507834
 20
-13.896952514648362
 30
0.0
 40
0.5
100
AcDbArc
 50
270.00000000000074
 51
0.0000000000008651
  0
ARC
  5
1EE
100
AcDbEntity
  8
0
  6
CONTINUOUS
 62
               4
100
AcDbCircle
 10
93.29099914550784
 20
-12.296952514648368
 30
0.0
 40
0.3
100
AcDbArc
 50
0.0000000000000509
 51
90.000000000000256
  0
ARC
  5
1EF
100
AcDbEntity
  8
0
  6
CONTINUOUS
 62
               4
100
AcDbCircle
 10
91.890999145507848
 20
-26.896952514648362
 30
0.0
 40
0.5
100
AcDbArc
 50
0.0000000000000509
 51
90.000000000000256
  0
LINE
  5
1F0
100
AcDbEntity
  8
0
  6
CONTINUOUS
 62
               4
100
AcDbLine
 10
93.291680145507868
 20
-28.796952514648368
 30
0.0
 11
92.390999145507848
 21
-28.796952514648368
 31
0.0
  0
LINE
  5
1F1
100
AcDbEntity
  8
0
  6
CONTINUOUS
 62
               4
100
AcDbLine
 10
93.590999145507851
 20
-12.296952514648368
 30
0.0
 11
93.590999145507865
 21
-28.49695251464837
 31
0.0
  0
LINE
  5
1F2
100
AcDbEntity
  8
0
  6
CONTINUOUS
 62
               4
100
AcDbLine
 10
92.390999145507848
 20
-28.796952514648368
 30
0.0
 11
92.390999145507834
 21
-11.996952514648356
 31
0.0
  0
LINE
  5
1F3
100
AcDbEntity
  8
0
  6
CONTINUOUS
 62
               4
100
AcDbLine
 10
93.291680145507854
 20
-11.996952514648356
 30
0.0
 11
92.390999145507834
 21
-11.996952514648356
 31
0.0
  0
LINE
  5
1F4
100
AcDbEntity
  8
0
  6
CONTINUOUS
 62
               4
100
AcDbLine
 10
91.890999145507834
 20
-14.396952514648362
 30
0.0
 11
91.490999145507857
 21
-14.396952514648362
 31
0.0
  0
LINE
  5
1F5
100
AcDbEntity
  8
0
  6
CONTINUOUS
 62
               4
100
AcDbLine
 10
91.490999145507871
 20
-27.396952514648362
 30
0.0
 11
91.390999145507848
 21
-27.49695251464837
 31
0.0
  0
LINE
  5
1F6
100
AcDbEntity
  8
0
  6
CONTINUOUS
 62
               4
100
AcDbLine
 10
91.490999145507857
 20
-13.396952514648362
 30
0.0
 11
91.390999145507834
 21
-13.296952514648368
 31
0.0
  0
LINE
  5
1F7
100
AcDbEntity
  8
0
  6
CONTINUOUS
 62
               4
100
AcDbLine
 10
91.490999145507857
 20
-13.396952514648362
 30
0.0
 11
91.490999145507871
 21
-27.396952514648362
 31
0.0
  0
LINE
  5
1F8
100
AcDbEntity
  8
0
  6
CONTINUOUS
 62
               4
100
AcDbLine
 10
91.890999145507848
 20
-26.396952514648362
 30
0.0
 11
91.490999145507871
 21
-26.396952514648362
 31
0.0
  0
LINE
  5
1F9
100
AcDbEntity
  8
0
  6
CONTINUOUS
 62
               4
100
AcDbLine
 10
91.390999145507834
 20
-13.296952514648368
 30
0.0
 11
91.390999145507848
 21
-27.49695251464837
 31
0.0
  0
LINE
  5
1FA
100
AcDbEntity
  8
0
  6
CONTINUOUS
 62
               4
100
AcDbLine
 10
91.390999145507834
 20
-8.4969525146483562
 30
0.0
 11
91.39099914550782
 21
5.7030474853516324
 31
0.0
  0
LINE
  5
1FB
100
AcDbEntity
  8
0
  6
CONTINUOUS
 62
               4
100
AcDbLine
 10
91.89099914550782
 20
4.6030474853516381
 30
0.0
 11
91.490999145507843
 21
4.6030474853516381
 31
0.0
  0
LINE
  5
1FC
100
AcDbEntity
  8
0
  6
CONTINUOUS
 62
               4
100
AcDbLine
 10
91.490999145507857
 20
-8.3969525146483619
 30
0.0
 11
91.490999145507843
 21
5.6030474853516381
 31
0.0
  0
LINE
  5
1FD
100
AcDbEntity
  8
0
  6
CONTINUOUS
 62
               4
100
AcDbLine
 10
91.490999145507857
 20
-8.3969525146483619
 30
0.0
 11
91.390999145507834
 21
-8.4969525146483562
 31
0.0
  0
LINE
  5
1FE
100
AcDbEntity
  8
0
  6
CONTINUOUS
 62
               4
100
AcDbLine
 10
91.490999145507843
 20
5.6030474853516381
 30
0.0
 11
91.39099914550782
 21
5.7030474853516324
 31
0.0
  0
LINE
  5
1FF
100
AcDbEntity
  8
0
  6
CONTINUOUS
 62
               4
100
AcDbLine
 10
91.89099914550782
 20
-7.3969525146483619
 30
0.0
 11
91.490999145507843
 21
-7.3969525146483619
 31
0.0
  0
LINE
  5
200
100
AcDbEntity
  8
0
  6
CONTINUOUS
 62
               4
100
AcDbLine
 10
93.291680145507854
 20
-9.7969525146483676
 30
0.0
 11
92.390999145507834
 21
-9.7969525146483676
 31
0.0
  0
LINE
  5
201
100
AcDbEntity
  8
0
  6
CONTINUOUS
 62
               4
100
AcDbLine
 10
92.39099914550782
 20
7.0030474853516296
 30
0.0
 11
92.390999145507834
 21
-9.7969525146483676
 31
0.0
  0
LINE
  5
202
100
AcDbEntity
  8
0
  6
CONTINUOUS
 62
               4
100
AcDbLine
 10
93.590999145507851
 20
-9.4969525146483562
 30
0.0
 11
93.590999145507837
 21
6.7030474853516324
 31
0.0
  0
LINE
  5
203
100
AcDbEntity
  8
0
  6
CONTINUOUS
 62
               4
100
AcDbLine
 10
93.29168014550784
 20
7.0030474853516296
 30
0.0
 11
92.39099914550782
 21
7.0030474853516296
 31
0.0
  0
ARC
  5
204
100
AcDbEntity
  8
0
  6
CONTINUOUS
 62
               4
100
AcDbCircle
 10
91.89099914550782
 20
5.1030474853516381
 30
0.0
 40
0.5
100
AcDbArc
 50
269.99999999999983
 51
0.0000000000000509
  0
ARC
  5
205
100
AcDbEntity
  8
0
  6
CONTINUOUS
 62
               4
100
AcDbCircle
 10
93.29099914550784
 20
-9.4969525146483562
 30
0.0
 40
0.3
100
AcDbArc
 50
269.99999999999983
 51
0.0000000000000509
  0
ARC
  5
206
100
AcDbEntity
  8
0
  6
CONTINUOUS
 62
               4
100
AcDbCircle
 10
91.89099914550782
 20
-7.8969525146483619
 30
0.0
 40
0.5
100
AcDbArc
 50
359.99999999999926
 51
89.999999999999446
  0
ARC
  5
207
100
AcDbEntity
  8
0
  6
CONTINUOUS
 62
               4
100
AcDbCircle
 10
93.290999145507826
 20
6.7030474853516324
 30
0.0
 40
0.3
100
AcDbArc
 50
359.99999999999926
 51
89.999999999999446
  0
ARC
  5
208
100
AcDbEntity
  8
0
  6
CONTINUOUS
 62
               7
100
AcDbCircle
 10
52.741009826435914
 20
-43.096947936787387
 30
0.0
 40
1.4999893191099782
100
AcDbArc
 50
269.9995920156959
 51
0.0004079843041764
  0
LINE
  5
209
100
AcDbEntity
  8
0
  6
CONTINUOUS
 62
               7
100
AcDbLine
 10
54.240999145507857
 20
-42.596937255859331
 30
0.0
 11
54.240999145507857
 21
-43.096937255859331
 31
0.0
  0
LINE
  5
20A
100
AcDbEntity
  8
0
  6
CONTINUOUS
 62
               7
100
AcDbLine
 10
53.790999145507854
 20
-44.596937255859331
 30
0.0
 11
55.79099914550784
 21
-42.596937255859331
 31
0.0
  0
LINE
  5
20B
100
AcDbEntity
  8
0
  6
CONTINUOUS
 62
               7
100
AcDbLine
 10
55.79099914550784
 20
-42.596937255859331
 30
0.0
 11
55.79099914550784
 21
-39.596937255859331
 31
0.0
  0
LINE
  5
20C
100
AcDbEntity
  8
0
  6
CONTINUOUS
 62
               7
100
AcDbLine
 10
64.990999145507843
 20
-37.396937255859328
 30
0.0
 11
64.990999145507857
 21
-42.596937255859302
 31
0.0
  0
LINE
  5
20D
100
AcDbEntity
  8
0
  6
CONTINUOUS
 62
               7
100
AcDbLine
 10
64.9909991455078
 20
15.603062744140672
 30
0.0
 11
61.9909991455078
 21
15.603062744140672
 31
0.0
  0
LINE
  5
20E
100
AcDbEntity
  8
0
  6
CONTINUOUS
 62
               7
100
AcDbLine
 10
64.990999145507843
 20
-37.396937255859328
 30
0.0
 11
61.990999145507857
 21
-37.396937255859328
 31
0.0
  0
LINE
  5
20F
100
AcDbEntity
  8
0
  6
CONTINUOUS
 62
               7
100
AcDbLine
 10
56.990999145507857
 20
-39.796937255859348
 30
0.0
 11
55.990999145507857
 21
-39.796937255859348
 31
0.0
  0
LINE
  5
210
100
AcDbEntity
  8
0
  6
CONTINUOUS
 62
               7
100
AcDbLine
 10
55.990999145507857
 20
-39.796937255859348
 30
0.0
 11
55.990999145507857
 21
-42.596937255859331
 31
0.0
  0
LINE
  5
211
100
AcDbEntity
  8
0
  6
CONTINUOUS
 62
               7
100
AcDbLine
 10
61.9909991455078
 20
15.603062744140672
 30
0.0
 11
61.990999145507857
 21
-37.396937255859328
 31
0.0
  0
LINE
  5
212
100
AcDbEntity
  8
0
  6
CONTINUOUS
 62
               7
100
AcDbLine
 10
64.990999145507857
 20
-42.596937255859302
 30
0.0
 11
55.990999145507857
 21
-42.596937255859331
 31
0.0
  0
LINE
  5
213
100
AcDbEntity
  8
0
  6
CONTINUOUS
 62
               4
100
AcDbLine
 10
61.990999145507857
 20
-37.196952514648402
 30
0.0
 11
61.9909991455078
 21
15.403047479391134
 31
0.0
  0
LINE
  5
214
100
AcDbEntity
  8
0
  6
CONTINUOUS
 62
               4
100
AcDbLine
 10
64.990999145507843
 20
-37.196952514648402
 30
0.0
 11
61.990999145507857
 21
-37.196952514648402
 31
0.0
  0
LINE
  5
215
100
AcDbEntity
  8
0
  6
CONTINUOUS
 62
               4
100
AcDbLine
 10
64.9909991455078
 20
15.403047485351607
 30
0.0
 11
61.9909991455078
 21
15.403047485351607
 31
0.0
  0
LINE
  5
216
100
AcDbEntity
  8
0
  6
CONTINUOUS
 62
               4
100
AcDbLine
 10
69.990999145507843
 20
-28.536698476803963
 30
0.0
 11
69.990999145507814
 21
7.6030474853516097
 31
0.0
  0
LINE
  5
217
100
AcDbEntity
  8
0
  6
CONTINUOUS
 62
               4
100
AcDbLine
 10
64.9909991455078
 20
15.403047485351607
 30
0.0
 11
64.9909991455078
 21
8.1030474734306779
 31
0.0
  0
LINE
  5
218
100
AcDbEntity
  8
0
  6
CONTINUOUS
 62
               4
100
AcDbLine
 10
69.205656110592059
 20
8.1030474853516097
 30
0.0
 11
64.9909991455078
 21
8.1030474853516097
 31
0.0
  0
LINE
  5
219
100
AcDbEntity
  8
0
  6
CONTINUOUS
 62
               4
100
AcDbLine
 10
80.890998545507841
 20
-10.196952514648387
 30
0.0
 11
81.090998745507846
 21
-10.396952514648376
 31
0.0
  0
LINE
  5
21A
100
AcDbEntity
  8
0
  6
CONTINUOUS
 62
               4
100
AcDbLine
 10
80.890998545507827
 20
7.4030474853516068
 30
0.0
 11
81.090998745507832
 21
7.6030474853516239
 31
0.0
  0
LINE
  5
21B
100
AcDbEntity
  8
0
  6
CONTINUOUS
 62
               4
100
AcDbLine
 10
80.890999145507834
 20
-10.196952514648387
 30
0.0
 11
80.690998945507829
 21
-10.396952514648376
 31
0.0
  0
LINE
  5
21C
100
AcDbEntity
  8
0
  6
CONTINUOUS
 62
               4
100
AcDbLine
 10
85.890999145507848
 20
-29.296952514648382
 30
0.0
 11
85.890999145507834
 21
-11.49695251464837
 31
0.0
  0
LINE
  5
21D
100
AcDbEntity
  8
0
  6
CONTINUOUS
 62
               4
100
AcDbLine
 10
90.390998145507837
 20
-12.496952514648356
 30
0.0
 11
90.390998145507851
 21
-28.296951714648372
 31
0.0
  0
LINE
  5
21E
100
AcDbEntity
  8
0
  6
CONTINUOUS
 62
               4
100
AcDbLine
 10
86.79099914550784
 20
-11.596952514648379
 30
0.0
 11
86.990999145507857
 21
-11.396952514648376
 31
0.0
  0
LINE
  5
21F
100
AcDbEntity
  8
0
  6
CONTINUOUS
 62
               4
100
AcDbLine
 10
89.355912145507858
 20
-11.396952514648362
 30
0.0
 11
89.790998145507842
 21
-12.150542914648355
 31
0.0
  0
LINE
  5
220
100
AcDbEntity
  8
0
  6
CONTINUOUS
 62
               4
100
AcDbLine
 10
89.355912145507872
 20
-29.396952514648376
 30
0.0
 11
89.790998145507857
 21
-28.643362114648369
 31
0.0
  0
LINE
  5
221
100
AcDbEntity
  8
0
  6
CONTINUOUS
 62
               4
100
AcDbLine
 10
89.790998145507857
 20
-28.643362114648369
 30
0.0
 11
90.390998145507851
 21
-28.296951714648372
 31
0.0
  0
LINE
  5
222
100
AcDbEntity
  8
0
  6
CONTINUOUS
 62
               4
100
AcDbLine
 10
89.790998145507842
 20
-12.150542914648355
 30
0.0
 11
90.390998145507837
 21
-12.496953314648366
 31
0.0
  0
LINE
  5
223
100
AcDbEntity
  8
0
  6
CONTINUOUS
 62
               4
100
AcDbLine
 10
86.790999145507854
 20
-29.196952514648359
 30
0.0
 11
86.79099914550784
 21
-11.596952514648379
 31
0.0
  0
LINE
  5
224
100
AcDbEntity
  8
0
  6
CONTINUOUS
 62
               4
100
AcDbLine
 10
89.35591314550787
 20
-29.396952514648376
 30
0.0
 11
86.990999145507871
 21
-29.396952514648376
 31
0.0
  0
LINE
  5
225
100
AcDbEntity
  8
0
  6
CONTINUOUS
 62
               4
100
AcDbLine
 10
86.790999145507854
 20
-29.196952514648359
 30
0.0
 11
86.990999145507871
 21
-29.396952514648376
 31
0.0
  0
LINE
  5
226
100
AcDbEntity
  8
0
  6
CONTINUOUS
 62
               4
100
AcDbLine
 10
89.355913145507856
 20
-11.396952514648362
 30
0.0
 11
86.990999145507857
 21
-11.396952514648376
 31
0.0
  0
LINE
  5
227
100
AcDbEntity
  8
0
  6
CONTINUOUS
 62
               4
100
AcDbLine
 10
80.890998545507856
 20
-29.196952514648373
 30
0.0
 11
81.090998745507861
 21
-29.396952514648376
 31
0.0
  0
LINE
  5
228
100
AcDbEntity
  8
0
  6
CONTINUOUS
 62
               4
100
AcDbLine
 10
80.890998745507829
 20
-11.596952514648379
 30
0.0
 11
80.890998745507844
 21
-29.196952514648373
 31
0.0
  0
LINE
  5
229
100
AcDbEntity
  8
0
  6
CONTINUOUS
 62
               4
100
AcDbLine
 10
85.790999145507854
 20
-29.396952514648376
 30
0.0
 11
81.090998745507861
 21
-29.396952514648376
 31
0.0
  0
LINE
  5
22A
100
AcDbEntity
  8
0
  6
CONTINUOUS
 62
               4
100
AcDbLine
 10
85.79099914550784
 20
-11.396952514648376
 30
0.0
 11
81.090998745507846
 21
-11.396952514648376
 31
0.0
  0
LINE
  5
22B
100
AcDbEntity
  8
0
  6
CONTINUOUS
 62
               4
100
AcDbLine
 10
80.890998545507841
 20
-11.596952514648379
 30
0.0
 11
81.090998745507846
 21
-11.396952514648376
 31
0.0
  0
LINE
  5
22C
100
AcDbEntity
  8
0
  6
CONTINUOUS
 62
               4
100
AcDbLine
 10
85.790999145507854
 20
-29.396952514648376
 30
0.0
 11
85.890999145507848
 21
-29.296952514648382
 31
0.0
  0
LINE
  5
22D
100
AcDbEntity
  8
0
  6
CONTINUOUS
 62
               4
100
AcDbLine
 10
85.79099914550784
 20
-11.396952514648376
 30
0.0
 11
85.890999145507834
 21
-11.49695251464837
 31
0.0
  0
LINE
  5
22E
100
AcDbEntity
  8
0
  6
CONTINUOUS
 62
               4
100
AcDbLine
 10
80.890999145507834
 20
-11.596952514648379
 30
0.0
 11
80.690998945507829
 21
-11.396952514648376
 31
0.0
  0
LINE
  5
22F
100
AcDbEntity
  8
0
  6
CONTINUOUS
 62
               4
100
AcDbLine
 10
69.494293545507858
 20
-29.39695251464839
 30
0.0
 11
69.087520145507867
 21
-30.101504214648401
 31
0.0
  0
LINE
  5
230
100
AcDbEntity
  8
0
  6
CONTINUOUS
 62
               4
100
AcDbLine
 10
80.69099914550786
 20
-29.396952514648376
 30
0.0
 11
69.494293545507858
 21
-29.39695251464839
 31
0.0
  0
LINE
  5
231
100
AcDbEntity
  8
0
  6
CONTINUOUS
 62
               4
100
AcDbLine
 10
86.790999145507854
 20
-28.696952514648359
 30
0.0
 11
85.890999145507848
 21
-28.696952514648373
 31
0.0
  0
LINE
  5
232
100
AcDbEntity
  8
0
  6
CONTINUOUS
 62
               4
100
AcDbLine
 10
86.79099914550784
 20
-12.096952514648379
 30
0.0
 11
85.890999145507834
 21
-12.096952514648379
 31
0.0
  0
LINE
  5
233
100
AcDbEntity
  8
0
  6
CONTINUOUS
 62
               4
100
AcDbLine
 10
80.690998945507843
 20
-29.396952514648376
 30
0.0
 11
80.690998945507829
 21
-10.396952514648376
 31
0.0
  0
LINE
  5
234
100
AcDbEntity
  8
0
  6
CONTINUOUS
 62
               4
100
AcDbLine
 10
80.890999145507848
 20
-29.196952514648373
 30
0.0
 11
80.690998945507843
 21
-29.396952514648376
 31
0.0
  0
LINE
  5
235
100
AcDbEntity
  8
0
  6
CONTINUOUS
 62
               4
100
AcDbLine
 10
81.090998745507846
 20
-11.396952514648376
 30
0.0
 11
81.090998745507861
 21
-29.396952514648376
 31
0.0
  0
LINE
  5
236
100
AcDbEntity
  8
0
  6
CONTINUOUS
 62
               4
100
AcDbLine
 10
89.790998145507842
 20
-12.150542914648355
 30
0.0
 11
89.790998145507857
 21
-28.643362114648369
 31
0.0
  0
LINE
  5
237
100
AcDbEntity
  8
0
  6
CONTINUOUS
 62
               4
100
AcDbLine
 10
89.355912145507858
 20
-11.396952514648362
 30
0.0
 11
89.355912145507872
 21
-29.396952514648376
 31
0.0
  0
LINE
  5
238
100
AcDbEntity
  8
0
  6
CONTINUOUS
 62
               4
100
AcDbLine
 10
86.990999145507857
 20
-11.396952514648376
 30
0.0
 11
86.990999145507871
 21
-29.396952514648376
 31
0.0
  0
LINE
  5
239
100
AcDbEntity
  8
0
  6
CONTINUOUS
 62
               4
100
AcDbLine
 10
85.79099914550784
 20
-11.396952514648376
 30
0.0
 11
85.790999145507854
 21
-29.396952514648376
 31
0.0
  0
LINE
  5
23A
100
AcDbEntity
  8
0
  6
CONTINUOUS
 62
               4
100
AcDbLine
 10
80.690999145507831
 20
7.6030474853516239
 30
0.0
 11
69.494331245186899
 21
7.6030474853516097
 31
0.0
  0
LINE
  5
23B
100
AcDbEntity
  8
0
  6
CONTINUOUS
 62
               4
100
AcDbLine
 10
80.89099914550782
 20
7.4030474853516068
 30
0.0
 11
80.690998945507815
 21
7.6030474853516239
 31
0.0
  0
LINE
  5
23C
100
AcDbEntity
  8
0
  6
CONTINUOUS
 62
               4
100
AcDbLine
 10
64.9909991455078
 20
15.403047485351607
 30
0.0
 11
65.510614391219747
 21
14.503047479391142
 31
0.0
  0
LINE
  5
23D
100
AcDbEntity
  8
0
  6
CONTINUOUS
 62
               4
100
AcDbLine
 10
64.990999145507843
 20
-37.196952514648402
 30
0.0
 11
69.990999145507843
 21
-28.536698476803963
 31
0.0
  0
LINE
  5
23E
100
AcDbEntity
  8
0
  6
CONTINUOUS
 62
               4
100
AcDbLine
 10
80.690999145507831
 20
7.6030474853516239
 30
0.0
 11
69.49429354550783
 21
7.6030474853516097
 31
0.0
  0
LINE
  5
23F
100
AcDbEntity
  8
0
  6
CONTINUOUS
 62
               4
100
AcDbLine
 10
85.79099914550784
 20
-10.396952514648376
 30
0.0
 11
85.790999145507826
 21
7.6030474853516239
 31
0.0
  0
LINE
  5
240
100
AcDbEntity
  8
0
  6
CONTINUOUS
 62
               4
100
AcDbLine
 10
86.990999145507857
 20
-10.396952514648376
 30
0.0
 11
86.990999145507843
 21
7.6030474853516239
 31
0.0
  0
LINE
  5
241
100
AcDbEntity
  8
0
  6
CONTINUOUS
 62
               4
100
AcDbLine
 10
89.355912145507858
 20
-10.396952514648362
 30
0.0
 11
89.355912145507844
 21
7.6030474853516381
 31
0.0
  0
LINE
  5
242
100
AcDbEntity
  8
0
  6
CONTINUOUS
 62
               4
100
AcDbLine
 10
89.790998145507842
 20
-9.6433621146483688
 30
0.0
 11
89.790998145507828
 21
6.8494570853516308
 31
0.0
  0
LINE
  5
243
100
AcDbEntity
  8
0
  6
CONTINUOUS
 62
               4
100
AcDbLine
 10
81.090998745507846
 20
-10.396952514648376
 30
0.0
 11
81.090998745507832
 21
7.6030474853516239
 31
0.0
  0
LINE
  5
244
100
AcDbEntity
  8
0
  6
CONTINUOUS
 62
               4
100
AcDbLine
 10
80.89099914550782
 20
7.403047485351621
 30
0.0
 11
80.690998945507815
 21
7.6030474853516239
 31
0.0
  0
LINE
  5
245
100
AcDbEntity
  8
0
  6
CONTINUOUS
 62
               4
100
AcDbLine
 10
80.690998945507815
 20
7.6030474853516239
 30
0.0
 11
80.690998945507829
 21
-11.396952514648376
 31
0.0
  0
LINE
  5
246
100
AcDbEntity
  8
0
  6
CONTINUOUS
 62
               4
100
AcDbLine
 10
86.79099914550784
 20
-9.6969525146483733
 30
0.0
 11
85.890999145507834
 21
-9.6969525146483733
 31
0.0
  0
LINE
  5
247
100
AcDbEntity
  8
0
  6
CONTINUOUS
 62
               4
100
AcDbLine
 10
86.790999145507826
 20
6.903047485351621
 30
0.0
 11
85.89099914550782
 21
6.903047485351621
 31
0.0
  0
LINE
  5
248
100
AcDbEntity
  8
0
  6
CONTINUOUS
 62
               4
100
AcDbLine
 10
80.890999145507834
 20
-10.196952514648373
 30
0.0
 11
80.690998945507829
 21
-10.396952514648376
 31
0.0
  0
LINE
  5
249
100
AcDbEntity
  8
0
  6
CONTINUOUS
 62
               4
100
AcDbLine
 10
85.79099914550784
 20
-10.396952514648376
 30
0.0
 11
85.890999145507834
 21
-10.296952514648382
 31
0.0
  0
LINE
  5
24A
100
AcDbEntity
  8
0
  6
CONTINUOUS
 62
               4
100
AcDbLine
 10
85.790999145507826
 20
7.6030474853516239
 30
0.0
 11
85.89099914550782
 21
7.5030474853516154
 31
0.0
  0
LINE
  5
24B
100
AcDbEntity
  8
0
  6
CONTINUOUS
 62
               4
100
AcDbLine
 10
80.890998545507841
 20
-10.196952514648373
 30
0.0
 11
81.090998745507846
 21
-10.396952514648376
 31
0.0
  0
LINE
  5
24C
100
AcDbEntity
  8
0
  6
CONTINUOUS
 62
               4
100
AcDbLine
 10
85.79099914550784
 20
-10.396952514648376
 30
0.0
 11
81.090998745507846
 21
-10.396952514648376
 31
0.0
  0
LINE
  5
24D
100
AcDbEntity
  8
0
  6
CONTINUOUS
 62
               4
100
AcDbLine
 10
85.790999145507826
 20
7.6030474853516239
 30
0.0
 11
81.090998745507832
 21
7.6030474853516239
 31
0.0
  0
LINE
  5
24E
100
AcDbEntity
  8
0
  6
CONTINUOUS
 62
               4
100
AcDbLine
 10
80.890998745507829
 20
-10.196952514648373
 30
0.0
 11
80.890998745507815
 21
7.403047485351621
 31
0.0
  0
LINE
  5
24F
100
AcDbEntity
  8
0
  6
CONTINUOUS
 62
               4
100
AcDbLine
 10
80.890998545507827
 20
7.403047485351621
 30
0.0
 11
81.090998745507832
 21
7.6030474853516239
 31
0.0
  0
LINE
  5
250
100
AcDbEntity
  8
0
  6
CONTINUOUS
 62
               4
100
AcDbLine
 10
89.355913145507856
 20
-10.396952514648362
 30
0.0
 11
86.990999145507857
 21
-10.396952514648376
 31
0.0
  0
LINE
  5
251
100
AcDbEntity
  8
0
  6
CONTINUOUS
 62
               4
100
AcDbLine
 10
86.790999145507826
 20
7.403047485351621
 30
0.0
 11
86.990999145507843
 21
7.6030474853516239
 31
0.0
  0
LINE
  5
252
100
AcDbEntity
  8
0
  6
CONTINUOUS
 62
               4
100
AcDbLine
 10
89.355913145507841
 20
7.6030474853516381
 30
0.0
 11
86.990999145507843
 21
7.6030474853516239
 31
0.0
  0
LINE
  5
253
100
AcDbEntity
  8
0
  6
CONTINUOUS
 62
               4
100
AcDbLine
 10
86.790999145507826
 20
7.403047485351621
 30
0.0
 11
86.79099914550784
 21
-10.196952514648373
 31
0.0
  0
LINE
  5
254
100
AcDbEntity
  8
0
  6
CONTINUOUS
 62
               4
100
AcDbLine
 10
89.790998145507842
 20
-9.6433621146483688
 30
0.0
 11
90.390998145507837
 21
-9.2969517146483582
 31
0.0
  0
LINE
  5
255
100
AcDbEntity
  8
0
  6
CONTINUOUS
 62
               4
100
AcDbLine
 10
89.790998145507828
 20
6.8494570853516308
 30
0.0
 11
90.390998145507822
 21
6.5030466853516344
 31
0.0
  0
LINE
  5
256
100
AcDbEntity
  8
0
  6
CONTINUOUS
 62
               4
100
AcDbLine
 10
89.355912145507844
 20
7.6030474853516381
 30
0.0
 11
89.790998145507828
 21
6.8494570853516308
 31
0.0
  0
LINE
  5
257
100
AcDbEntity
  8
0
  6
CONTINUOUS
 62
               4
100
AcDbLine
 10
89.355912145507858
 20
-10.396952514648362
 30
0.0
 11
89.790998145507842
 21
-9.6433621146483688
 31
0.0
  0
LINE
  5
258
100
AcDbEntity
  8
0
  6
CONTINUOUS
 62
               4
100
AcDbLine
 10
86.79099914550784
 20
-10.196952514648373
 30
0.0
 11
86.990999145507857
 21
-10.396952514648376
 31
0.0
  0
LINE
  5
259
100
AcDbEntity
  8
0
  6
CONTINUOUS
 62
               4
100
AcDbLine
 10
90.390998145507837
 20
-9.2969525146483676
 30
0.0
 11
90.390998145507822
 21
6.5030466853516344
 31
0.0
  0
LINE
  5
25A
100
AcDbEntity
  8
0
  6
CONTINUOUS
 62
               4
100
AcDbLine
 10
85.89099914550782
 20
7.5030474853516154
 30
0.0
 11
85.890999145507834
 21
-10.296952514648382
 31
0.0
  0
LINE
  5
25B
100
AcDbEntity
  8
0
  6
CONTINUOUS
 62
               4
100
AcDbLine
 10
80.890999145507834
 20
-11.596952514648379
 30
0.0
 11
80.690998945507829
 21
-11.396952514648376
 31
0.0
  0
LINE
  5
25C
100
AcDbEntity
  8
0
  6
CONTINUOUS
 62
               4
100
AcDbLine
 10
80.890998545507841
 20
-11.596952514648379
 30
0.0
 11
81.090998745507846
 21
-11.396952514648376
 31
0.0
  0
LINE
  5
25D
100
AcDbEntity
  8
0
  6
CONTINUOUS
 62
               4
100
AcDbLine
 10
66.838520006914635
 20
-33.996952514648385
 30
0.0
 11
61.990999145507843
 21
-33.996952514648385
 31
0.0
  0
LINE
  5
25E
100
AcDbEntity
  8
0
  6
CONTINUOUS
 62
               4
100
AcDbLine
 10
69.990999145507843
 20
-27.796952514648382
 30
0.0
 11
61.990999145507828
 21
-27.796952514648396
 31
0.0
  0
LINE
  5
25F
100
AcDbEntity
  8
0
  6
CONTINUOUS
 62
               4
100
AcDbLine
 10
91.39099914550782
 20
5.7030474853516324
 30
0.0
 11
90.390998145507822
 21
5.7030474853516324
 31
0.0
  0
LINE
  5
260
100
AcDbEntity
  8
0
  6
CONTINUOUS
 62
               4
100
AcDbLine
 10
91.390999145507834
 20
-8.4969525146483562
 30
0.0
 11
90.390998145507837
 21
-8.4969525146483562
 31
0.0
  0
LINE
  5
261
100
AcDbEntity
  8
0
  6
CONTINUOUS
 62
             200
100
AcDbLine
 10
94.590999145507837
 20
-1.3969525146483619
 30
0.0
 11
60.990999145507814
 21
-1.3969525146483903
 31
0.0
  0
LINE
  5
262
100
AcDbEntity
  8
0
  6
CONTINUOUS
 62
               4
100
AcDbLine
 10
91.390999145507834
 20
-13.296952514648368
 30
0.0
 11
90.390998145507837
 21
-13.296952514648368
 31
0.0
  0
LINE
  5
263
100
AcDbEntity
  8
0
  6
CONTINUOUS
 62
               4
100
AcDbLine
 10
91.390999145507848
 20
-27.49695251464837
 30
0.0
 11
90.390998145507851
 21
-27.49695251464837
 31
0.0
  0
LINE
  5
264
100
AcDbEntity
  8
0
  6
CONTINUOUS
 62
             200
100
AcDbLine
 10
94.590999145507851
 20
-20.396952514648362
 30
0.0
 11
60.990999145507828
 21
-20.39695251464839
 31
0.0
  0
LINE
  5
265
100
AcDbEntity
  8
0
  6
CONTINUOUS
 62
               7
100
AcDbLine
 10
56.990999145507857
 20
-39.596937255859331
 30
0.0
 11
48.990999145507857
 21
-39.596937255859331
 31
0.0
  0
LINE
  5
266
100
AcDbEntity
  8
0
  6
CONTINUOUS
 62
               7
100
AcDbLine
 10
64.990999145507757
 20
60.403062744140676
 30
0.0
 11
64.9909991455078
 21
15.603062744140672
 31
0.0
  0
LINE
  5
267
100
AcDbEntity
  8
0
  6
CONTINUOUS
 62
               7
100
AcDbLine
 10
56.990999145507757
 20
60.403062744140669
 30
0.0
 11
56.990999145507857
 21
-39.796937255859348
 31
0.0
  0
LINE
  5
268
100
AcDbEntity
  8
0
  6
CONTINUOUS
 62
               7
100
AcDbLine
 10
53.790999145507854
 20
-44.596937255859331
 30
0.0
 11
47.490999145507857
 21
-44.596937255859331
 31
0.0
  0
LINE
  5
269
100
AcDbEntity
  8
0
  6
CONTINUOUS
 62
               7
100
AcDbLine
 10
55.79099914550784
 20
-42.596937255859331
 30
0.0
 11
48.990999145507857
 21
-42.596937255859331
 31
0.0
  0
LINE
  5
26A
100
AcDbEntity
  8
0
  6
CONTINUOUS
 62
               4
100
AcDbLine
 10
64.9909991455078
 20
14.503047479391142
 30
0.0
 11
65.4909991455078
 21
14.503047479391142
 31
0.0
  0
ARC
  5
26B
100
AcDbEntity
  8
0
  6
CONTINUOUS
 62
               4
100
AcDbCircle
 10
65.491009826435857
 20
13.003058160319199
 30
0.0
 40
1.4999893191099782
100
AcDbArc
 50
359.9995920156959
 51
90.000407984304175
  0
ARC
  5
26C
100
AcDbEntity
  8
0
  6
CONTINUOUS
 62
               4
100
AcDbCircle
 10
65.487210903254294
 20
10.498558263056879
 30
0.0
 40
1.5037949430036037
100
AcDbArc
 50
270.14513424512813
 51
0.1710429553641125
  0
LINE
  5
26D
100
AcDbEntity
  8
0
  6
CONTINUOUS
 62
               4
100
AcDbLine
 10
66.990999145507814
 20
13.003047479391149
 30
0.0
 11
66.990999145507814
 21
10.503047479391135
 31
0.0
  0
LINE
  5
26E
100
AcDbEntity
  8
0
  6
CONTINUOUS
 62
               4
100
AcDbLine
 10
64.9909991455078
 20
9.0030474793911424
 30
0.0
 11
65.4909991455078
 21
9.0030474793911424
 31
0.0
  0
LINE
  5
26F
100
AcDbEntity
  8
0
  6
CONTINUOUS
 62
               4
100
AcDbLine
 10
66.990999145507814
 20
11.938945870213843
 30
0.0
 11
69.494331245186899
 21
7.6030474853516097
 31
0.0
  0
ENDBLK
  5
270
100
AcDbEntity
  8
0
100
AcDbBlockEnd
  0
BLOCK
  5
271
100
AcDbEntity
  8
0
100
AcDbBlockBegin
  2
F15MP-7
 70
               0
 10
0.0
 20
0.0
 30
0.0
  3
F15MP-7
  1

  0
LINE
  5
272
100
AcDbEntity
  8
0
  6
CONTINUOUS
 62
               2
100
AcDbLine
 10
9.4999847412109375
 20
65.0
 30
0.0
 11
9.4999847412109375
 21
1.5131683349609375
 31
0.0
  0
ARC
  5
273
100
AcDbEntity
  8
0
  6
CONTINUOUS
 62
               4
100
AcDbCircle
 10
17.299987614154816
 20
65.499992370605469
 30
0.0
 40
1.5
100
AcDbArc
 50
0.0000179860893428
 51
89.999986339621657
  0
LINE
  5
274
100
AcDbEntity
  8
0
  6
CONTINUOUS
 62
               4
100
AcDbLine
 10
18.499987602233887
 20
69.503294399999987
 30
0.0
 11
18.499987602233887
 21
66.399992386500031
 31
0.0
  0
ARC
  5
275
100
AcDbEntity
  8
0
  6
CONTINUOUS
 62
               4
100
AcDbCircle
 10
14.799987614154816
 20
65.499992370605469
 30
0.0
 40
1.5
100
AcDbArc
 50
89.999986339621657
 51
180.0
  0
LINE
  5
276
100
AcDbEntity
  8
0
  6
CONTINUOUS
 62
               4
100
AcDbLine
 10
18.499987602233887
 20
69.214618999999999
 30
0.0
 11
15.999987602233887
 21
69.214618999999999
 31
0.0
  0
LINE
  5
277
100
AcDbEntity
  8
0
  6
CONTINUOUS
 62
               4
100
AcDbLine
 10
14.799987971782684
 20
66.999992370605412
 30
0.0
 11
17.299987971782684
 21
66.999992370605412
 31
0.0
  0
LINE
  5
278
100
AcDbEntity
  8
0
  6
CONTINUOUS
 62
               4
100
AcDbLine
 10
5.7788271022338904
 20
70.0
 30
0.0
 11
0.4999876022338867
 21
70.0
 31
0.0
  0
ARC
  5
279
100
AcDbEntity
  8
0
  6
CONTINUOUS
 62
               4
100
AcDbCircle
 10
9.4999876022338867
 20
83.690523132503984
 30
0.0
 40
14.187228732503996
100
AcDbArc
 50
254.79404619011436
 51
285.20595380988573
  0
LINE
  5
27A
100
AcDbEntity
  8
0
  6
CONTINUOUS
 62
               4
100
AcDbLine
 10
18.499987602233887
 20
70.0
 30
0.0
 11
13.221148102233883
 21
70.0
 31
0.0
  0
ARC
  5
27B
100
AcDbEntity
  8
0
  6
CONTINUOUS
 62
               4
100
AcDbCircle
 10
17.599987602233909
 20
93.300000000000011
 30
0.0
 40
0.3
100
AcDbArc
 50
0.0000000000006107
 51
90.00000000000081
  0
ARC
  5
27C
100
AcDbEntity
  8
0
  6
CONTINUOUS
 62
               4
100
AcDbCircle
 10
2.9999876022338867
 20
91.900000000000006
 30
0.0
 40
0.5
100
AcDbArc
 50
0.0000000000006107
 51
90.00000000000081
  0
ARC
  5
27D
100
AcDbEntity
  8
0
  6
CONTINUOUS
 62
               4
100
AcDbCircle
 10
1.3999876022338924
 20
93.300000000000011
 30
0.0
 40
0.3
100
AcDbArc
 50
90.0
 51
180.0000000000002
  0
ARC
  5
27E
100
AcDbEntity
  8
0
  6
CONTINUOUS
 62
               4
100
AcDbCircle
 10
15.999987602233887
 20
91.900000000000006
 30
0.0
 40
0.5
100
AcDbArc
 50
90.0
 51
180.0000000000002
  0
LINE
  5
27F
100
AcDbEntity
  8
0
  6
CONTINUOUS
 62
               4
100
AcDbLine
 10
17.899987602233892
 20
93.300680999999997
 30
0.0
 11
17.899987602233892
 21
92.400000000000006
 31
0.0
  0
LINE
  5
280
100
AcDbEntity
  8
0
  6
CONTINUOUS
 62
               4
100
AcDbLine
 10
1.3999876022338924
 20
93.599999999999994
 30
0.0
 11
17.599987602233909
 21
93.599999999999994
 31
0.0
  0
LINE
  5
281
100
AcDbEntity
  8
0
  6
CONTINUOUS
 62
               4
100
AcDbLine
 10
17.899987602233892
 20
92.400000000000006
 30
0.0
 11
1.099987602233881
 21
92.400000000000006
 31
0.0
  0
LINE
  5
282
100
AcDbEntity
  8
0
  6
CONTINUOUS
 62
               4
100
AcDbLine
 10
1.099987602233881
 20
93.300680999999997
 30
0.0
 11
1.099987602233881
 21
92.400000000000006
 31
0.0
  0
LINE
  5
283
100
AcDbEntity
  8
0
  6
CONTINUOUS
 62
               4
100
AcDbLine
 10
3.4999876022338867
 20
91.900000000000006
 30
0.0
 11
3.4999876022338867
 21
91.5
 31
0.0
  0
LINE
  5
284
100
AcDbEntity
  8
0
  6
CONTINUOUS
 62
               4
100
AcDbLine
 10
16.599987602233909
 20
91.400000000000006
 30
0.0
 11
16.599987602233909
 21
90.399999000000008
 31
0.0
  0
LINE
  5
285
100
AcDbEntity
  8
0
  6
CONTINUOUS
 62
               4
100
AcDbLine
 10
16.499987602233887
 20
91.5
 30
0.0
 11
16.599987602233909
 21
91.400000000000006
 31
0.0
  0
LINE
  5
286
100
AcDbEntity
  8
0
  6
CONTINUOUS
 62
               4
100
AcDbLine
 10
2.4999876022338867
 20
91.5
 30
0.0
 11
2.3999876022338924
 21
91.400000000000006
 31
0.0
  0
LINE
  5
287
100
AcDbEntity
  8
0
  6
CONTINUOUS
 62
               4
100
AcDbLine
 10
2.4999876022338867
 20
91.5
 30
0.0
 11
16.499987602233887
 21
91.5
 31
0.0
  0
LINE
  5
288
100
AcDbEntity
  8
0
  6
CONTINUOUS
 62
               4
100
AcDbLine
 10
2.3999876022338924
 20
91.400000000000006
 30
0.0
 11
2.3999876022338924
 21
90.399999000000008
 31
0.0
  0
LINE
  5
289
100
AcDbEntity
  8
0
  6
CONTINUOUS
 62
               4
100
AcDbLine
 10
18.399987602233892
 20
85.900000000000006
 30
0.0
 11
0.599987602233881
 21
85.900000000000006
 31
0.0
  0
LINE
  5
28A
100
AcDbEntity
  8
0
  6
CONTINUOUS
 62
               4
100
AcDbLine
 10
1.599987602233881
 20
90.399999000000008
 30
0.0
 11
17.399986802233911
 21
90.399999000000008
 31
0.0
  0
LINE
  5
28B
100
AcDbEntity
  8
0
  6
CONTINUOUS
 62
               4
100
AcDbLine
 10
0.6999876022338754
 20
86.800000000000011
 30
0.0
 11
0.4999876022338867
 21
87.0
 31
0.0
  0
LINE
  5
28C
100
AcDbEntity
  8
0
  6
CONTINUOUS
 62
               4
100
AcDbLine
 10
0.4999876022338867
 20
89.364913000000001
 30
0.0
 11
1.253578002233894
 21
89.799999000000014
 31
0.0
  0
LINE
  5
28D
100
AcDbEntity
  8
0
  6
CONTINUOUS
 62
               4
100
AcDbLine
 10
18.499987602233887
 20
89.364913000000001
 30
0.0
 11
17.746397202233879
 21
89.799999000000014
 31
0.0
  0
LINE
  5
28E
100
AcDbEntity
  8
0
  6
CONTINUOUS
 62
               4
100
AcDbLine
 10
17.746397202233879
 20
89.799999000000014
 30
0.0
 11
17.399986802233911
 21
90.399999000000008
 31
0.0
  0
LINE
  5
28F
100
AcDbEntity
  8
0
  6
CONTINUOUS
 62
               4
100
AcDbLine
 10
1.253578002233894
 20
89.799999000000014
 30
0.0
 11
1.5999884022338904
 21
90.399999000000008
 31
0.0
  0
LINE
  5
290
100
AcDbEntity
  8
0
  6
CONTINUOUS
 62
               4
100
AcDbLine
 10
18.299987602233898
 20
86.800000000000011
 30
0.0
 11
0.6999876022338754
 21
86.800000000000011
 31
0.0
  0
LINE
  5
291
100
AcDbEntity
  8
0
  6
CONTINUOUS
 62
               4
100
AcDbLine
 10
18.499987602233887
 20
89.364913999999999
 30
0.0
 11
18.499987602233887
 21
87.0
 31
0.0
  0
LINE
  5
292
100
AcDbEntity
  8
0
  6
CONTINUOUS
 62
               4
100
AcDbLine
 10
18.299987602233898
 20
86.800000000000011
 30
0.0
 11
18.499987602233887
 21
87.0
 31
0.0
  0
LINE
  5
293
100
AcDbEntity
  8
0
  6
CONTINUOUS
 62
               4
100
AcDbLine
 10
0.4999876022338867
 20
89.364913999999999
 30
0.0
 11
0.4999876022338867
 21
87.0
 31
0.0
  0
LINE
  5
294
100
AcDbEntity
  8
0
  6
CONTINUOUS
 62
               4
100
AcDbLine
 10
18.299987602233898
 20
80.899999400000013
 30
0.0
 11
18.499987602233887
 21
81.09999959999999
 31
0.0
  0
LINE
  5
295
100
AcDbEntity
  8
0
  6
CONTINUOUS
 62
               4
100
AcDbLine
 10
0.6999876022338754
 20
80.899999600000001
 30
0.0
 11
18.299987602233898
 21
80.899999600000001
 31
0.0
  0
LINE
  5
296
100
AcDbEntity
  8
0
  6
CONTINUOUS
 62
               4
100
AcDbLine
 10
18.499987602233887
 20
85.800000000000011
 30
0.0
 11
18.499987602233887
 21
81.09999959999999
 31
0.0
  0
LINE
  5
297
100
AcDbEntity
  8
0
  6
CONTINUOUS
 62
               4
100
AcDbLine
 10
0.4999876022338867
 20
85.800000000000011
 30
0.0
 11
0.4999876022338867
 21
81.09999959999999
 31
0.0
  0
LINE
  5
298
100
AcDbEntity
  8
0
  6
CONTINUOUS
 62
               4
100
AcDbLine
 10
0.6999876022338754
 20
80.899999400000013
 30
0.0
 11
0.4999876022338867
 21
81.09999959999999
 31
0.0
  0
LINE
  5
299
100
AcDbEntity
  8
0
  6
CONTINUOUS
 62
               4
100
AcDbLine
 10
18.499987602233887
 20
85.800000000000011
 30
0.0
 11
18.399987602233892
 21
85.900000000000006
 31
0.0
  0
LINE
  5
29A
100
AcDbEntity
  8
0
  6
CONTINUOUS
 62
               4
100
AcDbLine
 10
0.4999876022338867
 20
85.800000000000011
 30
0.0
 11
0.599987602233881
 21
85.900000000000006
 31
0.0
  0
LINE
  5
29B
100
AcDbEntity
  8
0
  6
CONTINUOUS
 62
               4
100
AcDbLine
 10
0.6999876022338754
 20
80.900000000000006
 30
0.0
 11
0.4999876022338867
 21
80.699999800000001
 31
0.0
  0
LINE
  5
29C
100
AcDbEntity
  8
0
  6
CONTINUOUS
 62
               4
100
AcDbLine
 10
17.799987602233898
 20
86.800000000000011
 30
0.0
 11
17.799987602233898
 21
85.900000000000006
 31
0.0
  0
LINE
  5
29D
100
AcDbEntity
  8
0
  6
CONTINUOUS
 62
               4
100
AcDbLine
 10
1.1999876022338754
 20
86.800000000000011
 30
0.0
 11
1.1999876022338754
 21
85.900000000000006
 31
0.0
  0
LINE
  5
29E
100
AcDbEntity
  8
0
  6
CONTINUOUS
 62
               4
100
AcDbLine
 10
18.299987602233898
 20
80.900000000000006
 30
0.0
 11
18.499987602233887
 21
80.699999800000001
 31
0.0
  0
LINE
  5
29F
100
AcDbEntity
  8
0
  6
CONTINUOUS
 62
               4
100
AcDbLine
 10
0.4999876022338867
 20
81.09999959999999
 30
0.0
 11
18.499987602233887
 21
81.09999959999999
 31
0.0
  0
LINE
  5
2A0
100
AcDbEntity
  8
0
  6
CONTINUOUS
 62
               4
100
AcDbLine
 10
15.499987602233887
 20
91.900000000000006
 30
0.0
 11
15.499987602233887
 21
91.5
 31
0.0
  0
LINE
  5
2A1
100
AcDbEntity
  8
0
  6
CONTINUOUS
 62
               4
100
AcDbLine
 10
2.3999876022338924
 20
91.400000000000006
 30
0.0
 11
16.599987602233909
 21
91.400000000000006
 31
0.0
  0
LINE
  5
2A2
100
AcDbEntity
  8
0
  6
CONTINUOUS
 62
               4
100
AcDbLine
 10
1.253578002233894
 20
89.799999000000014
 30
0.0
 11
17.746397202233879
 21
89.799999000000014
 31
0.0
  0
LINE
  5
2A3
100
AcDbEntity
  8
0
  6
CONTINUOUS
 62
               4
100
AcDbLine
 10
0.4999876022338867
 20
89.364913000000001
 30
0.0
 11
18.499987602233887
 21
89.364913000000001
 31
0.0
  0
LINE
  5
2A4
100
AcDbEntity
  8
0
  6
CONTINUOUS
 62
               4
100
AcDbLine
 10
0.4999876022338867
 20
87.0
 30
0.0
 11
18.499987602233887
 21
87.0
 31
0.0
  0
LINE
  5
2A5
100
AcDbEntity
  8
0
  6
CONTINUOUS
 62
               4
100
AcDbLine
 10
0.4999876022338867
 20
85.800000000000011
 30
0.0
 11
18.499987602233887
 21
85.800000000000011
 31
0.0
  0
LINE
  5
2A6
100
AcDbEntity
  8
0
  6
CONTINUOUS
 62
               4
100
AcDbLine
 10
18.499987602233887
 20
80.699999999999989
 30
0.0
 11
18.499987602233887
 21
69.503294399999987
 31
0.0
  0
LINE
  5
2A7
100
AcDbEntity
  8
0
  6
CONTINUOUS
 62
               4
100
AcDbLine
 10
18.499987602233887
 20
80.699999800000001
 30
0.0
 11
0.4999876022338867
 21
80.699999800000001
 31
0.0
  0
LINE
  5
2A8
100
AcDbEntity
  8
0
  6
CONTINUOUS
 62
               4
100
AcDbLine
 10
0.4999876022338867
 20
66.905259999999998
 30
0.0
 11
2.9999876022338867
 21
66.905259999999998
 31
0.0
  0
LINE
  5
2A9
100
AcDbEntity
  8
0
  6
CONTINUOUS
 62
               4
100
AcDbLine
 10
18.799987614154816
 20
65.5
 30
0.0
 11
18.799987614154816
 21
65.0
 31
0.0
  0
LINE
  5
2AA
100
AcDbEntity
  8
0
  6
CONTINUOUS
 62
               4
100
AcDbLine
 10
13.299988329410553
 20
65.499992370605469
 30
0.0
 11
13.299988329410553
 21
64.999992370605469
 31
0.0
  0
LINE
  5
2AB
100
AcDbEntity
  8
0
  6
CONTINUOUS
 62
               4
100
AcDbLine
 10
12.999987602233887
 20
67.214618999999999
 30
0.0
 11
12.999987602233887
 21
65.0
 31
0.0
  0
LINE
  5
2AC
100
AcDbEntity
  8
0
  6
CONTINUOUS
 62
               4
100
AcDbLine
 10
0.4999876022338867
 20
80.699999800000001
 30
0.0
 11
0.4999876022338867
 21
65.0
 31
0.0
  0
LINE
  5
2AD
100
AcDbEntity
  8
0
  6
CONTINUOUS
 62
               7
100
AcDbLine
 10
0.0
 20
3.0
 30
0.0
 11
19.0
 21
3.0
 31
0.0
  0
CIRCLE
  5
2AE
100
AcDbEntity
  8
0
  6
CONTINUOUS
 62
               7
100
AcDbCircle
 10
15.999984741210938
 20
7.5
 30
0.0
 40
2.75
  0
ARC
  5
2AF
100
AcDbEntity
  8
0
  6
CONTINUOUS
 62
               7
100
AcDbCircle
 10
15.999984741210938
 20
7.5
 30
0.0
 40
3.0
100
AcDbArc
 50
89.999982013910653
 51
179.99996402782131
  0
ARC
  5
2B0
100
AcDbEntity
  8
0
  6
CONTINUOUS
 62
               7
100
AcDbCircle
 10
2.9999847412109375
 20
51.5
 30
0.0
 40
3.0
100
AcDbArc
 50
270.00001798608935
 51
0.00001366037834
  0
ARC
  5
2B1
100
AcDbEntity
  8
0
  6
CONTINUOUS
 62
               7
100
AcDbCircle
 10
2.9999847412109375
 20
9.5
 30
0.0
 40
3.0
100
AcDbArc
 50
269.99996334457597
 51
89.999982013910653
  0
ARC
  5
2B2
100
AcDbEntity
  8
0
  6
CONTINUOUS
 62
               7
100
AcDbCircle
 10
15.999984741210938
 20
49.5
 30
0.0
 40
3.0
100
AcDbArc
 50
89.999982013910653
 51
269.99994604173196
  0
CIRCLE
  5
2B3
100
AcDbEntity
  8
0
  6
CONTINUOUS
 62
               7
100
AcDbCircle
 10
2.9999847412109375
 20
51.5
 30
0.0
 40
2.75
  0
ARC
  5
2B4
100
AcDbEntity
  8
0
  6
CONTINUOUS
 62
               7
100
AcDbCircle
 10
16.0
 20
49.5
 30
0.0
 40
2.8999996185302734
100
AcDbArc
 50
89.999982013910653
 51
270.00000068324533
  0
ARC
  5
2B5
100
AcDbEntity
  8
0
  6
CONTINUOUS
 62
               7
100
AcDbCircle
 10
3.0
 20
9.5
 30
0.0
 40
2.8999996185302734
100
AcDbArc
 50
270.00001798608935
 51
89.999982013910653
  0
LINE
  5
2B6
100
AcDbEntity
  8
0
  6
CONTINUOUS
 62
               7
100
AcDbLine
 10
0.0
 20
0.0
 30
0.0
 11
19.0
 21
0.0
 31
0.0
  0
LINE
  5
2B7
100
AcDbEntity
  8
0
  6
CONTINUOUS
 62
             200
100
AcDbLine
 10
9.4999847412109375
 20
94.342178344726563
 30
0.0
 11
9.4999847412109375
 21
65.0
 31
0.0
  0
LINE
  5
2B8
100
AcDbEntity
  8
0
  6
CONTINUOUS
 62
               7
100
AcDbLine
 10
0.0
 20
65.0
 30
0.0
 11
19.0
 21
65.0
 31
0.0
  0
LINE
  5
2B9
100
AcDbEntity
  8
0
  6
CONTINUOUS
 62
               7
100
AcDbLine
 10
0.0
 20
56.0
 30
0.0
 11
19.0
 21
56.0
 31
0.0
  0
LINE
  5
2BA
100
AcDbEntity
  8
0
  6
CONTINUOUS
 62
               7
100
AcDbLine
 10
18.499984741210938
 20
8.6456298828125
 30
0.0
 11
18.499984741210938
 21
46.499984741210937
 31
0.0
  0
LINE
  5
2BB
100
AcDbEntity
  8
0
  6
CONTINUOUS
 62
               7
100
AcDbLine
 10
18.499984741210938
 20
52.499984741210937
 30
0.0
 11
18.499984741210938
 21
55.79998779296875
 31
0.0
  0
LINE
  5
2BC
100
AcDbEntity
  8
0
  6
CONTINUOUS
 62
               7
100
AcDbLine
 10
0.4999847412109375
 20
52.645645141601563
 30
0.0
 11
0.4999847412109375
 21
55.79998779296875
 31
0.0
  0
LINE
  5
2BD
100
AcDbEntity
  8
0
  6
CONTINUOUS
 62
               7
100
AcDbLine
 10
0.4999847412109375
 20
12.499984741210938
 30
0.0
 11
0.4999847412109375
 21
50.354354858398438
 31
0.0
  0
LINE
  5
2BE
100
AcDbEntity
  8
0
  6
CONTINUOUS
 62
               7
100
AcDbLine
 10
17.060606237429056
 20
6.4393203816716778
 30
0.0
 11
14.939287003057871
 21
8.560641761810075
 31
0.0
  0
LINE
  5
2BF
100
AcDbEntity
  8
0
  6
CONTINUOUS
 62
               7
100
AcDbLine
 10
14.939354012376498
 20
6.4392989029029195
 30
0.0
 11
17.060670028096865
 21
8.5606236805060689
 31
0.0
  0
LINE
  5
2C0
100
AcDbEntity
  8
0
  6
CONTINUOUS
 62
               7
100
AcDbLine
 10
1.9393291657743248
 20
50.439332184838349
 30
0.0
 11
4.060651618796328
 21
52.560650346325929
 31
0.0
  0
LINE
  5
2C1
100
AcDbEntity
  8
0
  6
CONTINUOUS
 62
               7
100
AcDbLine
 10
4.0606979118401796
 20
50.439390554032798
 30
0.0
 11
1.9393852935845644
 21
52.560718550286765
 31
0.0
  0
LINE
  5
2C2
100
AcDbEntity
  8
0
  6
CONTINUOUS
 62
               7
100
AcDbLine
 10
5.9999847412109375
 20
53.79998779296875
 30
0.0
 11
18.499984741210938
 21
53.79998779296875
 31
0.0
  0
LINE
  5
2C3
100
AcDbEntity
  8
0
  6
CONTINUOUS
 62
               7
100
AcDbLine
 10
0.4999847412109375
 20
5.199981689453125
 30
0.0
 11
12.999984741210938
 21
5.199981689453125
 31
0.0
  0
LINE
  5
2C4
100
AcDbEntity
  8
0
  6
CONTINUOUS
 62
               7
100
AcDbLine
 10
15.999984741210938
 20
10.5
 30
0.0
 11
18.499984741210938
 21
10.5
 31
0.0
  0
LINE
  5
2C5
100
AcDbEntity
  8
0
  6
CONTINUOUS
 62
               7
100
AcDbLine
 10
2.9999847412109375
 20
48.5
 30
0.0
 11
0.4999847412109375
 21
48.5
 31
0.0
  0
LINE
  5
2C6
100
AcDbEntity
  8
0
  6
CONTINUOUS
 62
               7
100
AcDbLine
 10
5.9999847412109375
 20
51.5
 30
0.0
 11
5.9999847412109375
 21
55.79998779296875
 31
0.0
  0
LINE
  5
2C7
100
AcDbEntity
  8
0
  6
CONTINUOUS
 62
               7
100
AcDbLine
 10
12.999984741210938
 20
7.5
 30
0.0
 11
12.999984741210938
 21
3.199981689453125
 31
0.0
  0
LINE
  5
2C8
100
AcDbEntity
  8
0
  6
CONTINUOUS
 62
               7
100
AcDbLine
 10
0.4999847412109375
 20
12.499984741210938
 30
0.0
 11
2.9999847412109375
 21
12.499984741210938
 31
0.0
  0
LINE
  5
2C9
100
AcDbEntity
  8
0
  6
CONTINUOUS
 62
               7
100
AcDbLine
 10
0.4999847412109375
 20
6.4999847412109375
 30
0.0
 11
2.9999847412109375
 21
6.4999847412109375
 31
0.0
  0
LINE
  5
2CA
100
AcDbEntity
  8
0
  6
CONTINUOUS
 62
               7
100
AcDbLine
 10
15.999984741210938
 20
46.499984741210937
 30
0.0
 11
18.499984741210938
 21
46.499984741210937
 31
0.0
  0
LINE
  5
2CB
100
AcDbEntity
  8
0
  6
CONTINUOUS
 62
               7
100
AcDbLine
 10
15.999984741210938
 20
52.499984741210937
 30
0.0
 11
18.499984741210938
 21
52.499984741210937
 31
0.0
  0
LINE
  5
2CC
100
AcDbEntity
  8
0
  6
CONTINUOUS
 62
               7
100
AcDbLine
 10
0.4999847412109375
 20
3.199981689453125
 30
0.0
 11
18.499984741210938
 21
3.199981689453125
 31
0.0
  0
LINE
  5
2CD
100
AcDbEntity
  8
0
  6
CONTINUOUS
 62
               7
100
AcDbLine
 10
0.4999847412109375
 20
55.79998779296875
 30
0.0
 11
18.499984741210938
 21
55.79998779296875
 31
0.0
  0
LINE
  5
2CE
100
AcDbEntity
  8
0
  6
CONTINUOUS
 62
               7
100
AcDbLine
 10
0.4999847412109375
 20
3.199981689453125
 30
0.0
 11
0.4999847412109375
 21
6.4999847412109375
 31
0.0
  0
LINE
  5
2CF
100
AcDbEntity
  8
0
  6
CONTINUOUS
 62
               7
100
AcDbLine
 10
18.499984741210938
 20
3.199981689453125
 30
0.0
 11
18.499984741210938
 21
6.3543548583984375
 31
0.0
  0
LINE
  5
2D0
100
AcDbEntity
  8
0
  6
CONTINUOUS
 62
               7
100
AcDbLine
 10
18.5
 20
52.399993896484375
 30
0.0
 11
18.5
 21
46.599990844726563
 31
0.0
  0
LINE
  5
2D1
100
AcDbEntity
  8
0
  6
CONTINUOUS
 62
               7
100
AcDbLine
 10
16.0
 20
52.399993896484375
 30
0.0
 11
18.5
 21
52.399993896484375
 31
0.0
  0
LINE
  5
2D2
100
AcDbEntity
  8
0
  6
CONTINUOUS
 62
               7
100
AcDbLine
 10
16.0
 20
46.599990844726563
 30
0.0
 11
18.5
 21
46.599990844726563
 31
0.0
  0
LINE
  5
2D3
100
AcDbEntity
  8
0
  6
CONTINUOUS
 62
               7
100
AcDbLine
 10
0.5
 20
12.399993896484375
 30
0.0
 11
3.0
 21
12.399993896484375
 31
0.0
  0
LINE
  5
2D4
100
AcDbEntity
  8
0
  6
CONTINUOUS
 62
               7
100
AcDbLine
 10
0.5
 20
6.600006103515625
 30
0.0
 11
3.0
 21
6.600006103515625
 31
0.0
  0
LINE
  5
2D5
100
AcDbEntity
  8
0
  6
CONTINUOUS
 62
               7
100
AcDbLine
 10
19.0
 20
65.0
 30
0.0
 11
19.0
 21
3.0
 31
0.0
  0
LINE
  5
2D6
100
AcDbEntity
  8
0
  6
CONTINUOUS
 62
               7
100
AcDbLine
 10
0.5
 20
12.399993896484375
 30
0.0
 11
0.5
 21
6.600006103515625
 31
0.0
  0
LINE
  5
2D7
100
AcDbEntity
  8
0
  6
CONTINUOUS
 62
               7
100
AcDbLine
 10
0.0
 20
65.0
 30
0.0
 11
0.0
 21
3.0
 31
0.0
  0
SPLINE
  5
2D8
100
AcDbEntity
  8
0
  6
CONTINUOUS
 62
               4
100
AcDbSpline
210
0.0
220
0.0
230
1.0
 70
               0
 71
               3
 72
               0
 73
               0
 74
              41
 44
0.000001
 12
0.9936236052884185
 22
0.1127480865187747
 32
0.0
 13
-0.7599872673059152
 23
0.6499379612954512
 33
0.0
 11
2.9999876022338867
 21
66.905259999999998
 31
0.0
 11
3.183582611051246
 21
66.928115638214507
 31
0.0
 11
3.3666562828763458
 21
66.954887788310117
 31
0.0
 11
3.5491786655596158
 21
66.985471735104525
 31
0.0
 11
3.731044425788582
 21
67.019750906513337
 31
0.0
 11
3.940650226292548
 21
67.063991352126152
 31
0.0
 11
4.1490944811779888
 21
67.113411459068956
 31
0.0
 11
4.3561470932899438
 21
67.168380349308194
 31
0.0
 11
4.561545615325258
 21
67.229250661799654
 31
0.0
 11
4.7352935522358468
 21
67.286240077632243
 31
0.0
 11
4.9071661284274519
 21
67.348630907257999
 31
0.0
 11
5.0766593519127037
 21
67.417251023262779
 31
0.0
 11
5.2431668502524644
 21
67.492856464834887
 31
0.0
 11
5.3846461261129512
 21
67.564939129627902
 31
0.0
 11
5.5220076814093257
 21
67.644576712437242
 31
0.0
 11
5.6539584566412389
 21
67.733517206565125
 31
0.0
 11
5.7783278629383119
 21
67.832700983361235
 31
0.0
 11
5.8468618946221564
 21
67.896275476593644
 31
0.0
 11
5.9105336743660644
 21
67.964729307816242
 31
0.0
 11
5.9671245533796231
 21
68.0381684201203
 31
0.0
 11
6.0149854716854918
 21
68.117439092808866
 31
0.0
 11
6.0499054316898011
 21
68.196205670373814
 31
0.0
 11
6.0755032823785555
 21
68.278569215423758
 31
0.0
 11
6.0921859155300702
 21
68.363664161466275
 31
0.0
 11
6.099987602233881
 21
68.449999999999989
 31
0.0
 11
6.0956205850255225
 21
68.581499565114555
 31
0.0
 11
6.0739026381605248
 21
68.71145963610833
 31
0.0
 11
6.0371923102758283
 21
68.838578348905216
 31
0.0
 11
5.9879909844077019
 21
68.961369983469979
 31
0.0
 11
5.9301404156190554
 21
69.076379857278056
 31
0.0
 11
5.8636411281590535
 21
69.186592681646005
 31
0.0
 11
5.7896740646205664
 21
69.291450045572134
 31
0.0
 11
5.709018897571184
 21
69.391261395972151
 31
0.0
 11
5.6245132120981252
 21
69.484130085802349
 31
0.0
 11
5.535278040548139
 21
69.572465567961686
 31
0.0
 11
5.4419715896610557
 21
69.656614798409166
 31
0.0
 11
5.3453137606711323
 21
69.736868925146297
 31
0.0
 11
5.2612550801559506
 21
69.802446336339585
 31
0.0
 11
5.1764718282289381
 21
69.867117072800013
 31
0.0
 11
5.0923046213269538
 21
69.932425516263663
 31
0.0
 11
5.0099876022338776
 21
70.0
 31
0.0
  0
SPLINE
  5
2D9
100
AcDbEntity
  8
0
  6
CONTINUOUS
 62
               4
100
AcDbSpline
210
0.0
220
0.0
230
1.0
 70
               0
 71
               3
 72
               0
 73
               0
 74
              37
 44
0.000001
 12
-0.9881349170157097
 22
-0.1535883647102106
 32
0.0
 13
-0.2801395722747447
 23
-0.9599592804102282
 33
0.0
 11
15.999987602233887
 21
69.214618999999999
 31
0.0
 11
15.869747744499461
 21
69.19275158693938
 31
0.0
 11
15.740070246410109
 21
69.167718873458881
 31
0.0
 11
15.61102243621135
 21
69.139521589105001
 31
0.0
 11
15.482709797001291
 21
69.108166030370825
 31
0.0
 11
15.386046556213476
 21
69.082315062510204
 31
0.0
 11
15.28988073556291
 21
69.054674645789973
 31
0.0
 11
15.194244306214976
 21
69.025268176043781
 31
0.0
 11
15.099160342912285
 21
68.994117293121292
 31
0.0
 11
14.981934238568396
 21
68.953036979776769
 31
0.0
 11
14.865689781340796
 21
68.909253059125476
 31
0.0
 11
14.750514167383281
 21
68.862714174877951
 31
0.0
 11
14.636511100825913
 21
68.813375455399637
 31
0.0
 11
14.537363081459063
 21
68.767656189143551
 31
0.0
 11
14.439291995905679
 21
68.719671576845343
 31
0.0
 11
14.342405292932289
 21
68.669362112203615
 31
0.0
 11
14.246798757907783
 21
68.616662429365363
 31
0.0
 11
14.168018827456423
 21
68.570774034302261
 31
0.0
 11
14.090293030614681
 21
68.523124141633417
 31
0.0
 11
14.013703380804513
 21
68.473657623471681
 31
0.0
 11
13.93834718336629
 21
68.422329805906713
 31
0.0
 11
13.859091353069399
 21
68.365212032178448
 31
0.0
 11
13.781525466450963
 21
68.30581905037846
 31
0.0
 11
13.705825654459598
 21
68.244074200232731
 31
0.0
 11
13.632172076960984
 21
68.179904037124516
 31
0.0
 11
13.566541819026579
 21
68.11882321765124
 31
0.0
 11
13.50296088781252
 21
68.055613217438875
 31
0.0
 11
13.441592152147493
 21
67.990241016167317
 31
0.0
 11
13.382619625273378
 21
67.922697800405444
 31
0.0
 11
13.32712611298399
 21
67.854094007937036
 31
0.0
 11
13.274436908064967
 21
67.783314708637462
 31
0.0
 11
13.224868362387349
 21
67.710310704287039
 31
0.0
 11
13.178761320525496
 21
67.635074842327299
 31
0.0
 11
13.124535548667138
 21
67.534228771677192
 31
0.0
 11
13.076681705531527
 21
67.430172979099396
 31
0.0
 11
13.035182012958851
 21
67.323494228556996
 31
0.0
 11
12.999987602233887
 21
67.214618999999999
 31
0.0
  0
ENDBLK
  5
2DA
100
AcDbEntity
  8
0
100
AcDbBlockEnd
  0
BLOCK
  5
2DB
100
AcDbEntity
  8
0
100
AcDbBlockBegin
  2
F15MP-8
 70
               0
 10
0.0
 20
0.0
 30
0.0
  3
F15MP-8
  1

  0
LINE
  5
2DC
100
AcDbEntity
  8
0
  6
CONTINUOUS
 62
               7
100
AcDbLine
 10
19.0
 20
-42.600000000000001
 30
0.0
 11
19.0
 21
60.399999999999999
 31
0.0
  0
LINE
  5
2DD
100
AcDbEntity
  8
0
  6
CONTINUOUS
 62
               7
100
AcDbLine
 10
0.0
 20
-42.600000000000001
 30
0.0
 11
0.0
 21
60.399999999999999
 31
0.0
  0
LINE
  5
2DE
100
AcDbEntity
  8
0
  6
CONTINUOUS
 62
               7
100
AcDbLine
 10
0.0
 20
15.6
 30
0.0
 11
19.0
 21
15.6
 31
0.0
  0
LINE
  5
2DF
100
AcDbEntity
  8
0
  6
CONTINUOUS
 62
               7
100
AcDbLine
 10
0.0
 20
-37.399999999999999
 30
0.0
 11
19.0
 21
-37.399999999999999
 31
0.0
  0
LINE
  5
2E0
100
AcDbEntity
  8
0
  6
CONTINUOUS
 62
               7
100
AcDbLine
 10
8.4299999999999997
 20
41.829999999999998
 30
0.0
 11
10.56
 21
43.960000000000001
 31
0.0
  0
LINE
  5
2E1
100
AcDbEntity
  8
0
  6
CONTINUOUS
 62
               7
100
AcDbLine
 10
8.4299999999999997
 20
43.960000000000001
 30
0.0
 11
10.56
 21
41.829999999999998
 31
0.0
  0
LINE
  5
2E2
100
AcDbEntity
  8
0
  6
CONTINUOUS
 62
               2
100
AcDbLine
 10
9.5
 20
-44.600000000000001
 30
0.0
 11
9.5
 21
63.399999999999999
 31
0.0
  0
LINE
  5
2E3
100
AcDbEntity
  8
0
  6
CONTINUOUS
 62
               7
100
AcDbLine
 10
19.0
 20
60.399999999999999
 30
0.0
 11
0.0
 21
60.399999999999999
 31
0.0
  0
LINE
  5
2E4
100
AcDbEntity
  8
0
  6
CONTINUOUS
 62
               4
100
AcDbLine
 10
18.5
 20
-37.200000000000003
 30
0.0
 11
18.5
 21
-34.159999999999997
 31
0.0
  0
LINE
  5
2E5
100
AcDbEntity
  8
0
  6
CONTINUOUS
 62
               4
100
AcDbLine
 10
0.5
 20
15.4
 30
0.0
 11
18.5
 21
15.4
 31
0.0
  0
LINE
  5
2E6
100
AcDbEntity
  8
0
  6
CONTINUOUS
 62
               4
100
AcDbLine
 10
0.5
 20
-37.200000000000003
 30
0.0
 11
18.5
 21
-37.200000000000003
 31
0.0
  0
LINE
  5
2E7
100
AcDbEntity
  8
0
  6
CONTINUOUS
 62
               4
100
AcDbLine
 10
16.0
 20
12.1
 30
0.0
 11
18.5
 21
12.1
 31
0.0
  0
LINE
  5
2E8
100
AcDbEntity
  8
0
  6
CONTINUOUS
 62
               4
100
AcDbLine
 10
16.0
 20
6.0999999999999996
 30
0.0
 11
18.5
 21
6.0999999999999996
 31
0.0
  0
LINE
  5
2E9
100
AcDbEntity
  8
0
  6
CONTINUOUS
 62
               4
100
AcDbLine
 10
0.5
 20
-33.899999999999999
 30
0.0
 11
3.0
 21
-33.899999999999999
 31
0.0
  0
LINE
  5
2EA
100
AcDbEntity
  8
0
  6
CONTINUOUS
 62
               4
100
AcDbLine
 10
0.5
 20
-27.899999999999999
 30
0.0
 11
3.0
 21
-27.899999999999999
 31
0.0
  0
LINE
  5
2EB
100
AcDbEntity
  8
0
  6
CONTINUOUS
 62
               4
100
AcDbLine
 10
6.0
 20
11.1
 30
0.0
 11
6.0
 21
15.4
 31
0.0
  0
LINE
  5
2EC
100
AcDbEntity
  8
0
  6
CONTINUOUS
 62
               4
100
AcDbLine
 10
3.0
 20
8.0999999999999996
 30
0.0
 11
0.5
 21
8.0999999999999996
 31
0.0
  0
LINE
  5
2ED
100
AcDbEntity
  8
0
  6
CONTINUOUS
 62
               4
100
AcDbLine
 10
0.5
 20
-35.200000000000003
 30
0.0
 11
13.0
 21
-35.200000000000003
 31
0.0
  0
LINE
  5
2EE
100
AcDbEntity
  8
0
  6
CONTINUOUS
 62
               4
100
AcDbLine
 10
6.0
 20
13.4
 30
0.0
 11
18.5
 21
13.4
 31
0.0
  0
LINE
  5
2EF
100
AcDbEntity
  8
0
  6
CONTINUOUS
 62
             200
100
AcDbLine
 10
-1.0
 20
-1.3999999999999999
 30
0.0
 11
20.0
 21
-1.3999999999999999
 31
0.0
  0
LINE
  5
2F0
100
AcDbEntity
  8
0
  6
CONTINUOUS
 62
             200
100
AcDbLine
 10
-1.0
 20
-20.399999999999999
 30
0.0
 11
20.0
 21
-20.399999999999999
 31
0.0
  0
LINE
  5
2F1
100
AcDbEntity
  8
0
  6
CONTINUOUS
 62
               4
100
AcDbLine
 10
16.0
 20
-29.899999999999999
 30
0.0
 11
18.5
 21
-29.899999999999999
 31
0.0
  0
LINE
  5
2F2
100
AcDbEntity
  8
0
  6
CONTINUOUS
 62
               4
100
AcDbLine
 10
13.0
 20
-32.899999999999999
 30
0.0
 11
13.0
 21
-37.200000000000003
 31
0.0
  0
LINE
  5
2F3
100
AcDbEntity
  8
0
  6
CONTINUOUS
 62
               4
100
AcDbLine
 10
1.9299999999999999
 20
10.029999999999999
 30
0.0
 11
4.0599999999999996
 21
12.16
 31
0.0
  0
LINE
  5
2F4
100
AcDbEntity
  8
0
  6
CONTINUOUS
 62
               4
100
AcDbLine
 10
1.9299999999999999
 20
12.16
 30
0.0
 11
4.0599999999999996
 21
10.029999999999999
 31
0.0
  0
LINE
  5
2F5
100
AcDbEntity
  8
0
  6
CONTINUOUS
 62
               4
100
AcDbLine
 10
14.93
 20
-33.960000000000001
 30
0.0
 11
17.059999999999999
 21
-31.829999999999998
 31
0.0
  0
LINE
  5
2F6
100
AcDbEntity
  8
0
  6
CONTINUOUS
 62
               4
100
AcDbLine
 10
14.93
 20
-31.829999999999998
 30
0.0
 11
17.059999999999999
 21
-33.960000000000001
 31
0.0
  0
LINE
  5
2F7
100
AcDbEntity
  8
0
  6
CONTINUOUS
 62
               4
100
AcDbLine
 10
0.5
 20
15.4
 30
0.0
 11
0.5
 21
12.359999999999999
 31
0.0
  0
LINE
  5
2F8
100
AcDbEntity
  8
0
  6
CONTINUOUS
 62
               4
100
AcDbLine
 10
18.5
 20
15.4
 30
0.0
 11
18.5
 21
12.1
 31
0.0
  0
LINE
  5
2F9
100
AcDbEntity
  8
0
  6
CONTINUOUS
 62
               4
100
AcDbLine
 10
0.5
 20
-33.899999999999999
 30
0.0
 11
0.5
 21
-37.200000000000003
 31
0.0
  0
LINE
  5
2FA
100
AcDbEntity
  8
0
  6
CONTINUOUS
 62
               4
100
AcDbLine
 10
0.5
 20
9.8300000000000001
 30
0.0
 11
0.5
 21
-27.899999999999999
 31
0.0
  0
LINE
  5
2FB
100
AcDbEntity
  8
0
  6
CONTINUOUS
 62
               4
100
AcDbLine
 10
18.5
 20
6.0999999999999996
 30
0.0
 11
18.5
 21
-31.629999999999999
 31
0.0
  0
LINE
  5
2FC
100
AcDbEntity
  8
0
  6
CONTINUOUS
 62
               4
100
AcDbLine
 10
14.93
 20
8.0299999999999994
 30
0.0
 11
17.059999999999999
 21
10.16
 31
0.0
  0
LINE
  5
2FD
100
AcDbEntity
  8
0
  6
CONTINUOUS
 62
               4
100
AcDbLine
 10
14.94
 20
10.16
 30
0.0
 11
17.059999999999999
 21
8.0399999999999991
 31
0.0
  0
LINE
  5
2FE
100
AcDbEntity
  8
0
  6
CONTINUOUS
 62
               4
100
AcDbLine
 10
1.9399999999999999
 20
-31.960000000000001
 30
0.0
 11
4.0599999999999996
 21
-29.829999999999998
 31
0.0
  0
LINE
  5
2FF
100
AcDbEntity
  8
0
  6
CONTINUOUS
 62
               4
100
AcDbLine
 10
1.9299999999999999
 20
-29.829999999999998
 30
0.0
 11
4.0599999999999996
 21
-31.960000000000001
 31
0.0
  0
LINE
  5
300
100
AcDbEntity
  8
0
  6
CONTINUOUS
 62
               7
100
AcDbLine
 10
0.0
 20
-42.600000000000001
 30
0.0
 11
19.0
 21
-42.600000000000001
 31
0.0
  0
LINE
  5
301
100
AcDbEntity
  8
0
  6
CONTINUOUS
 62
               7
100
AcDbLine
 10
1.0
 20
-44.600000000000001
 30
0.0
 11
18.0
 21
-44.600000000000001
 31
0.0
  0
LINE
  5
302
100
AcDbEntity
  8
0
  6
CONTINUOUS
 62
               7
100
AcDbLine
 10
6.0
 20
-42.600000000000001
 30
0.0
 11
6.0
 21
-44.600000000000001
 31
0.0
  0
LINE
  5
303
100
AcDbEntity
  8
0
  6
CONTINUOUS
 62
               7
100
AcDbLine
 10
5.75
 20
-42.600000000000001
 30
0.0
 11
5.75
 21
-43.100000000000001
 31
0.0
  0
LINE
  5
304
100
AcDbEntity
  8
0
  6
CONTINUOUS
 62
               7
100
AcDbLine
 10
0.25
 20
-42.600000000000001
 30
0.0
 11
0.25
 21
-43.100000000000001
 31
0.0
  0
LINE
  5
305
100
AcDbEntity
  8
0
  6
CONTINUOUS
 62
               7
100
AcDbLine
 10
0.5
 20
-43.920000000000002
 30
0.0
 11
0.5
 21
-44.100000000000001
 31
0.0
  0
LINE
  5
306
100
AcDbEntity
  8
0
  6
CONTINUOUS
 62
               7
100
AcDbLine
 10
18.5
 20
-44.100000000000001
 30
0.0
 11
18.5
 21
-42.600000000000001
 31
0.0
  0
CIRCLE
  5
307
100
AcDbEntity
  8
0
  6
CONTINUOUS
 62
               7
100
AcDbCircle
 10
9.5
 20
42.899993896484375
 30
0.0
 40
3.0
  0
ARC
  5
308
100
AcDbEntity
  8
0
  6
CONTINUOUS
 62
               4
100
AcDbCircle
 10
16.0
 20
9.0999999999999996
 30
0.0
 40
3.0
100
AcDbArc
 50
90.0
 51
270.0
  0
ARC
  5
309
100
AcDbEntity
  8
0
  6
CONTINUOUS
 62
               4
100
AcDbCircle
 10
3.0
 20
-30.899999999999999
 30
0.0
 40
3.0
100
AcDbArc
 50
270.0
 51
90.0
  0
ARC
  5
30A
100
AcDbEntity
  8
0
  6
CONTINUOUS
 62
               4
100
AcDbCircle
 10
3.0000007629393561
 20
11.099999237060644
 30
0.0
 40
2.9999992370607411
100
AcDbArc
 50
269.99998542892791
 51
0.000014571072058
  0
CIRCLE
  5
30B
100
AcDbEntity
  8
0
  6
CONTINUOUS
 62
               4
100
AcDbCircle
 10
9.4949999999999992
 20
-1.4000155846907845
 30
0.0
 40
8.996603960058934
  0
CIRCLE
  5
30C
100
AcDbEntity
  8
0
  6
CONTINUOUS
 62
               4
100
AcDbCircle
 10
9.4949999999999992
 20
-20.400010354489091
 30
0.0
 40
9.0052643556953669
  0
CIRCLE
  5
30D
100
AcDbEntity
  8
0
  6
CONTINUOUS
 62
               4
100
AcDbCircle
 10
9.5
 20
-1.4000167846679687
 30
0.0
 40
5.6799993515014648
  0
CIRCLE
  5
30E
100
AcDbEntity
  8
0
  6
CONTINUOUS
 62
             200
100
AcDbCircle
 10
9.5
 20
-1.4000167846679687
 30
0.0
 40
6.5
  0
CIRCLE
  5
30F
100
AcDbEntity
  8
0
  6
CONTINUOUS
 62
             200
100
AcDbCircle
 10
9.5
 20
-20.400009155273438
 30
0.0
 40
6.5
  0
CIRCLE
  5
310
100
AcDbEntity
  8
0
  6
CONTINUOUS
 62
               4
100
AcDbCircle
 10
9.5
 20
-20.400009155273438
 30
0.0
 40
5.6799993515014648
  0
ARC
  5
311
100
AcDbEntity
  8
0
  6
CONTINUOUS
 62
               4
100
AcDbCircle
 10
15.999996948243741
 20
-32.899996948243739
 30
0.0
 40
2.9999969482452924
100
AcDbArc
 50
89.999941715689459
 51
180.00005828431054
  0
CIRCLE
  5
312
100
AcDbEntity
  8
0
  6
CONTINUOUS
 62
               4
100
AcDbCircle
 10
3.0
 20
11.099998474121094
 30
0.0
 40
2.7999992370605469
  0
CIRCLE
  5
313
100
AcDbEntity
  8
0
  6
CONTINUOUS
 62
               4
100
AcDbCircle
 10
16.0
 20
-32.899993896484375
 30
0.0
 40
2.7999992370605469
  0
CIRCLE
  5
314
100
AcDbEntity
  8
0
  6
CONTINUOUS
 62
               4
100
AcDbCircle
 10
16.0
 20
9.0999984741210937
 30
0.0
 40
2.7999992370605469
  0
CIRCLE
  5
315
100
AcDbEntity
  8
0
  6
CONTINUOUS
 62
               4
100
AcDbCircle
 10
3.0
 20
-30.899993896484375
 30
0.0
 40
2.7999992370605469
  0
ARC
  5
316
100
AcDbEntity
  8
0
  6
CONTINUOUS
 62
               7
100
AcDbCircle
 10
18.0000030517485
 20
-44.100003051748502
 30
0.0
 40
0.4999969482608146
100
AcDbArc
 50
269.99965029324716
 51
0.0003497067528174
  0
ARC
  5
317
100
AcDbEntity
  8
0
  6
CONTINUOUS
 62
               7
100
AcDbCircle
 10
4.2500030517547076
 20
-43.100003051754712
 30
0.0
 40
1.499996948248397
100
AcDbArc
 50
269.99988343131963
 51
0.0001165686804806
  0
ARC
  5
318
100
AcDbEntity
  8
0
  6
CONTINUOUS
 62
               7
100
AcDbCircle
 10
1.7499969482452926
 20
-43.100003051754712
 30
0.0
 40
1.499996948248397
100
AcDbArc
 50
179.99988343131952
 51
270.00011656868037
  0
ARC
  5
319
100
AcDbEntity
  8
0
  6
CONTINUOUS
 62
               7
100
AcDbCircle
 10
0.9999969482515014
 20
-44.100003051748502
 30
0.0
 40
0.4999969482608146
100
AcDbArc
 50
179.99965029324719
 51
270.00034970675267
  0
ENDBLK
  5
31A
100
AcDbEntity
  8
0
100
AcDbBlockEnd
  0
BLOCK
  5
31B
100
AcDbEntity
  8
0
100
AcDbBlockBegin
  2
F15MP-9
 70
               0
 10
0.0
 20
0.0
 30
0.0
  3
F15MP-9
  1

  0
LINE
  5
31C
100
AcDbEntity
  8
0
  6
CONTINUOUS
 62
               7
100
AcDbLine
 10
57.549999999999997
 20
60.390000000000001
 30
0.0
 11
58.549999999999997
 21
60.390000000000001
 31
0.0
  0
LINE
  5
31D
100
AcDbEntity
  8
0
  6
CONTINUOUS
 62
               7
100
AcDbLine
 10
65.0
 20
60.399999999999999
 30
0.0
 11
49.0
 21
60.399999999999999
 31
0.0
  0
LINE
  5
31E
100
AcDbEntity
  8
0
  6
CONTINUOUS
 62
               7
100
AcDbLine
 10
57.0
 20
-39.600000000000001
 30
0.0
 11
49.0
 21
-39.600000000000001
 31
0.0
  0
LINE
  5
31F
100
AcDbEntity
  8
0
  6
CONTINUOUS
 62
               7
100
AcDbLine
 10
65.0
 20
60.399999999999999
 30
0.0
 11
65.0
 21
15.6
 31
0.0
  0
LINE
  5
320
100
AcDbEntity
  8
0
  6
CONTINUOUS
 62
               7
100
AcDbLine
 10
65.0
 20
-42.600000000000001
 30
0.0
 11
56.0
 21
-42.600000000000001
 31
0.0
  0
LINE
  5
321
100
AcDbEntity
  8
0
  6
CONTINUOUS
 62
               7
100
AcDbLine
 10
57.0
 20
60.399999999999999
 30
0.0
 11
57.0
 21
-39.799999999999997
 31
0.0
  0
LINE
  5
322
100
AcDbEntity
  8
0
  6
CONTINUOUS
 62
               7
100
AcDbLine
 10
62.0
 20
15.6
 30
0.0
 11
62.0
 21
-37.399999999999999
 31
0.0
  0
LINE
  5
323
100
AcDbEntity
  8
0
  6
CONTINUOUS
 62
               7
100
AcDbLine
 10
56.0
 20
-39.799999999999997
 30
0.0
 11
56.0
 21
-42.600000000000001
 31
0.0
  0
LINE
  5
324
100
AcDbEntity
  8
0
  6
CONTINUOUS
 62
               7
100
AcDbLine
 10
57.0
 20
-39.799999999999997
 30
0.0
 11
56.0
 21
-39.799999999999997
 31
0.0
  0
LINE
  5
325
100
AcDbEntity
  8
0
  6
CONTINUOUS
 62
               7
100
AcDbLine
 10
65.0
 20
-37.399999999999999
 30
0.0
 11
62.0
 21
-37.399999999999999
 31
0.0
  0
LINE
  5
326
100
AcDbEntity
  8
0
  6
CONTINUOUS
 62
               7
100
AcDbLine
 10
65.0
 20
15.6
 30
0.0
 11
62.0
 21
15.6
 31
0.0
  0
LINE
  5
327
100
AcDbEntity
  8
0
  6
CONTINUOUS
 62
               7
100
AcDbLine
 10
65.0
 20
-37.399999999999999
 30
0.0
 11
65.0
 21
-42.600000000000001
 31
0.0
  0
LINE
  5
328
100
AcDbEntity
  8
0
  6
CONTINUOUS
 62
               7
100
AcDbLine
 10
53.799999999999997
 20
-44.600000000000001
 30
0.0
 11
47.5
 21
-44.600000000000001
 31
0.0
  0
LINE
  5
329
100
AcDbEntity
  8
0
  6
CONTINUOUS
 62
               7
100
AcDbLine
 10
55.799999999999997
 20
-42.600000000000001
 30
0.0
 11
55.799999999999997
 21
-39.600000000000001
 31
0.0
  0
LINE
  5
32A
100
AcDbEntity
  8
0
  6
CONTINUOUS
 62
               7
100
AcDbLine
 10
53.799999999999997
 20
-44.600000000000001
 30
0.0
 11
55.799999999999997
 21
-42.600000000000001
 31
0.0
  0
LINE
  5
32B
100
AcDbEntity
  8
0
  6
CONTINUOUS
 62
               7
100
AcDbLine
 10
54.25
 20
-42.600000000000001
 30
0.0
 11
54.25
 21
-43.100000000000001
 31
0.0
  0
LINE
  5
32C
100
AcDbEntity
  8
0
  6
CONTINUOUS
 62
               7
100
AcDbLine
 10
55.799999999999997
 20
-42.600000000000001
 30
0.0
 11
49.0
 21
-42.600000000000001
 31
0.0
  0
ARC
  5
32D
100
AcDbEntity
  8
0
  6
CONTINUOUS
 62
               7
100
AcDbCircle
 10
52.75000305138218
 20
-43.100003051382181
 30
0.0
 40
1.4999969486209253
100
AcDbArc
 50
269.99988344554919
 51
0.0001165544508316
  0
ARC
  5
32E
100
AcDbEntity
  8
0
  6
CONTINUOUS
 62
               7
100
AcDbCircle
 10
50.245504340518906
 20
-43.096219317028996
 30
0.0
 40
1.5037874030031368
100
AcDbArc
 50
188.94354873512199
 51
270.17128930430607
  0
LINE
  5
32F
100
AcDbEntity
  8
0
  6
CONTINUOUS
 62
               4
100
AcDbLine
 10
67.0
 20
-20.399999999999999
 30
0.0
 11
69.0
 21
-20.399999999999999
 31
0.0
  0
LINE
  5
330
100
AcDbEntity
  8
0
  6
CONTINUOUS
 62
               4
100
AcDbLine
 10
67.0
 20
-1.4000000000000004
 30
0.0
 11
69.0
 21
-1.4000000000000004
 31
0.0
  0
LINE
  5
331
100
AcDbEntity
  8
0
  6
CONTINUOUS
 62
               4
100
AcDbLine
 10
67.0
 20
12.34997329711914
 30
0.0
 11
67.0
 21
9.8499732971191403
 31
0.0
  0
LINE
  5
332
100
AcDbEntity
  8
0
  6
CONTINUOUS
 62
               4
100
AcDbLine
 10
67.0
 20
-20.399999999999999
 30
0.0
 11
67.0
 21
-1.4000000000000004
 31
0.0
  0
LINE
  5
333
100
AcDbEntity
  8
0
  6
CONTINUOUS
 62
               4
100
AcDbLine
 10
69.0
 20
-1.4000000000000004
 30
0.0
 11
69.0
 21
13.399991607666015
 31
0.0
  0
ARC
  5
334
100
AcDbEntity
  8
0
  6
CONTINUOUS
 62
               4
100
AcDbCircle
 10
73.500015258789063
 20
-11.9
 30
0.0
 40
0.5
100
AcDbArc
 50
0.0
 51
90.0
  0
ARC
  5
335
100
AcDbEntity
  8
0
  6
CONTINUOUS
 62
               4
100
AcDbCircle
 10
73.500015258789063
 20
-9.9000000000000004
 30
0.0
 40
0.5
100
AcDbArc
 50
270.0
 51
0.0
  0
LINE
  5
336
100
AcDbEntity
  8
0
  6
CONTINUOUS
 62
               4
100
AcDbLine
 10
74.000015258789063
 20
-9.9000000000000004
 30
0.0
 11
74.000015258789063
 21
7.0999885559082028
 31
0.0
  0
LINE
  5
337
100
AcDbEntity
  8
0
  6
CONTINUOUS
 62
               4
100
AcDbLine
 10
67.0
 20
-11.4
 30
0.0
 11
73.500015258789063
 21
-11.4
 31
0.0
  0
LINE
  5
338
100
AcDbEntity
  8
0
  6
CONTINUOUS
 62
               4
100
AcDbLine
 10
67.0
 20
-10.4
 30
0.0
 11
73.500015258789063
 21
-10.4
 31
0.0
  0
LINE
  5
339
100
AcDbEntity
  8
0
  6
CONTINUOUS
 62
               4
100
AcDbLine
 10
62.699996948242187
 20
-27.94999923706056
 30
0.0
 11
62.0
 21
-27.94999923706056
 31
0.0
  0
LINE
  5
33A
100
AcDbEntity
  8
0
  6
CONTINUOUS
 62
               4
100
AcDbLine
 10
62.69999694824218
 20
-33.849993133544935
 30
0.0
 11
61.999999999999993
 21
-33.849993133544935
 31
0.0
  0
LINE
  5
33B
100
AcDbEntity
  8
0
  6
CONTINUOUS
 62
               4
100
AcDbLine
 10
62.69999694824218
 20
-33.849993133544935
 30
0.0
 11
62.699996948242187
 21
-27.94999923706056
 31
0.0
  0
ARC
  5
33C
100
AcDbEntity
  8
0
  6
CONTINUOUS
 62
               4
100
AcDbCircle
 10
63.199981689453125
 20
-29.650011444091795
 30
0.0
 40
1.5
100
AcDbArc
 50
0.0000179860890374
 51
89.999982013910653
  0
ARC
  5
33D
100
AcDbEntity
  8
0
  6
CONTINUOUS
 62
               4
100
AcDbCircle
 10
63.199981689453125
 20
-32.149996185302733
 30
0.0
 40
1.5
100
AcDbArc
 50
269.9999087030626
 51
359.99994604173287
  0
LINE
  5
33E
100
AcDbEntity
  8
0
  6
CONTINUOUS
 62
               4
100
AcDbLine
 10
63.19999694824218
 20
-33.649980926513685
 30
0.0
 11
62.69999694824218
 21
-33.649980926513685
 31
0.0
  0
LINE
  5
33F
100
AcDbEntity
  8
0
  6
CONTINUOUS
 62
               4
100
AcDbLine
 10
63.199996948242188
 20
-28.149996185302747
 30
0.0
 11
62.699996948242187
 21
-28.149996185302747
 31
0.0
  0
LINE
  5
340
100
AcDbEntity
  8
0
  6
CONTINUOUS
 62
               4
100
AcDbLine
 10
64.699981689453125
 20
-29.649996185302747
 30
0.0
 11
64.699981689453125
 21
-32.149996185302747
 31
0.0
  0
ARC
  5
341
100
AcDbEntity
  8
0
  6
CONTINUOUS
 62
               4
100
AcDbCircle
 10
65.5
 20
9.8499732971191403
 30
0.0
 40
1.5
100
AcDbArc
 50
270.00001798608935
 51
0.0
  0
ARC
  5
342
100
AcDbEntity
  8
0
  6
CONTINUOUS
 62
               4
100
AcDbCircle
 10
65.5
 20
12.34997329711914
 30
0.0
 40
1.5
100
AcDbArc
 50
0.0
 51
89.999982013910653
  0
ARC
  5
343
100
AcDbEntity
  8
0
  6
CONTINUOUS
 62
               4
100
AcDbCircle
 10
73.500015258789063
 20
-28.899996185302733
 30
0.0
 40
0.5
100
AcDbArc
 50
269.99996334457597
 51
0.0
  0
ARC
  5
344
100
AcDbEntity
  8
0
  6
CONTINUOUS
 62
               4
100
AcDbCircle
 10
73.500015258789063
 20
7.0999885559082028
 30
0.0
 40
0.5
100
AcDbArc
 50
0.0
 51
89.999982013910653
  0
LINE
  5
345
100
AcDbEntity
  8
0
  6
CONTINUOUS
 62
               4
100
AcDbLine
 10
65.5
 20
13.84997329711914
 30
0.0
 11
65.0
 21
13.84997329711914
 31
0.0
  0
LINE
  5
346
100
AcDbEntity
  8
0
  6
CONTINUOUS
 62
               4
100
AcDbLine
 10
65.5
 20
8.3499732971191403
 30
0.0
 11
65.0
 21
8.3499732971191403
 31
0.0
  0
LINE
  5
347
100
AcDbEntity
  8
0
  6
CONTINUOUS
 62
               4
100
AcDbLine
 10
65.0
 20
8.0999885559082028
 30
0.0
 11
65.0
 21
15.399991607666015
 31
0.0
  0
LINE
  5
348
100
AcDbEntity
  8
0
  6
CONTINUOUS
 62
               4
100
AcDbLine
 10
69.0
 20
-33.899996185302733
 30
0.0
 11
62.0
 21
-33.899996185302733
 31
0.0
  0
LINE
  5
349
100
AcDbEntity
  8
0
  6
CONTINUOUS
 62
               4
100
AcDbLine
 10
69.0
 20
-27.899996185302733
 30
0.0
 11
62.0
 21
-27.899996185302733
 31
0.0
  0
LINE
  5
34A
100
AcDbEntity
  8
0
  6
CONTINUOUS
 62
               4
100
AcDbLine
 10
69.0
 20
8.0999885559082028
 30
0.0
 11
65.0
 21
8.0999885559082028
 31
0.0
  0
LINE
  5
34B
100
AcDbEntity
  8
0
  6
CONTINUOUS
 62
               4
100
AcDbLine
 10
68.999989788933817
 20
-35.19998434461413
 30
0.0
 11
66.999972998626617
 21
-37.199993379851001
 31
0.0
  0
LINE
  5
34C
100
AcDbEntity
  8
0
  6
CONTINUOUS
 62
               4
100
AcDbLine
 10
69.00000355440261
 20
13.4000178781067
 30
0.0
 11
67.000018121349967
 21
15.400015280812658
 31
0.0
  0
LINE
  5
34D
100
AcDbEntity
  8
0
  6
CONTINUOUS
 62
               4
100
AcDbLine
 10
67.000018121349967
 20
15.399991607666015
 30
0.0
 11
62.0
 21
15.399991607666015
 31
0.0
  0
LINE
  5
34E
100
AcDbEntity
  8
0
  6
CONTINUOUS
 62
               4
100
AcDbLine
 10
66.999982400242601
 20
-37.199983978271483
 30
0.0
 11
62.0
 21
-37.199983978271483
 31
0.0
  0
LINE
  5
34F
100
AcDbEntity
  8
0
  6
CONTINUOUS
 62
               4
100
AcDbLine
 10
69.0
 20
-35.199983978271483
 30
0.0
 11
69.0
 21
-20.399999999999999
 31
0.0
  0
LINE
  5
350
100
AcDbEntity
  8
0
  6
CONTINUOUS
 62
             200
100
AcDbLine
 10
75.78564453125
 20
-1.4000000000000004
 30
0.0
 11
65.097412109375
 21
-1.4000000000000004
 31
0.0
  0
LINE
  5
351
100
AcDbEntity
  8
0
  6
CONTINUOUS
 62
             200
100
AcDbLine
 10
75.78564453125
 20
-20.399999999999999
 30
0.0
 11
65.097412109375
 21
-20.399999999999999
 31
0.0
  0
LINE
  5
352
100
AcDbEntity
  8
0
  6
CONTINUOUS
 62
               4
100
AcDbLine
 10
73.500015258789063
 20
-29.399996185302733
 30
0.0
 11
69.0
 21
-29.399996185302733
 31
0.0
  0
LINE
  5
353
100
AcDbEntity
  8
0
  6
CONTINUOUS
 62
               4
100
AcDbLine
 10
73.500015258789063
 20
7.5999885559082028
 30
0.0
 11
69.0
 21
7.5999885559082028
 31
0.0
  0
LINE
  5
354
100
AcDbEntity
  8
0
  6
CONTINUOUS
 62
               4
100
AcDbLine
 10
74.000015258789063
 20
-28.899996185302733
 30
0.0
 11
74.000015258789063
 21
-11.9
 31
0.0
  0
ENDBLK
  5
355
100
AcDbEntity
  8
0
100
AcDbBlockEnd
  0
BLOCK
  5
356
100
AcDbEntity
  8
0
100
AcDbBlockBegin
  2
F15MP-10
 70
               0
 10
0.0
 20
0.0
 30
0.0
  3
F15MP-10
  1

  0
LINE
  5
357
100
AcDbEntity
  8
0
  6
CONTINUOUS
 62
               7
100
AcDbLine
 10
0.0
 20
65.0
 30
0.0
 11
0.0
 21
3.0
 31
0.0
  0
LINE
  5
358
100
AcDbEntity
  8
0
  6
CONTINUOUS
 62
               7
100
AcDbLine
 10
0.5
 20
12.4
 30
0.0
 11
0.5
 21
6.5999999999999996
 31
0.0
  0
LINE
  5
359
100
AcDbEntity
  8
0
  6
CONTINUOUS
 62
               7
100
AcDbLine
 10
19.0
 20
65.0
 30
0.0
 11
19.0
 21
3.0
 31
0.0
  0
LINE
  5
35A
100
AcDbEntity
  8
0
  6
CONTINUOUS
 62
               7
100
AcDbLine
 10
0.5
 20
6.5999999999999996
 30
0.0
 11
3.0
 21
6.5999999999999996
 31
0.0
  0
LINE
  5
35B
100
AcDbEntity
  8
0
  6
CONTINUOUS
 62
               7
100
AcDbLine
 10
0.5
 20
12.4
 30
0.0
 11
3.0
 21
12.4
 31
0.0
  0
LINE
  5
35C
100
AcDbEntity
  8
0
  6
CONTINUOUS
 62
               7
100
AcDbLine
 10
16.0
 20
46.600000000000001
 30
0.0
 11
18.5
 21
46.600000000000001
 31
0.0
  0
LINE
  5
35D
100
AcDbEntity
  8
0
  6
CONTINUOUS
 62
               7
100
AcDbLine
 10
16.0
 20
52.399999999999999
 30
0.0
 11
18.5
 21
52.399999999999999
 31
0.0
  0
LINE
  5
35E
100
AcDbEntity
  8
0
  6
CONTINUOUS
 62
               7
100
AcDbLine
 10
18.5
 20
52.399999999999999
 30
0.0
 11
18.5
 21
46.600000000000001
 31
0.0
  0
LINE
  5
35F
100
AcDbEntity
  8
0
  6
CONTINUOUS
 62
               7
100
AcDbLine
 10
18.5
 20
3.2000000000000002
 30
0.0
 11
18.5
 21
6.3499999999999996
 31
0.0
  0
LINE
  5
360
100
AcDbEntity
  8
0
  6
CONTINUOUS
 62
               7
100
AcDbLine
 10
0.5
 20
3.2000000000000002
 30
0.0
 11
0.5
 21
6.5
 31
0.0
  0
LINE
  5
361
100
AcDbEntity
  8
0
  6
CONTINUOUS
 62
               7
100
AcDbLine
 10
0.5
 20
55.799999999999997
 30
0.0
 11
18.5
 21
55.799999999999997
 31
0.0
  0
LINE
  5
362
100
AcDbEntity
  8
0
  6
CONTINUOUS
 62
               7
100
AcDbLine
 10
0.5
 20
3.2000000000000002
 30
0.0
 11
18.5
 21
3.2000000000000002
 31
0.0
  0
LINE
  5
363
100
AcDbEntity
  8
0
  6
CONTINUOUS
 62
               7
100
AcDbLine
 10
16.0
 20
52.5
 30
0.0
 11
18.5
 21
52.5
 31
0.0
  0
LINE
  5
364
100
AcDbEntity
  8
0
  6
CONTINUOUS
 62
               7
100
AcDbLine
 10
16.0
 20
46.5
 30
0.0
 11
18.5
 21
46.5
 31
0.0
  0
LINE
  5
365
100
AcDbEntity
  8
0
  6
CONTINUOUS
 62
               7
100
AcDbLine
 10
0.5
 20
6.5
 30
0.0
 11
3.0
 21
6.5
 31
0.0
  0
LINE
  5
366
100
AcDbEntity
  8
0
  6
CONTINUOUS
 62
               7
100
AcDbLine
 10
0.5
 20
12.5
 30
0.0
 11
3.0
 21
12.5
 31
0.0
  0
LINE
  5
367
100
AcDbEntity
  8
0
  6
CONTINUOUS
 62
               7
100
AcDbLine
 10
13.0
 20
7.5
 30
0.0
 11
13.0
 21
3.2000000000000002
 31
0.0
  0
LINE
  5
368
100
AcDbEntity
  8
0
  6
CONTINUOUS
 62
               7
100
AcDbLine
 10
6.0
 20
51.5
 30
0.0
 11
6.0
 21
55.799999999999997
 31
0.0
  0
LINE
  5
369
100
AcDbEntity
  8
0
  6
CONTINUOUS
 62
               7
100
AcDbLine
 10
3.0
 20
48.5
 30
0.0
 11
0.5
 21
48.5
 31
0.0
  0
LINE
  5
36A
100
AcDbEntity
  8
0
  6
CONTINUOUS
 62
               7
100
AcDbLine
 10
16.0
 20
10.5
 30
0.0
 11
18.5
 21
10.5
 31
0.0
  0
LINE
  5
36B
100
AcDbEntity
  8
0
  6
CONTINUOUS
 62
               7
100
AcDbLine
 10
0.5
 20
5.2000000000000002
 30
0.0
 11
13.0
 21
5.2000000000000002
 31
0.0
  0
LINE
  5
36C
100
AcDbEntity
  8
0
  6
CONTINUOUS
 62
               7
100
AcDbLine
 10
6.0
 20
53.799999999999997
 30
0.0
 11
18.5
 21
53.799999999999997
 31
0.0
  0
LINE
  5
36D
100
AcDbEntity
  8
0
  6
CONTINUOUS
 62
               7
100
AcDbLine
 10
4.0599999999999996
 20
50.43
 30
0.0
 11
1.9299999999999999
 21
52.560000000000002
 31
0.0
  0
LINE
  5
36E
100
AcDbEntity
  8
0
  6
CONTINUOUS
 62
               7
100
AcDbLine
 10
1.9299999999999999
 20
50.43
 30
0.0
 11
4.0599999999999996
 21
52.560000000000002
 31
0.0
  0
LINE
  5
36F
100
AcDbEntity
  8
0
  6
CONTINUOUS
 62
               7
100
AcDbLine
 10
14.94
 20
6.4299999999999997
 30
0.0
 11
17.059999999999999
 21
8.5600000000000005
 31
0.0
  0
LINE
  5
370
100
AcDbEntity
  8
0
  6
CONTINUOUS
 62
               7
100
AcDbLine
 10
17.059999999999999
 20
6.4299999999999997
 30
0.0
 11
14.93
 21
8.5600000000000005
 31
0.0
  0
LINE
  5
371
100
AcDbEntity
  8
0
  6
CONTINUOUS
 62
               7
100
AcDbLine
 10
0.5
 20
12.5
 30
0.0
 11
0.5
 21
50.350000000000001
 31
0.0
  0
LINE
  5
372
100
AcDbEntity
  8
0
  6
CONTINUOUS
 62
               7
100
AcDbLine
 10
0.5
 20
52.640000000000001
 30
0.0
 11
0.5
 21
55.799999999999997
 31
0.0
  0
LINE
  5
373
100
AcDbEntity
  8
0
  6
CONTINUOUS
 62
               7
100
AcDbLine
 10
18.5
 20
52.5
 30
0.0
 11
18.5
 21
55.799999999999997
 31
0.0
  0
LINE
  5
374
100
AcDbEntity
  8
0
  6
CONTINUOUS
 62
               7
100
AcDbLine
 10
18.5
 20
8.6400000000000006
 30
0.0
 11
18.5
 21
46.5
 31
0.0
  0
LINE
  5
375
100
AcDbEntity
  8
0
  6
CONTINUOUS
 62
               7
100
AcDbLine
 10
0.0
 20
56.0
 30
0.0
 11
19.0
 21
56.0
 31
0.0
  0
LINE
  5
376
100
AcDbEntity
  8
0
  6
CONTINUOUS
 62
               7
100
AcDbLine
 10
0.0
 20
65.0
 30
0.0
 11
19.0
 21
65.0
 31
0.0
  0
LINE
  5
377
100
AcDbEntity
  8
0
  6
CONTINUOUS
 62
               2
100
AcDbLine
 10
9.5
 20
65.0
 30
0.0
 11
9.5
 21
1.51
 31
0.0
  0
LINE
  5
378
100
AcDbEntity
  8
0
  6
CONTINUOUS
 62
               7
100
AcDbLine
 10
0.0
 20
0.0
 30
0.0
 11
19.0
 21
0.0
 31
0.0
  0
LINE
  5
379
100
AcDbEntity
  8
0
  6
CONTINUOUS
 62
               7
100
AcDbLine
 10
0.0
 20
3.0
 30
0.0
 11
19.0
 21
3.0
 31
0.0
  0
LINE
  5
37A
100
AcDbEntity
  8
0
  6
CONTINUOUS
 62
               4
100
AcDbLine
 10
18.75
 20
65.0
 30
0.0
 11
18.75
 21
65.5
 31
0.0
  0
LINE
  5
37B
100
AcDbEntity
  8
0
  6
CONTINUOUS
 62
               4
100
AcDbLine
 10
18.5
 20
66.319999999999993
 30
0.0
 11
18.5
 21
74.0
 31
0.0
  0
LINE
  5
37C
100
AcDbEntity
  8
0
  6
CONTINUOUS
 62
               4
100
AcDbLine
 10
13.25
 20
65.0
 30
0.0
 11
13.25
 21
65.5
 31
0.0
  0
LINE
  5
37D
100
AcDbEntity
  8
0
  6
CONTINUOUS
 62
               4
100
AcDbLine
 10
13.0
 20
65.0
 30
0.0
 11
13.0
 21
69.0
 31
0.0
  0
LINE
  5
37E
100
AcDbEntity
  8
0
  6
CONTINUOUS
 62
               4
100
AcDbLine
 10
0.5
 20
74.0
 30
0.0
 11
0.5
 21
65.0
 31
0.0
  0
LINE
  5
37F
100
AcDbEntity
  8
0
  6
CONTINUOUS
 62
             200
100
AcDbLine
 10
9.5
 20
76.409999999999997
 30
0.0
 11
9.5
 21
65.0
 31
0.0
  0
LINE
  5
380
100
AcDbEntity
  8
0
  6
CONTINUOUS
 62
               4
100
AcDbLine
 10
0.5
 20
74.0
 30
0.0
 11
18.5
 21
74.0
 31
0.0
  0
ARC
  5
381
100
AcDbEntity
  8
0
  6
CONTINUOUS
 62
               7
100
AcDbCircle
 10
3.0
 20
9.5
 30
0.0
 40
2.9000000000000004
100
AcDbArc
 50
270.0
 51
90.0
  0
ARC
  5
382
100
AcDbEntity
  8
0
  6
CONTINUOUS
 62
               7
100
AcDbCircle
 10
16.0
 20
49.5
 30
0.0
 40
2.8999999999999986
100
AcDbArc
 50
90.0
 51
270.0
  0
CIRCLE
  5
383
100
AcDbEntity
  8
0
  6
CONTINUOUS
 62
               7
100
AcDbCircle
 10
3.0
 20
51.5
 30
0.0
 40
2.75
  0
ARC
  5
384
100
AcDbEntity
  8
0
  6
CONTINUOUS
 62
               7
100
AcDbCircle
 10
16.0
 20
49.5
 30
0.0
 40
3.0
100
AcDbArc
 50
90.0
 51
270.0
  0
ARC
  5
385
100
AcDbEntity
  8
0
  6
CONTINUOUS
 62
               7
100
AcDbCircle
 10
3.0
 20
9.5
 30
0.0
 40
3.0
100
AcDbArc
 50
270.0
 51
90.0
  0
ARC
  5
386
100
AcDbEntity
  8
0
  6
CONTINUOUS
 62
               7
100
AcDbCircle
 10
3.0
 20
51.5
 30
0.0
 40
3.0
100
AcDbArc
 50
270.0
 51
0.0
  0
ARC
  5
387
100
AcDbEntity
  8
0
  6
CONTINUOUS
 62
               7
100
AcDbCircle
 10
16.0
 20
7.5
 30
0.0
 40
3.0
100
AcDbArc
 50
90.0
 51
180.0
  0
CIRCLE
  5
388
100
AcDbEntity
  8
0
  6
CONTINUOUS
 62
               7
100
AcDbCircle
 10
16.0
 20
7.5
 30
0.0
 40
2.75
  0
ARC
  5
389
100
AcDbEntity
  8
0
  6
CONTINUOUS
 62
               4
100
AcDbCircle
 10
14.75
 20
65.5
 30
0.0
 40
1.5
100
AcDbArc
 50
90.0
 51
180.0
  0
ARC
  5
38A
100
AcDbEntity
  8
0
  6
CONTINUOUS
 62
               4
100
AcDbCircle
 10
17.25
 20
65.5
 30
0.0
 40
1.5
100
AcDbArc
 50
0.0
 51
90.0
  0
LINE
  5
38B
100
AcDbEntity
  8
0
  6
CONTINUOUS
 62
               4
100
AcDbLine
 10
0.5
 20
69.0
 30
0.0
 11
18.5
 21
69.0
 31
0.0
  0
LINE
  5
38C
100
AcDbEntity
  8
0
  6
CONTINUOUS
 62
               4
100
AcDbLine
 10
14.75
 20
67.0
 30
0.0
 11
17.25
 21
67.0
 31
0.0
  0
ENDBLK
  5
38D
100
AcDbEntity
  8
0
100
AcDbBlockEnd
  0
BLOCK
  5
38E
100
AcDbEntity
  8
0
100
AcDbBlockBegin
  2
F15MP-11
 70
               0
 10
0.0
 20
0.0
 30
0.0
  3
F15MP-11
  1

  0
LINE
  5
38F
100
AcDbEntity
  8
0
  6
CONTINUOUS
 62
               7
100
AcDbLine
 10
49.0
 20
20.399999999999999
 30
0.0
 11
49.0
 21
22.399999999999999
 31
0.0
  0
LINE
  5
390
100
AcDbEntity
  8
0
  6
CONTINUOUS
 62
               7
100
AcDbLine
 10
3.0
 20
60.399999999999999
 30
0.0
 11
49.0
 21
60.399999999999999
 31
0.0
  0
LINE
  5
391
100
AcDbEntity
  8
0
  6
CONTINUOUS
 62
               7
100
AcDbLine
 10
3.0
 20
-43.100000000000001
 30
0.0
 11
4.5
 21
-44.600000000000001
 31
0.0
  0
LINE
  5
392
100
AcDbEntity
  8
0
  6
CONTINUOUS
 62
               7
100
AcDbLine
 10
4.5
 20
-44.600000000000001
 30
0.0
 11
47.5
 21
-44.600000000000001
 31
0.0
  0
LINE
  5
393
100
AcDbEntity
  8
0
  6
CONTINUOUS
 62
               7
100
AcDbLine
 10
47.5
 20
-44.600000000000001
 30
0.0
 11
49.0
 21
-43.100000000000001
 31
0.0
  0
LINE
  5
394
100
AcDbEntity
  8
0
  6
CONTINUOUS
 62
               7
100
AcDbLine
 10
49.0
 20
-43.100000000000001
 30
0.0
 11
49.0
 21
60.399999999999999
 31
0.0
  0
LINE
  5
395
100
AcDbEntity
  8
0
  6
CONTINUOUS
 62
               7
100
AcDbLine
 10
3.0
 20
-43.100000000000001
 30
0.0
 11
3.0
 21
-19.5
 31
0.0
  0
LINE
  5
396
100
AcDbEntity
  8
0
  6
CONTINUOUS
 62
               7
100
AcDbLine
 10
3.0
 20
19.5
 30
0.0
 11
3.0
 21
60.399999999999999
 31
0.0
  0
LINE
  5
397
100
AcDbEntity
  8
0
  6
CONTINUOUS
 62
               7
100
AcDbLine
 10
6.5
 20
-17.5
 30
0.0
 11
7.5
 21
-17.5
 31
0.0
  0
LINE
  5
398
100
AcDbEntity
  8
0
  6
CONTINUOUS
 62
               7
100
AcDbLine
 10
6.5
 20
17.5
 30
0.0
 11
7.5
 21
17.5
 31
0.0
  0
LINE
  5
399
100
AcDbEntity
  8
0
  6
CONTINUOUS
 62
               7
100
AcDbLine
 10
6.5
 20
-17.5
 30
0.0
 11
6.5
 21
-14.5
 31
0.0
  0
LINE
  5
39A
100
AcDbEntity
  8
0
  6
CONTINUOUS
 62
               7
100
AcDbLine
 10
6.5
 20
14.5
 30
0.0
 11
6.5
 21
17.5
 31
0.0
  0
LINE
  5
39B
100
AcDbEntity
  8
0
  6
CONTINUOUS
 62
               7
100
AcDbLine
 10
2.0
 20
12.5
 30
0.0
 11
7.5
 21
12.5
 31
0.0
  0
LINE
  5
39C
100
AcDbEntity
  8
0
  6
CONTINUOUS
 62
               7
100
AcDbLine
 10
2.0
 20
-12.5
 30
0.0
 11
7.5
 21
-12.5
 31
0.0
  0
LINE
  5
39D
100
AcDbEntity
  8
0
  6
CONTINUOUS
 62
               7
100
AcDbLine
 10
0.0
 20
-14.5
 30
0.0
 11
6.5
 21
-14.5
 31
0.0
  0
LINE
  5
39E
100
AcDbEntity
  8
0
  6
CONTINUOUS
 62
               7
100
AcDbLine
 10
0.0
 20
14.5
 30
0.0
 11
6.5
 21
14.5
 31
0.0
  0
LINE
  5
39F
100
AcDbEntity
  8
0
  6
CONTINUOUS
 62
               7
100
AcDbLine
 10
0.0
 20
-14.5
 30
0.0
 11
0.0
 21
14.5
 31
0.0
  0
LINE
  5
3A0
100
AcDbEntity
  8
0
  6
CONTINUOUS
 62
               7
100
AcDbLine
 10
2.0
 20
-12.5
 30
0.0
 11
2.0
 21
12.5
 31
0.0
  0
LINE
  5
3A1
100
AcDbEntity
  8
0
  6
CONTINUOUS
 62
               7
100
AcDbLine
 10
7.5
 20
-19.5
 30
0.0
 11
7.5
 21
19.5
 31
0.0
  0
LINE
  5
3A2
100
AcDbEntity
  8
0
  6
CONTINUOUS
 62
               7
100
AcDbLine
 10
7.5
 20
-19.5
 30
0.0
 11
3.0
 21
-19.5
 31
0.0
  0
LINE
  5
3A3
100
AcDbEntity
  8
0
  6
CONTINUOUS
 62
               7
100
AcDbLine
 10
46.5
 20
-42.0
 30
0.0
 11
46.5
 21
42.0
 31
0.0
  0
LINE
  5
3A4
100
AcDbEntity
  8
0
  6
CONTINUOUS
 62
               7
100
AcDbLine
 10
46.5
 20
-42.0
 30
0.0
 11
14.9
 21
-42.0
 31
0.0
  0
LINE
  5
3A5
100
AcDbEntity
  8
0
  6
CONTINUOUS
 62
               7
100
AcDbLine
 10
46.5
 20
42.0
 30
0.0
 11
14.9
 21
42.0
 31
0.0
  0
LINE
  5
3A6
100
AcDbEntity
  8
0
  6
CONTINUOUS
 62
               7
100
AcDbLine
 10
7.5
 20
19.5
 30
0.0
 11
3.0
 21
19.5
 31
0.0
  0
LINE
  5
3A7
100
AcDbEntity
  8
0
  6
CONTINUOUS
 62
               7
100
AcDbLine
 10
44.920000000000002
 20
40.420000000000002
 30
0.0
 11
46.5
 21
42.0
 31
0.0
  0
LINE
  5
3A8
100
AcDbEntity
  8
0
  6
CONTINUOUS
 62
               7
100
AcDbLine
 10
44.920000000000002
 20
-40.420000000000002
 30
0.0
 11
46.5
 21
-42.0
 31
0.0
  0
LINE
  5
3A9
100
AcDbEntity
  8
0
  6
CONTINUOUS
 62
               7
100
AcDbLine
 10
3.0
 20
40.420000000000002
 30
0.0
 11
44.920000000000002
 21
40.420000000000002
 31
0.0
  0
LINE
  5
3AA
100
AcDbEntity
  8
0
  6
CONTINUOUS
 62
               7
100
AcDbLine
 10
44.920000000000002
 20
40.420000000000002
 30
0.0
 11
44.920000000000002
 21
-40.420000000000002
 31
0.0
  0
LINE
  5
3AB
100
AcDbEntity
  8
0
  6
CONTINUOUS
 62
               7
100
AcDbLine
 10
3.0
 20
-40.420000000000002
 30
0.0
 11
44.920000000000002
 21
-40.420000000000002
 31
0.0
  0
LINE
  5
3AC
100
AcDbEntity
  8
0
  6
CONTINUOUS
 62
               7
100
AcDbLine
 10
3.5
 20
-19.5
 30
0.0
 11
3.5
 21
-19.25
 31
0.0
  0
LINE
  5
3AD
100
AcDbEntity
  8
0
  6
CONTINUOUS
 62
               7
100
AcDbLine
 10
3.5
 20
19.25
 30
0.0
 11
3.5
 21
19.5
 31
0.0
  0
LINE
  5
3AE
100
AcDbEntity
  8
0
  6
CONTINUOUS
 62
               7
100
AcDbLine
 10
7.5
 20
-17.550000000000001
 30
0.0
 11
7.5
 21
17.550000000000001
 31
0.0
  0
LINE
  5
3AF
100
AcDbEntity
  8
0
  6
CONTINUOUS
 62
               7
100
AcDbLine
 10
7.5
 20
17.75
 30
0.0
 11
5.0
 21
17.75
 31
0.0
  0
LINE
  5
3B0
100
AcDbEntity
  8
0
  6
CONTINUOUS
 62
               7
100
AcDbLine
 10
7.5
 20
-17.75
 30
0.0
 11
5.0
 21
-17.75
 31
0.0
  0
LINE
  5
3B1
100
AcDbEntity
  8
0
  6
CONTINUOUS
 62
               7
100
AcDbLine
 10
3.7000000000000002
 20
-18.5
 30
0.0
 11
3.7000000000000002
 21
-17.5
 31
0.0
  0
LINE
  5
3B2
100
AcDbEntity
  8
0
  6
CONTINUOUS
 62
               7
100
AcDbLine
 10
14.9
 20
41.5
 30
0.0
 11
14.9
 21
45.399999999999999
 31
0.0
  0
LINE
  5
3B3
100
AcDbEntity
  8
0
  6
CONTINUOUS
 62
               7
100
AcDbLine
 10
7.5
 20
17.5
 30
0.0
 11
7.2999999999999998
 21
17.5
 31
0.0
  0
LINE
  5
3B4
100
AcDbEntity
  8
0
  6
CONTINUOUS
 62
               7
100
AcDbLine
 10
6.5
 20
16.0
 30
0.0
 11
5.2000000000000002
 21
16.0
 31
0.0
  0
LINE
  5
3B5
100
AcDbEntity
  8
0
  6
CONTINUOUS
 62
               7
100
AcDbLine
 10
6.5
 20
-16.0
 30
0.0
 11
5.2000000000000002
 21
-16.0
 31
0.0
  0
LINE
  5
3B6
100
AcDbEntity
  8
0
  6
CONTINUOUS
 62
               7
100
AcDbLine
 10
3.7000000000000002
 20
17.5
 30
0.0
 11
3.7000000000000002
 21
18.5
 31
0.0
  0
LINE
  5
3B7
100
AcDbEntity
  8
0
  6
CONTINUOUS
 62
               7
100
AcDbLine
 10
19.899999999999999
 20
47.0
 30
0.0
 11
14.9
 21
47.0
 31
0.0
  0
LINE
  5
3B8
100
AcDbEntity
  8
0
  6
CONTINUOUS
 62
               7
100
AcDbLine
 10
19.899999999999999
 20
45.399999999999999
 30
0.0
 11
19.899999999999999
 21
47.0
 31
0.0
  0
LINE
  5
3B9
100
AcDbEntity
  8
0
  6
CONTINUOUS
 62
               7
100
AcDbLine
 10
19.899999999999999
 20
45.399999999999999
 30
0.0
 11
14.9
 21
45.399999999999999
 31
0.0
  0
LINE
  5
3BA
100
AcDbEntity
  8
0
  6
CONTINUOUS
 62
               7
100
AcDbLine
 10
13.300000000000001
 20
41.5
 30
0.0
 11
13.300000000000001
 21
45.289999999999999
 31
0.0
  0
LINE
  5
3BB
100
AcDbEntity
  8
0
  6
CONTINUOUS
 62
               7
100
AcDbLine
 10
10.1
 20
41.5
 30
0.0
 11
10.1
 21
42.0
 31
0.0
  0
LINE
  5
3BC
100
AcDbEntity
  8
0
  6
CONTINUOUS
 62
               7
100
AcDbLine
 10
14.9
 20
41.5
 30
0.0
 11
10.1
 21
41.5
 31
0.0
  0
LINE
  5
3BD
100
AcDbEntity
  8
0
  6
CONTINUOUS
 62
               7
100
AcDbLine
 10
10.1
 20
42.0
 30
0.0
 11
3.0
 21
42.0
 31
0.0
  0
LINE
  5
3BE
100
AcDbEntity
  8
0
  6
CONTINUOUS
 62
               7
100
AcDbLine
 10
14.9
 20
-41.5
 30
0.0
 11
10.1
 21
-41.5
 31
0.0
  0
LINE
  5
3BF
100
AcDbEntity
  8
0
  6
CONTINUOUS
 62
               7
100
AcDbLine
 10
10.1
 20
-41.5
 30
0.0
 11
10.1
 21
-42.0
 31
0.0
  0
LINE
  5
3C0
100
AcDbEntity
  8
0
  6
CONTINUOUS
 62
               7
100
AcDbLine
 10
14.9
 20
-41.5
 30
0.0
 11
14.9
 21
-42.0
 31
0.0
  0
LINE
  5
3C1
100
AcDbEntity
  8
0
  6
CONTINUOUS
 62
               7
100
AcDbLine
 10
10.1
 20
-42.0
 30
0.0
 11
3.0
 21
-42.0
 31
0.0
  0
LINE
  5
3C2
100
AcDbEntity
  8
0
  6
CONTINUOUS
 62
               2
100
AcDbLine
 10
7.5
 20
0.0
 30
0.0
 11
-5.0
 21
0.0
 31
0.0
  0
ARC
  5
3C3
100
AcDbEntity
  8
0
  6
CONTINUOUS
 62
               7
100
AcDbCircle
 10
5.0
 20
-19.25
 30
0.0
 40
1.5
100
AcDbArc
 50
90.0
 51
180.0
  0
ARC
  5
3C4
100
AcDbEntity
  8
0
  6
CONTINUOUS
 62
               7
100
AcDbCircle
 10
5.0
 20
19.25
 30
0.0
 40
1.5
100
AcDbArc
 50
180.0
 51
270.0
  0
ARC
  5
3C5
100
AcDbEntity
  8
0
  6
CONTINUOUS
 62
               7
100
AcDbCircle
 10
14.899984741353547
 20
45.400015258646455
 30
0.0
 40
1.5999847414263049
100
AcDbArc
 50
89.999453584762264
 51
180.00054641523784
  0
ARC
  5
3C6
100
AcDbEntity
  8
0
  6
CONTINUOUS
 62
               7
100
AcDbCircle
 10
5.1999908447545025
 20
-17.499990844754503
 30
0.0
 40
1.4999908447824417
100
AcDbArc
 50
89.999650293247285
 51
180.00034970675267
  0
ARC
  5
3C7
100
AcDbEntity
  8
0
  6
CONTINUOUS
 62
               7
100
AcDbCircle
 10
5.2000061035280432
 20
17.500006103528044
 30
0.0
 40
1.5000061035404602
100
AcDbArc
 50
180.00023313664937
 51
269.9997668633506
  0
ENDBLK
  5
3C8
100
AcDbEntity
  8
0
100
AcDbBlockEnd
  0
BLOCK
  5
3C9
100
AcDbEntity
  8
0
100
AcDbBlockBegin
  2
F15MP-12
 70
               0
 10
0.0
 20
0.0
 30
0.0
  3
F15MP-12
  1

  0
LINE
  5
3CA
100
AcDbEntity
  8
0
  6
CONTINUOUS
 62
               7
100
AcDbLine
 10
32.75
 20
49.0
 30
0.0
 11
41.75
 21
49.0
 31
0.0
  0
LINE
  5
3CB
100
AcDbEntity
  8
0
  6
CONTINUOUS
 62
               7
100
AcDbLine
 10
32.75
 20
3.0
 30
0.0
 11
41.75
 21
3.0
 31
0.0
  0
LINE
  5
3CC
100
AcDbEntity
  8
0
  6
CONTINUOUS
 62
               7
100
AcDbLine
 10
32.75
 20
49.0
 30
0.0
 11
32.75
 21
3.0
 31
0.0
  0
LINE
  5
3CD
100
AcDbEntity
  8
0
  6
CONTINUOUS
 62
               7
100
AcDbLine
 10
154.75
 20
49.0
 30
0.0
 11
154.75
 21
3.0
 31
0.0
  0
LINE
  5
3CE
100
AcDbEntity
  8
0
  6
CONTINUOUS
 62
               7
100
AcDbLine
 10
32.75
 20
47.0
 30
0.0
 11
41.75
 21
47.0
 31
0.0
  0
LINE
  5
3CF
100
AcDbEntity
  8
0
  6
CONTINUOUS
 62
               7
100
AcDbLine
 10
32.75
 20
5.0
 30
0.0
 11
41.75
 21
5.0
 31
0.0
  0
LINE
  5
3D0
100
AcDbEntity
  8
0
  6
CONTINUOUS
 62
               7
100
AcDbLine
 10
145.75
 20
47.0
 30
0.0
 11
154.75
 21
47.0
 31
0.0
  0
LINE
  5
3D1
100
AcDbEntity
  8
0
  6
CONTINUOUS
 62
               7
100
AcDbLine
 10
145.75
 20
5.0
 30
0.0
 11
154.75
 21
5.0
 31
0.0
  0
LINE
  5
3D2
100
AcDbEntity
  8
0
  6
CONTINUOUS
 62
               7
100
AcDbLine
 10
145.75
 20
49.0
 30
0.0
 11
145.75
 21
3.0
 31
0.0
  0
LINE
  5
3D3
100
AcDbEntity
  8
0
  6
CONTINUOUS
 62
               7
100
AcDbLine
 10
145.75
 20
49.0
 30
0.0
 11
154.75
 21
49.0
 31
0.0
  0
LINE
  5
3D4
100
AcDbEntity
  8
0
  6
CONTINUOUS
 62
               7
100
AcDbLine
 10
-5.25
 20
0.0
 30
0.0
 11
41.75
 21
0.0
 31
0.0
  0
LINE
  5
3D5
100
AcDbEntity
  8
0
  6
CONTINUOUS
 62
               7
100
AcDbLine
 10
-5.25
 20
7.5
 30
0.0
 11
16.75
 21
7.5
 31
0.0
  0
LINE
  5
3D6
100
AcDbEntity
  8
0
  6
CONTINUOUS
 62
               7
100
AcDbLine
 10
-5.25
 20
6.5
 30
0.0
 11
16.75
 21
6.5
 31
0.0
  0
LINE
  5
3D7
100
AcDbEntity
  8
0
  6
CONTINUOUS
 62
               7
100
AcDbLine
 10
192.75
 20
7.5
 30
0.0
 11
170.75
 21
7.5
 31
0.0
  0
LINE
  5
3D8
100
AcDbEntity
  8
0
  6
CONTINUOUS
 62
               7
100
AcDbLine
 10
192.75
 20
6.5
 30
0.0
 11
170.75
 21
6.5
 31
0.0
  0
LINE
  5
3D9
100
AcDbEntity
  8
0
  6
CONTINUOUS
 62
               7
100
AcDbLine
 10
41.75
 20
49.0
 30
0.0
 11
41.75
 21
3.0
 31
0.0
  0
LINE
  5
3DA
100
AcDbEntity
  8
0
  6
CONTINUOUS
 62
               7
100
AcDbLine
 10
16.75
 20
3.0
 30
0.0
 11
32.75
 21
3.0
 31
0.0
  0
LINE
  5
3DB
100
AcDbEntity
  8
0
  6
CONTINUOUS
 62
               7
100
AcDbLine
 10
18.75
 20
31.0
 30
0.0
 11
18.75
 21
21.0
 31
0.0
  0
LINE
  5
3DC
100
AcDbEntity
  8
0
  6
CONTINUOUS
 62
               7
100
AcDbLine
 10
22.170000000000002
 20
31.0
 30
0.0
 11
22.170000000000002
 21
21.0
 31
0.0
  0
LINE
  5
3DD
100
AcDbEntity
  8
0
  6
CONTINUOUS
 62
               7
100
AcDbLine
 10
25.600000000000001
 20
31.0
 30
0.0
 11
25.600000000000001
 21
21.0
 31
0.0
  0
LINE
  5
3DE
100
AcDbEntity
  8
0
  6
CONTINUOUS
 62
               7
100
AcDbLine
 10
29.030000000000001
 20
31.0
 30
0.0
 11
29.030000000000001
 21
21.0
 31
0.0
  0
LINE
  5
3DF
100
AcDbEntity
  8
0
  6
CONTINUOUS
 62
               7
100
AcDbLine
 10
29.030000000000001
 20
31.0
 30
0.0
 11
18.75
 21
31.0
 31
0.0
  0
LINE
  5
3E0
100
AcDbEntity
  8
0
  6
CONTINUOUS
 62
               7
100
AcDbLine
 10
29.030000000000001
 20
21.0
 30
0.0
 11
18.75
 21
21.0
 31
0.0
  0
LINE
  5
3E1
100
AcDbEntity
  8
0
  6
CONTINUOUS
 62
               7
100
AcDbLine
 10
32.75
 20
46.5
 30
0.0
 11
17.199999999999999
 21
45.140000000000001
 31
0.0
  0
LINE
  5
3E2
100
AcDbEntity
  8
0
  6
CONTINUOUS
 62
               7
100
AcDbLine
 10
16.75
 20
44.640000000000001
 30
0.0
 11
16.75
 21
3.0
 31
0.0
  0
LINE
  5
3E3
100
AcDbEntity
  8
0
  6
CONTINUOUS
 62
               7
100
AcDbLine
 10
32.75
 20
15.0
 30
0.0
 11
22.25
 21
15.0
 31
0.0
  0
LINE
  5
3E4
100
AcDbEntity
  8
0
  6
CONTINUOUS
 62
               7
100
AcDbLine
 10
32.75
 20
10.4
 30
0.0
 11
22.25
 21
10.4
 31
0.0
  0
LINE
  5
3E5
100
AcDbEntity
  8
0
  6
CONTINUOUS
 62
               7
100
AcDbLine
 10
22.25
 20
15.0
 30
0.0
 11
22.25
 21
10.4
 31
0.0
  0
LINE
  5
3E6
100
AcDbEntity
  8
0
  6
CONTINUOUS
 62
               7
100
AcDbLine
 10
31.149999999999999
 20
15.0
 30
0.0
 11
31.149999999999999
 21
10.4
 31
0.0
  0
LINE
  5
3E7
100
AcDbEntity
  8
0
  6
CONTINUOUS
 62
               7
100
AcDbLine
 10
29.550000000000001
 20
13.4
 30
0.0
 11
22.25
 21
13.4
 31
0.0
  0
LINE
  5
3E8
100
AcDbEntity
  8
0
  6
CONTINUOUS
 62
               7
100
AcDbLine
 10
29.550000000000001
 20
13.4
 30
0.0
 11
29.550000000000001
 21
10.4
 31
0.0
  0
LINE
  5
3E9
100
AcDbEntity
  8
0
  6
CONTINUOUS
 62
               7
100
AcDbLine
 10
170.75
 20
3.0
 30
0.0
 11
154.75
 21
3.0
 31
0.0
  0
LINE
  5
3EA
100
AcDbEntity
  8
0
  6
CONTINUOUS
 62
               7
100
AcDbLine
 10
168.75
 20
31.0
 30
0.0
 11
168.75
 21
21.0
 31
0.0
  0
LINE
  5
3EB
100
AcDbEntity
  8
0
  6
CONTINUOUS
 62
               7
100
AcDbLine
 10
165.31999999999999
 20
31.0
 30
0.0
 11
165.31999999999999
 21
21.0
 31
0.0
  0
LINE
  5
3EC
100
AcDbEntity
  8
0
  6
CONTINUOUS
 62
               7
100
AcDbLine
 10
161.88999999999999
 20
31.0
 30
0.0
 11
161.88999999999999
 21
21.0
 31
0.0
  0
LINE
  5
3ED
100
AcDbEntity
  8
0
  6
CONTINUOUS
 62
               7
100
AcDbLine
 10
158.46000000000001
 20
31.0
 30
0.0
 11
158.46000000000001
 21
21.0
 31
0.0
  0
LINE
  5
3EE
100
AcDbEntity
  8
0
  6
CONTINUOUS
 62
               7
100
AcDbLine
 10
158.46000000000001
 20
31.0
 30
0.0
 11
168.75
 21
31.0
 31
0.0
  0
LINE
  5
3EF
100
AcDbEntity
  8
0
  6
CONTINUOUS
 62
               7
100
AcDbLine
 10
158.46000000000001
 20
21.0
 30
0.0
 11
168.75
 21
21.0
 31
0.0
  0
LINE
  5
3F0
100
AcDbEntity
  8
0
  6
CONTINUOUS
 62
               7
100
AcDbLine
 10
154.75
 20
46.5
 30
0.0
 11
170.28999999999999
 21
45.140000000000001
 31
0.0
  0
LINE
  5
3F1
100
AcDbEntity
  8
0
  6
CONTINUOUS
 62
               7
100
AcDbLine
 10
170.75
 20
44.640000000000001
 30
0.0
 11
170.75
 21
3.0
 31
0.0
  0
LINE
  5
3F2
100
AcDbEntity
  8
0
  6
CONTINUOUS
 62
               7
100
AcDbLine
 10
154.75
 20
15.0
 30
0.0
 11
165.25
 21
15.0
 31
0.0
  0
LINE
  5
3F3
100
AcDbEntity
  8
0
  6
CONTINUOUS
 62
               7
100
AcDbLine
 10
154.75
 20
10.4
 30
0.0
 11
165.25
 21
10.4
 31
0.0
  0
LINE
  5
3F4
100
AcDbEntity
  8
0
  6
CONTINUOUS
 62
               7
100
AcDbLine
 10
165.25
 20
15.0
 30
0.0
 11
165.25
 21
10.4
 31
0.0
  0
LINE
  5
3F5
100
AcDbEntity
  8
0
  6
CONTINUOUS
 62
               7
100
AcDbLine
 10
156.34999999999999
 20
15.0
 30
0.0
 11
156.34999999999999
 21
10.4
 31
0.0
  0
LINE
  5
3F6
100
AcDbEntity
  8
0
  6
CONTINUOUS
 62
               7
100
AcDbLine
 10
157.94999999999999
 20
13.4
 30
0.0
 11
165.25
 21
13.4
 31
0.0
  0
LINE
  5
3F7
100
AcDbEntity
  8
0
  6
CONTINUOUS
 62
               7
100
AcDbLine
 10
157.94999999999999
 20
13.4
 30
0.0
 11
157.94999999999999
 21
10.4
 31
0.0
  0
LINE
  5
3F8
100
AcDbEntity
  8
0
  6
CONTINUOUS
 62
               7
100
AcDbLine
 10
145.75
 20
3.0
 30
0.0
 11
154.75
 21
3.0
 31
0.0
  0
LINE
  5
3F9
100
AcDbEntity
  8
0
  6
CONTINUOUS
 62
               7
100
AcDbLine
 10
145.75
 20
0.0
 30
0.0
 11
192.75
 21
0.0
 31
0.0
  0
LINE
  5
3FA
100
AcDbEntity
  8
0
  6
CONTINUOUS
 62
               7
100
AcDbLine
 10
192.75
 20
7.5
 30
0.0
 11
192.75
 21
0.0
 31
0.0
  0
LINE
  5
3FB
100
AcDbEntity
  8
0
  6
CONTINUOUS
 62
               7
100
AcDbLine
 10
-5.25
 20
7.5
 30
0.0
 11
-5.25
 21
0.0
 31
0.0
  0
LINE
  5
3FC
100
AcDbEntity
  8
0
  6
CONTINUOUS
 62
               2
100
AcDbLine
 10
0.0
 20
12.5
 30
0.0
 11
0.0
 21
-5.0
 31
0.0
  0
LINE
  5
3FD
100
AcDbEntity
  8
0
  6
CONTINUOUS
 62
               2
100
AcDbLine
 10
187.5
 20
12.5
 30
0.0
 11
187.5
 21
-5.0
 31
0.0
  0
ARC
  5
3FE
100
AcDbEntity
  8
0
  6
CONTINUOUS
 62
               7
100
AcDbCircle
 10
17.250241953210061
 20
44.642282242110944
 30
0.0
 40
0.5002471592927513
100
AcDbArc
 50
95.764177633140974
 51
180.26139737522564
  0
ARC
  5
3FF
100
AcDbEntity
  8
0
  6
CONTINUOUS
 62
               7
100
AcDbCircle
 10
170.25021427557181
 20
44.641797133526083
 30
0.0
 40
0.499788955491315
100
AcDbArc
 50
359.79397626332747
 51
85.43413567589333
  0
ENDBLK
  5
400
100
AcDbEntity
  8
0
100
AcDbBlockEnd
  0
BLOCK
  5
401
100
AcDbEntity
  8
0
100
AcDbBlockBegin
  2
F15MP-13
 70
               0
 10
0.0
 20
0.0
 30
0.0
  3
F15MP-13
  1

  0
LINE
  5
402
100
AcDbEntity
  8
0
  6
CONTINUOUS
 62
               2
100
AcDbLine
 10
8.0
 20
-46.009999999999998
 30
0.0
 11
8.0
 21
63.549999999999997
 31
0.0
  0
LINE
  5
403
100
AcDbEntity
  8
0
  6
CONTINUOUS
 62
               4
100
AcDbLine
 10
14.41
 20
2.98
 30
0.0
 11
12.58
 21
4.8099999999999996
 31
0.0
  0
LINE
  5
404
100
AcDbEntity
  8
0
  6
CONTINUOUS
 62
               4
100
AcDbLine
 10
12.58
 20
2.98
 30
0.0
 11
14.41
 21
4.8099999999999996
 31
0.0
  0
LINE
  5
405
100
AcDbEntity
  8
0
  6
CONTINUOUS
 62
               4
100
AcDbLine
 10
15.5
 20
-36.100000000000001
 30
0.0
 11
15.5
 21
2.5
 31
0.0
  0
LINE
  5
406
100
AcDbEntity
  8
0
  6
CONTINUOUS
 62
               4
100
AcDbLine
 10
0.5
 20
-27.699999999999999
 30
0.0
 11
0.5
 21
18.899999999999999
 31
0.0
  0
LINE
  5
407
100
AcDbEntity
  8
0
  6
CONTINUOUS
 62
               4
100
AcDbLine
 10
0.5
 20
-36.100000000000001
 30
0.0
 11
0.5
 21
-30.5
 31
0.0
  0
LINE
  5
408
100
AcDbEntity
  8
0
  6
CONTINUOUS
 62
               4
100
AcDbLine
 10
3.4100000000000001
 20
-30.010000000000002
 30
0.0
 11
1.5800000000000001
 21
-28.18
 31
0.0
  0
LINE
  5
409
100
AcDbEntity
  8
0
  6
CONTINUOUS
 62
               4
100
AcDbLine
 10
1.5800000000000001
 20
-30.010000000000002
 30
0.0
 11
3.4100000000000001
 21
-28.18
 31
0.0
  0
LINE
  5
40A
100
AcDbEntity
  8
0
  6
CONTINUOUS
 62
               4
100
AcDbLine
 10
0.5
 20
-36.100000000000001
 30
0.0
 11
15.5
 21
-36.100000000000001
 31
0.0
  0
LINE
  5
40B
100
AcDbEntity
  8
0
  6
CONTINUOUS
 62
               4
100
AcDbLine
 10
0.5
 20
18.899999999999999
 30
0.0
 11
15.5
 21
18.899999999999999
 31
0.0
  0
LINE
  5
40C
100
AcDbEntity
  8
0
  6
CONTINUOUS
 62
               4
100
AcDbLine
 10
15.5
 20
5.2999999999999998
 30
0.0
 11
15.5
 21
18.899999999999999
 31
0.0
  0
LINE
  5
40D
100
AcDbEntity
  8
0
  6
CONTINUOUS
 62
               4
100
AcDbLine
 10
15.26
 20
2.5
 30
0.0
 11
15.5
 21
2.5
 31
0.0
  0
LINE
  5
40E
100
AcDbEntity
  8
0
  6
CONTINUOUS
 62
               4
100
AcDbLine
 10
15.26
 20
5.2999999999999998
 30
0.0
 11
15.5
 21
5.2999999999999998
 31
0.0
  0
LINE
  5
40F
100
AcDbEntity
  8
0
  6
CONTINUOUS
 62
               4
100
AcDbLine
 10
0.5
 20
-27.699999999999999
 30
0.0
 11
0.73
 21
-27.699999999999999
 31
0.0
  0
LINE
  5
410
100
AcDbEntity
  8
0
  6
CONTINUOUS
 62
               4
100
AcDbLine
 10
0.5
 20
-30.5
 30
0.0
 11
0.73
 21
-30.5
 31
0.0
  0
LINE
  5
411
100
AcDbEntity
  8
0
  6
CONTINUOUS
 62
               7
100
AcDbLine
 10
2.7999999999999998
 20
48.0
 30
0.0
 11
3.2000000000000002
 21
48.0
 31
0.0
  0
LINE
  5
412
100
AcDbEntity
  8
0
  6
CONTINUOUS
 62
               7
100
AcDbLine
 10
13.199999999999999
 20
48.0
 30
0.0
 11
13.199999999999999
 21
57.899999999999999
 31
0.0
  0
LINE
  5
413
100
AcDbEntity
  8
0
  6
CONTINUOUS
 62
               7
100
AcDbLine
 10
2.7999999999999998
 20
48.0
 30
0.0
 11
2.7999999999999998
 21
57.899999999999999
 31
0.0
  0
LINE
  5
414
100
AcDbEntity
  8
0
  6
CONTINUOUS
 62
               7
100
AcDbLine
 10
0.0
 20
-39.600000000000001
 30
0.0
 11
0.0
 21
60.399999999999999
 31
0.0
  0
LINE
  5
415
100
AcDbEntity
  8
0
  6
CONTINUOUS
 62
               7
100
AcDbLine
 10
0.0
 20
57.899999999999999
 30
0.0
 11
16.0
 21
57.899999999999999
 31
0.0
  0
LINE
  5
416
100
AcDbEntity
  8
0
  6
CONTINUOUS
 62
               7
100
AcDbLine
 10
4.1500000000000004
 20
57.399999999999999
 30
0.0
 11
4.1500000000000004
 21
57.899999999999999
 31
0.0
  0
LINE
  5
417
100
AcDbEntity
  8
0
  6
CONTINUOUS
 62
               7
100
AcDbLine
 10
11.85
 20
57.399999999999999
 30
0.0
 11
11.85
 21
57.899999999999999
 31
0.0
  0
LINE
  5
418
100
AcDbEntity
  8
0
  6
CONTINUOUS
 62
               7
100
AcDbLine
 10
14.5
 20
20.399999999999999
 30
0.0
 11
1.5
 21
20.399999999999999
 31
0.0
  0
LINE
  5
419
100
AcDbEntity
  8
0
  6
CONTINUOUS
 62
               7
100
AcDbLine
 10
1.5
 20
20.399999999999999
 30
0.0
 11
0.0
 21
18.899999999999999
 31
0.0
  0
LINE
  5
41A
100
AcDbEntity
  8
0
  6
CONTINUOUS
 62
               7
100
AcDbLine
 10
14.5
 20
20.399999999999999
 30
0.0
 11
16.0
 21
18.899999999999999
 31
0.0
  0
LINE
  5
41B
100
AcDbEntity
  8
0
  6
CONTINUOUS
 62
               7
100
AcDbLine
 10
15.0
 20
-44.600000000000001
 30
0.0
 11
1.0
 21
-44.600000000000001
 31
0.0
  0
LINE
  5
41C
100
AcDbEntity
  8
0
  6
CONTINUOUS
 62
               7
100
AcDbLine
 10
15.5
 20
-44.100000000000001
 30
0.0
 11
15.5
 21
-39.600000000000001
 31
0.0
  0
LINE
  5
41D
100
AcDbEntity
  8
0
  6
CONTINUOUS
 62
               7
100
AcDbLine
 10
0.5
 20
-44.100000000000001
 30
0.0
 11
0.5
 21
-43.619999999999997
 31
0.0
  0
LINE
  5
41E
100
AcDbEntity
  8
0
  6
CONTINUOUS
 62
               7
100
AcDbLine
 10
5.2000000000000002
 20
-44.600000000000001
 30
0.0
 11
5.2000000000000002
 21
-42.600000000000001
 31
0.0
  0
LINE
  5
41F
100
AcDbEntity
  8
0
  6
CONTINUOUS
 62
               7
100
AcDbLine
 10
3.25
 20
-44.299999999999997
 30
0.0
 11
1.75
 21
-44.299999999999997
 31
0.0
  0
LINE
  5
420
100
AcDbEntity
  8
0
  6
CONTINUOUS
 62
               7
100
AcDbLine
 10
4.75
 20
-42.799999999999997
 30
0.0
 11
4.75
 21
-42.600000000000001
 31
0.0
  0
LINE
  5
421
100
AcDbEntity
  8
0
  6
CONTINUOUS
 62
               7
100
AcDbLine
 10
0.5
 20
-42.600000000000001
 30
0.0
 11
0.5
 21
-39.600000000000001
 31
0.0
  0
LINE
  5
422
100
AcDbEntity
  8
0
  6
CONTINUOUS
 62
               7
100
AcDbLine
 10
0.25
 20
-42.799999999999997
 30
0.0
 11
0.25
 21
-42.600000000000001
 31
0.0
  0
LINE
  5
423
100
AcDbEntity
  8
0
  6
CONTINUOUS
 62
               7
100
AcDbLine
 10
15.5
 20
-42.600000000000001
 30
0.0
 11
0.25
 21
-42.600000000000001
 31
0.0
  0
LINE
  5
424
100
AcDbEntity
  8
0
  6
CONTINUOUS
 62
               7
100
AcDbLine
 10
16.0
 20
-39.600000000000001
 30
0.0
 11
16.0
 21
60.399999999999999
 31
0.0
  0
LINE
  5
425
100
AcDbEntity
  8
0
  6
CONTINUOUS
 62
               7
100
AcDbLine
 10
3.5
 20
57.399999999999999
 30
0.0
 11
12.5
 21
57.399999999999999
 31
0.0
  0
LINE
  5
426
100
AcDbEntity
  8
0
  6
CONTINUOUS
 62
               7
100
AcDbLine
 10
3.5
 20
47.899999999999999
 30
0.0
 11
12.5
 21
47.899999999999999
 31
0.0
  0
LINE
  5
427
100
AcDbEntity
  8
0
  6
CONTINUOUS
 62
               7
100
AcDbLine
 10
13.0
 20
48.399999999999999
 30
0.0
 11
13.0
 21
56.899999999999999
 31
0.0
  0
LINE
  5
428
100
AcDbEntity
  8
0
  6
CONTINUOUS
 62
               7
100
AcDbLine
 10
3.0
 20
48.399999999999999
 30
0.0
 11
3.0
 21
56.899999999999999
 31
0.0
  0
LINE
  5
429
100
AcDbEntity
  8
0
  6
CONTINUOUS
 62
               7
100
AcDbLine
 10
12.800000000000001
 20
48.0
 30
0.0
 11
13.199999999999999
 21
48.0
 31
0.0
  0
LINE
  5
42A
100
AcDbEntity
  8
0
  6
CONTINUOUS
 62
               7
100
AcDbLine
 10
16.0
 20
60.399999999999999
 30
0.0
 11
0.0
 21
60.399999999999999
 31
0.0
  0
LINE
  5
42B
100
AcDbEntity
  8
0
  6
CONTINUOUS
 62
               7
100
AcDbLine
 10
0.0
 20
-39.600000000000001
 30
0.0
 11
16.0
 21
-39.600000000000001
 31
0.0
  0
CIRCLE
  5
42C
100
AcDbEntity
  8
0
  6
CONTINUOUS
 62
               4
100
AcDbCircle
 10
13.499984741210937
 20
3.9000244140625
 30
0.0
 40
2.25
  0
CIRCLE
  5
42D
100
AcDbEntity
  8
0
  6
CONTINUOUS
 62
               4
100
AcDbCircle
 10
2.5
 20
-29.0999755859375
 30
0.0
 40
2.25
  0
ARC
  5
42E
100
AcDbEntity
  8
0
  6
CONTINUOUS
 62
               7
100
AcDbCircle
 10
3.2500015258781314
 20
-42.80000152587813
 30
0.0
 40
1.4999984741226444
100
AcDbArc
 50
269.99994171568937
 51
0.0000582843106739
  0
ARC
  5
42F
100
AcDbEntity
  8
0
  6
CONTINUOUS
 62
               7
100
AcDbCircle
 10
0.9999969482515014
 20
-44.100003051748502
 30
0.0
 40
0.4999969482608146
100
AcDbArc
 50
179.99965029324719
 51
270.00034970675267
  0
ARC
  5
430
100
AcDbEntity
  8
0
  6
CONTINUOUS
 62
               7
100
AcDbCircle
 10
14.999995422249194
 20
-44.099995422249194
 30
0.0
 40
0.5000045777717621
100
AcDbArc
 50
270.00052456679902
 51
359.99947543320087
  0
ARC
  5
431
100
AcDbEntity
  8
0
  6
CONTINUOUS
 62
               7
100
AcDbCircle
 10
1.7499984741218684
 20
-42.80000152587813
 30
0.0
 40
1.4999984741226444
100
AcDbArc
 50
179.99994171568932
 51
270.00005828431063
  0
ARC
  5
432
100
AcDbEntity
  8
0
  6
CONTINUOUS
 62
               7
100
AcDbCircle
 10
12.499989318826703
 20
56.899989318826698
 30
0.0
 40
0.5000106812873828
100
AcDbArc
 50
0.0012239461541845
 51
89.998776053846228
  0
ARC
  5
433
100
AcDbEntity
  8
0
  6
CONTINUOUS
 62
               7
100
AcDbCircle
 10
3.5000030517671248
 20
56.899996948232875
 30
0.0
 40
0.5000030517764382
100
AcDbArc
 50
90.000349704618188
 51
179.999650295382
  0
ARC
  5
434
100
AcDbEntity
  8
0
  6
CONTINUOUS
 62
               7
100
AcDbCircle
 10
3.4999969482515012
 20
48.399996948251498
 30
0.0
 40
0.4999969482608146
100
AcDbArc
 50
179.99965029324719
 51
270.00034970675267
  0
ARC
  5
435
100
AcDbEntity
  8
0
  6
CONTINUOUS
 62
               7
100
AcDbCircle
 10
12.499995422249194
 20
48.400004577750806
 30
0.0
 40
0.5000045777717621
100
AcDbArc
 50
270.00052456679902
 51
359.99947543320087
  0
ENDBLK
  5
436
100
AcDbEntity
  8
0
100
AcDbBlockEnd
  0
BLOCK
  5
437
100
AcDbEntity
  8
0
100
AcDbBlockBegin
  2
F15MP-14
 70
               0
 10
0.0
 20
0.0
 30
0.0
  3
F15MP-14
  1

  0
LINE
  5
438
100
AcDbEntity
  8
0
  6
CONTINUOUS
 62
               4
100
AcDbLine
 10
51.0
 20
18.899999999999999
 30
0.0
 11
49.0
 21
18.899999999999999
 31
0.0
  0
LINE
  5
439
100
AcDbEntity
  8
0
  6
CONTINUOUS
 62
               4
100
AcDbLine
 10
51.0
 20
-36.100000000000001
 30
0.0
 11
49.0
 21
-36.100000000000001
 31
0.0
  0
LINE
  5
43A
100
AcDbEntity
  8
0
  6
CONTINUOUS
 62
               4
100
AcDbLine
 10
51.0
 20
-36.100000000000001
 30
0.0
 11
51.0
 21
18.899999999999999
 31
0.0
  0
LINE
  5
43B
100
AcDbEntity
  8
0
  6
CONTINUOUS
 62
               4
100
AcDbLine
 10
51.200000000000003
 20
1.6499999999999999
 30
0.0
 11
51.0
 21
1.6499999999999999
 31
0.0
  0
LINE
  5
43C
100
AcDbEntity
  8
0
  6
CONTINUOUS
 62
               4
100
AcDbLine
 10
51.200000000000003
 20
6.1500000000000004
 30
0.0
 11
51.0
 21
6.1500000000000004
 31
0.0
  0
LINE
  5
43D
100
AcDbEntity
  8
0
  6
CONTINUOUS
 62
               4
100
AcDbLine
 10
52.700000000000003
 20
4.6500000000000004
 30
0.0
 11
52.700000000000003
 21
3.1499999999999999
 31
0.0
  0
LINE
  5
43E
100
AcDbEntity
  8
0
  6
CONTINUOUS
 62
               4
100
AcDbLine
 10
51.200000000000003
 20
-31.350000000000001
 30
0.0
 11
51.0
 21
-31.350000000000001
 31
0.0
  0
LINE
  5
43F
100
AcDbEntity
  8
0
  6
CONTINUOUS
 62
               4
100
AcDbLine
 10
51.200000000000003
 20
-26.850000000000001
 30
0.0
 11
51.0
 21
-26.850000000000001
 31
0.0
  0
LINE
  5
440
100
AcDbEntity
  8
0
  6
CONTINUOUS
 62
               4
100
AcDbLine
 10
52.700000000000003
 20
-28.350000000000001
 30
0.0
 11
52.700000000000003
 21
-29.850000000000001
 31
0.0
  0
ARC
  5
441
100
AcDbEntity
  8
0
  6
CONTINUOUS
 62
               4
100
AcDbCircle
 10
51.19998779294081
 20
-28.350012207059191
 30
0.0
 40
1.5000122071088606
100
AcDbArc
 50
0.000466271519994
 51
89.999533728479875
  0
ARC
  5
442
100
AcDbEntity
  8
0
  6
CONTINUOUS
 62
               4
100
AcDbCircle
 10
51.200009155223768
 20
3.1499908447762346
 30
0.0
 40
1.4999908448041741
100
AcDbArc
 50
269.99965029407741
 51
0.0003497059225654
  0
ARC
  5
443
100
AcDbEntity
  8
0
  6
CONTINUOUS
 62
               4
100
AcDbCircle
 10
51.19998779294081
 20
4.6499877929408093
 30
0.0
 40
1.5000122071088615
100
AcDbArc
 50
0.0004662715200618
 51
89.999533728479875
  0
ARC
  5
444
100
AcDbEntity
  8
0
  6
CONTINUOUS
 62
               4
100
AcDbCircle
 10
51.200009155223768
 20
-29.850009155223766
 30
0.0
 40
1.4999908448041746
100
AcDbArc
 50
269.99965029407741
 51
0.0003497059225654
  0
ENDBLK
  5
445
100
AcDbEntity
  8
0
100
AcDbBlockEnd
  0
BLOCK
  5
446
100
AcDbEntity
  8
0
100
AcDbBlockBegin
  2
F15MP-15
 70
               0
 10
0.0
 20
0.0
 30
0.0
  3
F15MP-15
  1

  0
LINE
  5
447
100
AcDbEntity
  8
0
  6
CONTINUOUS
 62
               4
100
AcDbLine
 10
0.25
 20
51.0
 30
0.0
 11
15.75
 21
51.0
 31
0.0
  0
LINE
  5
448
100
AcDbEntity
  8
0
  6
CONTINUOUS
 62
               4
100
AcDbLine
 10
0.5
 20
51.0
 30
0.0
 11
0.5
 21
49.0
 31
0.0
  0
LINE
  5
449
100
AcDbEntity
  8
0
  6
CONTINUOUS
 62
               4
100
AcDbLine
 10
15.5
 20
51.0
 30
0.0
 11
15.5
 21
49.0
 31
0.0
  0
LINE
  5
44A
100
AcDbEntity
  8
0
  6
CONTINUOUS
 62
               4
100
AcDbLine
 10
4.75
 20
51.200000000000003
 30
0.0
 11
4.75
 21
51.0
 31
0.0
  0
LINE
  5
44B
100
AcDbEntity
  8
0
  6
CONTINUOUS
 62
               4
100
AcDbLine
 10
0.25
 20
51.200000000000003
 30
0.0
 11
0.25
 21
51.0
 31
0.0
  0
LINE
  5
44C
100
AcDbEntity
  8
0
  6
CONTINUOUS
 62
               4
100
AcDbLine
 10
1.75
 20
52.700000000000003
 30
0.0
 11
3.25
 21
52.700000000000003
 31
0.0
  0
LINE
  5
44D
100
AcDbEntity
  8
0
  6
CONTINUOUS
 62
             200
100
AcDbLine
 10
8.0
 20
53.460000000000001
 30
0.0
 11
8.0
 21
49.0
 31
0.0
  0
LINE
  5
44E
100
AcDbEntity
  8
0
  6
CONTINUOUS
 62
               4
100
AcDbLine
 10
11.25
 20
51.200000000000003
 30
0.0
 11
11.25
 21
51.0
 31
0.0
  0
LINE
  5
44F
100
AcDbEntity
  8
0
  6
CONTINUOUS
 62
               4
100
AcDbLine
 10
14.25
 20
52.700000000000003
 30
0.0
 11
12.75
 21
52.700000000000003
 31
0.0
  0
LINE
  5
450
100
AcDbEntity
  8
0
  6
CONTINUOUS
 62
               4
100
AcDbLine
 10
15.75
 20
51.200000000000003
 30
0.0
 11
15.75
 21
51.0
 31
0.0
  0
LINE
  5
451
100
AcDbEntity
  8
0
  6
CONTINUOUS
 62
               7
100
AcDbLine
 10
0.0
 20
49.0
 30
0.0
 11
0.0
 21
3.0
 31
0.0
  0
LINE
  5
452
100
AcDbEntity
  8
0
  6
CONTINUOUS
 62
               7
100
AcDbLine
 10
0.5
 20
12.1
 30
0.0
 11
2.5
 21
12.1
 31
0.0
  0
LINE
  5
453
100
AcDbEntity
  8
0
  6
CONTINUOUS
 62
               7
100
AcDbLine
 10
0.5
 20
6.9000000000000004
 30
0.0
 11
2.5
 21
6.9000000000000004
 31
0.0
  0
LINE
  5
454
100
AcDbEntity
  8
0
  6
CONTINUOUS
 62
               7
100
AcDbLine
 10
0.5
 20
12.1
 30
0.0
 11
0.5
 21
6.9000000000000004
 31
0.0
  0
LINE
  5
455
100
AcDbEntity
  8
0
  6
CONTINUOUS
 62
               7
100
AcDbLine
 10
15.5
 20
45.100000000000001
 30
0.0
 11
13.5
 21
45.100000000000001
 31
0.0
  0
LINE
  5
456
100
AcDbEntity
  8
0
  6
CONTINUOUS
 62
               7
100
AcDbLine
 10
15.5
 20
39.899999999999999
 30
0.0
 11
13.5
 21
39.899999999999999
 31
0.0
  0
LINE
  5
457
100
AcDbEntity
  8
0
  6
CONTINUOUS
 62
               7
100
AcDbLine
 10
15.5
 20
39.899999999999999
 30
0.0
 11
15.5
 21
45.100000000000001
 31
0.0
  0
LINE
  5
458
100
AcDbEntity
  8
0
  6
CONTINUOUS
 62
               7
100
AcDbLine
 10
0.5
 20
45.530000000000001
 30
0.0
 11
0.5
 21
48.799999999999997
 31
0.0
  0
LINE
  5
459
100
AcDbEntity
  8
0
  6
CONTINUOUS
 62
               7
100
AcDbLine
 10
0.5
 20
12.199999999999999
 30
0.0
 11
0.5
 21
43.460000000000001
 31
0.0
  0
LINE
  5
45A
100
AcDbEntity
  8
0
  6
CONTINUOUS
 62
               7
100
AcDbLine
 10
1.5800000000000001
 20
43.579999999999998
 30
0.0
 11
3.4100000000000001
 21
45.409999999999997
 31
0.0
  0
LINE
  5
45B
100
AcDbEntity
  8
0
  6
CONTINUOUS
 62
               7
100
AcDbLine
 10
3.4100000000000001
 20
43.579999999999998
 30
0.0
 11
1.5800000000000001
 21
45.409999999999997
 31
0.0
  0
LINE
  5
45C
100
AcDbEntity
  8
0
  6
CONTINUOUS
 62
               7
100
AcDbLine
 10
15.5
 20
48.799999999999997
 30
0.0
 11
0.5
 21
48.799999999999997
 31
0.0
  0
LINE
  5
45D
100
AcDbEntity
  8
0
  6
CONTINUOUS
 62
               7
100
AcDbLine
 10
5.2000000000000002
 20
48.799999999999997
 30
0.0
 11
5.2000000000000002
 21
44.5
 31
0.0
  0
LINE
  5
45E
100
AcDbEntity
  8
0
  6
CONTINUOUS
 62
               7
100
AcDbLine
 10
15.5
 20
46.799999999999997
 30
0.0
 11
5.2000000000000002
 21
46.799999999999997
 31
0.0
  0
LINE
  5
45F
100
AcDbEntity
  8
0
  6
CONTINUOUS
 62
               7
100
AcDbLine
 10
2.5
 20
41.799999999999997
 30
0.0
 11
0.5
 21
41.799999999999997
 31
0.0
  0
LINE
  5
460
100
AcDbEntity
  8
0
  6
CONTINUOUS
 62
               7
100
AcDbLine
 10
15.5
 20
45.200000000000003
 30
0.0
 11
15.5
 21
48.799999999999997
 31
0.0
  0
LINE
  5
461
100
AcDbEntity
  8
0
  6
CONTINUOUS
 62
               7
100
AcDbLine
 10
13.5
 20
45.200000000000003
 30
0.0
 11
15.5
 21
45.200000000000003
 31
0.0
  0
LINE
  5
462
100
AcDbEntity
  8
0
  6
CONTINUOUS
 62
               7
100
AcDbLine
 10
13.5
 20
39.799999999999997
 30
0.0
 11
15.5
 21
39.799999999999997
 31
0.0
  0
LINE
  5
463
100
AcDbEntity
  8
0
  6
CONTINUOUS
 62
               7
100
AcDbLine
 10
15.5
 20
8.5299999999999994
 30
0.0
 11
15.5
 21
39.799999999999997
 31
0.0
  0
LINE
  5
464
100
AcDbEntity
  8
0
  6
CONTINUOUS
 62
               7
100
AcDbLine
 10
13.5
 20
10.199999999999999
 30
0.0
 11
15.5
 21
10.199999999999999
 31
0.0
  0
LINE
  5
465
100
AcDbEntity
  8
0
  6
CONTINUOUS
 62
               7
100
AcDbLine
 10
14.41
 20
6.5800000000000001
 30
0.0
 11
12.58
 21
8.4100000000000001
 31
0.0
  0
LINE
  5
466
100
AcDbEntity
  8
0
  6
CONTINUOUS
 62
               7
100
AcDbLine
 10
12.58
 20
6.5800000000000001
 30
0.0
 11
14.41
 21
8.4100000000000001
 31
0.0
  0
LINE
  5
467
100
AcDbEntity
  8
0
  6
CONTINUOUS
 62
               7
100
AcDbLine
 10
15.5
 20
3.2000000000000002
 30
0.0
 11
15.5
 21
6.46
 31
0.0
  0
LINE
  5
468
100
AcDbEntity
  8
0
  6
CONTINUOUS
 62
               7
100
AcDbLine
 10
15.5
 20
3.2000000000000002
 30
0.0
 11
0.5
 21
3.2000000000000002
 31
0.0
  0
LINE
  5
469
100
AcDbEntity
  8
0
  6
CONTINUOUS
 62
               7
100
AcDbLine
 10
10.800000000000001
 20
7.5
 30
0.0
 11
10.800000000000001
 21
3.2000000000000002
 31
0.0
  0
LINE
  5
46A
100
AcDbEntity
  8
0
  6
CONTINUOUS
 62
               7
100
AcDbLine
 10
10.800000000000001
 20
5.2000000000000002
 30
0.0
 11
0.5
 21
5.2000000000000002
 31
0.0
  0
LINE
  5
46B
100
AcDbEntity
  8
0
  6
CONTINUOUS
 62
               7
100
AcDbLine
 10
0.5
 20
3.2000000000000002
 30
0.0
 11
0.5
 21
6.7999999999999998
 31
0.0
  0
LINE
  5
46C
100
AcDbEntity
  8
0
  6
CONTINUOUS
 62
               7
100
AcDbLine
 10
2.5
 20
6.7999999999999998
 30
0.0
 11
0.5
 21
6.7999999999999998
 31
0.0
  0
LINE
  5
46D
100
AcDbEntity
  8
0
  6
CONTINUOUS
 62
               7
100
AcDbLine
 10
2.5
 20
12.199999999999999
 30
0.0
 11
0.5
 21
12.199999999999999
 31
0.0
  0
LINE
  5
46E
100
AcDbEntity
  8
0
  6
CONTINUOUS
 62
               2
100
AcDbLine
 10
8.0
 20
1.5800000000000001
 30
0.0
 11
8.0
 21
49.0
 31
0.0
  0
LINE
  5
46F
100
AcDbEntity
  8
0
  6
CONTINUOUS
 62
               7
100
AcDbLine
 10
0.0
 20
0.0
 30
0.0
 11
16.0
 21
0.0
 31
0.0
  0
LINE
  5
470
100
AcDbEntity
  8
0
  6
CONTINUOUS
 62
               7
100
AcDbLine
 10
0.0
 20
3.0
 30
0.0
 11
16.0
 21
3.0
 31
0.0
  0
LINE
  5
471
100
AcDbEntity
  8
0
  6
CONTINUOUS
 62
               7
100
AcDbLine
 10
0.0
 20
49.0
 30
0.0
 11
16.0
 21
49.0
 31
0.0
  0
LINE
  5
472
100
AcDbEntity
  8
0
  6
CONTINUOUS
 62
               7
100
AcDbLine
 10
16.0
 20
49.0
 30
0.0
 11
16.0
 21
3.0
 31
0.0
  0
ARC
  5
473
100
AcDbEntity
  8
0
  6
CONTINUOUS
 62
               4
100
AcDbCircle
 10
3.2499984741203161
 20
51.199998474120321
 30
0.0
 40
1.5000015258804598
100
AcDbArc
 50
0.0000582842512653
 51
89.999941715748676
  0
ARC
  5
474
100
AcDbEntity
  8
0
  6
CONTINUOUS
 62
               4
100
AcDbCircle
 10
1.7500015258796837
 20
51.199998474120321
 30
0.0
 40
1.5000015258804598
100
AcDbArc
 50
90.000058284251338
 51
179.99994171574875
  0
ARC
  5
475
100
AcDbEntity
  8
0
  6
CONTINUOUS
 62
               4
100
AcDbCircle
 10
12.750001525879684
 20
51.199998474120321
 30
0.0
 40
1.5000015258804598
100
AcDbArc
 50
90.000058284251338
 51
179.99994171574875
  0
ARC
  5
476
100
AcDbEntity
  8
0
  6
CONTINUOUS
 62
               4
100
AcDbCircle
 10
14.249998474120316
 20
51.199998474120321
 30
0.0
 40
1.5000015258804598
100
AcDbArc
 50
0.0000582842512653
 51
89.999941715748676
  0
ARC
  5
477
100
AcDbEntity
  8
0
  6
CONTINUOUS
 62
               7
100
AcDbCircle
 10
2.5
 20
9.5
 30
0.0
 40
2.5999999999999996
100
AcDbArc
 50
270.0
 51
90.0
  0
ARC
  5
478
100
AcDbEntity
  8
0
  6
CONTINUOUS
 62
               7
100
AcDbCircle
 10
13.5
 20
42.5
 30
0.0
 40
2.6000000000000014
100
AcDbArc
 50
90.0
 51
270.0
  0
CIRCLE
  5
479
100
AcDbEntity
  8
0
  6
CONTINUOUS
 62
               7
100
AcDbCircle
 10
2.5
 20
44.5
 30
0.0
 40
2.25
  0
ARC
  5
47A
100
AcDbEntity
  8
0
  6
CONTINUOUS
 62
               7
100
AcDbCircle
 10
2.499992370594688
 20
44.50000762940531
 30
0.0
 40
2.7000076294160911
100
AcDbArc
 50
270.00016190055163
 51
359.99983809944843
  0
ARC
  5
47B
100
AcDbEntity
  8
0
  6
CONTINUOUS
 62
               7
100
AcDbCircle
 10
13.5
 20
42.5
 30
0.0
 40
2.7000000001724702
100
AcDbArc
 50
90.0
 51
270.0
  0
ARC
  5
47C
100
AcDbEntity
  8
0
  6
CONTINUOUS
 62
               7
100
AcDbCircle
 10
13.499992370616248
 20
7.5000076293837514
 30
0.0
 40
2.6999923706270268
100
AcDbArc
 50
89.999838098990949
 51
180.00016190100905
  0
CIRCLE
  5
47D
100
AcDbEntity
  8
0
  6
CONTINUOUS
 62
               7
100
AcDbCircle
 10
13.5
 20
7.5000152587890625
 30
0.0
 40
2.25
  0
ARC
  5
47E
100
AcDbEntity
  8
0
  6
CONTINUOUS
 62
               7
100
AcDbCircle
 10
2.5
 20
9.5
 30
0.0
 40
2.6999999999999997
100
AcDbArc
 50
270.0
 51
90.0
  0
ENDBLK
  5
47F
100
AcDbEntity
  8
0
100
AcDbBlockEnd
  0
BLOCK
  5
480
100
AcDbEntity
  8
0
100
AcDbBlockBegin
  2
F15MP-16
 70
               0
 10
0.0
 20
0.0
 30
0.0
  3
F15MP-16
  1

  0
LINE
  5
481
100
AcDbEntity
  8
0
  6
CONTINUOUS
 62
               7
100
AcDbLine
 10
0.0
 20
-36.600000258789052
 30
0.0
 11
0.0
 21
63.400014998134154
 31
0.0
  0
LINE
  5
482
100
AcDbEntity
  8
0
  6
CONTINUOUS
 62
               7
100
AcDbLine
 10
0.0
 20
-36.600000258789052
 30
0.0
 11
0.5
 21
-36.600000258789052
 31
0.0
  0
LINE
  5
483
100
AcDbEntity
  8
0
  6
CONTINUOUS
 62
               7
100
AcDbLine
 10
15.5
 20
-36.600000258789052
 30
0.0
 11
16.0
 21
-36.600000258789052
 31
0.0
  0
LINE
  5
484
100
AcDbEntity
  8
0
  6
CONTINUOUS
 62
               7
100
AcDbLine
 10
0.0
 20
60.900030258789073
 30
0.0
 11
3.0500030517578125
 21
60.900030258789073
 31
0.0
  0
LINE
  5
485
100
AcDbEntity
  8
0
  6
CONTINUOUS
 62
               7
100
AcDbLine
 10
16.0
 20
-36.600000258789052
 30
0.0
 11
16.0
 21
63.40001500000001
 31
0.0
  0
LINE
  5
486
100
AcDbEntity
  8
0
  6
CONTINUOUS
 62
               7
100
AcDbLine
 10
12.949996948242187
 20
60.900030258789073
 30
0.0
 11
16.0
 21
60.900030258789073
 31
0.0
  0
LINE
  5
487
100
AcDbEntity
  8
0
  6
CONTINUOUS
 62
               7
100
AcDbLine
 10
13.0
 20
51.000036362304698
 30
0.0
 11
13.199996948242188
 21
51.000036362304698
 31
0.0
  0
LINE
  5
488
100
AcDbEntity
  8
0
  6
CONTINUOUS
 62
               7
100
AcDbLine
 10
13.199996948242188
 20
51.000036362304698
 30
0.0
 11
13.199996948242188
 21
63.40001500000001
 31
0.0
  0
LINE
  5
489
100
AcDbEntity
  8
0
  6
CONTINUOUS
 62
               7
100
AcDbLine
 10
2.8000030517578125
 20
51.000036362304698
 30
0.0
 11
2.8000030517578125
 21
63.40001500000001
 31
0.0
  0
LINE
  5
48A
100
AcDbEntity
  8
0
  6
CONTINUOUS
 62
               7
100
AcDbLine
 10
2.8000030517578125
 20
51.000036362304698
 30
0.0
 11
3.0
 21
51.000036362304698
 31
0.0
  0
LINE
  5
48B
100
AcDbEntity
  8
0
  6
CONTINUOUS
 62
               7
100
AcDbLine
 10
0.0
 20
63.40001500000001
 30
0.0
 11
3.04998779296875
 21
63.40001500000001
 31
0.0
  0
LINE
  5
48C
100
AcDbEntity
  8
0
  6
CONTINUOUS
 62
               7
100
AcDbLine
 10
0.5
 20
-39.600000258789052
 30
0.0
 11
0.25
 21
-39.600000258789052
 31
0.0
  0
LINE
  5
48D
100
AcDbEntity
  8
0
  6
CONTINUOUS
 62
               7
100
AcDbLine
 10
0.25
 20
-39.79999720703124
 30
0.0
 11
0.25
 21
-39.59998499999999
 31
0.0
  0
ARC
  5
48E
100
AcDbEntity
  8
0
  6
CONTINUOUS
 62
               7
100
AcDbCircle
 10
1.75
 20
-39.79999720703124
 30
0.0
 40
1.5
100
AcDbArc
 50
179.99996402782131
 51
213.55728447674093
  0
LINE
  5
48F
100
AcDbEntity
  8
0
  6
CONTINUOUS
 62
               7
100
AcDbLine
 10
3.0
 20
34.800008896484385
 30
0.0
 11
13.0
 21
34.800008896484385
 31
0.0
  0
LINE
  5
490
100
AcDbEntity
  8
0
  6
CONTINUOUS
 62
               7
100
AcDbLine
 10
3.0
 20
25.40001500000001
 30
0.0
 11
13.0
 21
25.40001500000001
 31
0.0
  0
LINE
  5
491
100
AcDbEntity
  8
0
  6
CONTINUOUS
 62
               2
100
AcDbLine
 10
5.5
 20
31.600011948242198
 30
0.0
 11
10.5
 21
31.600011948242198
 31
0.0
  0
LINE
  5
492
100
AcDbEntity
  8
0
  6
CONTINUOUS
 62
               4
100
AcDbLine
 10
3.0
 20
58.90001500000001
 30
0.0
 11
13.0
 21
58.90001500000001
 31
0.0
  0
LINE
  5
493
100
AcDbEntity
  8
0
  6
CONTINUOUS
 62
               7
100
AcDbLine
 10
3.0
 20
34.90001500000001
 30
0.0
 11
13.0
 21
34.90001500000001
 31
0.0
  0
LINE
  5
494
100
AcDbEntity
  8
0
  6
CONTINUOUS
 62
               7
100
AcDbLine
 10
6.073211669921875
 20
31.300008896484385
 30
0.0
 11
9.926788330078125
 21
31.300008896484385
 31
0.0
  0
LINE
  5
495
100
AcDbEntity
  8
0
  6
CONTINUOUS
 62
               7
100
AcDbLine
 10
6.073211669921875
 20
31.90001500000001
 30
0.0
 11
9.926788330078125
 21
31.90001500000001
 31
0.0
  0
LINE
  5
496
100
AcDbEntity
  8
0
  6
CONTINUOUS
 62
               4
100
AcDbLine
 10
3.04998779296875
 20
58.900030258789073
 30
0.0
 11
3.04998779296875
 21
67.400030258789073
 31
0.0
  0
LINE
  5
497
100
AcDbEntity
  8
0
  6
CONTINUOUS
 62
               4
100
AcDbLine
 10
12.5
 20
67.900030258789073
 30
0.0
 11
3.5
 21
67.900030258789073
 31
0.0
  0
LINE
  5
498
100
AcDbEntity
  8
0
  6
CONTINUOUS
 62
               4
100
AcDbLine
 10
12.949996948242187
 20
63.400030258789073
 30
0.0
 11
3.04998779296875
 21
63.400030258789073
 31
0.0
  0
LINE
  5
499
100
AcDbEntity
  8
0
  6
CONTINUOUS
 62
               4
100
AcDbLine
 10
12.949996948242187
 20
58.90001500000001
 30
0.0
 11
12.949996948242187
 21
67.400030258789073
 31
0.0
  0
LINE
  5
49A
100
AcDbEntity
  8
0
  6
CONTINUOUS
 62
               7
100
AcDbLine
 10
13.0
 20
23.40001500000001
 30
0.0
 11
13.0
 21
34.90001500000001
 31
0.0
  0
LINE
  5
49B
100
AcDbEntity
  8
0
  6
CONTINUOUS
 62
               7
100
AcDbLine
 10
3.0
 20
23.40001500000001
 30
0.0
 11
3.0
 21
34.90001500000001
 31
0.0
  0
LINE
  5
49C
100
AcDbEntity
  8
0
  6
CONTINUOUS
 62
               4
100
AcDbLine
 10
13.5
 20
9.6000119482421979
 30
0.0
 11
15.20001220703125
 21
9.6000119482421979
 31
0.0
  0
LINE
  5
49D
100
AcDbEntity
  8
0
  6
CONTINUOUS
 62
               4
100
AcDbLine
 10
2.5
 20
-28.799966689453115
 30
0.0
 11
0.79998779296875
 21
-28.799966689453115
 31
0.0
  0
LINE
  5
49E
100
AcDbEntity
  8
0
  6
CONTINUOUS
 62
               4
100
AcDbLine
 10
2.5
 20
-23.399980422363271
 30
0.0
 11
0.79998779296875
 21
-23.399980422363271
 31
0.0
  0
LINE
  5
49F
100
AcDbEntity
  8
0
  6
CONTINUOUS
 62
               4
100
AcDbLine
 10
13.499984741210937
 20
4.2000294958496198
 30
0.0
 11
15.20001220703125
 21
4.2000294958496198
 31
0.0
  0
LINE
  5
4A0
100
AcDbEntity
  8
0
  6
CONTINUOUS
 62
               4
100
AcDbLine
 10
15.20001220703125
 20
13.20000279296876
 30
0.0
 11
0.79998779296875
 21
13.20000279296876
 31
0.0
  0
LINE
  5
4A1
100
AcDbEntity
  8
0
  6
CONTINUOUS
 62
               4
100
AcDbLine
 10
15.20001220703125
 20
-32.39997279296874
 30
0.0
 11
0.79998779296875
 21
-32.39997279296874
 31
0.0
  0
LINE
  5
4A2
100
AcDbEntity
  8
0
  6
CONTINUOUS
 62
               4
100
AcDbLine
 10
2.4999847412109375
 20
6.2000294958496198
 30
0.0
 11
0.4999847412109375
 21
6.2000294958496198
 31
0.0
  0
LINE
  5
4A3
100
AcDbEntity
  8
0
  6
CONTINUOUS
 62
               4
100
AcDbLine
 10
13.5
 20
-25.399976607666005
 30
0.0
 11
15.5
 21
-25.399976607666005
 31
0.0
  0
LINE
  5
4A4
100
AcDbEntity
  8
0
  6
CONTINUOUS
 62
               4
100
AcDbLine
 10
10.800003051757813
 20
-28.099969741210927
 30
0.0
 11
10.800003051757813
 21
-32.39997279296874
 31
0.0
  0
LINE
  5
4A5
100
AcDbEntity
  8
0
  6
CONTINUOUS
 62
               4
100
AcDbLine
 10
5.20001220703125
 20
13.20000279296876
 30
0.0
 11
5.20001220703125
 21
8.9000150000000104
 31
0.0
  0
LINE
  5
4A6
100
AcDbEntity
  8
0
  6
CONTINUOUS
 62
               4
100
AcDbLine
 10
14.419263936106404
 20
5.9808274812267115
 30
0.0
 11
12.580792965212936
 21
7.8192989170347715
 31
0.0
  0
LINE
  5
4A7
100
AcDbEntity
  8
0
  6
CONTINUOUS
 62
               4
100
AcDbLine
 10
3.4192709296702333
 20
7.9807852237722869
 30
0.0
 11
1.5807891691846407
 21
9.8192674491752001
 31
0.0
  0
LINE
  5
4A8
100
AcDbEntity
  8
0
  6
CONTINUOUS
 62
               4
100
AcDbLine
 10
1.5807753164846758
 20
7.9807734511891368
 30
0.0
 11
3.419250643418934
 21
9.8192486231515232
 31
0.0
  0
LINE
  5
4A9
100
AcDbEntity
  8
0
  6
CONTINUOUS
 62
               4
100
AcDbLine
 10
12.580778606747231
 20
5.9807876388407095
 30
0.0
 11
14.41924988758376
 21
7.8192587647057081
 31
0.0
  0
LINE
  5
4AA
100
AcDbEntity
  8
0
  6
CONTINUOUS
 62
               4
100
AcDbLine
 10
12.580774434207797
 20
-29.019245597136248
 30
0.0
 11
14.41925650463827
 21
-27.180763681678215
 31
0.0
  0
LINE
  5
4AB
100
AcDbEntity
  8
0
  6
CONTINUOUS
 62
               4
100
AcDbLine
 10
14.419250744138253
 20
-29.01920777779803
 30
0.0
 11
12.580779773244785
 21
-27.18073634198997
 31
0.0
  0
LINE
  5
4AC
100
AcDbEntity
  8
0
  6
CONTINUOUS
 62
               7
100
AcDbLine
 10
15.5
 20
-51.09998499999999
 30
0.0
 11
15.5
 21
-32.102677364208304
 31
0.0
  0
LINE
  5
4AD
100
AcDbEntity
  8
0
  6
CONTINUOUS
 62
               7
100
AcDbLine
 10
0.5
 20
-51.59998499999999
 30
0.0
 11
15.0
 21
-51.59998499999999
 31
0.0
  0
LINE
  5
4AE
100
AcDbEntity
  8
0
  6
CONTINUOUS
 62
               7
100
AcDbLine
 10
3.0
 20
23.40001500000001
 30
0.0
 11
13.0
 21
23.40001500000001
 31
0.0
  0
LINE
  5
4AF
100
AcDbEntity
  8
0
  6
CONTINUOUS
 62
               7
100
AcDbLine
 10
0.4999847412109375
 20
-42.599969741210927
 30
0.0
 11
15.5
 21
-42.599969741210927
 31
0.0
  0
LINE
  5
4B0
100
AcDbEntity
  8
0
  6
CONTINUOUS
 62
               7
100
AcDbLine
 10
0.5
 20
13.40001500000001
 30
0.0
 11
15.5
 21
13.40001500000001
 31
0.0
  0
LINE
  5
4B1
100
AcDbEntity
  8
0
  6
CONTINUOUS
 62
               7
100
AcDbLine
 10
0.5
 20
-32.599969741210927
 30
0.0
 11
15.5
 21
-32.599969741210927
 31
0.0
  0
LINE
  5
4B2
100
AcDbEntity
  8
0
  6
CONTINUOUS
 62
             200
100
AcDbLine
 10
0.0
 20
-17.34998499999999
 30
0.0
 11
16.0
 21
-17.34998499999999
 31
0.0
  0
LINE
  5
4B3
100
AcDbEntity
  8
0
  6
CONTINUOUS
 62
             200
100
AcDbLine
 10
0.0
 20
-1.8499849999999896
 30
0.0
 11
16.0
 21
-1.8499849999999896
 31
0.0
  0
LINE
  5
4B4
100
AcDbEntity
  8
0
  6
CONTINUOUS
 62
               4
100
AcDbLine
 10
3.4192482968132367
 20
-27.019206876877305
 30
0.0
 11
1.5807773259197688
 21
-25.180735441069245
 31
0.0
  0
LINE
  5
4B5
100
AcDbEntity
  8
0
  6
CONTINUOUS
 62
               4
100
AcDbLine
 10
1.5807974435808774
 20
-27.019224044260497
 30
0.0
 11
3.4192687244174067
 21
-25.180752918395498
 31
0.0
  0
LINE
  5
4B6
100
AcDbEntity
  8
0
  6
CONTINUOUS
 62
               7
100
AcDbLine
 10
1.5
 20
-42.599969741210927
 30
0.0
 11
1.5
 21
-40.599969741210927
 31
0.0
  0
LINE
  5
4B7
100
AcDbEntity
  8
0
  6
CONTINUOUS
 62
               7
100
AcDbLine
 10
2.0
 20
-40.599969741210927
 30
0.0
 11
0.5
 21
-40.599969741210927
 31
0.0
  0
LINE
  5
4B8
100
AcDbEntity
  8
0
  6
CONTINUOUS
 62
               7
100
AcDbLine
 10
2.0
 20
-34.599969741210927
 30
0.0
 11
0.5
 21
-34.599969741210927
 31
0.0
  0
LINE
  5
4B9
100
AcDbEntity
  8
0
  6
CONTINUOUS
 62
               7
100
AcDbLine
 10
1.5
 20
-32.599969741210927
 30
0.0
 11
1.5
 21
-34.599969741210927
 31
0.0
  0
LINE
  5
4BA
100
AcDbEntity
  8
0
  6
CONTINUOUS
 62
               7
100
AcDbLine
 10
14.5
 20
-32.599969741210927
 30
0.0
 11
14.5
 21
-34.599969741210927
 31
0.0
  0
LINE
  5
4BB
100
AcDbEntity
  8
0
  6
CONTINUOUS
 62
               7
100
AcDbLine
 10
14.0
 20
-34.599969741210927
 30
0.0
 11
15.5
 21
-34.599969741210927
 31
0.0
  0
LINE
  5
4BC
100
AcDbEntity
  8
0
  6
CONTINUOUS
 62
               7
100
AcDbLine
 10
14.0
 20
-40.599969741210927
 30
0.0
 11
15.5
 21
-40.599969741210927
 31
0.0
  0
LINE
  5
4BD
100
AcDbEntity
  8
0
  6
CONTINUOUS
 62
               7
100
AcDbLine
 10
14.5
 20
-42.599969741210927
 30
0.0
 11
14.5
 21
-40.599969741210927
 31
0.0
  0
LINE
  5
4BE
100
AcDbEntity
  8
0
  6
CONTINUOUS
 62
               7
100
AcDbLine
 10
6.073211669921875
 20
-38.89997279296874
 30
0.0
 11
9.926788330078125
 21
-38.89997279296874
 31
0.0
  0
LINE
  5
4BF
100
AcDbEntity
  8
0
  6
CONTINUOUS
 62
               2
100
AcDbLine
 10
5.383331298828125
 20
-38.599969741210927
 30
0.0
 11
10.616668701171875
 21
-38.599969741210927
 31
0.0
  0
LINE
  5
4C0
100
AcDbEntity
  8
0
  6
CONTINUOUS
 62
               7
100
AcDbLine
 10
6.073211669921875
 20
-38.299966689453115
 30
0.0
 11
9.926788330078125
 21
-38.299966689453115
 31
0.0
  0
LINE
  5
4C1
100
AcDbEntity
  8
0
  6
CONTINUOUS
 62
               4
100
AcDbLine
 10
15.5
 20
8.4000302587890729
 30
0.0
 11
15.5
 21
12.902722622997388
 31
0.0
  0
LINE
  5
4C2
100
AcDbEntity
  8
0
  6
CONTINUOUS
 62
               4
100
AcDbLine
 10
15.5
 20
-27.069192763671865
 30
0.0
 11
15.5
 21
5.4000417028808698
 31
0.0
  0
LINE
  5
4C3
100
AcDbEntity
  8
0
  6
CONTINUOUS
 62
               4
100
AcDbLine
 10
0.5
 20
-24.599965926513661
 30
0.0
 11
0.5
 21
7.8692532812500104
 31
0.0
  0
LINE
  5
4C4
100
AcDbEntity
  8
0
  6
CONTINUOUS
 62
               7
100
AcDbLine
 10
0.5
 20
-51.59998499999999
 30
0.0
 11
0.5
 21
-32.099969552861026
 31
0.0
  0
LINE
  5
4C5
100
AcDbEntity
  8
0
  6
CONTINUOUS
 62
               7
100
AcDbLine
 10
13.499958486885703
 20
23.900021776954944
 30
0.0
 11
15.499982020661378
 21
21.899997906000479
 31
0.0
  0
LINE
  5
4C6
100
AcDbEntity
  8
0
  6
CONTINUOUS
 62
               7
100
AcDbLine
 10
13.5
 20
23.90001500000001
 30
0.0
 11
13.0
 21
23.90001500000001
 31
0.0
  0
LINE
  5
4C7
100
AcDbEntity
  8
0
  6
CONTINUOUS
 62
               7
100
AcDbLine
 10
2.5
 20
23.90001500000001
 30
0.0
 11
3.0
 21
23.90001500000001
 31
0.0
  0
LINE
  5
4C8
100
AcDbEntity
  8
0
  6
CONTINUOUS
 62
               7
100
AcDbLine
 10
2.5000072901302701
 20
23.900008669293882
 30
0.0
 11
0.500006178476724
 21
21.900005534589425
 31
0.0
  0
LINE
  5
4C9
100
AcDbEntity
  8
0
  6
CONTINUOUS
 62
               4
100
AcDbLine
 10
0.5
 20
9.9307614599609479
 30
0.0
 11
0.5
 21
12.90273788178645
 31
0.0
  0
CIRCLE
  5
4CA
100
AcDbEntity
  8
0
  6
CONTINUOUS
 62
               7
100
AcDbCircle
 10
8.0
 20
31.600011948242198
 30
0.0
 40
2.0
  0
CIRCLE
  5
4CB
100
AcDbEntity
  8
0
  6
CONTINUOUS
 62
               7
100
AcDbCircle
 10
8.0
 20
31.600011948242198
 30
0.0
 40
1.9499998092651367
  0
ARC
  5
4CC
100
AcDbEntity
  8
0
  6
CONTINUOUS
 62
               4
100
AcDbCircle
 10
12.449996948242188
 20
67.400030258789073
 30
0.0
 40
0.5
100
AcDbArc
 50
359.99995901886496
 51
89.999982013910653
  0
ARC
  5
4CD
100
AcDbEntity
  8
0
  6
CONTINUOUS
 62
               4
100
AcDbCircle
 10
3.5500030517578125
 20
67.400030258789073
 30
0.0
 40
0.5
100
AcDbArc
 50
89.999982013910653
 51
179.99996402782131
  0
ARC
  5
4CE
100
AcDbEntity
  8
0
  6
CONTINUOUS
 62
               4
100
AcDbCircle
 10
13.499984741210937
 20
6.9000150000000104
 30
0.0
 40
2.6999998092651367
100
AcDbArc
 50
89.999982013910653
 51
270.00000068324533
  0
ARC
  5
4CF
100
AcDbEntity
  8
0
  6
CONTINUOUS
 62
               4
100
AcDbCircle
 10
2.5
 20
-26.099969741210927
 30
0.0
 40
2.6999998092651367
100
AcDbArc
 50
270.00001798608935
 51
89.999982013910653
  0
CIRCLE
  5
4D0
100
AcDbEntity
  8
0
  6
CONTINUOUS
 62
               4
100
AcDbCircle
 10
13.5
 20
6.9000302587890729
 30
0.0
 40
2.25
  0
ARC
  5
4D1
100
AcDbEntity
  8
0
  6
CONTINUOUS
 62
               4
100
AcDbCircle
 10
2.5
 20
8.9000302587890729
 30
0.0
 40
2.6999998092651367
100
AcDbArc
 50
270.00001798608935
 51
0.0
  0
ARC
  5
4D2
100
AcDbEntity
  8
0
  6
CONTINUOUS
 62
               4
100
AcDbCircle
 10
15.20001220703125
 20
9.8999997412109479
 30
0.0
 40
0.300000011920929
100
AcDbArc
 50
270.00001798608935
 51
0.0
  0
ARC
  5
4D3
100
AcDbEntity
  8
0
  6
CONTINUOUS
 62
               7
100
AcDbCircle
 10
0.8000030517578125
 20
-23.09998499999999
 30
0.0
 40
0.300000011920929
100
AcDbArc
 50
179.99996402782131
 51
270.00000068324533
  0
ARC
  5
4D4
100
AcDbEntity
  8
0
  6
CONTINUOUS
 62
               4
100
AcDbCircle
 10
15.20001220703125
 20
3.9000264440918073
 30
0.0
 40
0.300000011920929
100
AcDbArc
 50
0.0
 51
89.999982013910653
  0
ARC
  5
4D5
100
AcDbEntity
  8
0
  6
CONTINUOUS
 62
               4
100
AcDbCircle
 10
0.8000030517578125
 20
-29.099969741210927
 30
0.0
 40
0.300000011920929
100
AcDbArc
 50
89.999982013910653
 51
179.99996402782131
  0
ARC
  5
4D6
100
AcDbEntity
  8
0
  6
CONTINUOUS
 62
               4
100
AcDbCircle
 10
0.79998779296875
 20
12.900030258789073
 30
0.0
 40
0.300000011920929
100
AcDbArc
 50
89.999982013910653
 51
179.99996402782131
  0
ARC
  5
4D7
100
AcDbEntity
  8
0
  6
CONTINUOUS
 62
               4
100
AcDbCircle
 10
15.20001220703125
 20
12.90001500000001
 30
0.0
 40
0.300000011920929
100
AcDbArc
 50
0.0
 51
89.999982013910653
  0
ARC
  5
4D8
100
AcDbEntity
  8
0
  6
CONTINUOUS
 62
               4
100
AcDbCircle
 10
15.20001220703125
 20
-32.099969741210927
 30
0.0
 40
0.300000011920929
100
AcDbArc
 50
270.00001798608935
 51
0.0
  0
ARC
  5
4D9
100
AcDbEntity
  8
0
  6
CONTINUOUS
 62
               4
100
AcDbCircle
 10
0.8000030517578125
 20
-32.099969741210927
 30
0.0
 40
0.300000011920929
100
AcDbArc
 50
179.99996402782131
 51
270.00000068324533
  0
ARC
  5
4DA
100
AcDbEntity
  8
0
  6
CONTINUOUS
 62
               4
100
AcDbCircle
 10
13.5
 20
-28.099969741210927
 30
0.0
 40
2.6999998092651367
100
AcDbArc
 50
89.999982013910653
 51
179.99996402782131
  0
CIRCLE
  5
4DB
100
AcDbEntity
  8
0
  6
CONTINUOUS
 62
               4
100
AcDbCircle
 10
2.5
 20
8.9000150000000104
 30
0.0
 40
2.25
  0
CIRCLE
  5
4DC
100
AcDbEntity
  8
0
  6
CONTINUOUS
 62
               4
100
AcDbCircle
 10
13.5
 20
-28.099969741210927
 30
0.0
 40
2.25
  0
ARC
  5
4DD
100
AcDbEntity
  8
0
  6
CONTINUOUS
 62
               7
100
AcDbCircle
 10
15.0
 20
-51.09998499999999
 30
0.0
 40
0.5
100
AcDbArc
 50
270.00001798608935
 51
0.00001366037834
  0
ARC
  5
4DE
100
AcDbEntity
  8
0
  6
CONTINUOUS
 62
               7
100
AcDbCircle
 10
1.0
 20
-51.09998499999999
 30
0.0
 40
0.5
100
AcDbArc
 50
179.99996402782131
 51
269.99994604173196
  0
CIRCLE
  5
4DF
100
AcDbEntity
  8
0
  6
CONTINUOUS
 62
               4
100
AcDbCircle
 10
2.5
 20
-26.099954482421865
 30
0.0
 40
2.25
  0
CIRCLE
  5
4E0
100
AcDbEntity
  8
0
  6
CONTINUOUS
 62
               7
100
AcDbCircle
 10
8.0
 20
-38.599969741210927
 30
0.0
 40
1.9499998092651367
  0
CIRCLE
  5
4E1
100
AcDbEntity
  8
0
  6
CONTINUOUS
 62
               4
100
AcDbCircle
 10
13.5
 20
6.9000302587890729
 30
0.0
 40
2.5
  0
CIRCLE
  5
4E2
100
AcDbEntity
  8
0
  6
CONTINUOUS
 62
               4
100
AcDbCircle
 10
2.5
 20
-26.099954482421865
 30
0.0
 40
2.5
  0
LINE
  5
4E3
100
AcDbEntity
  8
0
  6
CONTINUOUS
 62
               7
100
AcDbLine
 10
0.0
 20
61.900030258789073
 30
0.0
 11
2.8000030517578125
 21
61.900030258789073
 31
0.0
  0
LINE
  5
4E4
100
AcDbEntity
  8
0
  6
CONTINUOUS
 62
               7
100
AcDbLine
 10
13.199996948242188
 20
61.900030258789073
 30
0.0
 11
16.0
 21
61.900030258789073
 31
0.0
  0
LINE
  5
4E5
100
AcDbEntity
  8
0
  6
CONTINUOUS
 62
               7
100
AcDbLine
 10
15.5
 20
12.902722622997388
 30
0.0
 11
15.5
 21
21.90001500000001
 31
0.0
  0
LINE
  5
4E6
100
AcDbEntity
  8
0
  6
CONTINUOUS
 62
               7
100
AcDbLine
 10
0.5
 20
12.90273788178645
 30
0.0
 11
0.5
 21
21.90001500000001
 31
0.0
  0
LINE
  5
4E7
100
AcDbEntity
  8
0
  6
CONTINUOUS
 62
               4
100
AcDbLine
 10
15.5
 20
-32.102677364208304
 30
0.0
 11
15.5
 21
-29.13074671874999
 31
0.0
  0
LINE
  5
4E8
100
AcDbEntity
  8
0
  6
CONTINUOUS
 62
               4
100
AcDbLine
 10
0.5
 20
-32.099969552861026
 30
0.0
 11
0.5
 21
-27.599954482421865
 31
0.0
  0
LINE
  5
4E9
100
AcDbEntity
  8
0
  6
CONTINUOUS
 62
               7
100
AcDbLine
 10
12.949996948242187
 20
63.40001500000001
 30
0.0
 11
16.0
 21
63.40001500000001
 31
0.0
  0
LINE
  5
4EA
100
AcDbEntity
  8
0
  6
CONTINUOUS
 62
               4
100
AcDbLine
 10
13.0
 20
34.90001500000001
 30
0.0
 11
13.0
 21
58.90001500000001
 31
0.0
  0
LINE
  5
4EB
100
AcDbEntity
  8
0
  6
CONTINUOUS
 62
               4
100
AcDbLine
 10
3.0
 20
34.90001500000001
 30
0.0
 11
3.0
 21
58.900030258789073
 31
0.0
  0
LINE
  5
4EC
100
AcDbEntity
  8
0
  6
CONTINUOUS
 62
               2
100
AcDbLine
 10
8.0
 20
-54.815369926272425
 30
0.0
 11
8.0
 21
70.450014999999993
 31
0.0
  0
CIRCLE
  5
4ED
100
AcDbEntity
  8
0
  6
CONTINUOUS
 62
               4
100
AcDbCircle
 10
8.0
 20
-1.8499849999999896
 30
0.0
 40
7.4500000000000002
  0
LINE
  5
4EE
100
AcDbEntity
  8
0
  6
CONTINUOUS
 62
               4
100
AcDbLine
 10
1.6000000000000227
 20
-2.6499849999999938
 30
0.0
 11
1.6000000000000227
 21
-1.0499850059604654
 31
0.0
  0
ARC
  5
4EF
100
AcDbEntity
  8
0
  6
CONTINUOUS
 62
               4
100
AcDbCircle
 10
8.0
 20
-1.8499849999999896
 30
0.0
 40
6.9000000000000004
100
AcDbArc
 50
188.69334942994413
 51
351.30665057005587
  0
LINE
  5
4F0
100
AcDbEntity
  8
0
  6
CONTINUOUS
 62
               4
100
AcDbLine
 10
1.6000000000000227
 20
-2.6499849999999938
 30
0.0
 11
1.1792710802142778
 21
-2.8928929550941334
 31
0.0
  0
ARC
  5
4F1
100
AcDbEntity
  8
0
  6
CONTINUOUS
 62
               4
100
AcDbCircle
 10
8.0
 20
-1.8499849999999896
 30
0.0
 40
6.9000000000000004
100
AcDbArc
 50
8.6933494299441296
 51
171.30665057005587
  0
LINE
  5
4F2
100
AcDbEntity
  8
0
  6
CONTINUOUS
 62
               4
100
AcDbLine
 10
1.6000000000000227
 20
-1.0499849999999782
 30
0.0
 11
1.1792710802142778
 21
-0.8070770449058529
 31
0.0
  0
CIRCLE
  5
4F3
100
AcDbEntity
  8
0
  6
CONTINUOUS
 62
               4
100
AcDbCircle
 10
8.0
 20
-1.8499849999999896
 30
0.0
 40
4.0499999999999998
  0
CIRCLE
  5
4F4
100
AcDbEntity
  8
0
  6
CONTINUOUS
 62
               4
100
AcDbCircle
 10
8.0
 20
-1.8499849999999896
 30
0.0
 40
3.0499999999999998
  0
LINE
  5
4F5
100
AcDbEntity
  8
0
  6
CONTINUOUS
 62
               4
100
AcDbLine
 10
14.400000000000034
 20
-2.6499849999999938
 30
0.0
 11
14.400000000000034
 21
-1.0499850059604654
 31
0.0
  0
LINE
  5
4F6
100
AcDbEntity
  8
0
  6
CONTINUOUS
 62
               4
100
AcDbLine
 10
14.400000000000034
 20
-2.6499849999999938
 30
0.0
 11
14.820728919785722
 21
-2.8928929550941334
 31
0.0
  0
LINE
  5
4F7
100
AcDbEntity
  8
0
  6
CONTINUOUS
 62
               4
100
AcDbLine
 10
14.400000000000034
 20
-1.0499849999999782
 30
0.0
 11
14.820728919785722
 21
-0.8070770449058529
 31
0.0
  0
CIRCLE
  5
4F8
100
AcDbEntity
  8
0
  6
CONTINUOUS
 62
               4
100
AcDbCircle
 10
8.0
 20
-17.34998499999999
 30
0.0
 40
7.4500000000000002
  0
CIRCLE
  5
4F9
100
AcDbEntity
  8
0
  6
CONTINUOUS
 62
               4
100
AcDbCircle
 10
8.0
 20
-17.34998499999999
 30
0.0
 40
4.0499999999999998
  0
CIRCLE
  5
4FA
100
AcDbEntity
  8
0
  6
CONTINUOUS
 62
               4
100
AcDbCircle
 10
8.0
 20
-17.34998499999999
 30
0.0
 40
3.0499999999999998
  0
ARC
  5
4FB
100
AcDbEntity
  8
0
  6
CONTINUOUS
 62
               4
100
AcDbCircle
 10
8.0
 20
-17.34998499999999
 30
0.0
 40
6.9000000000000004
100
AcDbArc
 50
8.6933494299441296
 51
171.30665057005587
  0
LINE
  5
4FC
100
AcDbEntity
  8
0
  6
CONTINUOUS
 62
               4
100
AcDbLine
 10
7.25
 20
-9.6714434718190034
 30
0.0
 11
7.25
 21
-9.5285265281809757
 31
0.0
  0
ARC
  5
4FD
100
AcDbEntity
  8
0
  6
CONTINUOUS
 62
               4
100
AcDbCircle
 10
6.9500000000000171
 20
-9.6714434718190034
 30
0.0
 40
0.3
100
AcDbArc
 50
277.78660072413862
 51
0.0
  0
ARC
  5
4FE
100
AcDbEntity
  8
0
  6
CONTINUOUS
 62
               4
100
AcDbCircle
 10
6.9500000000000171
 20
-9.5285265281809757
 30
0.0
 40
0.3
100
AcDbArc
 50
0.0
 51
82.213399275864049
  0
LINE
  5
4FF
100
AcDbEntity
  8
0
  6
CONTINUOUS
 62
               4
100
AcDbLine
 10
8.75
 20
-9.6714434718190034
 30
0.0
 11
8.75
 21
-9.5285265281809757
 31
0.0
  0
ARC
  5
500
100
AcDbEntity
  8
0
  6
CONTINUOUS
 62
               4
100
AcDbCircle
 10
9.0500000000000114
 20
-9.6714434718190034
 30
0.0
 40
0.3
100
AcDbArc
 50
180.0
 51
262.21339927586268
  0
ARC
  5
501
100
AcDbEntity
  8
0
  6
CONTINUOUS
 62
               4
100
AcDbCircle
 10
9.0500000000000114
 20
-9.5285265281809757
 30
0.0
 40
0.3
100
AcDbArc
 50
97.786600724137301
 51
180.0
  0
LINE
  5
502
100
AcDbEntity
  8
0
  6
CONTINUOUS
 62
               4
100
AcDbLine
 10
14.400000000000034
 20
-18.149984999999987
 30
0.0
 11
14.400000000000034
 21
-16.549985005960451
 31
0.0
  0
LINE
  5
503
100
AcDbEntity
  8
0
  6
CONTINUOUS
 62
               4
100
AcDbLine
 10
14.400000000000034
 20
-16.549984999999992
 30
0.0
 11
14.820728919785722
 21
-16.307077044905846
 31
0.0
  0
ARC
  5
504
100
AcDbEntity
  8
0
  6
CONTINUOUS
 62
               4
100
AcDbCircle
 10
8.0
 20
-17.34998499999999
 30
0.0
 40
6.9000000000000004
100
AcDbArc
 50
188.69334942994413
 51
351.30665057005587
  0
LINE
  5
505
100
AcDbEntity
  8
0
  6
CONTINUOUS
 62
               4
100
AcDbLine
 10
14.400000000000034
 20
-18.149984999999987
 30
0.0
 11
14.820728919785722
 21
-18.392892955094133
 31
0.0
  0
LINE
  5
506
100
AcDbEntity
  8
0
  6
CONTINUOUS
 62
               4
100
AcDbLine
 10
1.6000000000000227
 20
-18.149984999999987
 30
0.0
 11
1.6000000000000227
 21
-16.549985005960451
 31
0.0
  0
LINE
  5
507
100
AcDbEntity
  8
0
  6
CONTINUOUS
 62
               4
100
AcDbLine
 10
1.6000000000000227
 20
-18.149984999999987
 30
0.0
 11
1.1792710802142778
 21
-18.392892955094133
 31
0.0
  0
LINE
  5
508
100
AcDbEntity
  8
0
  6
CONTINUOUS
 62
               4
100
AcDbLine
 10
1.6000000000000227
 20
-16.549984999999992
 30
0.0
 11
1.1792710802142778
 21
-16.307077044905846
 31
0.0
  0
LINE
  5
509
100
AcDbEntity
  8
0
  6
CONTINUOUS
 62
               4
100
AcDbLine
 10
10.892319037918952
 20
6.200011185302742
 30
0.0
 11
0.4999999940395696
 21
6.200011185302742
 31
0.0
  0
LINE
  5
50A
100
AcDbEntity
  8
0
  6
CONTINUOUS
 62
               4
100
AcDbLine
 10
5.078322088718437
 20
-25.298580510485301
 30
0.0
 11
15.500000005960487
 21
-25.298580510485301
 31
0.0
  0
ENDBLK
  5
50B
100
AcDbEntity
  8
0
100
AcDbBlockEnd
  0
BLOCK
  5
50C
100
AcDbEntity
  8
0
100
AcDbBlockBegin
  2
F15MP-17
 70
               0
 10
0.0
 20
0.0
 30
0.0
  3
F15MP-17
  1

  0
ARC
  5
50D
100
AcDbEntity
  8
0
  6
CONTINUOUS
 62
               7
100
AcDbCircle
 10
49.5
 20
-51.099984654947903
 30
0.0
 40
0.5
100
AcDbArc
 50
179.99996402782131
 51
269.99994604173196
  0
LINE
  5
50E
100
AcDbEntity
  8
0
  6
CONTINUOUS
 62
               7
100
AcDbLine
 10
78.875732421875
 20
-32.599984654947903
 30
0.0
 11
75.999984741210938
 21
-32.599984654947903
 31
0.0
  0
LINE
  5
50F
100
AcDbEntity
  8
0
  6
CONTINUOUS
 62
               7
100
AcDbLine
 10
79.0
 20
-40.699990758463528
 30
0.0
 11
79.0
 21
-34.499993810221341
 31
0.0
  0
LINE
  5
510
100
AcDbEntity
  8
0
  6
CONTINUOUS
 62
               7
100
AcDbLine
 10
81.0
 20
-41.599984654947903
 30
0.0
 11
81.0
 21
-33.599984654947903
 31
0.0
  0
LINE
  5
511
100
AcDbEntity
  8
0
  6
CONTINUOUS
 62
               7
100
AcDbLine
 10
79.999955136865537
 20
-32.600010614248632
 30
0.0
 11
80.999959991675496
 21
-33.600007966911463
 31
0.0
  0
LINE
  5
512
100
AcDbEntity
  8
0
  6
CONTINUOUS
 62
               7
100
AcDbLine
 10
79.999988431825841
 20
-42.600005635486369
 30
0.0
 11
80.999978788115186
 21
-41.600015447782781
 31
0.0
  0
LINE
  5
513
100
AcDbEntity
  8
0
  6
CONTINUOUS
 62
               7
100
AcDbLine
 10
79.800003051757813
 20
-40.699990758463528
 30
0.0
 11
79.800003051757813
 21
-34.499993810221341
 31
0.0
  0
LINE
  5
514
100
AcDbEntity
  8
0
  6
CONTINUOUS
 62
               7
100
AcDbLine
 10
79.0
 20
-51.099984654947903
 30
0.0
 11
79.0
 21
-42.599984654947903
 31
0.0
  0
LINE
  5
515
100
AcDbEntity
  8
0
  6
CONTINUOUS
 62
               7
100
AcDbLine
 10
78.999984741210938
 20
-40.599999913736966
 30
0.0
 11
76.999984741210937
 21
-40.599999913736966
 31
0.0
  0
LINE
  5
516
100
AcDbEntity
  8
0
  6
CONTINUOUS
 62
               7
100
AcDbLine
 10
78.999984741210938
 20
-34.599999913736966
 30
0.0
 11
76.999984741210937
 21
-34.599999913736966
 31
0.0
  0
LINE
  5
517
100
AcDbEntity
  8
0
  6
CONTINUOUS
 62
               7
100
AcDbLine
 10
78.0
 20
-40.699990758463528
 30
0.0
 11
78.0
 21
-40.599984654947903
 31
0.0
  0
LINE
  5
518
100
AcDbEntity
  8
0
  6
CONTINUOUS
 62
               7
100
AcDbLine
 10
77.0
 20
-42.599984654947903
 30
0.0
 11
77.0
 21
-40.599984654947903
 31
0.0
  0
LINE
  5
519
100
AcDbEntity
  8
0
  6
CONTINUOUS
 62
               7
100
AcDbLine
 10
78.0
 20
-34.599984654947903
 30
0.0
 11
78.0
 21
-34.499993810221341
 31
0.0
  0
LINE
  5
51A
100
AcDbEntity
  8
0
  6
CONTINUOUS
 62
               7
100
AcDbLine
 10
77.0
 20
-34.599984654947903
 30
0.0
 11
77.0
 21
-32.599992284342434
 31
0.0
  0
LINE
  5
51B
100
AcDbEntity
  8
0
  6
CONTINUOUS
 62
               7
100
AcDbLine
 10
77.099990844726563
 20
-42.599984654947903
 30
0.0
 11
77.099990844726563
 21
-40.699990758463528
 31
0.0
  0
LINE
  5
51C
100
AcDbEntity
  8
0
  6
CONTINUOUS
 62
               7
100
AcDbLine
 10
79.79998779296875
 20
-34.499993810221341
 30
0.0
 11
77.099990844726563
 21
-34.499993810221341
 31
0.0
  0
LINE
  5
51D
100
AcDbEntity
  8
0
  6
CONTINUOUS
 62
               7
100
AcDbLine
 10
79.79998779296875
 20
-40.699990758463528
 30
0.0
 11
77.099990844726563
 21
-40.699990758463528
 31
0.0
  0
LINE
  5
51E
100
AcDbEntity
  8
0
  6
CONTINUOUS
 62
               7
100
AcDbLine
 10
77.099990844726563
 20
-34.499993810221341
 30
0.0
 11
77.099990844726563
 21
-32.599992284342434
 31
0.0
  0
LINE
  5
51F
100
AcDbEntity
  8
0
  6
CONTINUOUS
 62
               7
100
AcDbLine
 10
80.0
 20
-42.599984654947903
 30
0.0
 11
80.0
 21
-32.599992284342434
 31
0.0
  0
LINE
  5
520
100
AcDbEntity
  8
0
  6
CONTINUOUS
 62
               4
100
AcDbLine
 10
80.999984741210937
 20
6.1999878792317844
 30
0.0
 11
79.0
 21
6.1999878792317844
 31
0.0
  0
LINE
  5
521
100
AcDbEntity
  8
0
  6
CONTINUOUS
 62
               4
100
AcDbLine
 10
81.0
 20
-28.800004491373684
 30
0.0
 11
76.0
 21
-28.800004491373684
 31
0.0
  0
LINE
  5
522
100
AcDbEntity
  8
0
  6
CONTINUOUS
 62
               4
100
AcDbLine
 10
83.099992370605435
 20
-23.400002965494778
 30
0.0
 11
76.0
 21
-23.400002965494778
 31
0.0
  0
LINE
  5
523
100
AcDbEntity
  8
0
  6
CONTINUOUS
 62
               4
100
AcDbLine
 10
76.800003051757813
 20
-28.350003728434231
 30
0.0
 11
76.600006103515625
 21
-28.350003728434231
 31
0.0
  0
LINE
  5
524
100
AcDbEntity
  8
0
  6
CONTINUOUS
 62
               4
100
AcDbLine
 10
76.800003051757813
 20
-23.850003728434231
 30
0.0
 11
76.600006103515625
 21
-23.850003728434231
 31
0.0
  0
LINE
  5
525
100
AcDbEntity
  8
0
  6
CONTINUOUS
 62
               4
100
AcDbLine
 10
78.300003051757812
 20
-25.350007543131497
 30
0.0
 11
78.300003051757812
 21
-26.850007543131497
 31
0.0
  0
LINE
  5
526
100
AcDbEntity
  8
0
  6
CONTINUOUS
 62
               4
100
AcDbLine
 10
79.199981689453125
 20
11.149984827473972
 30
0.0
 11
78.999984741210938
 21
11.149984827473972
 31
0.0
  0
LINE
  5
527
100
AcDbEntity
  8
0
  6
CONTINUOUS
 62
               4
100
AcDbLine
 10
80.699996948242188
 20
9.6499848274739719
 30
0.0
 11
80.699996948242188
 21
8.1499848274739719
 31
0.0
  0
LINE
  5
528
100
AcDbEntity
  8
0
  6
CONTINUOUS
 62
               4
100
AcDbLine
 10
79.199981689453125
 20
6.6499848274739719
 30
0.0
 11
78.999984741210938
 21
6.6499848274739719
 31
0.0
  0
LINE
  5
529
100
AcDbEntity
  8
0
  6
CONTINUOUS
 62
               7
100
AcDbLine
 10
69.800018310546875
 20
-51.299996861979153
 30
0.0
 11
69.800018310546875
 21
-49.400002965494778
 31
0.0
  0
LINE
  5
52A
100
AcDbEntity
  8
0
  6
CONTINUOUS
 62
               7
100
AcDbLine
 10
75.900009155273437
 20
-49.099999913736966
 30
0.0
 11
70.100021362304688
 21
-49.099999913736966
 31
0.0
  0
LINE
  5
52B
100
AcDbEntity
  8
0
  6
CONTINUOUS
 62
               7
100
AcDbLine
 10
76.20001220703125
 20
-51.299996861979153
 30
0.0
 11
76.20001220703125
 21
-49.400002965494778
 31
0.0
  0
LINE
  5
52C
100
AcDbEntity
  8
0
  6
CONTINUOUS
 62
               7
100
AcDbLine
 10
75.750015258789063
 20
-49.599984654947903
 30
0.0
 11
75.750015258789063
 21
-49.099984654947903
 31
0.0
  0
LINE
  5
52D
100
AcDbEntity
  8
0
  6
CONTINUOUS
 62
               7
100
AcDbLine
 10
74.25
 20
-51.099999913736966
 30
0.0
 11
71.750015258789063
 21
-51.099999913736966
 31
0.0
  0
LINE
  5
52E
100
AcDbEntity
  8
0
  6
CONTINUOUS
 62
               7
100
AcDbLine
 10
70.250015258789063
 20
-49.599984654947903
 30
0.0
 11
70.250015258789063
 21
-49.099984654947903
 31
0.0
  0
ARC
  5
52F
100
AcDbEntity
  8
0
  6
CONTINUOUS
 62
               7
100
AcDbCircle
 10
78.875732421875
 20
-32.299989232584622
 30
0.0
 40
0.300000011920929
100
AcDbArc
 50
269.99996334457597
 51
314.9999543515313
  0
ARC
  5
530
100
AcDbEntity
  8
0
  6
CONTINUOUS
 62
               7
100
AcDbCircle
 10
78.499984741210938
 20
-51.099984654947903
 30
0.0
 40
0.5
100
AcDbArc
 50
270.00001798608935
 51
359.99995901886496
  0
ARC
  5
531
100
AcDbEntity
  8
0
  6
CONTINUOUS
 62
               4
100
AcDbCircle
 10
76.800003051757813
 20
-26.850007543131497
 30
0.0
 40
1.5
100
AcDbArc
 50
270.00007262760272
 51
0.0000409811350201
  0
ARC
  5
532
100
AcDbEntity
  8
0
  6
CONTINUOUS
 62
               4
100
AcDbCircle
 10
76.800003051757813
 20
-25.350007543131497
 30
0.0
 40
1.5
100
AcDbArc
 50
0.0000409811350201
 51
89.999982013910653
  0
ARC
  5
533
100
AcDbEntity
  8
0
  6
CONTINUOUS
 62
               4
100
AcDbCircle
 10
79.199981689453125
 20
9.6499848274739719
 30
0.0
 40
1.5
100
AcDbArc
 50
0.0000409811350201
 51
89.999982013910653
  0
ARC
  5
534
100
AcDbEntity
  8
0
  6
CONTINUOUS
 62
               4
100
AcDbCircle
 10
79.199981689453125
 20
8.1499848274739719
 30
0.0
 40
1.5
100
AcDbArc
 50
270.00007262760272
 51
0.0000409811350201
  0
ARC
  5
535
100
AcDbEntity
  8
0
  6
CONTINUOUS
 62
               7
100
AcDbCircle
 10
69.500015258789063
 20
-51.299996861979153
 30
0.0
 40
0.300000011920929
100
AcDbArc
 50
270.00001798608935
 51
0.0
  0
ARC
  5
536
100
AcDbEntity
  8
0
  6
CONTINUOUS
 62
               7
100
AcDbCircle
 10
70.100021362304688
 20
-49.400002965494778
 30
0.0
 40
0.300000011920929
100
AcDbArc
 50
89.999982013910653
 51
179.99996402782131
  0
ARC
  5
537
100
AcDbEntity
  8
0
  6
CONTINUOUS
 62
               7
100
AcDbCircle
 10
75.900009155273437
 20
-49.400002965494778
 30
0.0
 40
0.300000011920929
100
AcDbArc
 50
0.0
 51
89.999982013910653
  0
ARC
  5
538
100
AcDbEntity
  8
0
  6
CONTINUOUS
 62
               7
100
AcDbCircle
 10
76.500015258789063
 20
-51.299996861979153
 30
0.0
 40
0.300000011920929
100
AcDbArc
 50
179.99998133066532
 51
270.00001798608935
  0
ARC
  5
539
100
AcDbEntity
  8
0
  6
CONTINUOUS
 62
               7
100
AcDbCircle
 10
74.25
 20
-49.599984654947903
 30
0.0
 40
1.5
100
AcDbArc
 50
270.00001798608935
 51
359.99995901886496
  0
ARC
  5
53A
100
AcDbEntity
  8
0
  6
CONTINUOUS
 62
               7
100
AcDbCircle
 10
71.750015258789063
 20
-49.599984654947903
 30
0.0
 40
1.5
100
AcDbArc
 50
179.99990938630796
 51
269.99994604173196
  0
LINE
  5
53B
100
AcDbEntity
  8
0
  6
CONTINUOUS
 62
               4
100
AcDbLine
 10
76.600006103515625
 20
-28.600007543131497
 30
0.0
 11
76.600006103515625
 21
-23.600007543131497
 31
0.0
  0
LINE
  5
53C
100
AcDbEntity
  8
0
  6
CONTINUOUS
 62
               4
100
AcDbLine
 10
75.999997555394657
 20
-25.695857817858624
 30
0.0
 11
76.600001869864172
 21
-25.349445159167217
 31
0.0
  0
LINE
  5
53D
100
AcDbEntity
  8
0
  6
CONTINUOUS
 62
               4
100
AcDbLine
 10
76.000000567252755
 20
-26.850556606978344
 30
0.0
 11
76.600004881722271
 21
-26.504143948286938
 31
0.0
  0
LINE
  5
53E
100
AcDbEntity
  8
0
  6
CONTINUOUS
 62
               4
100
AcDbLine
 10
76.0
 20
-23.600007543131497
 30
0.0
 11
76.600006103515625
 21
-23.600007543131497
 31
0.0
  0
LINE
  5
53F
100
AcDbEntity
  8
0
  6
CONTINUOUS
 62
               4
100
AcDbLine
 10
76.0
 20
-28.600007543131497
 30
0.0
 11
76.600006103515625
 21
-28.600007543131497
 31
0.0
  0
LINE
  5
540
100
AcDbEntity
  8
0
  6
CONTINUOUS
 62
               4
100
AcDbLine
 10
78.999992415308952
 20
13.200007656052918
 30
0.0
 11
83.099992364645004
 21
6.0985994426759191
 31
0.0
  0
LINE
  5
541
100
AcDbEntity
  8
0
  6
CONTINUOUS
 62
               4
100
AcDbLine
 10
100.83603837060548
 20
-9.3499922843424343
 30
0.0
 11
100.83603837060548
 21
5.6500077156575657
 31
0.0
  0
LINE
  5
542
100
AcDbEntity
  8
0
  6
CONTINUOUS
 62
               4
100
AcDbLine
 10
101.29999237060548
 20
-8.5464026843424392
 30
0.0
 11
101.29999237060548
 21
4.8464189816841667
 31
0.0
  0
LINE
  5
543
100
AcDbEntity
  8
0
  6
CONTINUOUS
 62
               4
100
AcDbLine
 10
102.89999097060547
 20
-7.5499922843424372
 30
0.0
 11
102.89999097060547
 21
3.8500073156575496
 31
0.0
  0
LINE
  5
544
100
AcDbEntity
  8
0
  6
CONTINUOUS
 62
               4
100
AcDbLine
 10
99.499997370605456
 20
-9.3499922843424343
 30
0.0
 11
99.499997370605456
 21
5.6500077156575657
 31
0.0
  0
LINE
  5
545
100
AcDbEntity
  8
0
  6
CONTINUOUS
 62
               4
100
AcDbLine
 10
99.299997370605467
 20
-8.6499922843424457
 30
0.0
 11
98.499997370605456
 21
-8.6499922843424457
 31
0.0
  0
LINE
  5
546
100
AcDbEntity
  8
0
  6
CONTINUOUS
 62
               4
100
AcDbLine
 10
98.39999737060549
 20
-9.3499922843424343
 30
0.0
 11
98.39999737060549
 21
5.6500077156575657
 31
0.0
  0
LINE
  5
547
100
AcDbEntity
  8
0
  6
CONTINUOUS
 62
               4
100
AcDbLine
 10
91.599997370605422
 20
-9.3499922843424343
 30
0.0
 11
91.599997370605479
 21
5.6500077156575657
 31
0.0
  0
LINE
  5
548
100
AcDbEntity
  8
0
  6
CONTINUOUS
 62
               4
100
AcDbLine
 10
91.39999737060549
 20
5.4500077156575486
 30
0.0
 11
91.199997370605445
 21
5.6500077156575657
 31
0.0
  0
LINE
  5
549
100
AcDbEntity
  8
0
  6
CONTINUOUS
 62
               4
100
AcDbLine
 10
91.199997370605445
 20
-9.5999922843424343
 30
0.0
 11
91.199997370605445
 21
5.6500077156575657
 31
0.0
  0
LINE
  5
54A
100
AcDbEntity
  8
0
  6
CONTINUOUS
 62
               4
100
AcDbLine
 10
91.199997370605445
 20
-9.3499922843424343
 30
0.0
 11
83.099997370605422
 21
-9.3499922843424343
 31
0.0
  0
LINE
  5
54B
100
AcDbEntity
  8
0
  6
CONTINUOUS
 62
               4
100
AcDbLine
 10
91.39999737060549
 20
-9.1499922843424315
 30
0.0
 11
91.199997370605445
 21
-9.3499922843424343
 31
0.0
  0
LINE
  5
54C
100
AcDbEntity
  8
0
  6
CONTINUOUS
 62
               4
100
AcDbLine
 10
98.39999737060549
 20
5.6500077156575657
 30
0.0
 11
91.599997370605479
 21
5.6500077156575657
 31
0.0
  0
LINE
  5
54D
100
AcDbEntity
  8
0
  6
CONTINUOUS
 62
               4
100
AcDbLine
 10
98.499997370605456
 20
5.5500077156575571
 30
0.0
 11
98.39999737060549
 21
5.6500077156575657
 31
0.0
  0
LINE
  5
54E
100
AcDbEntity
  8
0
  6
CONTINUOUS
 62
               4
100
AcDbLine
 10
98.499997370605456
 20
-9.24999228434244
 30
0.0
 11
98.499997370605456
 21
5.5500077156575571
 31
0.0
  0
LINE
  5
54F
100
AcDbEntity
  8
0
  6
CONTINUOUS
 62
               4
100
AcDbLine
 10
98.39999737060549
 20
-9.3499922843424343
 30
0.0
 11
98.499997370605456
 21
-9.24999228434244
 31
0.0
  0
LINE
  5
550
100
AcDbEntity
  8
0
  6
CONTINUOUS
 62
               4
100
AcDbLine
 10
98.39999737060549
 20
-9.3499922843424343
 30
0.0
 11
91.599997370605422
 21
-9.3499922843424343
 31
0.0
  0
LINE
  5
551
100
AcDbEntity
  8
0
  6
CONTINUOUS
 62
               4
100
AcDbLine
 10
91.39999737060549
 20
-9.1499922843424315
 30
0.0
 11
91.39999737060549
 21
5.4500077156575486
 31
0.0
  0
LINE
  5
552
100
AcDbEntity
  8
0
  6
CONTINUOUS
 62
               4
100
AcDbLine
 10
91.39999737060549
 20
-9.1499922843424315
 30
0.0
 11
91.599997370605422
 21
-9.3499922843424343
 31
0.0
  0
LINE
  5
553
100
AcDbEntity
  8
0
  6
CONTINUOUS
 62
               4
100
AcDbLine
 10
91.39999737060549
 20
5.4500077156575486
 30
0.0
 11
91.599997370605479
 21
5.6500077156575657
 31
0.0
  0
LINE
  5
554
100
AcDbEntity
  8
0
  6
CONTINUOUS
 62
               4
100
AcDbLine
 10
100.83603837060548
 20
5.6500077156575657
 30
0.0
 11
99.499997370605456
 21
5.6500077156575657
 31
0.0
  0
LINE
  5
555
100
AcDbEntity
  8
0
  6
CONTINUOUS
 62
               4
100
AcDbLine
 10
100.83603837060548
 20
-9.3499922843424343
 30
0.0
 11
99.499997370605456
 21
-9.3499922843424343
 31
0.0
  0
LINE
  5
556
100
AcDbEntity
  8
0
  6
CONTINUOUS
 62
               4
100
AcDbLine
 10
99.299997370605467
 20
4.9500077156575486
 30
0.0
 11
98.499997370605456
 21
4.9500077156575486
 31
0.0
  0
LINE
  5
557
100
AcDbEntity
  8
0
  6
CONTINUOUS
 62
               4
100
AcDbLine
 10
101.29999237060548
 20
4.8464181156575563
 30
0.0
 11
101.8999923706055
 21
4.50000771565756
 31
0.0
  0
LINE
  5
558
100
AcDbEntity
  8
0
  6
CONTINUOUS
 62
               4
100
AcDbLine
 10
101.29999237060548
 20
-8.5464026843424392
 30
0.0
 11
101.8999923706055
 21
-8.1999922843424287
 31
0.0
  0
LINE
  5
559
100
AcDbEntity
  8
0
  6
CONTINUOUS
 62
               4
100
AcDbLine
 10
99.299997370605467
 20
-9.1499922843424315
 30
0.0
 11
99.499997370605456
 21
-9.3499922843424343
 31
0.0
  0
LINE
  5
55A
100
AcDbEntity
  8
0
  6
CONTINUOUS
 62
               4
100
AcDbLine
 10
99.299997370605467
 20
5.4500077156575486
 30
0.0
 11
99.499997370605456
 21
5.6500077156575657
 31
0.0
  0
LINE
  5
55B
100
AcDbEntity
  8
0
  6
CONTINUOUS
 62
               4
100
AcDbLine
 10
99.299997370605467
 20
-9.1499922843424315
 30
0.0
 11
99.299997370605467
 21
5.4500077156575486
 31
0.0
  0
LINE
  5
55C
100
AcDbEntity
  8
0
  6
CONTINUOUS
 62
               4
100
AcDbLine
 10
100.83603837060548
 20
-9.3499922843424343
 30
0.0
 11
101.29999137060548
 21
-8.5464026843424392
 31
0.0
  0
LINE
  5
55D
100
AcDbEntity
  8
0
  6
CONTINUOUS
 62
               4
100
AcDbLine
 10
101.29999137060548
 20
4.8464181156575563
 30
0.0
 11
100.83603837060548
 21
5.6500077156575657
 31
0.0
  0
LINE
  5
55E
100
AcDbEntity
  8
0
  6
CONTINUOUS
 62
               4
100
AcDbLine
 10
101.8999923706055
 20
-8.1999926843424333
 30
0.0
 11
101.8999923706055
 21
4.50000771565756
 31
0.0
  0
LINE
  5
55F
100
AcDbEntity
  8
0
  6
CONTINUOUS
 62
               4
100
AcDbLine
 10
103.29999237060548
 20
-6.74999228434244
 30
0.0
 11
102.99999137060547
 21
-6.74999228434244
 31
0.0
  0
LINE
  5
560
100
AcDbEntity
  8
0
  6
CONTINUOUS
 62
               4
100
AcDbLine
 10
102.99999137060547
 20
-7.4499918843424382
 30
0.0
 11
102.99999137060547
 21
3.7500073156575553
 31
0.0
  0
LINE
  5
561
100
AcDbEntity
  8
0
  6
CONTINUOUS
 62
               4
100
AcDbLine
 10
103.29999237060548
 20
3.0500077156575713
 30
0.0
 11
102.99999137060547
 21
3.0500077156575713
 31
0.0
  0
LINE
  5
562
100
AcDbEntity
  8
0
  6
CONTINUOUS
 62
               4
100
AcDbLine
 10
102.89999137060545
 20
-7.5499918843424325
 30
0.0
 11
102.99999137060547
 21
-7.4499918843424382
 31
0.0
  0
LINE
  5
563
100
AcDbEntity
  8
0
  6
CONTINUOUS
 62
               4
100
AcDbLine
 10
102.89999137060545
 20
-7.5499922843424372
 30
0.0
 11
101.8999923706055
 21
-7.5499922843424372
 31
0.0
  0
LINE
  5
564
100
AcDbEntity
  8
0
  6
CONTINUOUS
 62
               4
100
AcDbLine
 10
102.89999137060545
 20
3.8500073156575496
 30
0.0
 11
102.99999137060547
 21
3.7500073156575553
 31
0.0
  0
LINE
  5
565
100
AcDbEntity
  8
0
  6
CONTINUOUS
 62
               4
100
AcDbLine
 10
102.89999137060545
 20
3.8500077156575543
 30
0.0
 11
101.8999923706055
 21
3.8500077156575543
 31
0.0
  0
LINE
  5
566
100
AcDbEntity
  8
0
  6
CONTINUOUS
 62
               4
100
AcDbLine
 10
104.69998937060546
 20
-8.74999228434244
 30
0.0
 11
103.79999237060548
 21
-8.74999228434244
 31
0.0
  0
LINE
  5
567
100
AcDbEntity
  8
0
  6
CONTINUOUS
 62
               4
100
AcDbLine
 10
103.79999237060548
 20
-8.74999228434244
 30
0.0
 11
103.79999237060548
 21
5.0500077156575571
 31
0.0
  0
LINE
  5
568
100
AcDbEntity
  8
0
  6
CONTINUOUS
 62
               4
100
AcDbLine
 10
104.99999237060547
 20
4.7500062156575638
 30
0.0
 11
104.99999237060547
 21
-8.4499922843424287
 31
0.0
  0
LINE
  5
569
100
AcDbEntity
  8
0
  6
CONTINUOUS
 62
               4
100
AcDbLine
 10
104.69998937060546
 20
5.0500077156575571
 30
0.0
 11
103.79999237060548
 21
5.0500077156575571
 31
0.0
  0
ARC
  5
56A
100
AcDbEntity
  8
0
  6
CONTINUOUS
 62
               4
100
AcDbCircle
 10
104.69998937060546
 20
-8.4499907843424324
 30
0.0
 40
0.3
100
AcDbArc
 50
269.99999999999977
 51
0.0
  0
ARC
  5
56B
100
AcDbEntity
  8
0
  6
CONTINUOUS
 62
               4
100
AcDbCircle
 10
103.29999237060548
 20
-7.2499918843424354
 30
0.0
 40
0.5
100
AcDbArc
 50
359.99999999999926
 51
89.999999999999389
  0
ARC
  5
56C
100
AcDbEntity
  8
0
  6
CONTINUOUS
 62
               4
100
AcDbCircle
 10
103.29999237060548
 20
3.5500073156575667
 30
0.0
 40
0.5
100
AcDbArc
 50
269.99999999999977
 51
0.0
  0
ARC
  5
56D
100
AcDbEntity
  8
0
  6
CONTINUOUS
 62
               4
100
AcDbCircle
 10
104.69998937060546
 20
4.7500062156575638
 30
0.0
 40
0.3
100
AcDbArc
 50
359.99999999999926
 51
89.999999999999389
  0
LINE
  5
56E
100
AcDbEntity
  8
0
  6
CONTINUOUS
 62
               4
100
AcDbLine
 10
91.199997370605445
 20
5.6500077156575657
 30
0.0
 11
83.099997370605479
 21
5.6500077156575514
 31
0.0
  0
LINE
  5
56F
100
AcDbEntity
  8
0
  6
CONTINUOUS
 62
             200
100
AcDbLine
 10
105.99999237060547
 20
-1.8499922843424343
 30
0.0
 11
74.999992370605469
 21
-1.8499922843424343
 31
0.0
  0
LINE
  5
570
100
AcDbEntity
  8
0
  6
CONTINUOUS
 62
               4
100
AcDbLine
 10
83.041444258870627
 20
6.2000077156575628
 30
0.0
 11
78.999992370605469
 21
6.2000077156575628
 31
0.0
  0
LINE
  5
571
100
AcDbEntity
  8
0
  6
CONTINUOUS
 62
               4
100
AcDbLine
 10
78.999992370605469
 20
13.200007715657563
 30
0.0
 11
78.999992370605469
 21
6.2000077156575628
 31
0.0
  0
LINE
  5
572
100
AcDbEntity
  8
0
  6
CONTINUOUS
 62
               4
100
AcDbLine
 10
78.999992370605469
 20
13.200007715657563
 30
0.0
 11
75.999992370605469
 21
13.200007715657563
 31
0.0
  0
LINE
  5
573
100
AcDbEntity
  8
0
  6
CONTINUOUS
 62
               4
100
AcDbLine
 10
83.099992370605435
 20
6.0985994114456048
 30
0.0
 11
83.099992370605435
 21
-9.5999922843424343
 31
0.0
  0
LINE
  5
574
100
AcDbEntity
  8
0
  6
CONTINUOUS
 62
               7
100
AcDbLine
 10
75.999992370605469
 20
13.200007715657563
 30
0.0
 11
75.999992370605469
 21
-9.5999922843424343
 31
0.0
  0
LINE
  5
575
100
AcDbEntity
  8
0
  6
CONTINUOUS
 62
               4
100
AcDbLine
 10
91.199997370605445
 20
-9.5999922843424343
 30
0.0
 11
91.199997370605445
 21
-24.849992284342449
 31
0.0
  0
LINE
  5
576
100
AcDbEntity
  8
0
  6
CONTINUOUS
 62
               4
100
AcDbLine
 10
83.099992370605435
 20
-25.298583980130473
 30
0.0
 11
83.099992370605435
 21
-9.5999922843424343
 31
0.0
  0
LINE
  5
577
100
AcDbEntity
  8
0
  6
CONTINUOUS
 62
               4
100
AcDbLine
 10
75.999992370605469
 20
-32.399992284342432
 30
0.0
 11
75.999992370605469
 21
-9.5999922843424343
 31
0.0
  0
LINE
  5
578
100
AcDbEntity
  8
0
  6
CONTINUOUS
 62
             200
100
AcDbLine
 10
105.99999237060547
 20
-17.349992284342434
 30
0.0
 11
74.999992370605469
 21
-17.349992284342434
 31
0.0
  0
LINE
  5
579
100
AcDbEntity
  8
0
  6
CONTINUOUS
 62
               4
100
AcDbLine
 10
78.999992370605469
 20
-32.399992284342432
 30
0.0
 11
75.999992370605469
 21
-32.399992284342432
 31
0.0
  0
LINE
  5
57A
100
AcDbEntity
  8
0
  6
CONTINUOUS
 62
               4
100
AcDbLine
 10
91.199997370605445
 20
-24.849992284342449
 30
0.0
 11
83.099997370605479
 21
-24.84999228434242
 31
0.0
  0
ARC
  5
57B
100
AcDbEntity
  8
0
  6
CONTINUOUS
 62
               4
100
AcDbCircle
 10
104.69998937060546
 20
-23.949990784342447
 30
0.0
 40
0.3
100
AcDbArc
 50
270.00000000000063
 51
0.0000000000008142
  0
ARC
  5
57C
100
AcDbEntity
  8
0
  6
CONTINUOUS
 62
               4
100
AcDbCircle
 10
103.29999237060548
 20
-22.74999188434245
 30
0.0
 40
0.5
100
AcDbArc
 50
0.0
 51
90.000000000000199
  0
ARC
  5
57D
100
AcDbEntity
  8
0
  6
CONTINUOUS
 62
               4
100
AcDbCircle
 10
103.29999237060548
 20
-11.949992684342448
 30
0.0
 40
0.5
100
AcDbArc
 50
270.00000000000063
 51
0.0000000000008142
  0
ARC
  5
57E
100
AcDbEntity
  8
0
  6
CONTINUOUS
 62
               4
100
AcDbCircle
 10
104.69998937060546
 20
-10.74999378434245
 30
0.0
 40
0.3
100
AcDbArc
 50
0.0
 51
90.000000000000199
  0
LINE
  5
57F
100
AcDbEntity
  8
0
  6
CONTINUOUS
 62
               4
100
AcDbLine
 10
104.69998937060546
 20
-24.24999228434244
 30
0.0
 11
103.79999237060548
 21
-24.24999228434244
 31
0.0
  0
LINE
  5
580
100
AcDbEntity
  8
0
  6
CONTINUOUS
 62
               4
100
AcDbLine
 10
104.99999237060547
 20
-23.949990784342447
 30
0.0
 11
104.99999237060547
 21
-10.749992284342454
 31
0.0
  0
LINE
  5
581
100
AcDbEntity
  8
0
  6
CONTINUOUS
 62
               4
100
AcDbLine
 10
103.79999237060548
 20
-10.449992284342443
 30
0.0
 11
103.79999237060548
 21
-24.24999228434244
 31
0.0
  0
LINE
  5
582
100
AcDbEntity
  8
0
  6
CONTINUOUS
 62
               4
100
AcDbLine
 10
104.69998937060546
 20
-10.449992284342443
 30
0.0
 11
103.79999237060548
 21
-10.449992284342443
 31
0.0
  0
LINE
  5
583
100
AcDbEntity
  8
0
  6
CONTINUOUS
 62
               4
100
AcDbLine
 10
102.89999137060545
 20
-23.049992284342437
 30
0.0
 11
101.8999923706055
 21
-23.049992284342437
 31
0.0
  0
LINE
  5
584
100
AcDbEntity
  8
0
  6
CONTINUOUS
 62
               4
100
AcDbLine
 10
102.89999137060545
 20
-23.049991884342433
 30
0.0
 11
102.99999137060547
 21
-22.949991884342438
 31
0.0
  0
LINE
  5
585
100
AcDbEntity
  8
0
  6
CONTINUOUS
 62
               4
100
AcDbLine
 10
102.89999137060545
 20
-11.649992284342446
 30
0.0
 11
101.8999923706055
 21
-11.649992284342446
 31
0.0
  0
LINE
  5
586
100
AcDbEntity
  8
0
  6
CONTINUOUS
 62
               4
100
AcDbLine
 10
102.89999137060545
 20
-11.64999268434245
 30
0.0
 11
102.99999137060547
 21
-11.749992684342445
 31
0.0
  0
LINE
  5
587
100
AcDbEntity
  8
0
  6
CONTINUOUS
 62
               4
100
AcDbLine
 10
103.29999237060548
 20
-22.249992284342454
 30
0.0
 11
102.99999137060547
 21
-22.249992284342454
 31
0.0
  0
LINE
  5
588
100
AcDbEntity
  8
0
  6
CONTINUOUS
 62
               4
100
AcDbLine
 10
102.99999137060547
 20
-11.749992684342445
 30
0.0
 11
102.99999137060547
 21
-22.949991884342438
 31
0.0
  0
LINE
  5
589
100
AcDbEntity
  8
0
  6
CONTINUOUS
 62
               4
100
AcDbLine
 10
103.29999237060548
 20
-12.449992284342443
 30
0.0
 11
102.99999137060547
 21
-12.449992284342443
 31
0.0
  0
LINE
  5
58A
100
AcDbEntity
  8
0
  6
CONTINUOUS
 62
               4
100
AcDbLine
 10
101.8999923706055
 20
-10.99999188434245
 30
0.0
 11
101.8999923706055
 21
-23.699992284342443
 31
0.0
  0
LINE
  5
58B
100
AcDbEntity
  8
0
  6
CONTINUOUS
 62
               4
100
AcDbLine
 10
101.29999137060548
 20
-24.046402684342439
 30
0.0
 11
100.83603837060548
 21
-24.849992284342449
 31
0.0
  0
LINE
  5
58C
100
AcDbEntity
  8
0
  6
CONTINUOUS
 62
               4
100
AcDbLine
 10
100.83603837060548
 20
-9.8499922843424486
 30
0.0
 11
101.29999137060548
 21
-10.653581884342444
 31
0.0
  0
LINE
  5
58D
100
AcDbEntity
  8
0
  6
CONTINUOUS
 62
               4
100
AcDbLine
 10
99.299997370605467
 20
-10.049992284342451
 30
0.0
 11
99.299997370605467
 21
-24.649992284342432
 31
0.0
  0
LINE
  5
58E
100
AcDbEntity
  8
0
  6
CONTINUOUS
 62
               4
100
AcDbLine
 10
99.299997370605467
 20
-24.649992284342432
 30
0.0
 11
99.499997370605456
 21
-24.849992284342449
 31
0.0
  0
LINE
  5
58F
100
AcDbEntity
  8
0
  6
CONTINUOUS
 62
               4
100
AcDbLine
 10
99.299997370605467
 20
-10.049992284342451
 30
0.0
 11
99.499997370605456
 21
-9.8499922843424486
 31
0.0
  0
LINE
  5
590
100
AcDbEntity
  8
0
  6
CONTINUOUS
 62
               4
100
AcDbLine
 10
101.29999237060548
 20
-10.653581884342444
 30
0.0
 11
101.8999923706055
 21
-10.999992284342454
 31
0.0
  0
LINE
  5
591
100
AcDbEntity
  8
0
  6
CONTINUOUS
 62
               4
100
AcDbLine
 10
101.29999237060548
 20
-24.046402684342439
 30
0.0
 11
101.8999923706055
 21
-23.699992284342443
 31
0.0
  0
LINE
  5
592
100
AcDbEntity
  8
0
  6
CONTINUOUS
 62
               4
100
AcDbLine
 10
99.299997370605467
 20
-24.149992284342432
 30
0.0
 11
98.499997370605456
 21
-24.149992284342432
 31
0.0
  0
LINE
  5
593
100
AcDbEntity
  8
0
  6
CONTINUOUS
 62
               4
100
AcDbLine
 10
100.83603837060548
 20
-9.8499922843424486
 30
0.0
 11
99.499997370605456
 21
-9.8499922843424486
 31
0.0
  0
LINE
  5
594
100
AcDbEntity
  8
0
  6
CONTINUOUS
 62
               4
100
AcDbLine
 10
100.83603837060548
 20
-24.849992284342449
 30
0.0
 11
99.499997370605456
 21
-24.849992284342449
 31
0.0
  0
LINE
  5
595
100
AcDbEntity
  8
0
  6
CONTINUOUS
 62
               4
100
AcDbLine
 10
91.39999737060549
 20
-24.649992284342432
 30
0.0
 11
91.599997370605479
 21
-24.849992284342449
 31
0.0
  0
LINE
  5
596
100
AcDbEntity
  8
0
  6
CONTINUOUS
 62
               4
100
AcDbLine
 10
91.39999737060549
 20
-10.049992284342451
 30
0.0
 11
91.599997370605422
 21
-9.8499922843424486
 31
0.0
  0
LINE
  5
597
100
AcDbEntity
  8
0
  6
CONTINUOUS
 62
               4
100
AcDbLine
 10
91.39999737060549
 20
-10.049992284342451
 30
0.0
 11
91.39999737060549
 21
-24.649992284342432
 31
0.0
  0
LINE
  5
598
100
AcDbEntity
  8
0
  6
CONTINUOUS
 62
               4
100
AcDbLine
 10
98.39999737060549
 20
-9.8499922843424486
 30
0.0
 11
91.599997370605422
 21
-9.8499922843424486
 31
0.0
  0
LINE
  5
599
100
AcDbEntity
  8
0
  6
CONTINUOUS
 62
               4
100
AcDbLine
 10
98.39999737060549
 20
-9.8499922843424486
 30
0.0
 11
98.499997370605456
 21
-9.9499922843424429
 31
0.0
  0
LINE
  5
59A
100
AcDbEntity
  8
0
  6
CONTINUOUS
 62
               4
100
AcDbLine
 10
98.499997370605456
 20
-9.9499922843424429
 30
0.0
 11
98.499997370605456
 21
-24.74999228434244
 31
0.0
  0
LINE
  5
59B
100
AcDbEntity
  8
0
  6
CONTINUOUS
 62
               4
100
AcDbLine
 10
98.499997370605456
 20
-24.74999228434244
 30
0.0
 11
98.39999737060549
 21
-24.849992284342449
 31
0.0
  0
LINE
  5
59C
100
AcDbEntity
  8
0
  6
CONTINUOUS
 62
               4
100
AcDbLine
 10
98.39999737060549
 20
-24.849992284342449
 30
0.0
 11
91.599997370605479
 21
-24.849992284342449
 31
0.0
  0
LINE
  5
59D
100
AcDbEntity
  8
0
  6
CONTINUOUS
 62
               4
100
AcDbLine
 10
91.39999737060549
 20
-10.049992284342451
 30
0.0
 11
91.199997370605445
 21
-9.8499922843424486
 31
0.0
  0
LINE
  5
59E
100
AcDbEntity
  8
0
  6
CONTINUOUS
 62
               4
100
AcDbLine
 10
91.199997370605445
 20
-9.8499922843424486
 30
0.0
 11
83.099997370605422
 21
-9.8499922843424343
 31
0.0
  0
LINE
  5
59F
100
AcDbEntity
  8
0
  6
CONTINUOUS
 62
               4
100
AcDbLine
 10
91.39999737060549
 20
-24.649992284342432
 30
0.0
 11
91.199997370605445
 21
-24.849992284342449
 31
0.0
  0
LINE
  5
5A0
100
AcDbEntity
  8
0
  6
CONTINUOUS
 62
               4
100
AcDbLine
 10
91.599997370605422
 20
-9.8499922843424486
 30
0.0
 11
91.599997370605479
 21
-24.849992284342449
 31
0.0
  0
LINE
  5
5A1
100
AcDbEntity
  8
0
  6
CONTINUOUS
 62
               4
100
AcDbLine
 10
98.39999737060549
 20
-9.8499922843424486
 30
0.0
 11
98.39999737060549
 21
-24.849992284342449
 31
0.0
  0
LINE
  5
5A2
100
AcDbEntity
  8
0
  6
CONTINUOUS
 62
               4
100
AcDbLine
 10
99.299997370605467
 20
-10.549992284342451
 30
0.0
 11
98.499997370605456
 21
-10.549992284342451
 31
0.0
  0
LINE
  5
5A3
100
AcDbEntity
  8
0
  6
CONTINUOUS
 62
               4
100
AcDbLine
 10
99.499997370605456
 20
-9.8499922843424486
 30
0.0
 11
99.499997370605456
 21
-24.849992284342449
 31
0.0
  0
LINE
  5
5A4
100
AcDbEntity
  8
0
  6
CONTINUOUS
 62
               4
100
AcDbLine
 10
102.89999097060547
 20
-11.649992284342446
 30
0.0
 11
102.89999097060547
 21
-23.049991884342433
 31
0.0
  0
LINE
  5
5A5
100
AcDbEntity
  8
0
  6
CONTINUOUS
 62
               4
100
AcDbLine
 10
101.29999237060548
 20
-10.653581884342444
 30
0.0
 11
101.29999237060548
 21
-24.04640355036905
 31
0.0
  0
LINE
  5
5A6
100
AcDbEntity
  8
0
  6
CONTINUOUS
 62
               4
100
AcDbLine
 10
100.83603837060548
 20
-9.8499922843424486
 30
0.0
 11
100.83603837060548
 21
-24.849992284342449
 31
0.0
  0
LINE
  5
5A7
100
AcDbEntity
  8
0
  6
CONTINUOUS
 62
               4
100
AcDbLine
 10
78.999992415308952
 20
-32.399992224737787
 30
0.0
 11
83.099992364645004
 21
-25.298584011360788
 31
0.0
  0
LINE
  5
5A8
100
AcDbEntity
  8
0
  6
CONTINUOUS
 62
               4
100
AcDbLine
 10
91.199997370605445
 20
-9.5999922843424343
 30
0.0
 11
91.199997370605445
 21
5.6500077156575657
 31
0.0
  0
LINE
  5
5A9
100
AcDbEntity
  8
0
  6
CONTINUOUS
 62
               4
100
AcDbLine
 10
83.099992370605435
 20
6.0985994114456048
 30
0.0
 11
83.099992370605435
 21
-9.5999922843424343
 31
0.0
  0
LINE
  5
5AA
100
AcDbEntity
  8
0
  6
CONTINUOUS
 62
               7
100
AcDbLine
 10
75.999992370605469
 20
13.200007715657563
 30
0.0
 11
75.999992370605469
 21
-9.5999922843424343
 31
0.0
  0
LINE
  5
5AB
100
AcDbEntity
  8
0
  6
CONTINUOUS
 62
               4
100
AcDbLine
 10
78.999992370605469
 20
13.200007715657563
 30
0.0
 11
75.999992370605469
 21
13.200007715657563
 31
0.0
  0
LINE
  5
5AC
100
AcDbEntity
  8
0
  6
CONTINUOUS
 62
               4
100
AcDbLine
 10
78.999992370605469
 20
13.200007715657563
 30
0.0
 11
78.999992370605469
 21
6.2000077156575628
 31
0.0
  0
LINE
  5
5AD
100
AcDbEntity
  8
0
  6
CONTINUOUS
 62
               4
100
AcDbLine
 10
83.041444258870627
 20
6.2000077156575628
 30
0.0
 11
78.999992370605469
 21
6.2000077156575628
 31
0.0
  0
LINE
  5
5AE
100
AcDbEntity
  8
0
  6
CONTINUOUS
 62
               4
100
AcDbLine
 10
91.199997370605445
 20
5.6500077156575657
 30
0.0
 11
83.099997370605479
 21
5.6500077156575514
 31
0.0
  0
ARC
  5
5AF
100
AcDbEntity
  8
0
  6
CONTINUOUS
 62
               4
100
AcDbCircle
 10
104.69998937060546
 20
4.7500062156575638
 30
0.0
 40
0.3
100
AcDbArc
 50
359.99999999999926
 51
89.999999999999389
  0
ARC
  5
5B0
100
AcDbEntity
  8
0
  6
CONTINUOUS
 62
               4
100
AcDbCircle
 10
103.29999237060548
 20
3.5500073156575667
 30
0.0
 40
0.5
100
AcDbArc
 50
269.99999999999977
 51
0.0
  0
ARC
  5
5B1
100
AcDbEntity
  8
0
  6
CONTINUOUS
 62
               4
100
AcDbCircle
 10
103.29999237060548
 20
-7.2499918843424354
 30
0.0
 40
0.5
100
AcDbArc
 50
359.99999999999926
 51
89.999999999999389
  0
ARC
  5
5B2
100
AcDbEntity
  8
0
  6
CONTINUOUS
 62
               4
100
AcDbCircle
 10
104.69998937060546
 20
-8.4499907843424324
 30
0.0
 40
0.3
100
AcDbArc
 50
269.99999999999977
 51
0.0
  0
LINE
  5
5B3
100
AcDbEntity
  8
0
  6
CONTINUOUS
 62
               4
100
AcDbLine
 10
104.69998937060546
 20
5.0500077156575571
 30
0.0
 11
103.79999237060548
 21
5.0500077156575571
 31
0.0
  0
LINE
  5
5B4
100
AcDbEntity
  8
0
  6
CONTINUOUS
 62
               4
100
AcDbLine
 10
104.99999237060547
 20
4.7500062156575638
 30
0.0
 11
104.99999237060547
 21
-8.4499922843424287
 31
0.0
  0
LINE
  5
5B5
100
AcDbEntity
  8
0
  6
CONTINUOUS
 62
               4
100
AcDbLine
 10
103.79999237060548
 20
-8.74999228434244
 30
0.0
 11
103.79999237060548
 21
5.0500077156575571
 31
0.0
  0
LINE
  5
5B6
100
AcDbEntity
  8
0
  6
CONTINUOUS
 62
               4
100
AcDbLine
 10
104.69998937060546
 20
-8.74999228434244
 30
0.0
 11
103.79999237060548
 21
-8.74999228434244
 31
0.0
  0
LINE
  5
5B7
100
AcDbEntity
  8
0
  6
CONTINUOUS
 62
               4
100
AcDbLine
 10
102.89999137060545
 20
3.8500077156575543
 30
0.0
 11
101.8999923706055
 21
3.8500077156575543
 31
0.0
  0
LINE
  5
5B8
100
AcDbEntity
  8
0
  6
CONTINUOUS
 62
               4
100
AcDbLine
 10
102.89999137060545
 20
3.8500073156575496
 30
0.0
 11
102.99999137060547
 21
3.7500073156575553
 31
0.0
  0
LINE
  5
5B9
100
AcDbEntity
  8
0
  6
CONTINUOUS
 62
               4
100
AcDbLine
 10
102.89999137060545
 20
-7.5499922843424372
 30
0.0
 11
101.8999923706055
 21
-7.5499922843424372
 31
0.0
  0
LINE
  5
5BA
100
AcDbEntity
  8
0
  6
CONTINUOUS
 62
               4
100
AcDbLine
 10
102.89999137060545
 20
-7.5499918843424325
 30
0.0
 11
102.99999137060547
 21
-7.4499918843424382
 31
0.0
  0
LINE
  5
5BB
100
AcDbEntity
  8
0
  6
CONTINUOUS
 62
               4
100
AcDbLine
 10
103.29999237060548
 20
3.0500077156575713
 30
0.0
 11
102.99999137060547
 21
3.0500077156575713
 31
0.0
  0
LINE
  5
5BC
100
AcDbEntity
  8
0
  6
CONTINUOUS
 62
               4
100
AcDbLine
 10
102.99999137060547
 20
-7.4499918843424382
 30
0.0
 11
102.99999137060547
 21
3.7500073156575553
 31
0.0
  0
LINE
  5
5BD
100
AcDbEntity
  8
0
  6
CONTINUOUS
 62
               4
100
AcDbLine
 10
103.29999237060548
 20
-6.74999228434244
 30
0.0
 11
102.99999137060547
 21
-6.74999228434244
 31
0.0
  0
LINE
  5
5BE
100
AcDbEntity
  8
0
  6
CONTINUOUS
 62
               4
100
AcDbLine
 10
101.8999923706055
 20
-8.1999926843424333
 30
0.0
 11
101.8999923706055
 21
4.50000771565756
 31
0.0
  0
LINE
  5
5BF
100
AcDbEntity
  8
0
  6
CONTINUOUS
 62
               4
100
AcDbLine
 10
101.29999137060548
 20
4.8464181156575563
 30
0.0
 11
100.83603837060548
 21
5.6500077156575657
 31
0.0
  0
LINE
  5
5C0
100
AcDbEntity
  8
0
  6
CONTINUOUS
 62
               4
100
AcDbLine
 10
100.83603837060548
 20
-9.3499922843424343
 30
0.0
 11
101.29999137060548
 21
-8.5464026843424392
 31
0.0
  0
LINE
  5
5C1
100
AcDbEntity
  8
0
  6
CONTINUOUS
 62
               4
100
AcDbLine
 10
99.299997370605467
 20
-9.1499922843424315
 30
0.0
 11
99.299997370605467
 21
5.4500077156575486
 31
0.0
  0
LINE
  5
5C2
100
AcDbEntity
  8
0
  6
CONTINUOUS
 62
               4
100
AcDbLine
 10
99.299997370605467
 20
5.4500077156575486
 30
0.0
 11
99.499997370605456
 21
5.6500077156575657
 31
0.0
  0
LINE
  5
5C3
100
AcDbEntity
  8
0
  6
CONTINUOUS
 62
               4
100
AcDbLine
 10
99.299997370605467
 20
-9.1499922843424315
 30
0.0
 11
99.499997370605456
 21
-9.3499922843424343
 31
0.0
  0
LINE
  5
5C4
100
AcDbEntity
  8
0
  6
CONTINUOUS
 62
               4
100
AcDbLine
 10
101.29999237060548
 20
-8.5464026843424392
 30
0.0
 11
101.8999923706055
 21
-8.1999922843424287
 31
0.0
  0
LINE
  5
5C5
100
AcDbEntity
  8
0
  6
CONTINUOUS
 62
               4
100
AcDbLine
 10
101.29999237060548
 20
4.8464181156575563
 30
0.0
 11
101.8999923706055
 21
4.50000771565756
 31
0.0
  0
LINE
  5
5C6
100
AcDbEntity
  8
0
  6
CONTINUOUS
 62
               4
100
AcDbLine
 10
99.299997370605467
 20
4.9500077156575486
 30
0.0
 11
98.499997370605456
 21
4.9500077156575486
 31
0.0
  0
LINE
  5
5C7
100
AcDbEntity
  8
0
  6
CONTINUOUS
 62
               4
100
AcDbLine
 10
100.83603837060548
 20
-9.3499922843424343
 30
0.0
 11
99.499997370605456
 21
-9.3499922843424343
 31
0.0
  0
LINE
  5
5C8
100
AcDbEntity
  8
0
  6
CONTINUOUS
 62
               4
100
AcDbLine
 10
100.83603837060548
 20
5.6500077156575657
 30
0.0
 11
99.499997370605456
 21
5.6500077156575657
 31
0.0
  0
LINE
  5
5C9
100
AcDbEntity
  8
0
  6
CONTINUOUS
 62
               4
100
AcDbLine
 10
91.39999737060549
 20
5.4500077156575486
 30
0.0
 11
91.599997370605479
 21
5.6500077156575657
 31
0.0
  0
LINE
  5
5CA
100
AcDbEntity
  8
0
  6
CONTINUOUS
 62
               4
100
AcDbLine
 10
91.39999737060549
 20
-9.1499922843424315
 30
0.0
 11
91.599997370605422
 21
-9.3499922843424343
 31
0.0
  0
LINE
  5
5CB
100
AcDbEntity
  8
0
  6
CONTINUOUS
 62
               4
100
AcDbLine
 10
91.39999737060549
 20
-9.1499922843424315
 30
0.0
 11
91.39999737060549
 21
5.4500077156575486
 31
0.0
  0
LINE
  5
5CC
100
AcDbEntity
  8
0
  6
CONTINUOUS
 62
               4
100
AcDbLine
 10
98.39999737060549
 20
-9.3499922843424343
 30
0.0
 11
91.599997370605422
 21
-9.3499922843424343
 31
0.0
  0
LINE
  5
5CD
100
AcDbEntity
  8
0
  6
CONTINUOUS
 62
               4
100
AcDbLine
 10
98.39999737060549
 20
-9.3499922843424343
 30
0.0
 11
98.499997370605456
 21
-9.24999228434244
 31
0.0
  0
LINE
  5
5CE
100
AcDbEntity
  8
0
  6
CONTINUOUS
 62
               4
100
AcDbLine
 10
98.499997370605456
 20
-9.24999228434244
 30
0.0
 11
98.499997370605456
 21
5.5500077156575571
 31
0.0
  0
LINE
  5
5CF
100
AcDbEntity
  8
0
  6
CONTINUOUS
 62
               4
100
AcDbLine
 10
98.499997370605456
 20
5.5500077156575571
 30
0.0
 11
98.39999737060549
 21
5.6500077156575657
 31
0.0
  0
LINE
  5
5D0
100
AcDbEntity
  8
0
  6
CONTINUOUS
 62
               4
100
AcDbLine
 10
98.39999737060549
 20
5.6500077156575657
 30
0.0
 11
91.599997370605479
 21
5.6500077156575657
 31
0.0
  0
LINE
  5
5D1
100
AcDbEntity
  8
0
  6
CONTINUOUS
 62
               4
100
AcDbLine
 10
91.39999737060549
 20
-9.1499922843424315
 30
0.0
 11
91.199997370605445
 21
-9.3499922843424343
 31
0.0
  0
LINE
  5
5D2
100
AcDbEntity
  8
0
  6
CONTINUOUS
 62
               4
100
AcDbLine
 10
91.199997370605445
 20
-9.3499922843424343
 30
0.0
 11
83.099997370605422
 21
-9.3499922843424343
 31
0.0
  0
LINE
  5
5D3
100
AcDbEntity
  8
0
  6
CONTINUOUS
 62
               4
100
AcDbLine
 10
91.39999737060549
 20
5.4500077156575486
 30
0.0
 11
91.199997370605445
 21
5.6500077156575657
 31
0.0
  0
LINE
  5
5D4
100
AcDbEntity
  8
0
  6
CONTINUOUS
 62
               4
100
AcDbLine
 10
91.599997370605422
 20
-9.3499922843424343
 30
0.0
 11
91.599997370605479
 21
5.6500077156575657
 31
0.0
  0
LINE
  5
5D5
100
AcDbEntity
  8
0
  6
CONTINUOUS
 62
               4
100
AcDbLine
 10
98.39999737060549
 20
-9.3499922843424343
 30
0.0
 11
98.39999737060549
 21
5.6500077156575657
 31
0.0
  0
LINE
  5
5D6
100
AcDbEntity
  8
0
  6
CONTINUOUS
 62
               4
100
AcDbLine
 10
99.299997370605467
 20
-8.6499922843424457
 30
0.0
 11
98.499997370605456
 21
-8.6499922843424457
 31
0.0
  0
LINE
  5
5D7
100
AcDbEntity
  8
0
  6
CONTINUOUS
 62
               4
100
AcDbLine
 10
99.499997370605456
 20
-9.3499922843424343
 30
0.0
 11
99.499997370605456
 21
5.6500077156575657
 31
0.0
  0
LINE
  5
5D8
100
AcDbEntity
  8
0
  6
CONTINUOUS
 62
               4
100
AcDbLine
 10
102.89999097060547
 20
-7.5499922843424372
 30
0.0
 11
102.89999097060547
 21
3.8500073156575496
 31
0.0
  0
LINE
  5
5D9
100
AcDbEntity
  8
0
  6
CONTINUOUS
 62
               4
100
AcDbLine
 10
101.29999237060548
 20
-8.5464026843424392
 30
0.0
 11
101.29999237060548
 21
4.8464189816841667
 31
0.0
  0
LINE
  5
5DA
100
AcDbEntity
  8
0
  6
CONTINUOUS
 62
               4
100
AcDbLine
 10
100.83603837060548
 20
-9.3499922843424343
 30
0.0
 11
100.83603837060548
 21
5.6500077156575657
 31
0.0
  0
LINE
  5
5DB
100
AcDbEntity
  8
0
  6
CONTINUOUS
 62
               4
100
AcDbLine
 10
78.999992415308952
 20
13.200007656052918
 30
0.0
 11
83.099992364645004
 21
6.0985994426759191
 31
0.0
  0
LINE
  5
5DC
100
AcDbEntity
  8
0
  6
CONTINUOUS
 62
               7
100
AcDbLine
 10
78.499984741210938
 20
-51.599999913736966
 30
0.0
 11
49.5
 21
-51.599999913736966
 31
0.0
  0
LINE
  5
5DD
100
AcDbEntity
  8
0
  6
CONTINUOUS
 62
               7
100
AcDbLine
 10
79.999984741210938
 20
-42.599999913736966
 30
0.0
 11
49.0
 21
-42.599999913736966
 31
0.0
  0
LINE
  5
5DE
100
AcDbEntity
  8
0
  6
CONTINUOUS
 62
               7
100
AcDbLine
 10
79.999984741210938
 20
-32.599999913736966
 30
0.0
 11
48.999984741210937
 21
-32.599999913736966
 31
0.0
  0
LINE
  5
5DF
100
AcDbEntity
  8
0
  6
CONTINUOUS
 62
               7
100
AcDbLine
 10
76.0
 20
13.400000086263034
 30
0.0
 11
48.999984741210937
 21
13.400000086263034
 31
0.0
  0
LINE
  5
5E0
100
AcDbEntity
  8
0
  6
CONTINUOUS
 62
               2
100
AcDbLine
 10
78.0
 20
31.599997034505222
 30
0.0
 11
75.300003051757813
 21
31.599997034505222
 31
0.0
  0
LINE
  5
5E1
100
AcDbEntity
  8
0
  6
CONTINUOUS
 62
               7
100
AcDbLine
 10
76.0
 20
34.799993982747409
 30
0.0
 11
48.999984741210937
 21
34.799993982747409
 31
0.0
  0
LINE
  5
5E2
100
AcDbEntity
  8
0
  6
CONTINUOUS
 62
               7
100
AcDbLine
 10
76.0
 20
23.400000086263034
 30
0.0
 11
76.0
 21
25.400000086263034
 31
0.0
  0
LINE
  5
5E3
100
AcDbEntity
  8
0
  6
CONTINUOUS
 62
               7
100
AcDbLine
 10
77.0
 20
29.650000086263034
 30
0.0
 11
77.0
 21
31.300009241536472
 31
0.0
  0
LINE
  5
5E4
100
AcDbEntity
  8
0
  6
CONTINUOUS
 62
               7
100
AcDbLine
 10
77.0
 20
29.650000086263034
 30
0.0
 11
76.0
 21
29.650000086263034
 31
0.0
  0
LINE
  5
5E5
100
AcDbEntity
  8
0
  6
CONTINUOUS
 62
               7
100
AcDbLine
 10
77.0
 20
33.549993982747409
 30
0.0
 11
76.0
 21
33.549993982747409
 31
0.0
  0
LINE
  5
5E6
100
AcDbEntity
  8
0
  6
CONTINUOUS
 62
               7
100
AcDbLine
 10
76.399993896484375
 20
31.300009241536472
 30
0.0
 11
76.399993896484375
 21
31.900000086263034
 31
0.0
  0
LINE
  5
5E7
100
AcDbEntity
  8
0
  6
CONTINUOUS
 62
               7
100
AcDbLine
 10
77.0
 20
31.299993982747409
 30
0.0
 11
76.400009155273437
 21
31.299993982747409
 31
0.0
  0
LINE
  5
5E8
100
AcDbEntity
  8
0
  6
CONTINUOUS
 62
               7
100
AcDbLine
 10
77.0
 20
31.900000086263034
 30
0.0
 11
76.400009155273437
 21
31.900000086263034
 31
0.0
  0
LINE
  5
5E9
100
AcDbEntity
  8
0
  6
CONTINUOUS
 62
               7
100
AcDbLine
 10
77.0
 20
31.900000086263034
 30
0.0
 11
77.0
 21
33.550009241536472
 31
0.0
  0
LINE
  5
5EA
100
AcDbEntity
  8
0
  6
CONTINUOUS
 62
               7
100
AcDbLine
 10
76.0
 20
21.900000086263034
 30
0.0
 11
48.999984741210937
 21
21.900000086263034
 31
0.0
  0
LINE
  5
5EB
100
AcDbEntity
  8
0
  6
CONTINUOUS
 62
               7
100
AcDbLine
 10
50.0
 20
25.399984827473972
 30
0.0
 11
49.0
 21
25.399984827473972
 31
0.0
  0
LINE
  5
5EC
100
AcDbEntity
  8
0
  6
CONTINUOUS
 62
               7
100
AcDbLine
 10
50.0
 20
23.900000086263034
 30
0.0
 11
50.0
 21
25.399984827473972
 31
0.0
  0
LINE
  5
5ED
100
AcDbEntity
  8
0
  6
CONTINUOUS
 62
               7
100
AcDbLine
 10
71.699996948242188
 20
25.399984827473972
 30
0.0
 11
52.5
 21
25.399984827473972
 31
0.0
  0
LINE
  5
5EE
100
AcDbEntity
  8
0
  6
CONTINUOUS
 62
               7
100
AcDbLine
 10
52.5
 20
23.900000086263034
 30
0.0
 11
52.5
 21
25.399984827473972
 31
0.0
  0
LINE
  5
5EF
100
AcDbEntity
  8
0
  6
CONTINUOUS
 62
               7
100
AcDbLine
 10
71.699996948242188
 20
23.900000086263034
 30
0.0
 11
71.699996948242188
 21
25.399984827473972
 31
0.0
  0
LINE
  5
5F0
100
AcDbEntity
  8
0
  6
CONTINUOUS
 62
               7
100
AcDbLine
 10
74.699996948242187
 20
23.900000086263034
 30
0.0
 11
74.699996948242187
 21
25.399984827473972
 31
0.0
  0
LINE
  5
5F1
100
AcDbEntity
  8
0
  6
CONTINUOUS
 62
               7
100
AcDbLine
 10
76.0
 20
25.399984827473972
 30
0.0
 11
74.699996948242187
 21
25.399984827473972
 31
0.0
  0
ARC
  5
5F2
100
AcDbEntity
  8
0
  6
CONTINUOUS
 62
               7
100
AcDbCircle
 10
52.0
 20
24.900000086263034
 30
0.0
 40
2.4999990463256836
100
AcDbArc
 50
203.57817683614286
 51
336.42181132471165
  0
LINE
  5
5F3
100
AcDbEntity
  8
0
  6
CONTINUOUS
 62
               7
100
AcDbLine
 10
76.0
 20
23.900000086263034
 30
0.0
 11
48.999984741210937
 21
23.900000086263034
 31
0.0
  0
LINE
  5
5F4
100
AcDbEntity
  8
0
  6
CONTINUOUS
 62
               4
100
AcDbLine
 10
76.0
 20
58.899999999999991
 30
0.0
 11
76.0
 21
34.899999999999991
 31
0.0
  0
LINE
  5
5F5
100
AcDbEntity
  8
0
  6
CONTINUOUS
 62
               7
100
AcDbLine
 10
76.0
 20
34.900000086263034
 30
0.0
 11
49.0
 21
34.900000086263034
 31
0.0
  0
LINE
  5
5F6
100
AcDbEntity
  8
0
  6
CONTINUOUS
 62
               4
100
AcDbLine
 10
50.399999999999977
 20
51.899999999999991
 30
0.0
 11
50.399999999999977
 21
60.399999995708455
 31
0.0
  0
LINE
  5
5F7
100
AcDbEntity
  8
0
  6
CONTINUOUS
 62
               4
100
AcDbLine
 10
62.700010172526049
 20
59.399999999999991
 30
0.0
 11
62.19999427795409
 21
59.399999999999991
 31
0.0
  0
LINE
  5
5F8
100
AcDbEntity
  8
0
  6
CONTINUOUS
 62
               4
100
AcDbLine
 10
61.300006103515614
 20
59.399999999999991
 30
0.0
 11
61.270002237955737
 21
59.399999999999991
 31
0.0
  0
LINE
  5
5F9
100
AcDbEntity
  8
0
  6
CONTINUOUS
 62
               4
100
AcDbLine
 10
63.630001894632983
 20
59.399999999999991
 30
0.0
 11
63.600001207987475
 21
59.399999999999991
 31
0.0
  0
LINE
  5
5FA
100
AcDbEntity
  8
0
  6
CONTINUOUS
 62
               4
100
AcDbLine
 10
76.0
 20
58.899999999999991
 30
0.0
 11
50.399999999999977
 21
58.899999999999991
 31
0.0
  0
LINE
  5
5FB
100
AcDbEntity
  8
0
  6
CONTINUOUS
 62
               4
100
AcDbLine
 10
63.295000000000016
 20
58.899999999999991
 30
0.0
 11
61.795000000000016
 21
58.899999999999991
 31
0.0
  0
LINE
  5
5FC
100
AcDbEntity
  8
0
  6
CONTINUOUS
 62
               4
100
AcDbLine
 10
50.5
 20
60.499999999999986
 30
0.0
 11
46.0
 21
60.499999999999986
 31
0.0
  0
ARC
  5
5FD
100
AcDbEntity
  8
0
  6
CONTINUOUS
 62
               4
100
AcDbCircle
 10
46.498459549981703
 20
67.40154045001826
 30
0.0
 40
0.4984619302958243
100
AcDbArc
 50
89.822932465398097
 51
180.17706753460234
  0
LINE
  5
5FE
100
AcDbEntity
  8
0
  6
CONTINUOUS
 62
               4
100
AcDbLine
 10
46.0
 20
67.399999999999991
 30
0.0
 11
46.0
 21
60.499999999999986
 31
0.0
  0
LINE
  5
5FF
100
AcDbEntity
  8
0
  6
CONTINUOUS
 62
               4
100
AcDbLine
 10
50.5
 20
60.499999999999986
 30
0.0
 11
50.5
 21
58.899999999999991
 31
0.0
  0
LINE
  5
600
100
AcDbEntity
  8
0
  6
CONTINUOUS
 62
               4
100
AcDbLine
 10
71.0
 20
60.34999999999998
 30
0.0
 11
68.899999999999977
 21
60.34999999999998
 31
0.0
  0
LINE
  5
601
100
AcDbEntity
  8
0
  6
CONTINUOUS
 62
               4
100
AcDbLine
 10
56.0
 20
60.34999999999998
 30
0.0
 11
53.899999999999977
 21
60.34999999999998
 31
0.0
  0
LINE
  5
602
100
AcDbEntity
  8
0
  6
CONTINUOUS
 62
               4
100
AcDbLine
 10
53.899999999999977
 20
61.299999999999997
 30
0.0
 11
53.899999999999977
 21
60.34999999999998
 31
0.0
  0
LINE
  5
603
100
AcDbEntity
  8
0
  6
CONTINUOUS
 62
               4
100
AcDbLine
 10
71.0
 20
61.299999999999997
 30
0.0
 11
71.0
 21
60.34999999999998
 31
0.0
  0
LINE
  5
604
100
AcDbEntity
  8
0
  6
CONTINUOUS
 62
               4
100
AcDbLine
 10
56.0
 20
61.299999999999997
 30
0.0
 11
53.899999999999977
 21
61.299999999999997
 31
0.0
  0
LINE
  5
605
100
AcDbEntity
  8
0
  6
CONTINUOUS
 62
               4
100
AcDbLine
 10
71.0
 20
61.299999999999997
 30
0.0
 11
68.899999999999977
 21
61.299999999999997
 31
0.0
  0
LINE
  5
606
100
AcDbEntity
  8
0
  6
CONTINUOUS
 62
               4
100
AcDbLine
 10
56.0
 20
61.299999999999997
 30
0.0
 11
56.0
 21
60.34999999999998
 31
0.0
  0
LINE
  5
607
100
AcDbEntity
  8
0
  6
CONTINUOUS
 62
               4
100
AcDbLine
 10
68.899999999999977
 20
61.299999999999997
 30
0.0
 11
68.899999999999977
 21
60.34999999999998
 31
0.0
  0
ARC
  5
608
100
AcDbEntity
  8
0
  6
CONTINUOUS
 62
               4
100
AcDbCircle
 10
74.501123948313875
 20
63.079394402117018
 30
0.0
 40
1.4988865337462252
100
AcDbArc
 50
0.2142776266259147
 51
24.039904443234679
  0
ARC
  5
609
100
AcDbEntity
  8
0
  6
CONTINUOUS
 62
               4
100
AcDbCircle
 10
73.675687863874487
 20
67.402671112077584
 30
0.0
 40
0.4973293636201366
100
AcDbArc
 50
24.005903588636848
 51
90.079246697133883
  0
LINE
  5
60A
100
AcDbEntity
  8
0
  6
CONTINUOUS
 62
               4
100
AcDbLine
 10
74.129999999999995
 20
67.604999999999976
 30
0.0
 11
75.870000000000005
 21
63.689999999999984
 31
0.0
  0
LINE
  5
60B
100
AcDbEntity
  8
0
  6
CONTINUOUS
 62
               4
100
AcDbLine
 10
63.75
 20
59.399999999999991
 30
0.0
 11
61.25
 21
59.399999999999991
 31
0.0
  0
LINE
  5
60C
100
AcDbEntity
  8
0
  6
CONTINUOUS
 62
               4
100
AcDbLine
 10
63.75
 20
59.399999999999991
 30
0.0
 11
63.75
 21
58.899999999999991
 31
0.0
  0
LINE
  5
60D
100
AcDbEntity
  8
0
  6
CONTINUOUS
 62
               4
100
AcDbLine
 10
61.25
 20
59.399999999999991
 30
0.0
 11
61.25
 21
58.899999999999991
 31
0.0
  0
LINE
  5
60E
100
AcDbEntity
  8
0
  6
CONTINUOUS
 62
               4
100
AcDbLine
 10
73.675000000000011
 20
67.899999999999991
 30
0.0
 11
46.496919099966703
 21
67.899999999999991
 31
0.0
  0
LINE
  5
60F
100
AcDbEntity
  8
0
  6
CONTINUOUS
 62
               4
100
AcDbLine
 10
76.0
 20
63.084999999999965
 30
0.0
 11
76.0
 21
58.899999999999991
 31
0.0
  0
LINE
  5
610
100
AcDbEntity
  8
0
  6
CONTINUOUS
 62
               4
100
AcDbLine
 10
49.0
 20
51.899999999999991
 30
0.0
 11
50.399999999999977
 21
51.899999999999991
 31
0.0
  0
LINE
  5
611
100
AcDbEntity
  8
0
  6
CONTINUOUS
 62
               4
100
AcDbLine
 10
49.0
 20
60.399999999999991
 30
0.0
 11
50.399999999999977
 21
60.399999999999991
 31
0.0
  0
LINE
  5
612
100
AcDbEntity
  8
0
  6
CONTINUOUS
 62
               7
100
AcDbLine
 10
49.0
 20
-51.099984654947903
 30
0.0
 11
49.0
 21
-43.100000000000009
 31
0.0
  0
LINE
  5
613
100
AcDbEntity
  8
0
  6
CONTINUOUS
 62
               7
100
AcDbLine
 10
76.0
 20
-32.599992284342434
 30
0.0
 11
76.0
 21
34.900000086263034
 31
0.0
  0
ENDBLK
  5
614
100
AcDbEntity
  8
0
100
AcDbBlockEnd
  0
BLOCK
  5
615
100
AcDbEntity
  8
0
100
AcDbBlockBegin
  2
F15MP-18
 70
               0
 10
0.0
 20
0.0
 30
0.0
  3
F15MP-18
  1

  0
LINE
  5
616
100
AcDbEntity
  8
0
  6
CONTINUOUS
 62
             200
100
AcDbLine
 10
7.9999847412109375
 20
80.999984741210937
 30
0.0
 11
7.9999847412109375
 21
107.50927734375
 31
0.0
  0
LINE
  5
617
100
AcDbEntity
  8
0
  6
CONTINUOUS
 62
               2
100
AcDbLine
 10
7.9999847412109375
 20
49.0
 30
0.0
 11
7.9999847412109375
 21
80.999984741210937
 31
0.0
  0
LINE
  5
618
100
AcDbEntity
  8
0
  6
CONTINUOUS
 62
               7
100
AcDbLine
 10
0.4999847412109375
 20
49.0
 30
0.0
 11
0.4999847412109375
 21
80.499984741210937
 31
0.0
  0
LINE
  5
619
100
AcDbEntity
  8
0
  6
CONTINUOUS
 62
               7
100
AcDbLine
 10
15.499984741210938
 20
49.0
 30
0.0
 11
15.499984741210938
 21
80.499984741210937
 31
0.0
  0
LINE
  5
61A
100
AcDbEntity
  8
0
  6
CONTINUOUS
 62
               7
100
AcDbLine
 10
0.5
 20
78.999984741210938
 30
0.0
 11
15.5
 21
78.999984741210938
 31
0.0
  0
LINE
  5
61B
100
AcDbEntity
  8
0
  6
CONTINUOUS
 62
               7
100
AcDbLine
 10
1.0
 20
80.999984741210937
 30
0.0
 11
15.0
 21
80.999984741210937
 31
0.0
  0
LINE
  5
61C
100
AcDbEntity
  8
0
  6
CONTINUOUS
 62
               7
100
AcDbLine
 10
0.5
 20
79.999984741210938
 30
0.0
 11
15.5
 21
79.999984741210938
 31
0.0
  0
LINE
  5
61D
100
AcDbEntity
  8
0
  6
CONTINUOUS
 62
               7
100
AcDbLine
 10
0.4999311760930141
 20
80.000014415003534
 30
0.0
 11
1.4999323219763028
 21
81.000015392299247
 31
0.0
  0
LINE
  5
61E
100
AcDbEntity
  8
0
  6
CONTINUOUS
 62
               7
100
AcDbLine
 10
14.499926343527477
 20
80.999947430187603
 30
0.0
 11
15.499929259580313
 21
79.99994813876765
 31
0.0
  0
LINE
  5
61F
100
AcDbEntity
  8
0
  6
CONTINUOUS
 62
               7
100
AcDbLine
 10
13.560776204290221
 20
53.060483385233056
 30
0.0
 11
11.439455181779692
 21
50.939163614420067
 31
0.0
  0
LINE
  5
620
100
AcDbEntity
  8
0
  6
CONTINUOUS
 62
               7
100
AcDbLine
 10
11.439326332538428
 20
53.060591907054913
 30
0.0
 11
13.560646103351417
 21
50.939270884544385
 31
0.0
  0
LINE
  5
621
100
AcDbEntity
  8
0
  6
CONTINUOUS
 62
               7
100
AcDbLine
 10
9.4999847412109375
 20
51.999969482421875
 30
0.0
 11
9.4999847412109375
 21
48.999969482421875
 31
0.0
  0
LINE
  5
622
100
AcDbEntity
  8
0
  6
CONTINUOUS
 62
               7
100
AcDbLine
 10
12.499984741210938
 20
54.999954223632812
 30
0.0
 11
15.499984741210938
 21
54.999954223632812
 31
0.0
  0
LINE
  5
623
100
AcDbEntity
  8
0
  6
CONTINUOUS
 62
               7
100
AcDbLine
 10
3.5
 20
70.000015258789063
 30
0.0
 11
0.5
 21
70.000015258789063
 31
0.0
  0
LINE
  5
624
100
AcDbEntity
  8
0
  6
CONTINUOUS
 62
               7
100
AcDbLine
 10
2.4394273255238659
 20
71.939225755218104
 30
0.0
 11
4.5607487056622631
 21
74.060545168403223
 31
0.0
  0
LINE
  5
625
100
AcDbEntity
  8
0
  6
CONTINUOUS
 62
               7
100
AcDbLine
 10
4.5606398263007577
 20
71.939332667726376
 30
0.0
 11
2.4393204131156381
 21
74.060654047864773
 31
0.0
  0
LINE
  5
626
100
AcDbEntity
  8
0
  6
CONTINUOUS
 62
               7
100
AcDbLine
 10
3.5
 20
75.999984741210938
 30
0.0
 11
0.5
 21
75.999984741210938
 31
0.0
  0
LINE
  5
627
100
AcDbEntity
  8
0
  6
CONTINUOUS
 62
               7
100
AcDbLine
 10
0.0
 20
49.0
 30
0.0
 11
16.0
 21
49.0
 31
0.0
  0
LINE
  5
628
100
AcDbEntity
  8
0
  6
CONTINUOUS
 62
               7
100
AcDbLine
 10
0.0
 20
3.0
 30
0.0
 11
16.0
 21
3.0
 31
0.0
  0
LINE
  5
629
100
AcDbEntity
  8
0
  6
CONTINUOUS
 62
               7
100
AcDbLine
 10
0.0
 20
49.0
 30
0.0
 11
0.0
 21
3.0
 31
0.0
  0
LINE
  5
62A
100
AcDbEntity
  8
0
  6
CONTINUOUS
 62
               7
100
AcDbLine
 10
16.0
 20
49.0
 30
0.0
 11
16.0
 21
3.0
 31
0.0
  0
LINE
  5
62B
100
AcDbEntity
  8
0
  6
CONTINUOUS
 62
               7
100
AcDbLine
 10
0.5
 20
12.100006103515625
 30
0.0
 11
2.5
 21
12.100006103515625
 31
0.0
  0
LINE
  5
62C
100
AcDbEntity
  8
0
  6
CONTINUOUS
 62
               7
100
AcDbLine
 10
0.5
 20
6.899993896484375
 30
0.0
 11
2.5
 21
6.899993896484375
 31
0.0
  0
LINE
  5
62D
100
AcDbEntity
  8
0
  6
CONTINUOUS
 62
               7
100
AcDbLine
 10
0.5
 20
12.100006103515625
 30
0.0
 11
0.5
 21
6.899993896484375
 31
0.0
  0
LINE
  5
62E
100
AcDbEntity
  8
0
  6
CONTINUOUS
 62
               7
100
AcDbLine
 10
15.5
 20
45.099990844726563
 30
0.0
 11
13.5
 21
45.099990844726563
 31
0.0
  0
LINE
  5
62F
100
AcDbEntity
  8
0
  6
CONTINUOUS
 62
               7
100
AcDbLine
 10
15.5
 20
39.899978637695312
 30
0.0
 11
13.5
 21
39.899978637695312
 31
0.0
  0
LINE
  5
630
100
AcDbEntity
  8
0
  6
CONTINUOUS
 62
               7
100
AcDbLine
 10
15.499984741210938
 20
39.899993896484375
 30
0.0
 11
15.499984741210938
 21
45.100006103515625
 31
0.0
  0
LINE
  5
631
100
AcDbEntity
  8
0
  6
CONTINUOUS
 62
               7
100
AcDbLine
 10
0.0
 20
0.0
 30
0.0
 11
16.0
 21
0.0
 31
0.0
  0
ARC
  5
632
100
AcDbEntity
  8
0
  6
CONTINUOUS
 62
               7
100
AcDbCircle
 10
1.0
 20
80.499984741210937
 30
0.0
 40
0.5
100
AcDbArc
 50
89.999982013910653
 51
179.99996402782131
  0
ARC
  5
633
100
AcDbEntity
  8
0
  6
CONTINUOUS
 62
               7
100
AcDbCircle
 10
15.0
 20
80.499984741210937
 30
0.0
 40
0.5
100
AcDbArc
 50
0.00001366037834
 51
89.999982013910653
  0
CIRCLE
  5
634
100
AcDbEntity
  8
0
  6
CONTINUOUS
 62
               7
100
AcDbCircle
 10
12.499984741210938
 20
51.999969482421875
 30
0.0
 40
2.7999992370605469
  0
ARC
  5
635
100
AcDbEntity
  8
0
  6
CONTINUOUS
 62
               7
100
AcDbCircle
 10
12.499984741210938
 20
51.999969482421875
 30
0.0
 40
3.0
100
AcDbArc
 50
89.999982013910653
 51
179.99996402782131
  0
CIRCLE
  5
636
100
AcDbEntity
  8
0
  6
CONTINUOUS
 62
               7
100
AcDbCircle
 10
3.5
 20
73.0
 30
0.0
 40
2.7999992370605469
  0
ARC
  5
637
100
AcDbEntity
  8
0
  6
CONTINUOUS
 62
               7
100
AcDbCircle
 10
3.5
 20
73.0
 30
0.0
 40
3.0
100
AcDbArc
 50
270.00001798608935
 51
90.000145938450743
  0
ARC
  5
638
100
AcDbEntity
  8
0
  6
CONTINUOUS
 62
               7
100
AcDbCircle
 10
2.5
 20
9.5
 30
0.0
 40
2.5999994277954102
100
AcDbArc
 50
270.00001798608935
 51
89.999982013910653
  0
ARC
  5
639
100
AcDbEntity
  8
0
  6
CONTINUOUS
 62
               7
100
AcDbCircle
 10
13.5
 20
42.5
 30
0.0
 40
2.5999994277954102
100
AcDbArc
 50
89.999982013910653
 51
270.00000068324533
  0
ARC
  5
63A
100
AcDbEntity
  8
0
  6
CONTINUOUS
 62
               4
100
AcDbCircle
 10
4.3037083825578293
 20
82.431613230618467
 30
0.0
 40
0.9070183285139883
100
AcDbArc
 50
334.9854827267493
 51
337.05916177659935
  0
ARC
  5
63B
100
AcDbEntity
  8
0
  6
CONTINUOUS
 62
               4
100
AcDbCircle
 10
12.442102779135666
 20
80.944346553640997
 30
0.0
 40
1.7440828242107302
100
AcDbArc
 50
137.46181248536678
 51
139.57928943405099
  0
LINE
  5
63C
100
AcDbEntity
  8
0
  6
CONTINUOUS
 62
               4
100
AcDbLine
 10
15.499984741210938
 20
91.199981741210934
 30
0.0
 11
15.499984741210881
 21
80.499984860420227
 31
0.0
  0
LINE
  5
63D
100
AcDbEntity
  8
0
  6
CONTINUOUS
 62
               4
100
AcDbLine
 10
0.4999847412109375
 20
91.199981741210934
 30
0.0
 11
0.4999847412109375
 21
80.499984741210937
 31
0.0
  0
LINE
  5
63E
100
AcDbEntity
  8
0
  6
CONTINUOUS
 62
               4
100
AcDbLine
 10
0.4999847412109375
 20
83.099981741210911
 30
0.0
 11
15.499984741210938
 21
83.099981741210911
 31
0.0
  0
LINE
  5
63F
100
AcDbEntity
  8
0
  6
CONTINUOUS
 62
               4
100
AcDbLine
 10
0.699984741210983
 20
99.299981741210956
 30
0.0
 11
0.4999847412109375
 21
99.499981741210945
 31
0.0
  0
LINE
  5
640
100
AcDbEntity
  8
0
  6
CONTINUOUS
 62
               4
100
AcDbLine
 10
0.4999847412109375
 20
100.83602274121097
 30
0.0
 11
0.4999847412109375
 21
99.499981741210945
 31
0.0
  0
LINE
  5
641
100
AcDbEntity
  8
0
  6
CONTINUOUS
 62
               4
100
AcDbLine
 10
0.4999847412109375
 20
98.399981741210922
 30
0.0
 11
0.5999847412109602
 21
98.499981741210945
 31
0.0
  0
LINE
  5
642
100
AcDbEntity
  8
0
  6
CONTINUOUS
 62
               4
100
AcDbLine
 10
0.699984741210983
 20
91.399981741210922
 30
0.0
 11
0.4999847412109375
 21
91.599981741210911
 31
0.0
  0
LINE
  5
643
100
AcDbEntity
  8
0
  6
CONTINUOUS
 62
               4
100
AcDbLine
 10
0.699984741210983
 20
91.399981741210922
 30
0.0
 11
0.4999847412109375
 21
91.199981741210934
 31
0.0
  0
LINE
  5
644
100
AcDbEntity
  8
0
  6
CONTINUOUS
 62
               4
100
AcDbLine
 10
0.4999847412109375
 20
98.399981741210922
 30
0.0
 11
0.4999847412109375
 21
91.599981741210911
 31
0.0
  0
ARC
  5
645
100
AcDbEntity
  8
0
  6
CONTINUOUS
 62
               4
100
AcDbCircle
 10
14.599983241210907
 20
104.69997374121095
 30
0.0
 40
0.3
100
AcDbArc
 50
0.0000000000006107
 51
90.00000000000081
  0
ARC
  5
646
100
AcDbEntity
  8
0
  6
CONTINUOUS
 62
               4
100
AcDbCircle
 10
13.399984341210939
 20
103.29997674121097
 30
0.0
 40
0.5
100
AcDbArc
 50
90.0
 51
180.0000000000002
  0
ARC
  5
647
100
AcDbEntity
  8
0
  6
CONTINUOUS
 62
               4
100
AcDbCircle
 10
2.5999851412109365
 20
103.29997674121097
 30
0.0
 40
0.5
100
AcDbArc
 50
0.0000000000006107
 51
90.00000000000081
  0
ARC
  5
648
100
AcDbEntity
  8
0
  6
CONTINUOUS
 62
               4
100
AcDbCircle
 10
1.3999862412109678
 20
104.69997374121095
 30
0.0
 40
0.3
100
AcDbArc
 50
90.0
 51
180.0000000000002
  0
LINE
  5
649
100
AcDbEntity
  8
0
  6
CONTINUOUS
 62
               4
100
AcDbLine
 10
14.899984741210915
 20
104.69997374121095
 30
0.0
 11
14.899984741210915
 21
103.79997674121097
 31
0.0
  0
LINE
  5
64A
100
AcDbEntity
  8
0
  6
CONTINUOUS
 62
               4
100
AcDbLine
 10
14.599983241210907
 20
104.99997674121096
 30
0.0
 11
1.3999847412109148
 21
104.99997674121096
 31
0.0
  0
LINE
  5
64B
100
AcDbEntity
  8
0
  6
CONTINUOUS
 62
               4
100
AcDbLine
 10
1.0999847412109602
 20
103.79997674121097
 30
0.0
 11
14.899984741210915
 21
103.79997674121097
 31
0.0
  0
LINE
  5
64C
100
AcDbEntity
  8
0
  6
CONTINUOUS
 62
               4
100
AcDbLine
 10
1.0999847412109602
 20
104.69997374121095
 30
0.0
 11
1.0999847412109602
 21
103.79997674121097
 31
0.0
  0
LINE
  5
64D
100
AcDbEntity
  8
0
  6
CONTINUOUS
 62
               4
100
AcDbLine
 10
13.699984741210983
 20
102.89997574121094
 30
0.0
 11
13.699984741210983
 21
101.89997674121093
 31
0.0
  0
LINE
  5
64E
100
AcDbEntity
  8
0
  6
CONTINUOUS
 62
               4
100
AcDbLine
 10
13.699984341210893
 20
102.89997574121094
 30
0.0
 11
13.599984341210984
 21
102.99997574121096
 31
0.0
  0
LINE
  5
64F
100
AcDbEntity
  8
0
  6
CONTINUOUS
 62
               4
100
AcDbLine
 10
2.2999847412109489
 20
102.89997574121094
 30
0.0
 11
2.2999847412109489
 21
101.89997674121093
 31
0.0
  0
LINE
  5
650
100
AcDbEntity
  8
0
  6
CONTINUOUS
 62
               4
100
AcDbLine
 10
2.299985141210982
 20
102.89997574121094
 30
0.0
 11
2.3999851412109479
 21
102.99997574121096
 31
0.0
  0
LINE
  5
651
100
AcDbEntity
  8
0
  6
CONTINUOUS
 62
               4
100
AcDbLine
 10
12.899984741210915
 20
103.29997674121097
 30
0.0
 11
12.899984741210915
 21
102.99997574121096
 31
0.0
  0
LINE
  5
652
100
AcDbEntity
  8
0
  6
CONTINUOUS
 62
               4
100
AcDbLine
 10
2.3999851412109479
 20
102.99997574121096
 30
0.0
 11
13.599984341210984
 21
102.99997574121096
 31
0.0
  0
LINE
  5
653
100
AcDbEntity
  8
0
  6
CONTINUOUS
 62
               4
100
AcDbLine
 10
3.0999847412109602
 20
103.29997674121097
 30
0.0
 11
3.0999847412109602
 21
102.99997574121096
 31
0.0
  0
LINE
  5
654
100
AcDbEntity
  8
0
  6
CONTINUOUS
 62
               4
100
AcDbLine
 10
1.6499843412109385
 20
101.89997674121093
 30
0.0
 11
14.34998474121096
 21
101.89997674121093
 31
0.0
  0
LINE
  5
655
100
AcDbEntity
  8
0
  6
CONTINUOUS
 62
               4
100
AcDbLine
 10
14.696395141210928
 20
101.29997574121097
 30
0.0
 11
15.499984741210938
 21
100.83602274121097
 31
0.0
  0
LINE
  5
656
100
AcDbEntity
  8
0
  6
CONTINUOUS
 62
               4
100
AcDbLine
 10
15.299984741210892
 20
99.299981741210956
 30
0.0
 11
15.499984741210938
 21
99.499981741210945
 31
0.0
  0
LINE
  5
657
100
AcDbEntity
  8
0
  6
CONTINUOUS
 62
               4
100
AcDbLine
 10
1.3035743412109468
 20
101.29997674121097
 30
0.0
 11
1.6499847412109148
 21
101.89997674121093
 31
0.0
  0
LINE
  5
658
100
AcDbEntity
  8
0
  6
CONTINUOUS
 62
               4
100
AcDbLine
 10
14.696395141210928
 20
101.29997674121097
 30
0.0
 11
14.34998474121096
 21
101.89997674121093
 31
0.0
  0
LINE
  5
659
100
AcDbEntity
  8
0
  6
CONTINUOUS
 62
               4
100
AcDbLine
 10
14.799984741210892
 20
99.299981741210956
 30
0.0
 11
14.799984741210892
 21
98.499981741210945
 31
0.0
  0
LINE
  5
65A
100
AcDbEntity
  8
0
  6
CONTINUOUS
 62
               4
100
AcDbLine
 10
15.499984741210938
 20
100.83602274121097
 30
0.0
 11
15.499984741210938
 21
99.499981741210945
 31
0.0
  0
LINE
  5
65B
100
AcDbEntity
  8
0
  6
CONTINUOUS
 62
               4
100
AcDbLine
 10
15.299984741210892
 20
91.399981741210922
 30
0.0
 11
15.499984741210938
 21
91.599981741210968
 31
0.0
  0
LINE
  5
65C
100
AcDbEntity
  8
0
  6
CONTINUOUS
 62
               4
100
AcDbLine
 10
15.399984741210915
 20
98.499981741210945
 30
0.0
 11
15.499984741210938
 21
98.399981741210922
 31
0.0
  0
LINE
  5
65D
100
AcDbEntity
  8
0
  6
CONTINUOUS
 62
               4
100
AcDbLine
 10
15.499984741210938
 20
98.399981741210922
 30
0.0
 11
15.499984741210938
 21
91.599981741210968
 31
0.0
  0
LINE
  5
65E
100
AcDbEntity
  8
0
  6
CONTINUOUS
 62
               4
100
AcDbLine
 10
15.299984741210892
 20
91.399981741210922
 30
0.0
 11
15.499984741210938
 21
91.199981741210934
 31
0.0
  0
LINE
  5
65F
100
AcDbEntity
  8
0
  6
CONTINUOUS
 62
               4
100
AcDbLine
 10
1.199984741210983
 20
99.299981741210956
 30
0.0
 11
1.199984741210983
 21
98.499981741210945
 31
0.0
  0
LINE
  5
660
100
AcDbEntity
  8
0
  6
CONTINUOUS
 62
               4
100
AcDbLine
 10
2.2999847412109489
 20
102.89997534121096
 30
0.0
 11
13.699984341210893
 21
102.89997534121096
 31
0.0
  0
LINE
  5
661
100
AcDbEntity
  8
0
  6
CONTINUOUS
 62
               4
100
AcDbLine
 10
1.3035743412109468
 20
101.29997674121097
 30
0.0
 11
14.696396007237581
 21
101.29997674121097
 31
0.0
  0
LINE
  5
662
100
AcDbEntity
  8
0
  6
CONTINUOUS
 62
               4
100
AcDbLine
 10
0.4999847412109375
 20
100.83602274121097
 30
0.0
 11
15.499984741210938
 21
100.83602274121097
 31
0.0
  0
LINE
  5
663
100
AcDbEntity
  8
0
  6
CONTINUOUS
 62
               4
100
AcDbLine
 10
0.4999847412109375
 20
99.499981741210945
 30
0.0
 11
15.499984741210938
 21
99.499981741210945
 31
0.0
  0
LINE
  5
664
100
AcDbEntity
  8
0
  6
CONTINUOUS
 62
               4
100
AcDbLine
 10
0.4999847412109375
 20
98.399981741210922
 30
0.0
 11
15.499984741210938
 21
98.399981741210922
 31
0.0
  0
LINE
  5
665
100
AcDbEntity
  8
0
  6
CONTINUOUS
 62
               4
100
AcDbLine
 10
0.4999847412109375
 20
91.599981741210911
 30
0.0
 11
15.499984741210938
 21
91.599981741210968
 31
0.0
  0
LINE
  5
666
100
AcDbEntity
  8
0
  6
CONTINUOUS
 62
               4
100
AcDbLine
 10
0.5999847412109602
 20
98.499981741210945
 30
0.0
 11
15.399984741210915
 21
98.499981741210945
 31
0.0
  0
LINE
  5
667
100
AcDbEntity
  8
0
  6
CONTINUOUS
 62
               4
100
AcDbLine
 10
0.699984741210983
 20
91.399981741210922
 30
0.0
 11
15.299984741210892
 21
91.399981741210922
 31
0.0
  0
LINE
  5
668
100
AcDbEntity
  8
0
  6
CONTINUOUS
 62
               4
100
AcDbLine
 10
0.699984741210983
 20
99.299981741210956
 30
0.0
 11
15.299984741210892
 21
99.299981741210956
 31
0.0
  0
LINE
  5
669
100
AcDbEntity
  8
0
  6
CONTINUOUS
 62
               4
100
AcDbLine
 10
0.4999847412109375
 20
100.83602274121097
 30
0.0
 11
1.3035743412109468
 21
101.29997574121097
 31
0.0
  0
LINE
  5
66A
100
AcDbEntity
  8
0
  6
CONTINUOUS
 62
               4
100
AcDbLine
 10
0.4999847412109375
 20
91.199981741210934
 30
0.0
 11
15.499984741210938
 21
91.199981741210934
 31
0.0
  0
ARC
  5
66B
100
AcDbEntity
  8
0
  6
CONTINUOUS
 62
               4
100
AcDbCircle
 10
1.6880993669968234
 20
81.952038547954032
 30
0.0
 40
3.5792847910051169
100
AcDbArc
 50
16.692670231366478
 51
18.706388090683134
  0
ARC
  5
66C
100
AcDbEntity
  8
0
  6
CONTINUOUS
 62
               4
100
AcDbCircle
 10
2.2998047753904416
 20
82.135769008409056
 30
0.0
 40
2.9405827545696739
100
AcDbArc
 50
14.667172481837309
 51
16.687158220345307
  0
ARC
  5
66D
100
AcDbEntity
  8
0
  6
CONTINUOUS
 62
               4
100
AcDbCircle
 10
2.7272553484582431
 20
82.247789683575036
 30
0.0
 40
2.4986974735198264
100
AcDbArc
 50
12.64220171457502
 51
14.664003856686913
  0
ARC
  5
66E
100
AcDbEntity
  8
0
  6
CONTINUOUS
 62
               4
100
AcDbCircle
 10
3.0528401003833778
 20
82.320910979230007
 30
0.0
 40
2.1650027850202194
100
AcDbArc
 50
10.622325184027614
 51
12.639809341957983
  0
ARC
  5
66F
100
AcDbEntity
  8
0
  6
CONTINUOUS
 62
               4
100
AcDbCircle
 10
3.3109140218556377
 20
82.369349811261202
 30
0.0
 40
1.9024223823912618
100
AcDbArc
 50
8.5904999532902906
 51
10.621214460484083
  0
ARC
  5
670
100
AcDbEntity
  8
0
  6
CONTINUOUS
 62
               4
100
AcDbCircle
 10
3.5196885834984641
 20
82.400930934917938
 30
0.0
 40
1.6912727127528326
100
AcDbArc
 50
6.5761670370759369
 51
8.5890814466550953
  0
ARC
  5
671
100
AcDbEntity
  8
0
  6
CONTINUOUS
 62
               4
100
AcDbCircle
 10
3.6924726322921515
 20
82.420864129782331
 30
0.0
 40
1.5173426706314583
100
AcDbArc
 50
4.5394127768506722
 51
6.5756332807388684
  0
ARC
  5
672
100
AcDbEntity
  8
0
  6
CONTINUOUS
 62
               4
100
AcDbCircle
 10
3.8371390294043977
 20
82.432370648761207
 30
0.0
 40
1.3722193921649677
100
AcDbArc
 50
2.5134210627668083
 51
4.5385432169979358
  0
ARC
  5
673
100
AcDbEntity
  8
0
  6
CONTINUOUS
 62
               4
100
AcDbCircle
 10
3.9579724547019168
 20
82.437693961718168
 30
0.0
 40
1.2512687661879294
100
AcDbArc
 50
0.4986662793331432
 51
2.5125403042270924
  0
ARC
  5
674
100
AcDbEntity
  8
0
  6
CONTINUOUS
 62
               4
100
AcDbCircle
 10
4.0605035044670785
 20
82.438602971821211
 30
0.0
 40
1.1487336884614059
100
AcDbArc
 50
358.48535575865219
 51
0.4978372462346162
  0
ARC
  5
675
100
AcDbEntity
  8
0
  6
CONTINUOUS
 62
               4
100
AcDbCircle
 10
4.1491557334572917
 20
82.436257101389685
 30
0.0
 40
1.0600504273031055
100
AcDbArc
 50
356.41199098827974
 51
358.48545062568161
  0
ARC
  5
676
100
AcDbEntity
  8
0
  6
CONTINUOUS
 62
               4
100
AcDbCircle
 10
4.2253340473851608
 20
82.431500094123408
 30
0.0
 40
0.9837237333251888
100
AcDbArc
 50
354.37936612442155
 51
356.41084465247479
  0
ARC
  5
677
100
AcDbEntity
  8
0
  6
CONTINUOUS
 62
               4
100
AcDbCircle
 10
4.2903886641089457
 20
82.425100888209386
 30
0.0
 40
0.9183551400777058
100
AcDbArc
 50
352.31913550747987
 51
354.37917307806117
  0
ARC
  5
678
100
AcDbEntity
  8
0
  6
CONTINUOUS
 62
               4
100
AcDbCircle
 10
4.3299989768398746
 20
82.419889696931619
 30
0.0
 40
0.8784037220175889
100
AcDbArc
 50
350.04442337093138
 51
352.31067627383698
  0
ARC
  5
679
100
AcDbEntity
  8
0
  6
CONTINUOUS
 62
               4
100
AcDbCircle
 10
4.3365847206524677
 20
82.418743869091628
 30
0.0
 40
0.8717190498304943
100
AcDbArc
 50
347.8430796695497
 51
350.04376613556349
  0
ARC
  5
67A
100
AcDbEntity
  8
0
  6
CONTINUOUS
 62
               4
100
AcDbCircle
 10
4.3394134240871836
 20
82.41814337194603
 30
0.0
 40
0.8688273229065229
100
AcDbArc
 50
345.64887660776787
 51
347.84250821435234
  0
ARC
  5
67B
100
AcDbEntity
  8
0
  6
CONTINUOUS
 62
               4
100
AcDbCircle
 10
4.3387448895471721
 20
82.418323149839892
 30
0.0
 40
0.8695195562227179
100
AcDbArc
 50
343.46777810803036
 51
345.6483189778931
  0
ARC
  5
67C
100
AcDbEntity
  8
0
  6
CONTINUOUS
 62
               4
100
AcDbCircle
 10
4.3347098349823909
 20
82.419529363146751
 30
0.0
 40
0.8737310345492286
100
AcDbArc
 50
341.30559968152772
 51
343.46724331822702
  0
ARC
  5
67D
100
AcDbEntity
  8
0
  6
CONTINUOUS
 62
               4
100
AcDbCircle
 10
4.3274386891177983
 20
82.421997902331555
 30
0.0
 40
0.8814097836866593
100
AcDbArc
 50
339.16783639663942
 51
341.30509574346718
  0
ARC
  5
67E
100
AcDbEntity
  8
0
  6
CONTINUOUS
 62
               4
100
AcDbCircle
 10
4.317061590100252
 20
82.425954232360624
 30
0.0
 40
0.8925154884911465
100
AcDbArc
 50
337.05958525577057
 51
339.16737004731732
  0
ARC
  5
67F
100
AcDbEntity
  8
0
  6
CONTINUOUS
 62
               4
100
AcDbCircle
 10
12.51693537071543
 20
80.875672441642791
 30
0.0
 40
1.8456507835321854
100
AcDbArc
 50
135.33969043925305
 51
137.46156396527482
  0
ARC
  5
680
100
AcDbEntity
  8
0
  6
CONTINUOUS
 62
               4
100
AcDbCircle
 10
12.599507300110531
 20
80.794066359877121
 30
0.0
 40
1.9617441773085496
100
AcDbArc
 50
133.22591051906923
 51
135.33953495864765
  0
ARC
  5
681
100
AcDbEntity
  8
0
  6
CONTINUOUS
 62
               4
100
AcDbCircle
 10
12.686969560744103
 20
80.701010222856894
 30
0.0
 40
2.0894512314174238
100
AcDbArc
 50
131.12797931843076
 51
133.22586068395483
  0
ARC
  5
682
100
AcDbEntity
  8
0
  6
CONTINUOUS
 62
               4
100
AcDbCircle
 10
12.781427028336111
 20
80.592842353125775
 30
0.0
 40
2.2330565976797208
100
AcDbArc
 50
129.05599655959571
 51
131.12804815304727
  0
ARC
  5
683
100
AcDbEntity
  8
0
  6
CONTINUOUS
 62
               4
100
AcDbCircle
 10
12.882221819255619
 20
80.468537009733183
 30
0.0
 40
2.3930922366681844
100
AcDbArc
 50
126.93496757774774
 51
129.05475086524166
  0
ARC
  5
684
100
AcDbEntity
  8
0
  6
CONTINUOUS
 62
               4
100
AcDbCircle
 10
12.988371476292627
 20
80.327364172617649
 30
0.0
 40
2.5697204320578275
100
AcDbArc
 50
124.86028090017271
 51
126.9353116016355
  0
ARC
  5
685
100
AcDbEntity
  8
0
  6
CONTINUOUS
 62
               4
100
AcDbCircle
 10
13.099892452871416
 20
80.16727056786587
 30
0.0
 40
2.7648278140138127
100
AcDbArc
 50
122.76378430057147
 51
124.86033264396971
  0
ARC
  5
686
100
AcDbEntity
  8
0
  6
CONTINUOUS
 62
               4
100
AcDbCircle
 10
13.214970602830476
 20
79.988520538901469
 30
0.0
 40
2.9774179180260334
100
AcDbArc
 50
120.72688420443183
 51
122.76445524253508
  0
ARC
  5
687
100
AcDbEntity
  8
0
  6
CONTINUOUS
 62
               4
100
AcDbCircle
 10
13.330098494908611
 20
79.794785455345448
 30
0.0
 40
3.2027792138376987
100
AcDbArc
 50
118.68383739824699
 51
120.72647563067255
  0
ARC
  5
688
100
AcDbEntity
  8
0
  6
CONTINUOUS
 62
               4
100
AcDbCircle
 10
13.444941203851499
 20
79.584863212429184
 30
0.0
 40
3.4420618830909504
100
AcDbArc
 50
116.64406455646528
 51
118.68370002549347
  0
ARC
  5
689
100
AcDbEntity
  8
0
  6
CONTINUOUS
 62
               4
100
AcDbCircle
 10
13.555914295976379
 20
79.363701523464641
 30
0.0
 40
3.6895038353855494
100
AcDbArc
 50
114.61216941824344
 51
116.64421369814821
  0
ARC
  5
68A
100
AcDbEntity
  8
0
  6
CONTINUOUS
 62
               4
100
AcDbCircle
 10
13.659731314918417
 20
79.137103140612254
 30
0.0
 40
3.9387523065594494
100
AcDbArc
 50
112.53649080011311
 51
114.61235399434334
  0
ARC
  5
68B
100
AcDbEntity
  8
0
  6
CONTINUOUS
 62
               4
100
AcDbCircle
 10
13.752069898313835
 20
78.914846306615289
 30
0.0
 40
4.179427407790862
100
AcDbArc
 50
110.47273869949569
 51
112.537895108127
  0
ARC
  5
68C
100
AcDbEntity
  8
0
  6
CONTINUOUS
 62
               4
100
AcDbCircle
 10
13.826174832615493
 20
78.716722189262128
 30
0.0
 40
4.3909568183558054
100
AcDbArc
 50
108.41111076875694
 51
110.47441085407245
  0
ARC
  5
68D
100
AcDbEntity
  8
0
  6
CONTINUOUS
 62
               4
100
AcDbCircle
 10
13.877540335553704
 20
78.562938844667656
 30
0.0
 40
4.5530916549443816
100
AcDbArc
 50
106.3833470795264
 51
108.41320583984917
  0
ARC
  5
68E
100
AcDbEntity
  8
0
  6
CONTINUOUS
 62
               4
100
AcDbCircle
 10
13.903677032560097
 20
78.474642041189384
 30
0.0
 40
4.6451754430736036
100
AcDbArc
 50
104.32120035552165
 51
106.38544658599221
  0
ARC
  5
68F
100
AcDbEntity
  8
0
  6
CONTINUOUS
 62
               4
100
AcDbCircle
 10
13.904945309251275
 20
78.470537531138859
 30
0.0
 40
4.649466125201223
100
AcDbArc
 50
102.28752478573149
 51
104.32383235181251
  0
ARC
  5
690
100
AcDbEntity
  8
0
  6
CONTINUOUS
 62
               4
100
AcDbCircle
 10
13.885171185566037
 20
78.562380802966629
 30
0.0
 40
4.5555185280978989
100
AcDbArc
 50
100.24906748641922
 51
102.29035129179967
  0
ARC
  5
691
100
AcDbEntity
  8
0
  6
CONTINUOUS
 62
               4
100
AcDbCircle
 10
13.851284356426561
 20
78.751063360117513
 30
0.0
 40
4.3638172725416116
100
AcDbArc
 50
98.215390706155546
 51
100.25203092327718
  0
ARC
  5
692
100
AcDbEntity
  8
0
  6
CONTINUOUS
 62
               4
100
AcDbCircle
 10
13.812215168366492
 20
79.023211963330624
 30
0.0
 40
4.0888787123857897
100
AcDbArc
 50
96.152863214536609
 51
98.218478590114941
  0
ARC
  5
693
100
AcDbEntity
  8
0
  6
CONTINUOUS
 62
               4
100
AcDbCircle
 10
13.777268995859799
 20
79.347300265127615
 30
0.0
 40
3.7629117474124989
100
AcDbArc
 50
94.22588459322624
 51
96.152732058177648
  0
ARC
  5
694
100
AcDbEntity
  8
0
  6
CONTINUOUS
 62
               4
100
AcDbCircle
 10
12.078572896521905
 20
81.200742832058296
 30
0.0
 40
1.2980812772469721
100
AcDbArc
 50
152.2001772299954
 51
154.37703095038344
  0
ARC
  5
695
100
AcDbEntity
  8
0
  6
CONTINUOUS
 62
               4
100
AcDbCircle
 10
11.944228688052931
 20
81.252766402943394
 30
0.0
 40
1.1536749381666052
100
AcDbArc
 50
169.25858439343381
 51
171.42470890125892
  0
LINE
  5
696
100
AcDbEntity
  8
0
  6
CONTINUOUS
 62
               7
100
AcDbLine
 10
1.0
 20
80.999984741210937
 30
0.0
 11
15.0
 21
80.999984741210937
 31
0.0
  0
ARC
  5
697
100
AcDbEntity
  8
0
  6
CONTINUOUS
 62
               4
100
AcDbCircle
 10
11.9459003370647
 20
81.252518673581761
 30
0.0
 40
1.1553648381076536
100
AcDbArc
 50
171.4249220362544
 51
172.66714687627774
  0
ARC
  5
698
100
AcDbEntity
  8
0
  6
CONTINUOUS
 62
               4
100
AcDbCircle
 10
11.946271915014449
 20
81.25236830208388
 30
0.0
 40
1.1557565612105893
100
AcDbArc
 50
167.1073778862783
 51
169.25807302055415
  0
ARC
  5
699
100
AcDbEntity
  8
0
  6
CONTINUOUS
 62
               4
100
AcDbCircle
 10
11.952539652560688
 20
81.250923532114712
 30
0.0
 40
1.1621886524346294
100
AcDbArc
 50
164.97689628126085
 51
167.10689174905826
  0
ARC
  5
69A
100
AcDbEntity
  8
0
  6
CONTINUOUS
 62
               4
100
AcDbCircle
 10
11.96287432083966
 20
81.248140270037567
 30
0.0
 40
1.172891541321601
100
AcDbArc
 50
162.87207847584142
 51
164.97644197812087
  0
ARC
  5
69B
100
AcDbEntity
  8
0
  6
CONTINUOUS
 62
               4
100
AcDbCircle
 10
11.97711653550482
 20
81.24374214608406
 30
0.0
 40
1.1877973824267298
100
AcDbArc
 50
160.79746197752095
 51
162.87166138161973
  0
ARC
  5
69C
100
AcDbEntity
  8
0
  6
CONTINUOUS
 62
               4
100
AcDbCircle
 10
11.995105096632415
 20
81.237468589844411
 30
0.0
 40
1.206848518289146
100
AcDbArc
 50
158.75713470539938
 51
160.79708613330823
  0
ARC
  5
69D
100
AcDbEntity
  8
0
  6
CONTINUOUS
 62
               4
100
AcDbCircle
 10
12.045528179362691
 20
81.216599939477788
 30
0.0
 40
1.2614288403806175
100
AcDbArc
 50
154.37737662748219
 51
156.61174122654216
  0
ARC
  5
69E
100
AcDbEntity
  8
0
  6
CONTINUOUS
 62
               4
100
AcDbCircle
 10
12.156299020247843
 20
81.157788604006981
 30
0.0
 40
1.3869018340082298
100
AcDbArc
 50
148.02942719473145
 51
150.08328924595656
  0
ARC
  5
69F
100
AcDbEntity
  8
0
  6
CONTINUOUS
 62
               4
100
AcDbCircle
 10
12.201432042306124
 20
81.129602929868867
 30
0.0
 40
1.440112939399137
100
AcDbArc
 50
145.91589475520743
 51
148.0288988914632
  0
ARC
  5
6A0
100
AcDbEntity
  8
0
  6
CONTINUOUS
 62
               4
100
AcDbCircle
 10
12.253975272549383
 20
81.094032550829667
 30
0.0
 40
1.5035640443162497
100
AcDbArc
 50
143.75847606669703
 51
145.91535217241454
  0
ARC
  5
6A1
100
AcDbEntity
  8
0
  6
CONTINUOUS
 62
               4
100
AcDbCircle
 10
12.311125079716135
 20
81.052140931860066
 30
0.0
 40
1.5744231171216525
100
AcDbArc
 50
141.6834102409415
 51
143.75845713366246
  0
LINE
  5
6A2
100
AcDbEntity
  8
0
  6
CONTINUOUS
 62
               4
100
AcDbLine
 10
10.799984741210892
 20
81.399981741210922
 30
0.0
 11
10.799984741210892
 21
80.999984741210937
 31
0.0
  0
ARC
  5
6A3
100
AcDbEntity
  8
0
  6
CONTINUOUS
 62
               4
100
AcDbCircle
 10
12.115581527613585
 20
81.181223388097948
 30
0.0
 40
1.3399220161149226
100
AcDbArc
 50
150.08348873429867
 51
152.19990668070719
  0
ARC
  5
6A4
100
AcDbEntity
  8
0
  6
CONTINUOUS
 62
               4
100
AcDbCircle
 10
12.01724385653165
 20
81.228849102931008
 30
0.0
 40
1.2306060453551306
100
AcDbArc
 50
156.61243884655144
 51
158.75655461249158
  0
ARC
  5
6A5
100
AcDbEntity
  8
0
  6
CONTINUOUS
 62
               4
100
AcDbCircle
 10
12.372713379160928
 20
81.003457910537207
 30
0.0
 40
1.6529288816836427
100
AcDbArc
 50
139.57963476423404
 51
141.68301448589258
  0
ARC
  5
6A6
100
AcDbEntity
  8
0
  6
CONTINUOUS
 62
               4
100
AcDbCircle
 10
2.487189334435584
 20
85.848318810984352
 30
0.0
 40
4.8487152236888873
100
AcDbArc
 50
272.34400008633685
 51
274.3809379933985
  0
ARC
  5
6A7
100
AcDbEntity
  8
0
  6
CONTINUOUS
 62
               4
100
AcDbCircle
 10
4.2875086135939
 20
82.439179017950948
 30
0.0
 40
0.9248977473007884
100
AcDbArc
 50
332.94965877027062
 51
334.98510585905751
  0
ARC
  5
6A8
100
AcDbEntity
  8
0
  6
CONTINUOUS
 62
               4
100
AcDbCircle
 10
4.2680179680981496
 20
82.449143979570863
 30
0.0
 40
0.9467880557216587
100
AcDbArc
 50
330.79047142950373
 51
332.94899039172913
  0
ARC
  5
6A9
100
AcDbEntity
  8
0
  6
CONTINUOUS
 62
               4
100
AcDbCircle
 10
4.243238244500958
 20
82.463014337932236
 30
0.0
 40
0.9751856146405591
100
AcDbArc
 50
328.52513572890319
 51
330.78964935502574
  0
ARC
  5
6AA
100
AcDbEntity
  8
0
  6
CONTINUOUS
 62
               4
100
AcDbCircle
 10
4.2145877224691048
 20
82.480561242802054
 30
0.0
 40
1.0087824336491014
100
AcDbArc
 50
326.32547329285137
 51
328.52479050684656
  0
ARC
  5
6AB
100
AcDbEntity
  8
0
  6
CONTINUOUS
 62
               4
100
AcDbCircle
 10
4.182821850623327
 20
82.501731730632628
 30
0.0
 40
1.0469565105542151
100
AcDbArc
 50
324.19394833181542
 51
326.32521446265338
  0
ARC
  5
6AC
100
AcDbEntity
  8
0
  6
CONTINUOUS
 62
               4
100
AcDbCircle
 10
4.1481435421474089
 20
82.52675227102111
 30
0.0
 40
1.0897187895978158
100
AcDbArc
 50
322.13249726452858
 51
324.1937697897111
  0
ARC
  5
6AD
100
AcDbEntity
  8
0
  6
CONTINUOUS
 62
               4
100
AcDbCircle
 10
4.1098232324546871
 20
82.55656463548695
 30
0.0
 40
1.1382700312170682
100
AcDbArc
 50
320.00116996618141
 51
322.13187306362562
  0
ARC
  5
6AE
100
AcDbEntity
  8
0
  6
CONTINUOUS
 62
               4
100
AcDbCircle
 10
4.0649450280728843
 20
82.594237971431482
 30
0.0
 40
1.1968646836743488
100
AcDbArc
 50
317.81937465147053
 51
320.00052406292622
  0
ARC
  5
6AF
100
AcDbEntity
  8
0
  6
CONTINUOUS
 62
               4
100
AcDbCircle
 10
4.0161786997443869
 20
82.638425423949798
 30
0.0
 40
1.262672629532426
100
AcDbArc
 50
315.73105398546534
 51
317.819412124716
  0
ARC
  5
6B0
100
AcDbEntity
  8
0
  6
CONTINUOUS
 62
               4
100
AcDbCircle
 10
3.9636248133922436
 20
82.689670269264894
 30
0.0
 40
1.336075252302974
100
AcDbArc
 50
313.61051206819326
 51
315.73058613787549
  0
ARC
  5
6B1
100
AcDbEntity
  8
0
  6
CONTINUOUS
 62
               4
100
AcDbCircle
 10
3.8394935257907719
 20
82.825258361169432
 30
0.0
 40
1.519934893233972
100
AcDbArc
 50
309.33977233769218
 51
311.47581497566051
  0
ARC
  5
6B2
100
AcDbEntity
  8
0
  6
CONTINUOUS
 62
               4
100
AcDbCircle
 10
3.7677989592830272
 20
82.912735543661825
 30
0.0
 40
1.6330382455386463
100
AcDbArc
 50
307.21733800905474
 51
309.33960577266572
  0
ARC
  5
6B3
100
AcDbEntity
  8
0
  6
CONTINUOUS
 62
               4
100
AcDbCircle
 10
3.6915186353340346
 20
83.013169984722026
 30
0.0
 40
1.7591563044023779
100
AcDbArc
 50
305.11797332770749
 51
307.21729964211789
  0
ARC
  5
6B4
100
AcDbEntity
  8
0
  6
CONTINUOUS
 62
               4
100
AcDbCircle
 10
3.5190971818627759
 20
83.268694605335611
 30
0.0
 40
2.0674635019234326
100
AcDbArc
 50
300.94666501632651
 51
303.05272129209112
  0
ARC
  5
6B5
100
AcDbEntity
  8
0
  6
CONTINUOUS
 62
               4
100
AcDbCircle
 10
3.4240715272076159
 20
83.427144081914946
 30
0.0
 40
2.2522231062592284
100
AcDbArc
 50
298.90024827716343
 51
300.94710659439721
  0
ARC
  5
6B6
100
AcDbEntity
  8
0
  6
CONTINUOUS
 62
               4
100
AcDbCircle
 10
3.3230438892344409
 20
83.610149077894761
 30
0.0
 40
2.4612623661697048
100
AcDbArc
 50
296.84419992855413
 51
298.90029755576143
  0
ARC
  5
6B7
100
AcDbEntity
  8
0
  6
CONTINUOUS
 62
               4
100
AcDbCircle
 10
3.2161022387751927
 20
83.82142109876014
 30
0.0
 40
2.6980584455748691
100
AcDbArc
 50
294.79688870518333
 51
296.8444997549571
  0
ARC
  5
6B8
100
AcDbEntity
  8
0
  6
CONTINUOUS
 62
               4
100
AcDbCircle
 10
3.1027309946920809
 20
84.066936143116862
 30
0.0
 40
2.9684852815271552
100
AcDbArc
 50
292.70917255837719
 51
294.7958995161805
  0
ARC
  5
6B9
100
AcDbEntity
  8
0
  6
CONTINUOUS
 62
               4
100
AcDbCircle
 10
2.9869861991347761
 20
84.343520569952148
 30
0.0
 40
3.2683115693123259
100
AcDbArc
 50
290.66463514086331
 51
292.70909159173232
  0
ARC
  5
6BA
100
AcDbEntity
  8
0
  6
CONTINUOUS
 62
               4
100
AcDbCircle
 10
2.8723358899854929
 20
84.647532169089914
 30
0.0
 40
3.5932234738173441
100
AcDbArc
 50
288.61315457468027
 51
290.66446039759575
  0
ARC
  5
6BB
100
AcDbEntity
  8
0
  6
CONTINUOUS
 62
               4
100
AcDbCircle
 10
2.6583350496227922
 20
85.322553500881213
 30
0.0
 40
4.3014668167016694
100
AcDbArc
 50
284.54026042390274
 51
286.57103213195217
  0
ARC
  5
6BC
100
AcDbEntity
  8
0
  6
CONTINUOUS
 62
               4
100
AcDbCircle
 10
2.5705799485109537
 20
85.660504565240842
 30
0.0
 40
4.6506256211513239
100
AcDbArc
 50
282.48035777535455
 51
284.54147221332323
  0
ARC
  5
6BD
100
AcDbEntity
  8
0
  6
CONTINUOUS
 62
               4
100
AcDbCircle
 10
2.5048361554556777
 20
85.956407512612714
 30
0.0
 40
4.9537439884679388
100
AcDbArc
 50
280.46925384142844
 51
282.48318221304561
  0
ARC
  5
6BE
100
AcDbEntity
  8
0
  6
CONTINUOUS
 62
               4
100
AcDbCircle
 10
2.4658493108717039
 20
86.165949855716519
 30
0.0
 40
5.1668822103566283
100
AcDbArc
 50
278.44079659032536
 51
280.47216274009367
  0
ARC
  5
6BF
100
AcDbEntity
  8
0
  6
CONTINUOUS
 62
               4
100
AcDbCircle
 10
2.4544050404028894
 20
86.240629933884179
 30
0.0
 40
5.2424332456517222
100
AcDbArc
 50
276.40093659987537
 51
278.44471158718193
  0
ARC
  5
6C0
100
AcDbEntity
  8
0
  6
CONTINUOUS
 62
               4
100
AcDbCircle
 10
2.4653999575905345
 20
86.138864130393188
 30
0.0
 40
5.1400760871097102
100
AcDbArc
 50
274.37571833400187
 51
276.40560716991075
  0
ARC
  5
6C1
100
AcDbEntity
  8
0
  6
CONTINUOUS
 62
               4
100
AcDbCircle
 10
2.7602533376264091
 20
84.980245542361956
 30
0.0
 40
3.944308487307179
100
AcDbArc
 50
286.57019298143433
 51
288.61352744566329
  0
ARC
  5
6C2
100
AcDbEntity
  8
0
  6
CONTINUOUS
 62
               4
100
AcDbCircle
 10
3.6084778518427356
 20
83.131240030035599
 30
0.0
 40
1.9035041734933467
100
AcDbArc
 50
303.05431837145431
 51
305.11808218075015
  0
ARC
  5
6C3
100
AcDbEntity
  8
0
  6
CONTINUOUS
 62
               4
100
AcDbCircle
 10
3.9040034828621515
 20
82.752270409913194
 30
0.0
 40
1.4225245470859771
100
AcDbArc
 50
311.47609936202508
 51
313.61010722300489
  0
ARC
  5
6C4
100
AcDbEntity
  8
0
  6
CONTINUOUS
 62
               7
100
AcDbCircle
 10
0.7999954223632813
 20
12.500015258789063
 30
0.0
 40
0.300000011920929
100
AcDbArc
 50
179.99996402782131
 51
270.00000068324533
  0
ARC
  5
6C5
100
AcDbEntity
  8
0
  6
CONTINUOUS
 62
               7
100
AcDbCircle
 10
2.4999923706054687
 20
9.5000152587890625
 30
0.0
 40
2.6999998092651367
100
AcDbArc
 50
270.00001798608935
 51
89.999982013910653
  0
ARC
  5
6C6
100
AcDbEntity
  8
0
  6
CONTINUOUS
 62
               7
100
AcDbCircle
 10
0.7999954223632813
 20
6.5000152587890625
 30
0.0
 40
0.300000011920929
100
AcDbArc
 50
89.999982013910653
 51
179.99996402782131
  0
ARC
  5
6C7
100
AcDbEntity
  8
0
  6
CONTINUOUS
 62
               7
100
AcDbCircle
 10
0.7999954223632813
 20
3.5000152587890625
 30
0.0
 40
0.300000011920929
100
AcDbArc
 50
179.99996402782131
 51
270.00000068324533
  0
ARC
  5
6C8
100
AcDbEntity
  8
0
  6
CONTINUOUS
 62
               7
100
AcDbCircle
 10
15.199996948242187
 20
3.5000152587890625
 30
0.0
 40
0.300000011920929
100
AcDbArc
 50
270.00001798608935
 51
0.0
  0
CIRCLE
  5
6C9
100
AcDbEntity
  8
0
  6
CONTINUOUS
 62
               7
100
AcDbCircle
 10
13.499992370605469
 20
7.5000152587890625
 30
0.0
 40
2.25
  0
ARC
  5
6CA
100
AcDbEntity
  8
0
  6
CONTINUOUS
 62
               7
100
AcDbCircle
 10
13.499992370605469
 20
7.5000152587890625
 30
0.0
 40
2.6999998092651367
100
AcDbArc
 50
89.999982013910653
 51
179.99996402782131
  0
ARC
  5
6CB
100
AcDbEntity
  8
0
  6
CONTINUOUS
 62
               7
100
AcDbCircle
 10
15.199996948242187
 20
39.500015258789063
 30
0.0
 40
0.300000011920929
100
AcDbArc
 50
0.0
 51
89.999982013910653
  0
ARC
  5
6CC
100
AcDbEntity
  8
0
  6
CONTINUOUS
 62
               7
100
AcDbCircle
 10
13.499977111816406
 20
42.500015258789063
 30
0.0
 40
2.6999998092651367
100
AcDbArc
 50
89.999982013910653
 51
270.00000068324533
  0
ARC
  5
6CD
100
AcDbEntity
  8
0
  6
CONTINUOUS
 62
               7
100
AcDbCircle
 10
15.199996948242187
 20
45.5
 30
0.0
 40
0.300000011920929
100
AcDbArc
 50
270.00001798608935
 51
0.0
  0
ARC
  5
6CE
100
AcDbEntity
  8
0
  6
CONTINUOUS
 62
               7
100
AcDbCircle
 10
15.199996948242187
 20
48.500015258789063
 30
0.0
 40
0.300000011920929
100
AcDbArc
 50
0.0
 51
89.999982013910653
  0
ARC
  5
6CF
100
AcDbEntity
  8
0
  6
CONTINUOUS
 62
               7
100
AcDbCircle
 10
2.5
 20
44.500015258789063
 30
0.0
 40
2.6999998092651367
100
AcDbArc
 50
270.00001798608935
 51
0.0
  0
CIRCLE
  5
6D0
100
AcDbEntity
  8
0
  6
CONTINUOUS
 62
               7
100
AcDbCircle
 10
2.5
 20
44.5
 30
0.0
 40
2.25
  0
ARC
  5
6D1
100
AcDbEntity
  8
0
  6
CONTINUOUS
 62
               7
100
AcDbCircle
 10
0.79998779296875
 20
48.500022888183594
 30
0.0
 40
0.300000011920929
100
AcDbArc
 50
89.999982013910653
 51
179.99996402782131
  0
LINE
  5
6D2
100
AcDbEntity
  8
0
  6
CONTINUOUS
 62
               2
100
AcDbLine
 10
7.9999923706054687
 20
1.5802459716796875
 30
0.0
 11
7.9999923706054687
 21
49.746908187866211
 31
0.0
  0
LINE
  5
6D3
100
AcDbEntity
  8
0
  6
CONTINUOUS
 62
               7
100
AcDbLine
 10
2.4999847412109375
 20
12.20001220703125
 30
0.0
 11
0.79998779296875
 21
12.20001220703125
 31
0.0
  0
LINE
  5
6D4
100
AcDbEntity
  8
0
  6
CONTINUOUS
 62
               7
100
AcDbLine
 10
2.4999847412109375
 20
6.800018310546875
 30
0.0
 11
0.79998779296875
 21
6.800018310546875
 31
0.0
  0
LINE
  5
6D5
100
AcDbEntity
  8
0
  6
CONTINUOUS
 62
               7
100
AcDbLine
 10
0.4999923706054688
 20
3.5000152587890625
 30
0.0
 11
0.4999923706054688
 21
6.5000152587890625
 31
0.0
  0
LINE
  5
6D6
100
AcDbEntity
  8
0
  6
CONTINUOUS
 62
               7
100
AcDbLine
 10
10.79998779296875
 20
5.20001220703125
 30
0.0
 11
0.4999847412109375
 21
5.20001220703125
 31
0.0
  0
LINE
  5
6D7
100
AcDbEntity
  8
0
  6
CONTINUOUS
 62
               7
100
AcDbLine
 10
10.799995422363281
 20
7.5000152587890625
 30
0.0
 11
10.799995422363281
 21
3.20001220703125
 31
0.0
  0
LINE
  5
6D8
100
AcDbEntity
  8
0
  6
CONTINUOUS
 62
               7
100
AcDbLine
 10
15.199996948242187
 20
3.20001220703125
 30
0.0
 11
0.79998779296875
 21
3.20001220703125
 31
0.0
  0
LINE
  5
6D9
100
AcDbEntity
  8
0
  6
CONTINUOUS
 62
               7
100
AcDbLine
 10
15.499992370605469
 20
3.5000152587890625
 30
0.0
 11
15.499992370605469
 21
6.46923828125
 31
0.0
  0
LINE
  5
6DA
100
AcDbEntity
  8
0
  6
CONTINUOUS
 62
               7
100
AcDbLine
 10
12.580758756857904
 20
6.5807501091894665
 30
0.0
 11
14.419230037694433
 21
8.4192212350544651
 31
0.0
  0
LINE
  5
6DB
100
AcDbEntity
  8
0
  6
CONTINUOUS
 62
               7
100
AcDbLine
 10
14.419248343046092
 20
6.5807813957653707
 30
0.0
 11
12.5807665825605
 21
8.4192636211682839
 31
0.0
  0
LINE
  5
6DC
100
AcDbEntity
  8
0
  6
CONTINUOUS
 62
               7
100
AcDbLine
 10
13.499984741210937
 20
10.20001220703125
 30
0.0
 11
15.499984741210938
 21
10.20001220703125
 31
0.0
  0
LINE
  5
6DD
100
AcDbEntity
  8
0
  6
CONTINUOUS
 62
               7
100
AcDbLine
 10
15.499992370605469
 20
8.530792236328125
 30
0.0
 11
15.499992370605469
 21
39.500015258789063
 31
0.0
  0
LINE
  5
6DE
100
AcDbEntity
  8
0
  6
CONTINUOUS
 62
               7
100
AcDbLine
 10
13.499977111816406
 20
39.800018310546875
 30
0.0
 11
15.199996948242187
 21
39.800018310546875
 31
0.0
  0
LINE
  5
6DF
100
AcDbEntity
  8
0
  6
CONTINUOUS
 62
               7
100
AcDbLine
 10
13.499984741210937
 20
45.20001220703125
 30
0.0
 11
15.199996948242187
 21
45.20001220703125
 31
0.0
  0
LINE
  5
6E0
100
AcDbEntity
  8
0
  6
CONTINUOUS
 62
               7
100
AcDbLine
 10
15.499992370605469
 20
45.5
 30
0.0
 11
15.499992370605469
 21
48.500015258789063
 31
0.0
  0
LINE
  5
6E1
100
AcDbEntity
  8
0
  6
CONTINUOUS
 62
               7
100
AcDbLine
 10
2.4999771118164062
 20
41.800018310546875
 30
0.0
 11
0.4999771118164063
 21
41.800018310546875
 31
0.0
  0
LINE
  5
6E2
100
AcDbEntity
  8
0
  6
CONTINUOUS
 62
               7
100
AcDbLine
 10
15.499984741210938
 20
46.800003051757813
 30
0.0
 11
5.1999969482421875
 21
46.800003051757813
 31
0.0
  0
LINE
  5
6E3
100
AcDbEntity
  8
0
  6
CONTINUOUS
 62
               7
100
AcDbLine
 10
5.2000045776367188
 20
48.800003051757813
 30
0.0
 11
5.2000045776367188
 21
44.5
 31
0.0
  0
LINE
  5
6E4
100
AcDbEntity
  8
0
  6
CONTINUOUS
 62
               7
100
AcDbLine
 10
15.199996948242187
 20
48.800003051757813
 30
0.0
 11
0.79998779296875
 21
48.800003051757813
 31
0.0
  0
LINE
  5
6E5
100
AcDbEntity
  8
0
  6
CONTINUOUS
 62
               7
100
AcDbLine
 10
3.4192544750442266
 20
43.580788666484722
 30
0.0
 11
1.5807754119566653
 21
45.419268194488922
 31
0.0
  0
LINE
  5
6E6
100
AcDbEntity
  8
0
  6
CONTINUOUS
 62
               7
100
AcDbLine
 10
1.5807641273660238
 20
43.580764669283241
 30
0.0
 11
3.4192354082025531
 21
45.419235795148239
 31
0.0
  0
LINE
  5
6E7
100
AcDbEntity
  8
0
  6
CONTINUOUS
 62
               7
100
AcDbLine
 10
0.4999923706054688
 20
12.500015258789063
 30
0.0
 11
0.4999923706054688
 21
43.469245910644531
 31
0.0
  0
LINE
  5
6E8
100
AcDbEntity
  8
0
  6
CONTINUOUS
 62
               7
100
AcDbLine
 10
0.4999923706054688
 20
45.53076171875
 30
0.0
 11
0.4999923706054688
 21
48.500022888183594
 31
0.0
  0
ENDBLK
  5
6E9
100
AcDbEntity
  8
0
100
AcDbBlockEnd
  0
ENDSEC
  0
SECTION
  2
ENTITIES
  0
INSERT
  5
6EA
100
AcDbEntity
  8
0
  6
ByBlock
100
AcDbBlockReference
  2
F15MP-1
 10
-243.54226684570312
 20
143.95845031738281
 30
0.0
  0
INSERT
  5
6EB
100
AcDbEntity
  8
0
  6
ByBlock
100
AcDbBlockReference
  2
F15MP-11
 10
-349.792236328125
 20
143.95845031738281
 30
0.0
  0
INSERT
  5
6EC
100
AcDbEntity
  8
0
  6
ByBlock
100
AcDbBlockReference
  2
F15MP-12
 10
-243.54226684570312
 20
28.358428955078125
 30
0.0
  0
INSERT
  5
6ED
100
AcDbEntity
  8
0
  6
ByBlock
100
AcDbBlockReference
  2
F15MP-13
 10
247.65400695800781
 20
170.51690673828125
 30
0.0
  0
INSERT
  5
6EE
100
AcDbEntity
  8
0
  6
ByBlock
100
AcDbBlockReference
  2
F15MP-14
 10
112.17901611328125
 20
170.51695251464844
 30
0.0
  0
INSERT
  5
6EF
100
AcDbEntity
  8
0
  6
ByBlock
100
AcDbBlockReference
  2
F15MP-15
 10
247.65400695800781
 20
33.507415771484375
 30
0.0
  0
INSERT
  5
6F0
100
AcDbEntity
  8
0
  6
ByBlock
100
AcDbBlockReference
  2
F15MP-2
 10
-50.58349609375
 20
-89.483078002929687
 30
0.0
  0
INSERT
  5
6F1
100
AcDbEntity
  8
0
  6
ByBlock
100
AcDbBlockReference
  2
F15MP-3
 10
-180.58348083496094
 20
-89.483062744140625
 30
0.0
  0
INSERT
  5
6F2
100
AcDbEntity
  8
0
  6
ByBlock
100
AcDbBlockReference
  2
F15MP-4
 10
-50.583480834960937
 20
-262.0830078125
 30
0.0
  0
INSERT
  5
6F3
100
AcDbEntity
  8
0
  6
ByBlock
100
AcDbBlockReference
  2
F15MP-8
 10
339.65380859375
 20
-89.483078002929687
 30
0.0
  0
INSERT
  5
6F4
100
AcDbEntity
  8
0
  6
ByBlock
100
AcDbBlockReference
  2
F15MP-9
 10
221.94149780273437
 20
-89.483062744140625
 30
0.0
  0
INSERT
  5
6F5
100
AcDbEntity
  8
0
  6
ByBlock
100
AcDbBlockReference
  2
F15MP-10
 10
339.65380859375
 20
-235.08308410644531
 30
0.0
  0
INSERT
  5
6F6
100
AcDbEntity
  8
0
  6
ByBlock
100
AcDbBlockReference
  2
F15MP-5
 10
152.39149475097656
 20
-89.483078002929687
 30
0.0
  0
INSERT
  5
6F7
100
AcDbEntity
  8
0
  6
ByBlock
100
AcDbBlockReference
  2
F15MP-6
 10
15.180769130646233
 20
-89.480000000000004
 30
0.0
  0
INSERT
  5
6F8
100
AcDbEntity
  8
0
  6
ByBlock
100
AcDbBlockReference
  2
F15MP-7
 10
151.89149475097656
 20
-262.08300810644533
 30
0.0
  0
INSERT
  5
6F9
100
AcDbEntity
  8
0
  6
ByBlock
100
AcDbBlockReference
  2
F15MP-16
 10
-246.34599304199219
 20
-89.480000002929685
 30
0.0
  0
INSERT
  5
6FA
100
AcDbEntity
  8
0
  6
ByBlock
100
AcDbBlockReference
  2
F15MP-17
 10
-392.33999999999997
 20
-89.480000000000004
 30
0.0
  0
INSERT
  5
6FB
100
AcDbEntity
  8
0
  6
ByBlock
100
AcDbBlockReference
  2
F15MP-18
 10
-246.34597778320312
 20
-262.0830078125
 30
0.0
  0
LINE
  5
6FC
100
AcDbEntity
  8
0
  6
CONTINUOUS
 62
               7
100
AcDbLine
 10
399.80000000000001
 20
276.25
 30
0.0
 11
399.80000000000001
 21
-276.75
 31
0.0
  0
LINE
  5
6FD
100
AcDbEntity
  8
0
  6
CONTINUOUS
 62
               7
100
AcDbLine
 10
-399.25
 20
276.25
 30
0.0
 11
-399.25
 21
-276.75
 31
0.0
  0
LINE
  5
6FE
100
AcDbEntity
  8
0
  6
CONTINUOUS
 62
               7
100
AcDbLine
 10
-399.25
 20
276.25
 30
0.0
 11
399.80000000000001
 21
276.25
 31
0.0
  0
LINE
  5
6FF
100
AcDbEntity
  8
0
  6
CONTINUOUS
 62
               7
100
AcDbLine
 10
-399.25
 20
-276.75
 30
0.0
 11
399.80000000000001
 21
-276.75
 31
0.0
  0
LINE
  5
700
100
AcDbEntity
  8
0
  6
CONTINUOUS
 62
               7
100
AcDbLine
 10
239.80000000000001
 20
-251.75
 30
0.0
 11
399.80000000000001
 21
-251.75
 31
0.0
  0
LINE
  5
701
100
AcDbEntity
  8
0
  6
CONTINUOUS
 62
               7
100
AcDbLine
 10
239.80000000000001
 20
251.25
 30
0.0
 11
399.80000000000001
 21
251.25
 31
0.0
  0
LINE
  5
702
100
AcDbEntity
  8
0
  6
CONTINUOUS
 62
               7
100
AcDbLine
 10
-399.25
 20
251.25
 30
0.0
 11
-239.25
 21
251.25
 31
0.0
  0
LINE
  5
703
100
AcDbEntity
  8
0
  6
CONTINUOUS
 62
               7
100
AcDbLine
 10
239.80000000000001
 20
-251.75
 30
0.0
 11
239.80000000000001
 21
-276.75
 31
0.0
  0
LINE
  5
704
100
AcDbEntity
  8
0
  6
CONTINUOUS
 62
               7
100
AcDbLine
 10
239.80000000000001
 20
251.25
 30
0.0
 11
239.80000000000001
 21
276.25
 31
0.0
  0
LINE
  5
705
100
AcDbEntity
  8
0
  6
CONTINUOUS
 62
               7
100
AcDbLine
 10
-239.25
 20
276.25
 30
0.0
 11
-239.25
 21
251.25
 31
0.0
  0
LINE
  5
706
100
AcDbEntity
  8
0
  6
CONTINUOUS
 62
               7
100
AcDbLine
 10
-399.25
 20
-0.25
 30
0.0
 11
399.80000000000001
 21
-0.25
 31
0.0
  0
LINE
  5
708
100
AcDbEntity
  8
0
  6
DASHED
 62
               2
100
AcDbLine
 10
115.18000000000001
 20
230.91
 30
0.0
 11
161.18000000000001
 21
230.91
 31
0.0
  0
LINE
  5
709
100
AcDbEntity
  8
0
  6
DASHED
 62
               2
100
AcDbLine
 10
115.18000000000001
 20
190.00999999999999
 30
0.0
 11
115.18000000000001
 21
230.91
 31
0.0
  0
LINE
  5
70A
100
AcDbEntity
  8
0
  6
DASHED
 62
               2
100
AcDbLine
 10
115.68000000000001
 20
190.00999999999999
 30
0.0
 11
115.18000000000001
 21
190.00999999999999
 31
0.0
  0
LINE
  5
70B
100
AcDbEntity
  8
0
  6
DASHED
 62
               2
100
AcDbLine
 10
115.68000000000001
 20
189.75999999999999
 30
0.0
 11
115.68000000000001
 21
190.00999999999999
 31
0.0
  0
LINE
  5
70C
100
AcDbEntity
  8
0
  6
DASHED
 62
               2
100
AcDbLine
 10
115.87
 20
188.00999999999999
 30
0.0
 11
115.87
 21
189.00999999999999
 31
0.0
  0
LINE
  5
70D
100
AcDbEntity
  8
0
  6
DASHED
 62
               2
100
AcDbLine
 10
118.68000000000001
 20
186.50999999999999
 30
0.0
 11
117.38
 21
186.50999999999999
 31
0.0
  0
LINE
  5
70E
100
AcDbEntity
  8
0
  6
DASHED
 62
               2
100
AcDbLine
 10
118.68000000000001
 20
185.00999999999999
 30
0.0
 11
118.68000000000001
 21
186.50999999999999
 31
0.0
  0
LINE
  5
70F
100
AcDbEntity
  8
0
  6
DASHED
 62
               2
100
AcDbLine
 10
112.18000000000001
 20
185.00999999999999
 30
0.0
 11
118.68000000000001
 21
185.00999999999999
 31
0.0
  0
LINE
  5
710
100
AcDbEntity
  8
0
  6
DASHED
 62
               2
100
AcDbLine
 10
112.18000000000001
 20
156.00999999999999
 30
0.0
 11
112.18000000000001
 21
185.00999999999999
 31
0.0
  0
LINE
  5
711
100
AcDbEntity
  8
0
  6
DASHED
 62
               2
100
AcDbLine
 10
112.18000000000001
 20
156.00999999999999
 30
0.0
 11
118.68000000000001
 21
156.00999999999999
 31
0.0
  0
LINE
  5
712
100
AcDbEntity
  8
0
  6
DASHED
 62
               2
100
AcDbLine
 10
118.68000000000001
 20
154.50999999999999
 30
0.0
 11
118.68000000000001
 21
156.00999999999999
 31
0.0
  0
LINE
  5
713
100
AcDbEntity
  8
0
  6
DASHED
 62
               2
100
AcDbLine
 10
118.68000000000001
 20
154.50999999999999
 30
0.0
 11
117.38
 21
154.50999999999999
 31
0.0
  0
LINE
  5
714
100
AcDbEntity
  8
0
  6
DASHED
 62
               2
100
AcDbLine
 10
115.87
 20
152.00999999999999
 30
0.0
 11
115.87
 21
153.00999999999999
 31
0.0
  0
LINE
  5
715
100
AcDbEntity
  8
0
  6
DASHED
 62
               2
100
AcDbLine
 10
115.68000000000001
 20
151.00999999999999
 30
0.0
 11
115.18000000000001
 21
151.00999999999999
 31
0.0
  0
LINE
  5
716
100
AcDbEntity
  8
0
  6
DASHED
 62
               2
100
AcDbLine
 10
115.68000000000001
 20
151.00999999999999
 30
0.0
 11
115.68000000000001
 21
151.25999999999999
 31
0.0
  0
LINE
  5
717
100
AcDbEntity
  8
0
  6
DASHED
 62
               2
100
AcDbLine
 10
115.18000000000001
 20
127.41
 30
0.0
 11
115.18000000000001
 21
151.00999999999999
 31
0.0
  0
LINE
  5
718
100
AcDbEntity
  8
0
  6
DASHED
 62
               2
100
AcDbLine
 10
115.17
 20
127.41
 30
0.0
 11
116.67
 21
125.91
 31
0.0
  0
LINE
  5
719
100
AcDbEntity
  8
0
  6
DASHED
 62
               2
100
AcDbLine
 10
116.68000000000001
 20
125.91
 30
0.0
 11
159.66999999999999
 21
125.91
 31
0.0
  0
LINE
  5
71A
100
AcDbEntity
  8
0
  6
DASHED
 62
               2
100
AcDbLine
 10
159.66999999999999
 20
125.91
 30
0.0
 11
161.16999999999999
 21
127.41
 31
0.0
  0
LINE
  5
71B
100
AcDbEntity
  8
0
  6
DASHED
 62
               2
100
AcDbLine
 10
161.18000000000001
 20
127.41
 30
0.0
 11
161.18000000000001
 21
230.91
 31
0.0
  0
LINE
  5
71C
100
AcDbEntity
  8
0
  6
DASHED
 62
               2
100
AcDbLine
 10
224.94
 20
-29.079999999999998
 30
0.0
 11
270.94
 21
-29.079999999999998
 31
0.0
  0
LINE
  5
71D
100
AcDbEntity
  8
0
  6
DASHED
 62
               2
100
AcDbLine
 10
224.94
 20
-69.980000000000004
 30
0.0
 11
224.94
 21
-29.079999999999998
 31
0.0
  0
LINE
  5
71E
100
AcDbEntity
  8
0
  6
DASHED
 62
               2
100
AcDbLine
 10
225.44
 20
-69.980000000000004
 30
0.0
 11
224.94
 21
-69.980000000000004
 31
0.0
  0
LINE
  5
71F
100
AcDbEntity
  8
0
  6
DASHED
 62
               2
100
AcDbLine
 10
225.44
 20
-70.230000000000004
 30
0.0
 11
225.44
 21
-69.980000000000004
 31
0.0
  0
LINE
  5
720
100
AcDbEntity
  8
0
  6
DASHED
 62
               2
100
AcDbLine
 10
225.63999999999999
 20
-71.980000000000004
 30
0.0
 11
225.63999999999999
 21
-70.980000000000004
 31
0.0
  0
LINE
  5
721
100
AcDbEntity
  8
0
  6
DASHED
 62
               2
100
AcDbLine
 10
228.44
 20
-73.480000000000004
 30
0.0
 11
227.13999999999999
 21
-73.480000000000004
 31
0.0
  0
LINE
  5
722
100
AcDbEntity
  8
0
  6
DASHED
 62
               2
100
AcDbLine
 10
228.44
 20
-74.980000000000004
 30
0.0
 11
228.44
 21
-73.480000000000004
 31
0.0
  0
LINE
  5
723
100
AcDbEntity
  8
0
  6
DASHED
 62
               2
100
AcDbLine
 10
221.94
 20
-74.980000000000004
 30
0.0
 11
228.44
 21
-74.980000000000004
 31
0.0
  0
LINE
  5
724
100
AcDbEntity
  8
0
  6
DASHED
 62
               2
100
AcDbLine
 10
221.94
 20
-103.98
 30
0.0
 11
221.94
 21
-74.980000000000004
 31
0.0
  0
LINE
  5
725
100
AcDbEntity
  8
0
  6
DASHED
 62
               2
100
AcDbLine
 10
221.94
 20
-103.98
 30
0.0
 11
228.44
 21
-103.98
 31
0.0
  0
LINE
  5
726
100
AcDbEntity
  8
0
  6
DASHED
 62
               2
100
AcDbLine
 10
228.44
 20
-105.48
 30
0.0
 11
228.44
 21
-103.98
 31
0.0
  0
LINE
  5
727
100
AcDbEntity
  8
0
  6
DASHED
 62
               2
100
AcDbLine
 10
228.44
 20
-105.48
 30
0.0
 11
227.13999999999999
 21
-105.48
 31
0.0
  0
LINE
  5
728
100
AcDbEntity
  8
0
  6
DASHED
 62
               2
100
AcDbLine
 10
225.63999999999999
 20
-107.98
 30
0.0
 11
225.63999999999999
 21
-106.98
 31
0.0
  0
LINE
  5
729
100
AcDbEntity
  8
0
  6
DASHED
 62
               2
100
AcDbLine
 10
225.44
 20
-108.98
 30
0.0
 11
224.94
 21
-108.98
 31
0.0
  0
LINE
  5
72A
100
AcDbEntity
  8
0
  6
DASHED
 62
               2
100
AcDbLine
 10
225.44
 20
-108.98
 30
0.0
 11
225.44
 21
-108.73
 31
0.0
  0
LINE
  5
72B
100
AcDbEntity
  8
0
  6
DASHED
 62
               2
100
AcDbLine
 10
224.94
 20
-132.58000000000001
 30
0.0
 11
224.94
 21
-108.98
 31
0.0
  0
LINE
  5
72C
100
AcDbEntity
  8
0
  6
DASHED
 62
               2
100
AcDbLine
 10
224.94
 20
-132.58000000000001
 30
0.0
 11
226.44
 21
-134.08000000000001
 31
0.0
  0
LINE
  5
72D
100
AcDbEntity
  8
0
  6
DASHED
 62
               2
100
AcDbLine
 10
226.44
 20
-134.08000000000001
 30
0.0
 11
269.44
 21
-134.08000000000001
 31
0.0
  0
LINE
  5
72E
100
AcDbEntity
  8
0
  6
DASHED
 62
               2
100
AcDbLine
 10
269.44
 20
-134.08000000000001
 30
0.0
 11
270.94
 21
-132.58000000000001
 31
0.0
  0
LINE
  5
72F
100
AcDbEntity
  8
0
  6
DASHED
 62
               2
100
AcDbLine
 10
270.94
 20
-132.58000000000001
 30
0.0
 11
270.94
 21
-29.079999999999998
 31
0.0
  0
LINE
  5
730
100
AcDbEntity
  8
0
  6
DASHED
 62
               2
100
AcDbLine
 10
-177.58000000000001
 20
-29.079999999999998
 30
0.0
 11
-131.58000000000001
 21
-29.079999999999998
 31
0.0
  0
LINE
  5
731
100
AcDbEntity
  8
0
  6
DASHED
 62
               2
100
AcDbLine
 10
-177.58000000000001
 20
-69.980000000000004
 30
0.0
 11
-177.58000000000001
 21
-29.079999999999998
 31
0.0
  0
LINE
  5
732
100
AcDbEntity
  8
0
  6
DASHED
 62
               2
100
AcDbLine
 10
-177.08000000000001
 20
-69.980000000000004
 30
0.0
 11
-177.58000000000001
 21
-69.980000000000004
 31
0.0
  0
LINE
  5
733
100
AcDbEntity
  8
0
  6
DASHED
 62
               2
100
AcDbLine
 10
-177.08000000000001
 20
-70.230000000000004
 30
0.0
 11
-177.08000000000001
 21
-69.980000000000004
 31
0.0
  0
LINE
  5
734
100
AcDbEntity
  8
0
  6
DASHED
 62
               2
100
AcDbLine
 10
-176.88
 20
-71.980000000000004
 30
0.0
 11
-176.88
 21
-70.980000000000004
 31
0.0
  0
LINE
  5
735
100
AcDbEntity
  8
0
  6
DASHED
 62
               2
100
AcDbLine
 10
-174.08000000000001
 20
-73.480000000000004
 30
0.0
 11
-175.38
 21
-73.480000000000004
 31
0.0
  0
LINE
  5
736
100
AcDbEntity
  8
0
  6
DASHED
 62
               2
100
AcDbLine
 10
-174.08000000000001
 20
-74.980000000000004
 30
0.0
 11
-174.08000000000001
 21
-73.480000000000004
 31
0.0
  0
LINE
  5
737
100
AcDbEntity
  8
0
  6
DASHED
 62
               2
100
AcDbLine
 10
-180.58000000000001
 20
-74.980000000000004
 30
0.0
 11
-174.08000000000001
 21
-74.980000000000004
 31
0.0
  0
LINE
  5
738
100
AcDbEntity
  8
0
  6
DASHED
 62
               2
100
AcDbLine
 10
-180.58000000000001
 20
-103.98
 30
0.0
 11
-180.58000000000001
 21
-74.980000000000004
 31
0.0
  0
LINE
  5
739
100
AcDbEntity
  8
0
  6
DASHED
 62
               2
100
AcDbLine
 10
-180.58000000000001
 20
-103.98
 30
0.0
 11
-174.08000000000001
 21
-103.98
 31
0.0
  0
LINE
  5
73A
100
AcDbEntity
  8
0
  6
DASHED
 62
               2
100
AcDbLine
 10
-174.08000000000001
 20
-105.48
 30
0.0
 11
-174.08000000000001
 21
-103.98
 31
0.0
  0
LINE
  5
73B
100
AcDbEntity
  8
0
  6
DASHED
 62
               2
100
AcDbLine
 10
-174.08000000000001
 20
-105.48
 30
0.0
 11
-175.38
 21
-105.48
 31
0.0
  0
LINE
  5
73C
100
AcDbEntity
  8
0
  6
DASHED
 62
               2
100
AcDbLine
 10
-176.88
 20
-107.98
 30
0.0
 11
-176.88
 21
-106.98
 31
0.0
  0
LINE
  5
73D
100
AcDbEntity
  8
0
  6
DASHED
 62
               2
100
AcDbLine
 10
-177.08000000000001
 20
-108.98
 30
0.0
 11
-177.58000000000001
 21
-108.98
 31
0.0
  0
LINE
  5
73E
100
AcDbEntity
  8
0
  6
DASHED
 62
               2
100
AcDbLine
 10
-177.08000000000001
 20
-108.98
 30
0.0
 11
-177.08000000000001
 21
-108.73
 31
0.0
  0
LINE
  5
73F
100
AcDbEntity
  8
0
  6
DASHED
 62
               2
100
AcDbLine
 10
-177.58000000000001
 20
-132.58000000000001
 30
0.0
 11
-177.58000000000001
 21
-108.98
 31
0.0
  0
LINE
  5
740
100
AcDbEntity
  8
0
  6
DASHED
 62
               2
100
AcDbLine
 10
-177.58000000000001
 20
-132.58000000000001
 30
0.0
 11
-176.08000000000001
 21
-134.08000000000001
 31
0.0
  0
LINE
  5
741
100
AcDbEntity
  8
0
  6
DASHED
 62
               2
100
AcDbLine
 10
-176.08000000000001
 20
-134.08000000000001
 30
0.0
 11
-133.08000000000001
 21
-134.08000000000001
 31
0.0
  0
LINE
  5
742
100
AcDbEntity
  8
0
  6
DASHED
 62
               2
100
AcDbLine
 10
-133.08000000000001
 20
-134.08000000000001
 30
0.0
 11
-131.58000000000001
 21
-132.58000000000001
 31
0.0
  0
LINE
  5
743
100
AcDbEntity
  8
0
  6
DASHED
 62
               2
100
AcDbLine
 10
-131.58000000000001
 20
-132.58000000000001
 30
0.0
 11
-131.58000000000001
 21
-29.079999999999998
 31
0.0
  0
LINE
  5
744
100
AcDbEntity
  8
0
  6
CONTINUOUS
 62
               7
100
AcDbLine
 10
215.03
 20
-0.25
 30
0.0
 11
215.03
 21
-276.75
 31
0.0
  0
LINE
  5
745
100
AcDbEntity
  8
0
  6
CONTINUOUS
 62
               7
100
AcDbLine
 10
8.2699999999999996
 20
276.25
 30
0.0
 11
8.2699999999999996
 21
-276.75
 31
0.0
  0
LINE
  5
746
100
AcDbEntity
  8
0
  6
CONTINUOUS
 62
               7
100
AcDbLine
 10
-187.47999999999999
 20
-0.25
 30
0.0
 11
-187.47999999999999
 21
-276.75
 31
0.0
  0
ARC
  5
747
100
AcDbEntity
  8
0
  6
DASHED
 62
               2
100
AcDbCircle
 10
117.18125018205106
 20
189.75866671521359
 30
0.0
 40
1.5012507741069279
100
AcDbArc
 50
179.94911469655204
 51
209.91371965972203
  0
ARC
  5
748
100
AcDbEntity
  8
0
  6
DASHED
 62
               2
100
AcDbCircle
 10
117.38299565019507
 20
188.01299565019505
 30
0.0
 40
1.5029986355367724
100
AcDbArc
 50
180.11419719396648
 51
269.88580280603298
  0
ARC
  5
749
100
AcDbEntity
  8
0
  6
DASHED
 62
               2
100
AcDbCircle
 10
117.37104384537376
 20
153.00895615462625
 30
0.0
 40
1.5010442083255224
100
AcDbArc
 50
90.03984422235493
 51
179.96015577764561
  0
ARC
  5
74A
100
AcDbEntity
  8
0
  6
DASHED
 62
               2
100
AcDbCircle
 10
117.18200407326407
 20
151.27855896810644
 30
0.0
 40
1.5021187274643104
100
AcDbArc
 50
150.86037457684469
 51
180.70791847580892
  0
MTEXT
  5
74B
100
AcDbEntity
  8
0
  6
CONTINUOUS
 62
               7
100
AcDbMText
 10
245.88456269755227
 20
-264.25
 30
0.0
 40
12.5
 41
0.0
 71
               4
 72
               1
  1
\W1.121;\A1;KOGANEI CORP.
  0
MTEXT
  5
74C
100
AcDbEntity
  8
0
  6
CONTINUOUS
 62
               7
100
AcDbMText
 10
290.09979829720089
 20
263.75
 30
0.0
 40
9.0
 41
0.0
 71
               4
 72
               1
  1
\W1.200;\A1;Ver.3.0
  0
MTEXT
  5
74D
100
AcDbEntity
  8
0
  6
CONTINUOUS
 62
               7
100
AcDbMText
 10
-362.57090654372104
 20
263.75
 30
0.0
 40
9.0
 41
0.0
 71
               4
 72
               1
  1
\W1.119;\A1;F15 SERIES
  0
MTEXT
  5
74E
100
AcDbEntity
  8
0
  6
CONTINUOUS
 62
               7
100
AcDbMText
 10
-387.11363699564299
 20
236.25
 30
0.0
 40
9.0
 41
0.0
 71
               4
 72
               1
  1
\W1.091;\A1;MODEL:F15Z-E
  0
MTEXT
  5
74F
100
AcDbEntity
  8
0
  6
CONTINUOUS
 62
               7
100
AcDbMText
 10
24.411356900841369
 20
261.25
 30
0.0
 40
9.0
 41
0.0
 71
               4
 72
               1
  1
\W1.091;\A1;MODEL:F15BPP
  0
MTEXT
  5
750
100
AcDbEntity
  8
0
  6
CONTINUOUS
 62
               7
100
AcDbMText
 10
218.16247500831179
 20
-15.25
 30
0.0
 40
9.0
 41
0.0
 71
               4
 72
               1
  1
\W1.083;\A1;MODEL:F15Z-PM
  0
MTEXT
  5
751
100
AcDbEntity
  8
0
  6
CONTINUOUS
 62
               7
100
AcDbMText
 10
24.399993318858659
 20
-15.25
 30
0.0
 40
9.0
 41
0.0
 71
               4
 72
               1
  1
\W1.083;\A1;MODEL:F15Z-PJ
  0
MTEXT
  5
752
100
AcDbEntity
  8
0
  6
CONTINUOUS
 62
               7
100
AcDbMText
 10
-181.32960896788222
 20
-15.25
 30
0.0
 40
9.0
 41
0.0
 71
               4
 72
               1
  1
\W1.105;\A1;MODEL:F15T1-FM
  0
MTEXT
  5
753
100
AcDbEntity
  8
0
  6
CONTINUOUS
 62
               7
100
AcDbMText
 10
-387.09210591612441
 20
-15.25
 30
0.0
 40
9.0
 41
0.0
 71
               4
 72
               1
  1
\W1.105;\A1;MODEL:F15T1-FJ
  0
LINE
  5
754
100
AcDbEntity
  8
0
  6
DASHED
 62
               2
100
AcDbLine
 10
64.170000000000002
 20
-132.58000000000001
 30
0.0
 11
64.170000000000002
 21
-29.079999999999998
 31
0.0
  0
LINE
  5
755
100
AcDbEntity
  8
0
  6
DASHED
 62
               2
100
AcDbLine
 10
62.670000000000002
 20
-134.08000000000001
 30
0.0
 11
64.170000000000002
 21
-132.58000000000001
 31
0.0
  0
LINE
  5
756
100
AcDbEntity
  8
0
  6
DASHED
 62
               2
100
AcDbLine
 10
19.670000000000002
 20
-134.08000000000001
 30
0.0
 11
62.670000000000002
 21
-134.08000000000001
 31
0.0
  0
LINE
  5
757
100
AcDbEntity
  8
0
  6
DASHED
 62
               2
100
AcDbLine
 10
18.170000000000002
 20
-132.58000000000001
 30
0.0
 11
19.670000000000002
 21
-134.08000000000001
 31
0.0
  0
LINE
  5
758
100
AcDbEntity
  8
0
  6
DASHED
 62
               2
100
AcDbLine
 10
18.170000000000002
 20
-132.58000000000001
 30
0.0
 11
18.170000000000002
 21
-108.98
 31
0.0
  0
LINE
  5
759
100
AcDbEntity
  8
0
  6
DASHED
 62
               2
100
AcDbLine
 10
18.670000000000002
 20
-108.98
 30
0.0
 11
18.670000000000002
 21
-108.73
 31
0.0
  0
LINE
  5
75A
100
AcDbEntity
  8
0
  6
DASHED
 62
               2
100
AcDbLine
 10
18.670000000000002
 20
-108.98
 30
0.0
 11
18.170000000000002
 21
-108.98
 31
0.0
  0
LINE
  5
75B
100
AcDbEntity
  8
0
  6
DASHED
 62
               2
100
AcDbLine
 10
18.870000000000001
 20
-107.98
 30
0.0
 11
18.870000000000001
 21
-106.98
 31
0.0
  0
LINE
  5
75C
100
AcDbEntity
  8
0
  6
DASHED
 62
               2
100
AcDbLine
 10
21.670000000000002
 20
-105.48
 30
0.0
 11
20.370000000000001
 21
-105.48
 31
0.0
  0
LINE
  5
75D
100
AcDbEntity
  8
0
  6
DASHED
 62
               2
100
AcDbLine
 10
21.670000000000002
 20
-105.48
 30
0.0
 11
21.670000000000002
 21
-103.98
 31
0.0
  0
LINE
  5
75E
100
AcDbEntity
  8
0
  6
DASHED
 62
               2
100
AcDbLine
 10
15.170000000000002
 20
-103.98
 30
0.0
 11
21.670000000000002
 21
-103.98
 31
0.0
  0
LINE
  5
75F
100
AcDbEntity
  8
0
  6
DASHED
 62
               2
100
AcDbLine
 10
15.170000000000002
 20
-103.98
 30
0.0
 11
15.170000000000002
 21
-74.980000000000004
 31
0.0
  0
LINE
  5
760
100
AcDbEntity
  8
0
  6
DASHED
 62
               2
100
AcDbLine
 10
15.170000000000002
 20
-74.980000000000004
 30
0.0
 11
21.670000000000002
 21
-74.980000000000004
 31
0.0
  0
LINE
  5
761
100
AcDbEntity
  8
0
  6
DASHED
 62
               2
100
AcDbLine
 10
21.670000000000002
 20
-74.980000000000004
 30
0.0
 11
21.670000000000002
 21
-73.480000000000004
 31
0.0
  0
LINE
  5
762
100
AcDbEntity
  8
0
  6
DASHED
 62
               2
100
AcDbLine
 10
21.670000000000002
 20
-73.480000000000004
 30
0.0
 11
20.370000000000001
 21
-73.480000000000004
 31
0.0
  0
LINE
  5
763
100
AcDbEntity
  8
0
  6
DASHED
 62
               2
100
AcDbLine
 10
18.870000000000001
 20
-71.980000000000004
 30
0.0
 11
18.870000000000001
 21
-70.980000000000004
 31
0.0
  0
LINE
  5
764
100
AcDbEntity
  8
0
  6
DASHED
 62
               2
100
AcDbLine
 10
18.670000000000002
 20
-70.230000000000004
 30
0.0
 11
18.670000000000002
 21
-69.980000000000004
 31
0.0
  0
LINE
  5
765
100
AcDbEntity
  8
0
  6
DASHED
 62
               2
100
AcDbLine
 10
18.670000000000002
 20
-69.980000000000004
 30
0.0
 11
18.170000000000002
 21
-69.980000000000004
 31
0.0
  0
LINE
  5
766
100
AcDbEntity
  8
0
  6
DASHED
 62
               2
100
AcDbLine
 10
18.170000000000002
 20
-69.980000000000004
 30
0.0
 11
18.170000000000002
 21
-29.079999999999998
 31
0.0
  0
LINE
  5
767
100
AcDbEntity
  8
0
  6
DASHED
 62
               2
100
AcDbLine
 10
18.170000000000002
 20
-29.079999999999998
 30
0.0
 11
64.170000000000002
 21
-29.079999999999998
 31
0.0
  0
LINE
  5
768
100
AcDbEntity
  8
0
  6
DASHED
 62
               2
100
AcDbLine
 10
-389.33999999999997
 20
-29.079999999999998
 30
0.0
 11
-343.33999999999997
 21
-29.079999999999998
 31
0.0
  0
LINE
  5
769
100
AcDbEntity
  8
0
  6
DASHED
 62
               2
100
AcDbLine
 10
-389.33999999999997
 20
-69.980000000000004
 30
0.0
 11
-389.33999999999997
 21
-29.079999999999998
 31
0.0
  0
LINE
  5
76A
100
AcDbEntity
  8
0
  6
DASHED
 62
               2
100
AcDbLine
 10
-388.83999999999997
 20
-69.980000000000004
 30
0.0
 11
-389.33999999999997
 21
-69.980000000000004
 31
0.0
  0
LINE
  5
76B
100
AcDbEntity
  8
0
  6
DASHED
 62
               2
100
AcDbLine
 10
-388.83999999999997
 20
-70.230000000000004
 30
0.0
 11
-388.83999999999997
 21
-69.980000000000004
 31
0.0
  0
LINE
  5
76C
100
AcDbEntity
  8
0
  6
DASHED
 62
               2
100
AcDbLine
 10
-388.63999999999999
 20
-71.980000000000004
 30
0.0
 11
-388.63999999999999
 21
-70.980000000000004
 31
0.0
  0
LINE
  5
76D
100
AcDbEntity
  8
0
  6
DASHED
 62
               2
100
AcDbLine
 10
-385.83999999999997
 20
-73.480000000000004
 30
0.0
 11
-387.13999999999999
 21
-73.480000000000004
 31
0.0
  0
LINE
  5
76E
100
AcDbEntity
  8
0
  6
DASHED
 62
               2
100
AcDbLine
 10
-385.83999999999997
 20
-74.980000000000004
 30
0.0
 11
-385.83999999999997
 21
-73.480000000000004
 31
0.0
  0
LINE
  5
76F
100
AcDbEntity
  8
0
  6
DASHED
 62
               2
100
AcDbLine
 10
-392.33999999999997
 20
-74.980000000000004
 30
0.0
 11
-385.83999999999997
 21
-74.980000000000004
 31
0.0
  0
LINE
  5
770
100
AcDbEntity
  8
0
  6
DASHED
 62
               2
100
AcDbLine
 10
-392.33999999999997
 20
-103.98
 30
0.0
 11
-392.33999999999997
 21
-74.980000000000004
 31
0.0
  0
LINE
  5
771
100
AcDbEntity
  8
0
  6
DASHED
 62
               2
100
AcDbLine
 10
-392.33999999999997
 20
-103.98
 30
0.0
 11
-385.83999999999997
 21
-103.98
 31
0.0
  0
LINE
  5
772
100
AcDbEntity
  8
0
  6
DASHED
 62
               2
100
AcDbLine
 10
-385.83999999999997
 20
-105.48
 30
0.0
 11
-385.83999999999997
 21
-103.98
 31
0.0
  0
LINE
  5
773
100
AcDbEntity
  8
0
  6
DASHED
 62
               2
100
AcDbLine
 10
-385.83999999999997
 20
-105.48
 30
0.0
 11
-387.13999999999999
 21
-105.48
 31
0.0
  0
LINE
  5
774
100
AcDbEntity
  8
0
  6
DASHED
 62
               2
100
AcDbLine
 10
-388.63999999999999
 20
-107.98
 30
0.0
 11
-388.63999999999999
 21
-106.98
 31
0.0
  0
LINE
  5
775
100
AcDbEntity
  8
0
  6
DASHED
 62
               2
100
AcDbLine
 10
-388.83999999999997
 20
-108.98
 30
0.0
 11
-389.33999999999997
 21
-108.98
 31
0.0
  0
LINE
  5
776
100
AcDbEntity
  8
0
  6
DASHED
 62
               2
100
AcDbLine
 10
-388.83999999999997
 20
-108.98
 30
0.0
 11
-388.83999999999997
 21
-108.73
 31
0.0
  0
LINE
  5
777
100
AcDbEntity
  8
0
  6
DASHED
 62
               2
100
AcDbLine
 10
-389.33999999999997
 20
-132.58000000000001
 30
0.0
 11
-389.33999999999997
 21
-108.98
 31
0.0
  0
LINE
  5
778
100
AcDbEntity
  8
0
  6
DASHED
 62
               2
100
AcDbLine
 10
-389.33999999999997
 20
-132.58000000000001
 30
0.0
 11
-387.83999999999997
 21
-134.08000000000001
 31
0.0
  0
LINE
  5
779
100
AcDbEntity
  8
0
  6
DASHED
 62
               2
100
AcDbLine
 10
-387.83999999999997
 20
-134.08000000000001
 30
0.0
 11
-344.83999999999997
 21
-134.08000000000001
 31
0.0
  0
LINE
  5
77A
100
AcDbEntity
  8
0
  6
DASHED
 62
               2
100
AcDbLine
 10
-344.83999999999997
 20
-134.08000000000001
 30
0.0
 11
-343.33999999999997
 21
-132.58000000000001
 31
0.0
  0
LINE
  5
77B
100
AcDbEntity
  8
0
  6
DASHED
 62
               2
100
AcDbLine
 10
-343.33999999999997
 20
-132.58000000000001
 30
0.0
 11
-343.33999999999997
 21
-29.079999999999998
 31
0.0
  0
ENDSEC
  0
SECTION
  2
OBJECTS
  0
DICTIONARY
  5
19
100
AcDbDictionary
  3
ACAD_GROUP
350
1A
  3
ACAD_MLINESTYLE
350
1B
  0
DICTIONARY
  5
1A
102
{ACAD_REACTORS
330
19
102
}
100
AcDbDictionary
  0
DICTIONARY
  5
1B
102
{ACAD_REACTORS
330
19
102
}
100
AcDbDictionary
  3
STANDARD
350
1C
  0
MLINESTYLE
  5
1C
102
{ACAD_REACTORS
330
1B
102
}
100
AcDbMlineStyle
  2
Standard
 70
               0
  3

 62
               0
 51
90.0
 52
90.0
 71
               2
 49
0.5
 62
             256
  6
ByLayer
 49
-0.5
 62
             256
  6
ByLayer
  0
ENDSEC
  0
EOF
