  0
SECTION
  2
HEADER
  9
$ACADVER
  1
AC1012
  9
$DWGCODEPAGE
  3
dos932
  9
$INSBASE
 10
0.0
 20
0.0
 30
0.0
  9
$EXTMIN
 10
-399.25
 20
-276.75
 30
0.0
  9
$EXTMAX
 10
406.09414987197181
 20
276.25
 30
0.0
  9
$LIMMIN
 10
-399.25
 20
-276.75
  9
$LIMMAX
 10
406.09414987197181
 20
276.25
  9
$ORTHOMODE
 70
               0
  9
$REGENMODE
 70
               1
  9
$FILLMODE
 70
               1
  9
$QTEXTMODE
 70
               0
  9
$MIRRTEXT
 70
               1
  9
$DRAGMODE
 70
               2
  9
$LTSCALE
 40
1.0
  9
$OSMODE
 70
               0
  9
$ATTMODE
 70
               1
  9
$TEXTSIZE
 40
3.2000000476837158
  9
$TRACEWID
 40
0.05
  9
$TEXTSTYLE
  7
MX_NOTE_STANDARD
  9
$CLAYER
  8
0
  9
$CELTYPE
  6
CONTINUOUS
  9
$CECOLOR
 62
             256
  9
$CELTSCALE
 40
1.0
  9
$DELOBJ
 70
               1
  9
$DISPSILH
 70
               0
  9
$DIMSCALE
 40
1.0
  9
$DIMASZ
 40
2.5
  9
$DIMEXO
 40
1.5
  9
$DIMDLI
 40
3.75
  9
$DIMRND
 40
0.0
  9
$DIMDLE
 40
0.0
  9
$DIMEXE
 40
1.5
  9
$DIMTP
 40
0.0
  9
$DIMTM
 40
0.0
  9
$DIMTXT
 40
3.2000000476837158
  9
$DIMCEN
 40
2.5
  9
$DIMTSZ
 40
0.0
  9
$DIMTOL
 70
               0
  9
$DIMLIM
 70
               0
  9
$DIMTIH
 70
               0
  9
$DIMTOH
 70
               0
  9
$DIMSE1
 70
               0
  9
$DIMSE2
 70
               0
  9
$DIMTAD
 70
               1
  9
$DIMZIN
 70
               8
  9
$DIMBLK
  1

  9
$DIMASO
 70
               1
  9
$DIMSHO
 70
               1
  9
$DIMPOST
  1

  9
$DIMAPOST
  1

  9
$DIMALT
 70
               0
  9
$DIMALTD
 70
               4
  9
$DIMALTF
 40
0.03937007874016
  9
$DIMLFAC
 40
1.0
  9
$DIMTOFL
 70
               1
  9
$DIMTVP
 40
0.0
  9
$DIMTIX
 70
               0
  9
$DIMSOXD
 70
               0
  9
$DIMSAH
 70
               0
  9
$DIMBLK1
  1

  9
$DIMBLK2
  1

  9
$DIMSTYLE
  2
MXDIMSTYLE
  9
$DIMCLRD
 70
               0
  9
$DIMCLRE
 70
               0
  9
$DIMCLRT
 70
               0
  9
$DIMTFAC
 40
1.0
  9
$DIMGAP
 40
1.0
  9
$DIMJUST
 70
               0
  9
$DIMSD1
 70
               0
  9
$DIMSD2
 70
               0
  9
$DIMTOLJ
 70
               1
  9
$DIMTZIN
 70
               0
  9
$DIMALTZ
 70
               0
  9
$DIMALTTZ
 70
               0
  9
$DIMFIT
 70
               3
  9
$DIMUPT
 70
               1
  9
$DIMUNIT
 70
               2
  9
$DIMDEC
 70
               4
  9
$DIMTDEC
 70
               4
  9
$DIMALTU
 70
               2
  9
$DIMALTTD
 70
               4
  9
$DIMTXSTY
  7
MX_NOTE_STANDARD
  9
$DIMAUNIT
 70
               0
  9
$LUNITS
 70
               2
  9
$LUPREC
 70
               4
  9
$SKETCHINC
 40
0.1
  9
$FILLETRAD
 40
0.0
  9
$AUNITS
 70
               0
  9
$AUPREC
 70
               0
  9
$MENU
  1
acad
  9
$ELEVATION
 40
0.0
  9
$PELEVATION
 40
0.0
  9
$THICKNESS
 40
0.0
  9
$LIMCHECK
 70
               0
  9
$BLIPMODE
 70
               1
  9
$CHAMFERA
 40
0.0
  9
$CHAMFERB
 40
0.0
  9
$CHAMFERC
 40
0.0
  9
$CHAMFERD
 40
0.0
  9
$SKPOLY
 70
               0
  9
$TDCREATE
 40
2453378.356469907
  9
$TDUPDATE
 40
2453378.356469907
  9
$TDINDWG
 40
0.0000000000
  9
$TDUSRTIMER
 40
0.0000000000
  9
$USRTIMER
 70
               1
  9
$ANGBASE
 50
0.0
  9
$ANGDIR
 70
               0
  9
$PDMODE
 70
               0
  9
$PDSIZE
 40
0.0
  9
$PLINEWID
 40
0.0
  9
$COORDS
 70
               1
  9
$SPLFRAME
 70
               0
  9
$SPLINETYPE
 70
               6
  9
$SPLINESEGS
 70
               8
  9
$ATTDIA
 70
               0
  9
$ATTREQ
 70
               1
  9
$HANDLING
 70
               1
  9
$HANDSEED
  5
867
  9
$SURFTAB1
 70
               6
  9
$SURFTAB2
 70
               6
  9
$SURFTYPE
 70
               6
  9
$SURFU
 70
               6
  9
$SURFV
 70
               6
  9
$UCSNAME
  2

  9
$UCSORG
 10
0.0
 20
0.0
 30
0.0
  9
$UCSXDIR
 10
1.0
 20
0.0
 30
0.0
  9
$UCSYDIR
 10
0.0
 20
1.0
 30
0.0
  9
$PUCSNAME
  2

  9
$PUCSORG
 10
0.0
 20
0.0
 30
0.0
  9
$PUCSXDIR
 10
1.0
 20
0.0
 30
0.0
  9
$PUCSYDIR
 10
0.0
 20
1.0
 30
0.0
  9
$USERI1
 70
               0
  9
$USERI2
 70
               0
  9
$USERI3
 70
               0
  9
$USERI4
 70
               0
  9
$USERI5
 70
               0
  9
$USERR1
 40
0.0
  9
$USERR2
 40
0.0
  9
$USERR3
 40
0.0
  9
$USERR4
 40
0.0
  9
$USERR5
 40
0.0
  9
$WORLDVIEW
 70
               1
  9
$SHADEDGE
 70
               3
  9
$SHADEDIF
 70
              70
  9
$TILEMODE
 70
               1
  9
$MAXACTVP
 70
              16
  9
$PINSBASE
 10
0.0
 20
0.0
 30
0.0
  9
$PLIMCHECK
 70
               0
  9
$PEXTMIN
 10
1.0000000000000000E+20
 20
1.0000000000000000E+20
 30
1.0000000000000000E+20
  9
$PEXTMAX
 10
-1.0000000000000000E+20
 20
-1.0000000000000000E+20
 30
-1.0000000000000000E+20
  9
$PLIMMIN
 10
0.0
 20
0.0
  9
$PLIMMAX
 10
12.0
 20
9.0
  9
$UNITMODE
 70
               0
  9
$VISRETAIN
 70
               0
  9
$PLINEGEN
 70
               1
  9
$PSLTSCALE
 70
               0
  9
$TREEDEPTH
 70
            3020
  9
$PICKSTYLE
 70
               1
  9
$CMLSTYLE
  2
Standard
  9
$CMLJUST
 70
               0
  9
$CMLSCALE
 40
1.0
  9
$SAVEIMAGES
 70
               0
  0
ENDSEC
  0
SECTION
  2
CLASSES
  0
CLASS
  1
LWPOLYLINE
  2
AcDbPolyline
  3
"AutoCAD"
 90
        0
280
               0
281
               1
  0
CLASS
  1
IMAGE
  2
AcDbRasterImage
  3
ISM
 90
      127
280
               0
281
               1
  0
CLASS
  1
OLE2FRAME
  2
AcDbOle2Frame
  3
""
 90
        0
280
               0
281
               1
  0
CLASS
  1
HATCH
  2
AcDbHatch
  3
"ACAD_SEDONA"
 90
        0
280
               0
281
               1
  0
CLASS
  1
DICTIONARYVAR
  2
AcDbDictionaryVar
  3
"AutoCAD"
 90
        0
280
               0
281
               0
  0
CLASS
  1
RASTERVARIABLES
  2
AcDbRasterVariables
  3
ISM
 90
        0
280
               0
281
               0
  0
CLASS
  1
IMAGEDEF
  2
AcDbRasterImageDef
  3
ISM
 90
        0
280
               0
281
               0
  0
CLASS
  1
IMAGEDEF_REACTOR
  2
AcDbRasterImageDefReactor
  3
ISM
 90
        1
280
               0
281
               0
  0
CLASS
  1
IDBUFFER
  2
AcDbIdBuffer
  3
"Acad"
 90
        0
280
               0
281
               0
  0
CLASS
  1
SPATIAL_FILTER
  2
AcDbSpatialFilter
  3
"Acad"
 90
        0
280
               0
281
               0
  0
CLASS
  1
XRECORD
  2
AcDbXrecord
  3
"<Built In>"
 90
        0
280
               0
281
               0
  0
CLASS
  1
SORTENTSTABLE
  2
AcDbSortentsTable
  3
"AutoCAD"
 90
        0
280
               0
281
               0
  0
CLASS
  1
LAYER_INDEX
  2
AcDbLayerIndex
  3
"Acad"
 90
        0
280
               0
281
               0
  0
CLASS
  1
SPATIAL_INDEX
  2
AcDbSpatialIndex
  3
"Acad"
 90
        0
280
               0
281
               0
  0
CLASS
  1
OBJECT_PTR
  2
CAseDLPNTableRecord
  3
"ASE-LPNTableRecord"
 90
        1
280
               0
281
               0
  0
CLASS
  1
LAYOUT
  2
AcDbLayout
  3
"AutoCAD 2000"
 90
        1
280
               0
281
               0
  0
CLASS
  1
PLOTSETTINGS
  2
AcDbPlotSettings
  3
"AutoCAD 2000"
 90
        1
280
               0
281
               0
  0
CLASS
  1
ACDBDICTIONARYWDFLT
  2
AcDbDictionaryWithDefault
  3
"AutoCAD 2000"
 90
        1
280
               0
281
               0
  0
CLASS
  1
ACDBPLACEHOLDER
  2
AcDbPlaceHolder
  3
"AutoCAD 2000"
 90
        1
280
               0
281
               0
  0
ENDSEC
  0
SECTION
  2
TABLES
  0
TABLE
  2
VPORT
  5
7
100
AcDbSymbolTable
 70
               1
  0
VPORT
  5
15
100
AcDbSymbolTableRecord
100
AcDbViewportTableRecord
  2
*ACTIVE
 70
               0
 10
0.0
 20
0.0
 11
1.0
 21
1.0
 12
3.4220749359859042
 22
-0.25
 13
0.0
 23
0.0
 14
1.0
 24
1.0
 15
0.0
 25
0.0
 16
0.0
 26
0.0
 36
1.0
 17
0.0
 27
0.0
 37
0.0
 40
558.52999999999997
 41
1.7320508075688772
 42
50.0
 43
0.0
 44
0.0
 50
0.0
 51
0.0
 71
               0
 72
             100
 73
               1
 74
               1
 75
               0
 76
               0
 77
               0
 78
               0
  0
ENDTAB
  0
TABLE
  2
LTYPE
  5
4
100
AcDbSymbolTable
 70
               5
  0
LTYPE
  5
11
100
AcDbSymbolTableRecord
100
AcDbLinetypeTableRecord
  2
BYBLOCK
 70
              64
  3

 72
              65
 73
               0
 40
0.0
  0
LTYPE
  5
12
100
AcDbSymbolTableRecord
100
AcDbLinetypeTableRecord
  2
BYLAYER
 70
              64
  3

 72
              65
 73
               0
 40
0.0
  0
LTYPE
  5
13
100
AcDbSymbolTableRecord
100
AcDbLinetypeTableRecord
  2
CONTINUOUS
 70
              64
  3
Solid line
 72
              65
 73
               0
 40
0.0
  0
LTYPE
  5
82
100
AcDbSymbolTableRecord
100
AcDbLinetypeTableRecord
  2
CENTER
 70
              64
  3
Center ____ _ ____ _ ____ _ ____ _ ____ _ ____
 72
              65
 73
               4
 40
26.0
 49
20.0
 74
               0
 49
-2.0
 74
               0
 49
2.0
 74
               0
 49
-2.0
 74
               0
  0
LTYPE
  5
53C
100
AcDbSymbolTableRecord
100
AcDbLinetypeTableRecord
  2
DASHED
 70
              64
  3
Dashed __ __ __ __ __ __ __ __ __ __ __ __ __ _
 72
              65
 73
               2
 40
4.0
 49
2.0
 74
               0
 49
-2.0
 74
               0
  0
ENDTAB
  0
TABLE
  2
LAYER
  5
2
100
AcDbSymbolTable
 70
               2
  0
LAYER
  5
14
100
AcDbSymbolTableRecord
100
AcDbLayerTableRecord
  2
0
 70
               0
 62
               7
  6
CONTINUOUS
  0
LAYER
  5
1D
100
AcDbSymbolTableRecord
100
AcDbLayerTableRecord
  2
DEFPOINTS
 70
               0
 62
               7
  6
CONTINUOUS
  0
ENDTAB
  0
TABLE
  2
STYLE
  5
3
100
AcDbSymbolTable
 70
               1
  0
STYLE
  5
17
100
AcDbSymbolTableRecord
100
AcDbTextStyleTableRecord
  2
MX_NOTE_STANDARD
 70
               0
 40
0.0
 41
1.0
 50
0.0
 71
               0
 42
3.2000000476837158
  3
txt.shx
  4
extfont.shx
  0
ENDTAB
  0
TABLE
  2
VIEW
  5
5
100
AcDbSymbolTable
 70
               0
  0
ENDTAB
  0
TABLE
  2
UCS
  5
6
100
AcDbSymbolTable
 70
               0
  0
ENDTAB
  0
TABLE
  2
APPID
  5
8
100
AcDbSymbolTable
 70
               1
  0
APPID
  5
16
100
AcDbSymbolTableRecord
100
AcDbRegAppTableRecord
  2
ACAD
 70
               0
  0
ENDTAB
  0
TABLE
  2
DIMSTYLE
  5
9
100
AcDbSymbolTable
 70
               1
  0
DIMSTYLE
105
18
100
AcDbSymbolTableRecord
100
AcDbDimStyleTableRecord
  2
MXDIMSTYLE
 70
               0
  3

  4

  5

  6

  7

 40
1.0
 41
2.5
 42
1.5
 43
3.75
 44
1.5
 45
0.0
 46
0.0
 47
0.0
 48
0.0
 71
               0
 72
               0
 73
               0
 74
               0
 75
               0
 76
               0
 77
               1
 78
               8
140
3.2000000476837158
141
2.5
142
0.0
143
0.03937007874016
144
1.0
145
0.0
146
1.0
147
1.0
170
               0
171
               4
172
               1
173
               0
174
               0
175
               0
176
               0
177
               0
178
               0
270
               2
271
               4
272
               4
273
               2
274
               4
275
               0
280
               0
281
               0
282
               0
283
               1
284
               0
285
               0
286
               0
287
               3
288
               1
340
17
  0
ENDTAB
  0
TABLE
  2
BLOCK_RECORD
  5
1
100
AcDbSymbolTable
 70
              21
  0
BLOCK_RECORD
  5
A
100
AcDbSymbolTableRecord
100
AcDbBlockTableRecord
  2
*MODEL_SPACE
  0
BLOCK_RECORD
  5
B
100
AcDbSymbolTableRecord
100
AcDbBlockTableRecord
  2
*PAPER_SPACE
  0
BLOCK_RECORD
  5
1E
100
AcDbSymbolTableRecord
100
AcDbBlockTableRecord
  2
F15MPJ-1
  0
BLOCK_RECORD
  5
1F
100
AcDbSymbolTableRecord
100
AcDbBlockTableRecord
  2
F15MPJ-2
  0
BLOCK_RECORD
  5
20
100
AcDbSymbolTableRecord
100
AcDbBlockTableRecord
  2
F15MPJ-3
  0
BLOCK_RECORD
  5
21
100
AcDbSymbolTableRecord
100
AcDbBlockTableRecord
  2
F15MPJ-4
  0
BLOCK_RECORD
  5
22
100
AcDbSymbolTableRecord
100
AcDbBlockTableRecord
  2
F15MPJ-5
  0
BLOCK_RECORD
  5
23
100
AcDbSymbolTableRecord
100
AcDbBlockTableRecord
  2
F15MPJ-6
  0
BLOCK_RECORD
  5
24
100
AcDbSymbolTableRecord
100
AcDbBlockTableRecord
  2
F15MPJ-7
  0
BLOCK_RECORD
  5
25
100
AcDbSymbolTableRecord
100
AcDbBlockTableRecord
  2
F15MPJ-8
  0
BLOCK_RECORD
  5
26
100
AcDbSymbolTableRecord
100
AcDbBlockTableRecord
  2
F15MPJ-9
  0
BLOCK_RECORD
  5
27
100
AcDbSymbolTableRecord
100
AcDbBlockTableRecord
  2
F15MPJ-10
  0
BLOCK_RECORD
  5
28
100
AcDbSymbolTableRecord
100
AcDbBlockTableRecord
  2
F15MPJ-11
  0
BLOCK_RECORD
  5
29
100
AcDbSymbolTableRecord
100
AcDbBlockTableRecord
  2
F15MPJ-12
  0
BLOCK_RECORD
  5
2A
100
AcDbSymbolTableRecord
100
AcDbBlockTableRecord
  2
F15MPJ-13
  0
BLOCK_RECORD
  5
2B
100
AcDbSymbolTableRecord
100
AcDbBlockTableRecord
  2
F15MPJ-14
  0
BLOCK_RECORD
  5
2C
100
AcDbSymbolTableRecord
100
AcDbBlockTableRecord
  2
F15MPJ-15
  0
BLOCK_RECORD
  5
2D
100
AcDbSymbolTableRecord
100
AcDbBlockTableRecord
  2
F15MPJ-16
  0
BLOCK_RECORD
  5
2E
100
AcDbSymbolTableRecord
100
AcDbBlockTableRecord
  2
F15MPJ-17
  0
BLOCK_RECORD
  5
2F
100
AcDbSymbolTableRecord
100
AcDbBlockTableRecord
  2
F15MPJ-18
  0
BLOCK_RECORD
  5
30
100
AcDbSymbolTableRecord
100
AcDbBlockTableRecord
  2
F15MPJ-19
  0
BLOCK_RECORD
  5
31
100
AcDbSymbolTableRecord
100
AcDbBlockTableRecord
  2
F15MPJ-20
  0
BLOCK_RECORD
  5
32
100
AcDbSymbolTableRecord
100
AcDbBlockTableRecord
  2
F15MPJ-21
  0
ENDTAB
  0
ENDSEC
  0
SECTION
  2
BLOCKS
  0
BLOCK
  5
D
100
AcDbEntity
  8
0
100
AcDbBlockBegin
  2
*MODEL_SPACE
 70
               0
 10
0.0
 20
0.0
 30
0.0
  3
*MODEL_SPACE
  1

  0
ENDBLK
  5
E
100
AcDbEntity
  8
0
100
AcDbBlockEnd
  0
BLOCK
  5
F
100
AcDbEntity
 67
               1
  8
0
100
AcDbBlockBegin
  2
*PAPER_SPACE
 70
               0
 10
0.0
 20
0.0
 30
0.0
  3
*PAPER_SPACE
  1

  0
ENDBLK
  5
10
100
AcDbEntity
 67
               1
  8
0
100
AcDbBlockEnd
  0
BLOCK
  5
33
100
AcDbEntity
  8
0
100
AcDbBlockBegin
  2
F15MPJ-1
 70
               0
 10
0.0
 20
0.0
 30
0.0
  3
F15MPJ-1
  1

  0
LINE
  5
34
100
AcDbEntity
  8
0
  6
CONTINUOUS
 62
               7
100
AcDbLine
 10
145.75
 20
-44.600000000000001
 30
0.0
 11
145.75
 21
60.399999999999999
 31
0.0
  0
LINE
  5
35
100
AcDbEntity
  8
0
  6
CONTINUOUS
 62
               7
100
AcDbLine
 10
32.75
 20
-44.600000000000001
 30
0.0
 11
41.75
 21
-44.600000000000001
 31
0.0
  0
LINE
  5
36
100
AcDbEntity
  8
0
  6
CONTINUOUS
 62
               7
100
AcDbLine
 10
32.75
 20
-44.600000000000001
 30
0.0
 11
32.75
 21
60.399999999999999
 31
0.0
  0
LINE
  5
37
100
AcDbEntity
  8
0
  6
CONTINUOUS
 62
               7
100
AcDbLine
 10
32.75
 20
-42.600000000000001
 30
0.0
 11
41.75
 21
-42.600000000000001
 31
0.0
  0
LINE
  5
38
100
AcDbEntity
  8
0
  6
CONTINUOUS
 62
               7
100
AcDbLine
 10
154.75
 20
-44.600000000000001
 30
0.0
 11
154.75
 21
60.399999999999999
 31
0.0
  0
LINE
  5
39
100
AcDbEntity
  8
0
  6
CONTINUOUS
 62
               7
100
AcDbLine
 10
145.75
 20
-44.600000000000001
 30
0.0
 11
154.75
 21
-44.600000000000001
 31
0.0
  0
LINE
  5
3A
100
AcDbEntity
  8
0
  6
CONTINUOUS
 62
               7
100
AcDbLine
 10
145.75
 20
-42.600000000000001
 30
0.0
 11
154.75
 21
-42.600000000000001
 31
0.0
  0
LINE
  5
3B
100
AcDbEntity
  8
0
  6
CONTINUOUS
 62
               7
100
AcDbLine
 10
41.75
 20
-44.600000000000001
 30
0.0
 11
41.75
 21
60.399999999999999
 31
0.0
  0
LINE
  5
3C
100
AcDbEntity
  8
0
  6
CONTINUOUS
 62
               7
100
AcDbLine
 10
154.75
 20
60.399999999999999
 30
0.0
 11
145.75
 21
60.399999999999999
 31
0.0
  0
LINE
  5
3D
100
AcDbEntity
  8
0
  6
CONTINUOUS
 62
               7
100
AcDbLine
 10
24.120000000000001
 20
-23.370000000000001
 30
0.0
 11
27.370000000000001
 21
-26.620000000000001
 31
0.0
  0
LINE
  5
3E
100
AcDbEntity
  8
0
  6
CONTINUOUS
 62
               7
100
AcDbLine
 10
24.120000000000001
 20
-26.620000000000001
 30
0.0
 11
27.370000000000001
 21
-23.370000000000001
 31
0.0
  0
LINE
  5
3F
100
AcDbEntity
  8
0
  6
CONTINUOUS
 62
               7
100
AcDbLine
 10
16.75
 20
-40.600000000000001
 30
0.0
 11
32.75
 21
-42.0
 31
0.0
  0
LINE
  5
40
100
AcDbEntity
  8
0
  6
CONTINUOUS
 62
               7
100
AcDbLine
 10
16.75
 20
40.600000000000001
 30
0.0
 11
16.75
 21
-40.600000000000001
 31
0.0
  0
LINE
  5
41
100
AcDbEntity
  8
0
  6
CONTINUOUS
 62
               7
100
AcDbLine
 10
16.75
 20
40.600000000000001
 30
0.0
 11
32.75
 21
42.0
 31
0.0
  0
LINE
  5
42
100
AcDbEntity
  8
0
  6
CONTINUOUS
 62
               7
100
AcDbLine
 10
24.120000000000001
 20
26.620000000000001
 30
0.0
 11
27.370000000000001
 21
23.370000000000001
 31
0.0
  0
LINE
  5
43
100
AcDbEntity
  8
0
  6
CONTINUOUS
 62
               7
100
AcDbLine
 10
24.120000000000001
 20
23.370000000000001
 30
0.0
 11
27.370000000000001
 21
26.620000000000001
 31
0.0
  0
LINE
  5
44
100
AcDbEntity
  8
0
  6
CONTINUOUS
 62
               7
100
AcDbLine
 10
24.120000000000001
 20
1.6200000000000001
 30
0.0
 11
27.370000000000001
 21
-1.6200000000000001
 31
0.0
  0
LINE
  5
45
100
AcDbEntity
  8
0
  6
CONTINUOUS
 62
               7
100
AcDbLine
 10
24.120000000000001
 20
-1.6200000000000001
 30
0.0
 11
27.370000000000001
 21
1.6200000000000001
 31
0.0
  0
LINE
  5
46
100
AcDbEntity
  8
0
  6
CONTINUOUS
 62
               7
100
AcDbLine
 10
23.25
 20
47.0
 30
0.0
 11
23.25
 21
41.159999999999997
 31
0.0
  0
LINE
  5
47
100
AcDbEntity
  8
0
  6
CONTINUOUS
 62
               7
100
AcDbLine
 10
23.25
 20
47.0
 30
0.0
 11
28.25
 21
47.0
 31
0.0
  0
LINE
  5
48
100
AcDbEntity
  8
0
  6
CONTINUOUS
 62
               7
100
AcDbLine
 10
23.25
 20
45.399999999999999
 30
0.0
 11
28.25
 21
45.399999999999999
 31
0.0
  0
LINE
  5
49
100
AcDbEntity
  8
0
  6
CONTINUOUS
 62
               7
100
AcDbLine
 10
163.37
 20
-23.370000000000001
 30
0.0
 11
160.12
 21
-26.620000000000001
 31
0.0
  0
LINE
  5
4A
100
AcDbEntity
  8
0
  6
CONTINUOUS
 62
               7
100
AcDbLine
 10
163.37
 20
-26.620000000000001
 30
0.0
 11
160.12
 21
-23.370000000000001
 31
0.0
  0
LINE
  5
4B
100
AcDbEntity
  8
0
  6
CONTINUOUS
 62
               7
100
AcDbLine
 10
170.75
 20
-40.600000000000001
 30
0.0
 11
154.75
 21
-42.0
 31
0.0
  0
LINE
  5
4C
100
AcDbEntity
  8
0
  6
CONTINUOUS
 62
               7
100
AcDbLine
 10
170.75
 20
40.600000000000001
 30
0.0
 11
170.75
 21
-40.600000000000001
 31
0.0
  0
LINE
  5
4D
100
AcDbEntity
  8
0
  6
CONTINUOUS
 62
               7
100
AcDbLine
 10
170.75
 20
40.600000000000001
 30
0.0
 11
154.75
 21
42.0
 31
0.0
  0
LINE
  5
4E
100
AcDbEntity
  8
0
  6
CONTINUOUS
 62
               7
100
AcDbLine
 10
163.37
 20
26.620000000000001
 30
0.0
 11
160.12
 21
23.370000000000001
 31
0.0
  0
LINE
  5
4F
100
AcDbEntity
  8
0
  6
CONTINUOUS
 62
               7
100
AcDbLine
 10
163.37
 20
23.370000000000001
 30
0.0
 11
160.12
 21
26.620000000000001
 31
0.0
  0
LINE
  5
50
100
AcDbEntity
  8
0
  6
CONTINUOUS
 62
               7
100
AcDbLine
 10
163.37
 20
1.6200000000000001
 30
0.0
 11
160.12
 21
-1.6200000000000001
 31
0.0
  0
LINE
  5
51
100
AcDbEntity
  8
0
  6
CONTINUOUS
 62
               7
100
AcDbLine
 10
163.37
 20
-1.6200000000000001
 30
0.0
 11
160.12
 21
1.6200000000000001
 31
0.0
  0
LINE
  5
52
100
AcDbEntity
  8
0
  6
CONTINUOUS
 62
               7
100
AcDbLine
 10
159.25
 20
47.0
 30
0.0
 11
159.25
 21
41.600000000000001
 31
0.0
  0
LINE
  5
53
100
AcDbEntity
  8
0
  6
CONTINUOUS
 62
               7
100
AcDbLine
 10
164.25
 20
47.0
 30
0.0
 11
164.25
 21
41.159999999999997
 31
0.0
  0
LINE
  5
54
100
AcDbEntity
  8
0
  6
CONTINUOUS
 62
               7
100
AcDbLine
 10
164.25
 20
47.0
 30
0.0
 11
159.25
 21
47.0
 31
0.0
  0
LINE
  5
55
100
AcDbEntity
  8
0
  6
CONTINUOUS
 62
               7
100
AcDbLine
 10
164.25
 20
45.399999999999999
 30
0.0
 11
159.25
 21
45.399999999999999
 31
0.0
  0
LINE
  5
56
100
AcDbEntity
  8
0
  6
CONTINUOUS
 62
               7
100
AcDbLine
 10
41.75
 20
60.399999999999999
 30
0.0
 11
32.75
 21
60.399999999999999
 31
0.0
  0
LINE
  5
57
100
AcDbEntity
  8
0
  6
CONTINUOUS
 62
               7
100
AcDbLine
 10
-5.25
 20
17.5
 30
0.0
 11
-5.25
 21
-17.5
 31
0.0
  0
LINE
  5
58
100
AcDbEntity
  8
0
  6
CONTINUOUS
 62
               2
100
AcDbLine
 10
-12.539999999999999
 20
0.0
 30
0.0
 11
202.28
 21
0.0
 31
0.0
  0
LINE
  5
59
100
AcDbEntity
  8
0
  6
CONTINUOUS
 62
               7
100
AcDbLine
 10
-5.25
 20
17.5
 30
0.0
 11
16.75
 21
17.5
 31
0.0
  0
LINE
  5
5A
100
AcDbEntity
  8
0
  6
CONTINUOUS
 62
               7
100
AcDbLine
 10
-5.25
 20
-17.5
 30
0.0
 11
16.75
 21
-17.5
 31
0.0
  0
LINE
  5
5B
100
AcDbEntity
  8
0
  6
CONTINUOUS
 62
               7
100
AcDbLine
 10
-5.25
 20
-12.5
 30
0.0
 11
16.75
 21
-12.5
 31
0.0
  0
LINE
  5
5C
100
AcDbEntity
  8
0
  6
CONTINUOUS
 62
               7
100
AcDbLine
 10
-5.25
 20
12.5
 30
0.0
 11
16.75
 21
12.5
 31
0.0
  0
LINE
  5
5D
100
AcDbEntity
  8
0
  6
CONTINUOUS
 62
               7
100
AcDbLine
 10
28.25
 20
47.0
 30
0.0
 11
28.25
 21
41.600000000000001
 31
0.0
  0
LINE
  5
5E
100
AcDbEntity
  8
0
  6
CONTINUOUS
 62
               7
100
AcDbLine
 10
11.25
 20
-2.75
 30
0.0
 11
13.75
 21
-2.75
 31
0.0
  0
LINE
  5
5F
100
AcDbEntity
  8
0
  6
CONTINUOUS
 62
               7
100
AcDbLine
 10
11.25
 20
2.75
 30
0.0
 11
13.75
 21
2.75
 31
0.0
  0
LINE
  5
60
100
AcDbEntity
  8
0
  6
CONTINUOUS
 62
               2
100
AcDbLine
 10
12.5
 20
5.0
 30
0.0
 11
12.5
 21
-5.0
 31
0.0
  0
LINE
  5
61
100
AcDbEntity
  8
0
  6
CONTINUOUS
 62
               7
100
AcDbLine
 10
-1.25
 20
2.75
 30
0.0
 11
1.25
 21
2.75
 31
0.0
  0
LINE
  5
62
100
AcDbEntity
  8
0
  6
CONTINUOUS
 62
               2
100
AcDbLine
 10
0.0
 20
5.0
 30
0.0
 11
0.0
 21
-5.0
 31
0.0
  0
LINE
  5
63
100
AcDbEntity
  8
0
  6
CONTINUOUS
 62
               7
100
AcDbLine
 10
-1.25
 20
-2.75
 30
0.0
 11
1.25
 21
-2.75
 31
0.0
  0
LINE
  5
64
100
AcDbEntity
  8
0
  6
CONTINUOUS
 62
               7
100
AcDbLine
 10
192.75
 20
17.5
 30
0.0
 11
192.75
 21
-17.5
 31
0.0
  0
LINE
  5
65
100
AcDbEntity
  8
0
  6
CONTINUOUS
 62
               7
100
AcDbLine
 10
192.75
 20
17.5
 30
0.0
 11
170.75
 21
17.5
 31
0.0
  0
LINE
  5
66
100
AcDbEntity
  8
0
  6
CONTINUOUS
 62
               7
100
AcDbLine
 10
192.75
 20
-17.5
 30
0.0
 11
170.75
 21
-17.5
 31
0.0
  0
LINE
  5
67
100
AcDbEntity
  8
0
  6
CONTINUOUS
 62
               7
100
AcDbLine
 10
192.75
 20
-12.5
 30
0.0
 11
170.75
 21
-12.5
 31
0.0
  0
LINE
  5
68
100
AcDbEntity
  8
0
  6
CONTINUOUS
 62
               7
100
AcDbLine
 10
192.75
 20
12.5
 30
0.0
 11
170.75
 21
12.5
 31
0.0
  0
LINE
  5
69
100
AcDbEntity
  8
0
  6
CONTINUOUS
 62
               7
100
AcDbLine
 10
176.25
 20
-2.75
 30
0.0
 11
173.75
 21
-2.75
 31
0.0
  0
LINE
  5
6A
100
AcDbEntity
  8
0
  6
CONTINUOUS
 62
               7
100
AcDbLine
 10
176.25
 20
2.75
 30
0.0
 11
173.75
 21
2.75
 31
0.0
  0
LINE
  5
6B
100
AcDbEntity
  8
0
  6
CONTINUOUS
 62
               2
100
AcDbLine
 10
175.0
 20
5.0
 30
0.0
 11
175.0
 21
-5.0
 31
0.0
  0
LINE
  5
6C
100
AcDbEntity
  8
0
  6
CONTINUOUS
 62
               7
100
AcDbLine
 10
188.75
 20
2.75
 30
0.0
 11
186.25
 21
2.75
 31
0.0
  0
LINE
  5
6D
100
AcDbEntity
  8
0
  6
CONTINUOUS
 62
               2
100
AcDbLine
 10
187.5
 20
5.0
 30
0.0
 11
187.5
 21
-5.0
 31
0.0
  0
LINE
  5
6E
100
AcDbEntity
  8
0
  6
CONTINUOUS
 62
               7
100
AcDbLine
 10
188.75
 20
-2.75
 30
0.0
 11
186.25
 21
-2.75
 31
0.0
  0
CIRCLE
  5
6F
100
AcDbEntity
  8
0
  6
CONTINUOUS
 62
               7
100
AcDbCircle
 10
25.75
 20
0.0
 30
0.0
 40
4.0
  0
CIRCLE
  5
70
100
AcDbEntity
  8
0
  6
CONTINUOUS
 62
               7
100
AcDbCircle
 10
25.75
 20
-25.0
 30
0.0
 40
4.0
  0
CIRCLE
  5
71
100
AcDbEntity
  8
0
  6
CONTINUOUS
 62
               7
100
AcDbCircle
 10
25.75
 20
25.0
 30
0.0
 40
4.0
  0
CIRCLE
  5
72
100
AcDbEntity
  8
0
  6
CONTINUOUS
 62
               7
100
AcDbCircle
 10
161.75
 20
0.0
 30
0.0
 40
4.0
  0
CIRCLE
  5
73
100
AcDbEntity
  8
0
  6
CONTINUOUS
 62
               7
100
AcDbCircle
 10
161.75
 20
25.0
 30
0.0
 40
4.0
  0
CIRCLE
  5
74
100
AcDbEntity
  8
0
  6
CONTINUOUS
 62
               7
100
AcDbCircle
 10
161.75
 20
-25.0
 30
0.0
 40
4.0
  0
ARC
  5
75
100
AcDbEntity
  8
0
  6
CONTINUOUS
 62
               7
100
AcDbCircle
 10
13.75
 20
0.0
 30
0.0
 40
2.75
100
AcDbArc
 50
270.0
 51
90.0
  0
ARC
  5
76
100
AcDbEntity
  8
0
  6
CONTINUOUS
 62
               7
100
AcDbCircle
 10
11.25
 20
0.0
 30
0.0
 40
2.75
100
AcDbArc
 50
90.0
 51
270.0
  0
ARC
  5
77
100
AcDbEntity
  8
0
  6
CONTINUOUS
 62
               7
100
AcDbCircle
 10
1.25
 20
0.0
 30
0.0
 40
2.75
100
AcDbArc
 50
270.0
 51
90.0
  0
ARC
  5
78
100
AcDbEntity
  8
0
  6
CONTINUOUS
 62
               7
100
AcDbCircle
 10
-1.25
 20
0.0
 30
0.0
 40
2.75
100
AcDbArc
 50
90.0
 51
270.0
  0
ARC
  5
79
100
AcDbEntity
  8
0
  6
CONTINUOUS
 62
               7
100
AcDbCircle
 10
186.25
 20
0.0
 30
0.0
 40
2.75
100
AcDbArc
 50
90.0
 51
270.0
  0
ARC
  5
7A
100
AcDbEntity
  8
0
  6
CONTINUOUS
 62
               7
100
AcDbCircle
 10
188.75
 20
0.0
 30
0.0
 40
2.75
100
AcDbArc
 50
270.0
 51
90.0
  0
ARC
  5
7B
100
AcDbEntity
  8
0
  6
CONTINUOUS
 62
               7
100
AcDbCircle
 10
173.75
 20
0.0
 30
0.0
 40
2.75
100
AcDbArc
 50
90.0
 51
270.0
  0
ARC
  5
7C
100
AcDbEntity
  8
0
  6
CONTINUOUS
 62
               7
100
AcDbCircle
 10
176.25
 20
0.0
 30
0.0
 40
2.75
100
AcDbArc
 50
270.0
 51
90.0
  0
ENDBLK
  5
7D
100
AcDbEntity
  8
0
100
AcDbBlockEnd
  0
BLOCK
  5
7E
100
AcDbEntity
  8
0
100
AcDbBlockBegin
  2
F15MPJ-2
 70
               0
 10
0.0
 20
0.0
 30
0.0
  3
F15MPJ-2
  1

  0
LINE
  5
7F
100
AcDbEntity
  8
0
  6
CONTINUOUS
 62
               4
100
AcDbLine
 10
13.0
 20
31.886171129390576
 30
0.0
 11
13.0
 21
55.886171129390576
 31
0.0
  0
LINE
  5
80
100
AcDbEntity
  8
0
  6
CONTINUOUS
 62
               4
100
AcDbLine
 10
3.0
 20
31.886171129390576
 30
0.0
 11
3.0
 21
55.886186388179638
 31
0.0
  0
LINE
  5
81
100
AcDbEntity
  8
0
  6
CONTINUOUS
 62
               7
100
AcDbLine
 10
3.0
 20
22.386171129390576
 30
0.0
 11
13.0
 21
22.386171129390576
 31
0.0
  0
LINE
  5
83
100
AcDbEntity
  8
0
  6
CENTER
 62
               2
100
AcDbLine
 10
5.5
 20
28.586168077632763
 30
0.0
 11
10.5
 21
28.586168077632763
 31
0.0
  0
LINE
  5
84
100
AcDbEntity
  8
0
  6
CONTINUOUS
 62
               4
100
AcDbLine
 10
3.0
 20
55.886171129390576
 30
0.0
 11
13.0
 21
55.886171129390576
 31
0.0
  0
LINE
  5
85
100
AcDbEntity
  8
0
  6
CONTINUOUS
 62
               7
100
AcDbLine
 10
3.0
 20
31.886171129390576
 30
0.0
 11
13.0
 21
31.886171129390576
 31
0.0
  0
LINE
  5
86
100
AcDbEntity
  8
0
  6
CONTINUOUS
 62
               7
100
AcDbLine
 10
6.073211669921875
 20
28.286165025874951
 30
0.0
 11
9.926788330078125
 21
28.286165025874951
 31
0.0
  0
LINE
  5
87
100
AcDbEntity
  8
0
  6
CONTINUOUS
 62
               7
100
AcDbLine
 10
6.073211669921875
 20
28.886171129390576
 30
0.0
 11
9.926788330078125
 21
28.886171129390576
 31
0.0
  0
LINE
  5
88
100
AcDbEntity
  8
0
  6
CONTINUOUS
 62
               4
100
AcDbLine
 10
3.04998779296875
 20
55.886186388179638
 30
0.0
 11
3.04998779296875
 21
64.386186388179638
 31
0.0
  0
LINE
  5
89
100
AcDbEntity
  8
0
  6
CONTINUOUS
 62
               4
100
AcDbLine
 10
12.5
 20
64.886171129390576
 30
0.0
 11
3.5
 21
64.886171129390576
 31
0.0
  0
LINE
  5
8A
100
AcDbEntity
  8
0
  6
CONTINUOUS
 62
               2
100
AcDbLine
 10
12.949996948242187
 20
60.386171129390576
 30
0.0
 11
3.04998779296875
 21
60.386171129390576
 31
0.0
  0
LINE
  5
8B
100
AcDbEntity
  8
0
  6
CONTINUOUS
 62
               4
100
AcDbLine
 10
12.949996948242187
 20
55.886171129390576
 30
0.0
 11
12.949996948242187
 21
64.386171129390576
 31
0.0
  0
LINE
  5
8C
100
AcDbEntity
  8
0
  6
CONTINUOUS
 62
               7
100
AcDbLine
 10
13.0
 20
20.386171129390576
 30
0.0
 11
13.0
 21
31.886171129390576
 31
0.0
  0
LINE
  5
8D
100
AcDbEntity
  8
0
  6
CONTINUOUS
 62
               7
100
AcDbLine
 10
3.0
 20
20.386171129390576
 30
0.0
 11
3.0
 21
31.886171129390576
 31
0.0
  0
LINE
  5
8E
100
AcDbEntity
  8
0
  6
CONTINUOUS
 62
               7
100
AcDbLine
 10
13.5
 20
6.5861680776327631
 30
0.0
 11
15.20001220703125
 21
6.5861680776327631
 31
0.0
  0
LINE
  5
8F
100
AcDbEntity
  8
0
  6
CONTINUOUS
 62
               7
100
AcDbLine
 10
2.5
 20
-31.813825818851612
 30
0.0
 11
0.79998779296875
 21
-31.813825818851612
 31
0.0
  0
LINE
  5
90
100
AcDbEntity
  8
0
  6
CONTINUOUS
 62
               7
100
AcDbLine
 10
2.5
 20
-26.413831922367237
 30
0.0
 11
0.79998779296875
 21
-26.413831922367237
 31
0.0
  0
LINE
  5
91
100
AcDbEntity
  8
0
  6
CONTINUOUS
 62
               7
100
AcDbLine
 10
13.499984741210937
 20
1.1861741811483881
 30
0.0
 11
15.20001220703125
 21
1.1861741811483881
 31
0.0
  0
LINE
  5
92
100
AcDbEntity
  8
0
  6
CONTINUOUS
 62
               7
100
AcDbLine
 10
15.20001220703125
 20
10.186158922359326
 30
0.0
 11
0.79998779296875
 21
10.186158922359326
 31
0.0
  0
LINE
  5
93
100
AcDbEntity
  8
0
  6
CONTINUOUS
 62
               7
100
AcDbLine
 10
15.20001220703125
 20
-35.413831922367237
 30
0.0
 11
0.79998779296875
 21
-35.413831922367237
 31
0.0
  0
LINE
  5
94
100
AcDbEntity
  8
0
  6
CONTINUOUS
 62
               7
100
AcDbLine
 10
2.4999847412109375
 20
3.1861741811483881
 30
0.0
 11
0.4999847412109375
 21
3.1861741811483881
 31
0.0
  0
LINE
  5
95
100
AcDbEntity
  8
0
  6
CONTINUOUS
 62
               7
100
AcDbLine
 10
13.5
 20
-28.413831922367237
 30
0.0
 11
15.5
 21
-28.413831922367237
 31
0.0
  0
LINE
  5
96
100
AcDbEntity
  8
0
  6
CONTINUOUS
 62
               7
100
AcDbLine
 10
10.800003051757813
 20
-31.113828870609424
 30
0.0
 11
10.800003051757813
 21
-35.413831922367237
 31
0.0
  0
LINE
  5
97
100
AcDbEntity
  8
0
  6
CONTINUOUS
 62
               7
100
AcDbLine
 10
5.20001220703125
 20
10.186158922359326
 30
0.0
 11
5.20001220703125
 21
5.8861711293905756
 31
0.0
  0
LINE
  5
98
100
AcDbEntity
  8
0
  6
CONTINUOUS
 62
               7
100
AcDbLine
 10
10.79998779296875
 20
-33.413831922367237
 30
0.0
 11
0.5
 21
-33.413831922367237
 31
0.0
  0
LINE
  5
99
100
AcDbEntity
  8
0
  6
CONTINUOUS
 62
               7
100
AcDbLine
 10
15.5
 20
8.1861589223593256
 30
0.0
 11
5.20001220703125
 21
8.1861589223593256
 31
0.0
  0
LINE
  5
9A
100
AcDbEntity
  8
0
  6
CONTINUOUS
 62
               7
100
AcDbLine
 10
1.5
 20
-44.613828870609424
 30
0.0
 11
14.5
 21
-44.613828870609424
 31
0.0
  0
LINE
  5
9B
100
AcDbEntity
  8
0
  6
CONTINUOUS
 62
               7
100
AcDbLine
 10
1.5
 20
-36.613828870609424
 30
0.0
 11
14.5
 21
-36.613828870609424
 31
0.0
  0
LINE
  5
9C
100
AcDbEntity
  8
0
  6
CONTINUOUS
 62
               7
100
AcDbLine
 10
14.5
 20
-44.613828870609424
 30
0.0
 11
14.5
 21
-36.613828870609424
 31
0.0
  0
LINE
  5
9D
100
AcDbEntity
  8
0
  6
CONTINUOUS
 62
               7
100
AcDbLine
 10
1.5
 20
-44.613828870609424
 30
0.0
 11
1.5
 21
-36.613828870609424
 31
0.0
  0
LINE
  5
9E
100
AcDbEntity
  8
0
  6
CONTINUOUS
 62
               7
100
AcDbLine
 10
0.5000244841085078
 20
-35.613757432221675
 30
0.0
 11
1.5000254614042206
 21
-36.613758578104964
 31
0.0
  0
LINE
  5
9F
100
AcDbEntity
  8
0
  6
CONTINUOUS
 62
               7
100
AcDbLine
 10
15.500083566310423
 20
-35.61390975093461
 30
0.0
 11
14.500082420427134
 21
-36.613910728230323
 31
0.0
  0
LINE
  5
A0
100
AcDbEntity
  8
0
  6
CONTINUOUS
 62
               7
100
AcDbLine
 10
14.500038587719246
 20
-44.613746587454145
 30
0.0
 11
15.500039565014958
 21
-45.613747733337433
 31
0.0
  0
LINE
  5
A1
100
AcDbEntity
  8
0
  6
CONTINUOUS
 62
               7
100
AcDbLine
 10
1.5000463662290713
 20
-44.613896545939198
 30
0.0
 11
0.5000452203457826
 21
-45.613897523234911
 31
0.0
  0
LINE
  5
A2
100
AcDbEntity
  8
0
  6
CONTINUOUS
 62
               7
100
AcDbLine
 10
3.4193132252926262
 20
4.9669770982746542
 30
0.0
 11
1.5808314648070336
 21
6.8054593236775673
 31
0.0
  0
LINE
  5
A3
100
AcDbEntity
  8
0
  6
CONTINUOUS
 62
               7
100
AcDbLine
 10
1.5807622311406817
 20
4.9669184752579696
 30
0.0
 11
3.419233511977211
 21
6.8053896011229682
 31
0.0
  0
LINE
  5
A4
100
AcDbEntity
  8
0
  6
CONTINUOUS
 62
               7
100
AcDbLine
 10
12.580768092359904
 20
-32.033096526970141
 30
0.0
 11
14.419250162790377
 21
-30.194614611512108
 31
0.0
  0
LINE
  5
A5
100
AcDbEntity
  8
0
  6
CONTINUOUS
 62
               7
100
AcDbLine
 10
14.419264042729083
 20
-32.033008485446473
 30
0.0
 11
12.580793071835615
 21
-30.194537049638413
 31
0.0
  0
LINE
  5
A6
100
AcDbEntity
  8
0
  6
CONTINUOUS
 62
               7
100
AcDbLine
 10
15.5
 20
-54.113828870609424
 30
0.0
 11
15.5
 21
-46.113844129398487
 31
0.0
  0
LINE
  5
A7
100
AcDbEntity
  8
0
  6
CONTINUOUS
 62
               7
100
AcDbLine
 10
0.9999847412109375
 20
-54.613828870609424
 30
0.0
 11
15.0
 21
-54.613828870609424
 31
0.0
  0
LINE
  5
A8
100
AcDbEntity
  8
0
  6
CONTINUOUS
 62
               7
100
AcDbLine
 10
3.0
 20
20.386171129390576
 30
0.0
 11
13.0
 21
20.386171129390576
 31
0.0
  0
LINE
  5
A9
100
AcDbEntity
  8
0
  6
CONTINUOUS
 62
               7
100
AcDbLine
 10
0.4999847412109375
 20
-45.613828870609424
 30
0.0
 11
15.5
 21
-45.613828870609424
 31
0.0
  0
LINE
  5
AA
100
AcDbEntity
  8
0
  6
CONTINUOUS
 62
               7
100
AcDbLine
 10
0.5
 20
10.386171129390576
 30
0.0
 11
15.5
 21
10.386171129390576
 31
0.0
  0
LINE
  5
AB
100
AcDbEntity
  8
0
  6
CONTINUOUS
 62
               7
100
AcDbLine
 10
0.5
 20
-35.613828870609424
 30
0.0
 11
15.5
 21
-35.613828870609424
 31
0.0
  0
LINE
  5
AC
100
AcDbEntity
  8
0
  6
CONTINUOUS
 62
               7
100
AcDbLine
 10
14.419268468150221
 20
2.9670085661403647
 30
0.0
 11
12.580808286848878
 21
4.8054692123535716
 31
0.0
  0
LINE
  5
AD
100
AcDbEntity
  8
0
  6
CONTINUOUS
 62
               7
100
AcDbLine
 10
12.580780357094227
 20
2.9669313142097309
 30
0.0
 11
14.4192624275247
 21
4.8054132296677636
 31
0.0
  0
LINE
  5
AE
100
AcDbEntity
  8
0
  6
CONTINUOUS
 62
               7
100
AcDbLine
 10
3.4192629441022291
 20
-30.033015676721035
 30
0.0
 11
1.5807919732087612
 21
-28.194544240912975
 31
0.0
  0
LINE
  5
AF
100
AcDbEntity
  8
0
  6
CONTINUOUS
 62
               7
100
AcDbLine
 10
1.580788404334271
 20
-30.033083066289393
 30
0.0
 11
3.4192596851708004
 21
-28.194611940424394
 31
0.0
  0
LINE
  5
B0
100
AcDbEntity
  8
0
  6
CONTINUOUS
 62
               7
100
AcDbLine
 10
0.0
 20
-39.613844129398487
 30
0.0
 11
0.5
 21
-39.613844129398487
 31
0.0
  0
LINE
  5
B1
100
AcDbEntity
  8
0
  6
CONTINUOUS
 62
               7
100
AcDbLine
 10
15.5
 20
-39.613844129398487
 30
0.0
 11
16.0
 21
-39.613844129398487
 31
0.0
  0
LINE
  5
B2
100
AcDbEntity
  8
0
  6
CONTINUOUS
 62
               7
100
AcDbLine
 10
0.0
 20
-39.613844129398487
 30
0.0
 11
0.0
 21
60.386171129390576
 31
0.0
  0
LINE
  5
B3
100
AcDbEntity
  8
0
  6
CONTINUOUS
 62
               7
100
AcDbLine
 10
16.0
 20
-39.613844129398487
 30
0.0
 11
16.0
 21
60.386171129390576
 31
0.0
  0
LINE
  5
B4
100
AcDbEntity
  8
0
  6
CONTINUOUS
 62
               7
100
AcDbLine
 10
12.949996948242187
 20
57.886186388179638
 30
0.0
 11
16.0
 21
57.886186388179638
 31
0.0
  0
LINE
  5
B5
100
AcDbEntity
  8
0
  6
CONTINUOUS
 62
               7
100
AcDbLine
 10
13.0
 20
47.986192491695263
 30
0.0
 11
13.199996948242188
 21
47.986192491695263
 31
0.0
  0
LINE
  5
B6
100
AcDbEntity
  8
0
  6
CONTINUOUS
 62
               7
100
AcDbLine
 10
13.199996948242188
 20
47.986192491695263
 30
0.0
 11
13.199996948242188
 21
60.386171129390576
 31
0.0
  0
LINE
  5
B7
100
AcDbEntity
  8
0
  6
CONTINUOUS
 62
               7
100
AcDbLine
 10
2.8000030517578125
 20
47.986192491695263
 30
0.0
 11
2.8000030517578125
 21
60.386171129390576
 31
0.0
  0
LINE
  5
B8
100
AcDbEntity
  8
0
  6
CONTINUOUS
 62
               7
100
AcDbLine
 10
2.8000030517578125
 20
47.986192491695263
 30
0.0
 11
3.0
 21
47.986192491695263
 31
0.0
  0
LINE
  5
B9
100
AcDbEntity
  8
0
  6
CONTINUOUS
 62
               7
100
AcDbLine
 10
3.0500030517578125
 20
57.886186388179638
 30
0.0
 11
0.0
 21
57.886186388179638
 31
0.0
  0
LINE
  5
BA
100
AcDbEntity
  8
0
  6
CONTINUOUS
 62
               7
100
AcDbLine
 10
0.25
 20
-42.813841077640674
 30
0.0
 11
0.25
 21
-42.613828870609424
 31
0.0
  0
LINE
  5
BB
100
AcDbEntity
  8
0
  6
CONTINUOUS
 62
               7
100
AcDbLine
 10
0.5
 20
-42.613844129398487
 30
0.0
 11
0.25
 21
-42.613844129398487
 31
0.0
  0
LINE
  5
BC
100
AcDbEntity
  8
0
  6
CONTINUOUS
 62
               7
100
AcDbLine
 10
15.5
 20
-46.113844129398487
 30
0.0
 11
0.5
 21
-46.113844129398487
 31
0.0
  0
LINE
  5
BD
100
AcDbEntity
  8
0
  6
CONTINUOUS
 62
               7
100
AcDbLine
 10
2.25
 20
-46.113828870609424
 30
0.0
 11
2.25
 21
-44.613828870609424
 31
0.0
  0
LINE
  5
BE
100
AcDbEntity
  8
0
  6
CONTINUOUS
 62
               7
100
AcDbLine
 10
13.75
 20
-46.113828870609424
 30
0.0
 11
13.75
 21
-44.613828870609424
 31
0.0
  0
LINE
  5
BF
100
AcDbEntity
  8
0
  6
CONTINUOUS
 62
             200
100
AcDbLine
 10
8.0
 20
-72.108228895023487
 30
0.0
 11
8.0
 21
-46.113844129398487
 31
0.0
  0
LINE
  5
C0
100
AcDbEntity
  8
0
  6
CONTINUOUS
 62
               7
100
AcDbLine
 10
15.5
 20
5.3862169057577631
 30
0.0
 11
15.5
 21
18.886201646968701
 31
0.0
  0
LINE
  5
C1
100
AcDbEntity
  8
0
  6
CONTINUOUS
 62
               7
100
AcDbLine
 10
15.5
 20
-30.083036634281299
 30
0.0
 11
15.5
 21
2.3862169057577631
 31
0.0
  0
LINE
  5
C2
100
AcDbEntity
  8
0
  6
CONTINUOUS
 62
               7
100
AcDbLine
 10
0.5
 20
-27.613798353031299
 30
0.0
 11
0.5
 21
4.8554246694296381
 31
0.0
  0
LINE
  5
C3
100
AcDbEntity
  8
0
  6
CONTINUOUS
 62
               7
100
AcDbLine
 10
0.5
 20
-54.113813611820362
 30
0.0
 11
0.5
 21
-46.113844129398487
 31
0.0
  0
LINE
  5
C4
100
AcDbEntity
  8
0
  6
CONTINUOUS
 62
               7
100
AcDbLine
 10
13.499955381917744
 20
20.886184114949017
 30
0.0
 11
15.499978915693418
 21
18.886160243994553
 31
0.0
  0
LINE
  5
C5
100
AcDbEntity
  8
0
  6
CONTINUOUS
 62
               7
100
AcDbLine
 10
13.5
 20
20.886201646968701
 30
0.0
 11
13.0
 21
20.886201646968701
 31
0.0
  0
LINE
  5
C6
100
AcDbEntity
  8
0
  6
CONTINUOUS
 62
               7
100
AcDbLine
 10
2.5
 20
20.886201646968701
 30
0.0
 11
3.0
 21
20.886201646968701
 31
0.0
  0
LINE
  5
C7
100
AcDbEntity
  8
0
  6
CONTINUOUS
 62
               7
100
AcDbLine
 10
2.4999995490143192
 20
20.886196413417863
 30
0.0
 11
0.4999984373607731
 21
18.886193278713407
 31
0.0
  0
LINE
  5
C8
100
AcDbEntity
  8
0
  6
CONTINUOUS
 62
               7
100
AcDbLine
 10
0.5
 20
6.9169481069296381
 30
0.0
 11
0.5
 21
18.886201646968701
 31
0.0
  0
CIRCLE
  5
C9
100
AcDbEntity
  8
0
  6
CONTINUOUS
 62
               7
100
AcDbCircle
 10
8.0
 20
28.586168077632763
 30
0.0
 40
2.0
  0
CIRCLE
  5
CA
100
AcDbEntity
  8
0
  6
CONTINUOUS
 62
               7
100
AcDbCircle
 10
8.0
 20
28.586168077632763
 30
0.0
 40
1.9499998092651367
  0
ARC
  5
CB
100
AcDbEntity
  8
0
  6
CONTINUOUS
 62
               4
100
AcDbCircle
 10
12.449996948242188
 20
64.386171129390576
 30
0.0
 40
0.5
100
AcDbArc
 50
359.99995901886496
 51
89.999982013910653
  0
ARC
  5
CC
100
AcDbEntity
  8
0
  6
CONTINUOUS
 62
               4
100
AcDbCircle
 10
3.5500030517578125
 20
64.386186388179638
 30
0.0
 40
0.5
100
AcDbArc
 50
89.999982013910653
 51
179.99996402782131
  0
ARC
  5
CD
100
AcDbEntity
  8
0
  6
CONTINUOUS
 62
               7
100
AcDbCircle
 10
13.499984741210937
 20
3.8861711293905756
 30
0.0
 40
2.6999998092651367
100
AcDbArc
 50
89.999982013910653
 51
270.00000068324533
  0
ARC
  5
CE
100
AcDbEntity
  8
0
  6
CONTINUOUS
 62
               7
100
AcDbCircle
 10
2.5
 20
-29.113828870609424
 30
0.0
 40
2.6999998092651367
100
AcDbArc
 50
270.00001798608935
 51
89.999982013910653
  0
ARC
  5
CF
100
AcDbEntity
  8
0
  6
CONTINUOUS
 62
               7
100
AcDbCircle
 10
2.5
 20
5.8861863881796381
 30
0.0
 40
2.6999998092651367
100
AcDbArc
 50
270.00001798608935
 51
0.0
  0
ARC
  5
D0
100
AcDbEntity
  8
0
  6
CONTINUOUS
 62
               7
100
AcDbCircle
 10
15.20001220703125
 20
6.8861558706015131
 30
0.0
 40
0.300000011920929
100
AcDbArc
 50
270.00001798608935
 51
0.0
  0
ARC
  5
D1
100
AcDbEntity
  8
0
  6
CONTINUOUS
 62
               7
100
AcDbCircle
 10
0.8000030517578125
 20
-26.113844129398487
 30
0.0
 40
0.300000011920929
100
AcDbArc
 50
179.99996402782131
 51
270.00000068324533
  0
ARC
  5
D2
100
AcDbEntity
  8
0
  6
CONTINUOUS
 62
               7
100
AcDbCircle
 10
15.20001220703125
 20
0.8861711293905756
 30
0.0
 40
0.300000011920929
100
AcDbArc
 50
0.0
 51
89.999982013910653
  0
ARC
  5
D3
100
AcDbEntity
  8
0
  6
CONTINUOUS
 62
               7
100
AcDbCircle
 10
0.8000030517578125
 20
-32.113828870609424
 30
0.0
 40
0.300000011920929
100
AcDbArc
 50
89.999982013910653
 51
179.99996402782131
  0
ARC
  5
D4
100
AcDbEntity
  8
0
  6
CONTINUOUS
 62
               7
100
AcDbCircle
 10
0.79998779296875
 20
9.8861863881796381
 30
0.0
 40
0.300000011920929
100
AcDbArc
 50
89.999982013910653
 51
179.99996402782131
  0
ARC
  5
D5
100
AcDbEntity
  8
0
  6
CONTINUOUS
 62
               7
100
AcDbCircle
 10
15.20001220703125
 20
9.8861711293905756
 30
0.0
 40
0.300000011920929
100
AcDbArc
 50
0.0
 51
89.999982013910653
  0
ARC
  5
D6
100
AcDbEntity
  8
0
  6
CONTINUOUS
 62
               7
100
AcDbCircle
 10
15.20001220703125
 20
-35.113828870609424
 30
0.0
 40
0.300000011920929
100
AcDbArc
 50
270.00001798608935
 51
0.0
  0
ARC
  5
D7
100
AcDbEntity
  8
0
  6
CONTINUOUS
 62
               7
100
AcDbCircle
 10
0.8000030517578125
 20
-35.113828870609424
 30
0.0
 40
0.300000011920929
100
AcDbArc
 50
179.99996402782131
 51
270.00000068324533
  0
ARC
  5
D8
100
AcDbEntity
  8
0
  6
CONTINUOUS
 62
               7
100
AcDbCircle
 10
13.5
 20
-31.113828870609424
 30
0.0
 40
2.6999998092651367
100
AcDbArc
 50
89.999982013910653
 51
179.99996402782131
  0
CIRCLE
  5
D9
100
AcDbEntity
  8
0
  6
CONTINUOUS
 62
               7
100
AcDbCircle
 10
2.5
 20
5.8861711293905756
 30
0.0
 40
2.25
  0
CIRCLE
  5
DA
100
AcDbEntity
  8
0
  6
CONTINUOUS
 62
               7
100
AcDbCircle
 10
13.5
 20
-31.113828870609424
 30
0.0
 40
2.25
  0
ARC
  5
DB
100
AcDbEntity
  8
0
  6
CONTINUOUS
 62
               7
100
AcDbCircle
 10
15.0
 20
-54.113828870609424
 30
0.0
 40
0.5
100
AcDbArc
 50
270.00001798608935
 51
0.00001366037834
  0
ARC
  5
DC
100
AcDbEntity
  8
0
  6
CONTINUOUS
 62
               7
100
AcDbCircle
 10
1.0
 20
-54.113828870609424
 30
0.0
 40
0.5
100
AcDbArc
 50
179.99996402782131
 51
269.99994604173196
  0
CIRCLE
  5
DD
100
AcDbEntity
  8
0
  6
CONTINUOUS
 62
               7
100
AcDbCircle
 10
13.5
 20
3.8861863881796381
 30
0.0
 40
2.25
  0
CIRCLE
  5
DE
100
AcDbEntity
  8
0
  6
CONTINUOUS
 62
               7
100
AcDbCircle
 10
2.5
 20
-29.113813611820362
 30
0.0
 40
2.25
  0
ARC
  5
DF
100
AcDbEntity
  8
0
  6
CONTINUOUS
 62
               7
100
AcDbCircle
 10
1.75
 20
-42.813841077640674
 30
0.0
 40
1.5
100
AcDbArc
 50
179.99996402782131
 51
213.55728447674093
  0
CIRCLE
  5
E0
100
AcDbEntity
  8
0
  6
CONTINUOUS
 62
               7
100
AcDbCircle
 10
13.5
 20
3.8862169057577631
 30
0.0
 40
2.5
  0
CIRCLE
  5
E1
100
AcDbEntity
  8
0
  6
CONTINUOUS
 62
               7
100
AcDbCircle
 10
2.5
 20
-29.113798353031299
 30
0.0
 40
2.5
  0
LINE
  5
E2
100
AcDbEntity
  8
0
  6
CONTINUOUS
 62
               7
100
AcDbLine
 10
16.0
 20
60.386171129390576
 30
0.0
 11
12.949996948242187
 21
60.386171129390576
 31
0.0
  0
LINE
  5
E3
100
AcDbEntity
  8
0
  6
CONTINUOUS
 62
               7
100
AcDbLine
 10
3.04998779296875
 20
60.386171129390576
 30
0.0
 11
0.0
 21
60.386171129390576
 31
0.0
  0
LINE
  5
E4
100
AcDbEntity
  8
0
  6
CONTINUOUS
 62
               7
100
AcDbLine
 10
13.199996948242188
 20
58.886186388179638
 30
0.0
 11
16.0
 21
58.886186388179638
 31
0.0
  0
LINE
  5
E5
100
AcDbEntity
  8
0
  6
CONTINUOUS
 62
               7
100
AcDbLine
 10
2.8000030517578125
 20
58.886186388179638
 30
0.0
 11
0.0
 21
58.886186388179638
 31
0.0
  0
LINE
  5
E6
100
AcDbEntity
  8
0
  6
CONTINUOUS
 62
               4
100
AcDbLine
 10
15.5
 20
-54.813848870609419
 30
0.0
 11
15.5
 21
-54.113828870609424
 31
0.0
  0
LINE
  5
E7
100
AcDbEntity
  8
0
  6
CONTINUOUS
 62
               4
100
AcDbLine
 10
0.5
 20
-54.813848870609419
 30
0.0
 11
0.5
 21
-54.115520324058636
 31
0.0
  0
ARC
  5
E8
100
AcDbEntity
  8
0
  6
CONTINUOUS
 62
               4
100
AcDbCircle
 10
14.599998499999998
 20
-68.31384087060944
 30
0.0
 40
0.3
100
AcDbArc
 50
269.9999999999992
 51
359.99999999999937
  0
ARC
  5
E9
100
AcDbEntity
  8
0
  6
CONTINUOUS
 62
               4
100
AcDbCircle
 10
13.399999600000001
 20
-66.913843870609455
 30
0.0
 40
0.5
100
AcDbArc
 50
179.9999999999998
 51
270.0
  0
ARC
  5
EA
100
AcDbEntity
  8
0
  6
CONTINUOUS
 62
               4
100
AcDbCircle
 10
2.600000399999999
 20
-66.913843870609455
 30
0.0
 40
0.5
100
AcDbArc
 50
269.9999999999992
 51
359.99999999999937
  0
ARC
  5
EB
100
AcDbEntity
  8
0
  6
CONTINUOUS
 62
               4
100
AcDbCircle
 10
1.4000014999999735
 20
-68.31384087060944
 30
0.0
 40
0.3
100
AcDbArc
 50
179.9999999999998
 51
270.0
  0
LINE
  5
EC
100
AcDbEntity
  8
0
  6
CONTINUOUS
 62
               4
100
AcDbLine
 10
14.900000000000006
 20
-68.31384087060944
 30
0.0
 11
14.900000000000006
 21
-67.413843870609455
 31
0.0
  0
LINE
  5
ED
100
AcDbEntity
  8
0
  6
CONTINUOUS
 62
               4
100
AcDbLine
 10
14.599998499999998
 20
-68.613843870609443
 30
0.0
 11
1.4000000000000341
 21
-68.613843870609443
 31
0.0
  0
LINE
  5
EE
100
AcDbEntity
  8
0
  6
CONTINUOUS
 62
               4
100
AcDbLine
 10
1.0999999999999659
 20
-67.413843870609455
 30
0.0
 11
14.900000000000006
 21
-67.413843870609455
 31
0.0
  0
LINE
  5
EF
100
AcDbEntity
  8
0
  6
CONTINUOUS
 62
               4
100
AcDbLine
 10
1.0999999999999659
 20
-68.31384087060944
 30
0.0
 11
1.0999999999999659
 21
-67.413843870609455
 31
0.0
  0
LINE
  5
F0
100
AcDbEntity
  8
0
  6
CONTINUOUS
 62
               4
100
AcDbLine
 10
13.699999999999989
 20
-66.513842870609423
 30
0.0
 11
13.699999999999989
 21
-65.513843870609421
 31
0.0
  0
LINE
  5
F1
100
AcDbEntity
  8
0
  6
CONTINUOUS
 62
               4
100
AcDbLine
 10
13.699999599999984
 20
-66.513842870609423
 30
0.0
 11
13.59999959999999
 21
-66.613842870609446
 31
0.0
  0
LINE
  5
F2
100
AcDbEntity
  8
0
  6
CONTINUOUS
 62
               4
100
AcDbLine
 10
2.3000000000000114
 20
-66.513842870609423
 30
0.0
 11
2.3000000000000114
 21
-65.513843870609421
 31
0.0
  0
LINE
  5
F3
100
AcDbEntity
  8
0
  6
CONTINUOUS
 62
               4
100
AcDbLine
 10
2.3000003999999876
 20
-66.513842870609423
 30
0.0
 11
2.4000004000000104
 21
-66.613842870609446
 31
0.0
  0
LINE
  5
F4
100
AcDbEntity
  8
0
  6
CONTINUOUS
 62
               4
100
AcDbLine
 10
12.900000000000006
 20
-66.913843870609455
 30
0.0
 11
12.900000000000006
 21
-66.613842870609446
 31
0.0
  0
LINE
  5
F5
100
AcDbEntity
  8
0
  6
CONTINUOUS
 62
               4
100
AcDbLine
 10
2.4000004000000104
 20
-66.613842870609446
 30
0.0
 11
13.59999959999999
 21
-66.613842870609446
 31
0.0
  0
LINE
  5
F6
100
AcDbEntity
  8
0
  6
CONTINUOUS
 62
               4
100
AcDbLine
 10
3.0999999999999659
 20
-66.913843870609455
 30
0.0
 11
3.0999999999999659
 21
-66.613842870609446
 31
0.0
  0
LINE
  5
F7
100
AcDbEntity
  8
0
  6
CONTINUOUS
 62
               4
100
AcDbLine
 10
1.649999600000001
 20
-65.513843870609421
 30
0.0
 11
14.349999999999994
 21
-65.513843870609421
 31
0.0
  0
LINE
  5
F8
100
AcDbEntity
  8
0
  6
CONTINUOUS
 62
               4
100
AcDbLine
 10
14.696410399999991
 20
-64.913842870609457
 30
0.0
 11
15.5
 21
-64.449889870609454
 31
0.0
  0
LINE
  5
F9
100
AcDbEntity
  8
0
  6
CONTINUOUS
 62
               4
100
AcDbLine
 10
0.5
 20
-64.449889870609454
 30
0.0
 11
1.3035896000000093
 21
-64.913842870609457
 31
0.0
  0
LINE
  5
FA
100
AcDbEntity
  8
0
  6
CONTINUOUS
 62
               4
100
AcDbLine
 10
0.6999999999999886
 20
-62.913848870609442
 30
0.0
 11
15.299999999999983
 21
-62.913848870609442
 31
0.0
  0
LINE
  5
FB
100
AcDbEntity
  8
0
  6
CONTINUOUS
 62
               4
100
AcDbLine
 10
15.299999999999983
 20
-62.913848870609442
 30
0.0
 11
15.5
 21
-63.113848870609431
 31
0.0
  0
LINE
  5
FC
100
AcDbEntity
  8
0
  6
CONTINUOUS
 62
               4
100
AcDbLine
 10
0.6999999999999886
 20
-62.913848870609442
 30
0.0
 11
0.5
 21
-63.113848870609431
 31
0.0
  0
LINE
  5
FD
100
AcDbEntity
  8
0
  6
CONTINUOUS
 62
               4
100
AcDbLine
 10
1.3035896000000093
 20
-64.913843870609455
 30
0.0
 11
1.6500000000000341
 21
-65.513843870609421
 31
0.0
  0
LINE
  5
FE
100
AcDbEntity
  8
0
  6
CONTINUOUS
 62
               4
100
AcDbLine
 10
14.696410399999991
 20
-64.913843870609455
 30
0.0
 11
14.349999999999994
 21
-65.513843870609421
 31
0.0
  0
LINE
  5
FF
100
AcDbEntity
  8
0
  6
CONTINUOUS
 62
               4
100
AcDbLine
 10
14.799999999999983
 20
-62.913848870609442
 30
0.0
 11
14.799999999999983
 21
-62.113848870609431
 31
0.0
  0
LINE
  5
100
100
AcDbEntity
  8
0
  6
CONTINUOUS
 62
               4
100
AcDbLine
 10
0.5
 20
-64.449889870609454
 30
0.0
 11
0.5
 21
-63.113848870609431
 31
0.0
  0
LINE
  5
101
100
AcDbEntity
  8
0
  6
CONTINUOUS
 62
               4
100
AcDbLine
 10
15.5
 20
-64.449889870609454
 30
0.0
 11
15.5
 21
-63.113848870609431
 31
0.0
  0
LINE
  5
102
100
AcDbEntity
  8
0
  6
CONTINUOUS
 62
               4
100
AcDbLine
 10
15.299999999999983
 20
-55.013848870609408
 30
0.0
 11
15.5
 21
-55.213848870609453
 31
0.0
  0
LINE
  5
103
100
AcDbEntity
  8
0
  6
CONTINUOUS
 62
               4
100
AcDbLine
 10
0.6999999999999886
 20
-55.013848870609408
 30
0.0
 11
0.5
 21
-55.213848870609397
 31
0.0
  0
LINE
  5
104
100
AcDbEntity
  8
0
  6
CONTINUOUS
 62
               4
100
AcDbLine
 10
0.6999999999999886
 20
-55.013848870609408
 30
0.0
 11
15.299999999999983
 21
-55.013848870609408
 31
0.0
  0
LINE
  5
105
100
AcDbEntity
  8
0
  6
CONTINUOUS
 62
               4
100
AcDbLine
 10
0.5
 20
-62.013848870609408
 30
0.0
 11
0.5
 21
-55.213848870609397
 31
0.0
  0
LINE
  5
106
100
AcDbEntity
  8
0
  6
CONTINUOUS
 62
               4
100
AcDbLine
 10
0.5
 20
-62.013848870609408
 30
0.0
 11
0.5999999999999659
 21
-62.113848870609431
 31
0.0
  0
LINE
  5
107
100
AcDbEntity
  8
0
  6
CONTINUOUS
 62
               4
100
AcDbLine
 10
0.5999999999999659
 20
-62.113848870609431
 30
0.0
 11
15.400000000000006
 21
-62.113848870609431
 31
0.0
  0
LINE
  5
108
100
AcDbEntity
  8
0
  6
CONTINUOUS
 62
               4
100
AcDbLine
 10
15.400000000000006
 20
-62.113848870609431
 30
0.0
 11
15.5
 21
-62.013848870609408
 31
0.0
  0
LINE
  5
109
100
AcDbEntity
  8
0
  6
CONTINUOUS
 62
               4
100
AcDbLine
 10
15.5
 20
-62.013848870609408
 30
0.0
 11
15.5
 21
-55.213848870609453
 31
0.0
  0
LINE
  5
10A
100
AcDbEntity
  8
0
  6
CONTINUOUS
 62
               4
100
AcDbLine
 10
0.6999999999999886
 20
-55.013848870609408
 30
0.0
 11
0.5
 21
-54.813848870609419
 31
0.0
  0
LINE
  5
10B
100
AcDbEntity
  8
0
  6
CONTINUOUS
 62
               4
100
AcDbLine
 10
0.5
 20
-54.813848870609419
 30
0.0
 11
15.5
 21
-54.813848870609419
 31
0.0
  0
LINE
  5
10C
100
AcDbEntity
  8
0
  6
CONTINUOUS
 62
               4
100
AcDbLine
 10
15.299999999999983
 20
-55.013848870609408
 30
0.0
 11
15.5
 21
-54.813848870609419
 31
0.0
  0
LINE
  5
10D
100
AcDbEntity
  8
0
  6
CONTINUOUS
 62
               4
100
AcDbLine
 10
0.5
 20
-55.213848870609397
 30
0.0
 11
15.5
 21
-55.213848870609453
 31
0.0
  0
LINE
  5
10E
100
AcDbEntity
  8
0
  6
CONTINUOUS
 62
               4
100
AcDbLine
 10
1.1999999999999886
 20
-62.913848870609442
 30
0.0
 11
1.1999999999999886
 21
-62.113848870609431
 31
0.0
  0
LINE
  5
10F
100
AcDbEntity
  8
0
  6
CONTINUOUS
 62
               4
100
AcDbLine
 10
0.5
 20
-63.113848870609431
 30
0.0
 11
15.5
 21
-63.113848870609431
 31
0.0
  0
LINE
  5
110
100
AcDbEntity
  8
0
  6
CONTINUOUS
 62
               4
100
AcDbLine
 10
2.3000000000000114
 20
-66.513842470609447
 30
0.0
 11
13.699999599999984
 21
-66.513842470609447
 31
0.0
  0
LINE
  5
111
100
AcDbEntity
  8
0
  6
CONTINUOUS
 62
               4
100
AcDbLine
 10
1.3035896000000093
 20
-64.913843870609455
 30
0.0
 11
14.696411266026615
 21
-64.913843870609455
 31
0.0
  0
LINE
  5
112
100
AcDbEntity
  8
0
  6
CONTINUOUS
 62
               4
100
AcDbLine
 10
0.5
 20
-64.449889870609454
 30
0.0
 11
15.5
 21
-64.449889870609454
 31
0.0
  0
LINE
  5
113
100
AcDbEntity
  8
0
  6
CONTINUOUS
 62
               7
100
AcDbLine
 10
0.5
 20
-46.113844129398487
 30
0.0
 11
0.5
 21
-30.613798353031299
 31
0.0
  0
LINE
  5
114
100
AcDbEntity
  8
0
  6
CONTINUOUS
 62
               7
100
AcDbLine
 10
15.5
 20
-46.113844129398487
 30
0.0
 11
15.5
 21
-32.144605848148487
 31
0.0
  0
LINE
  5
115
100
AcDbEntity
  8
0
  6
CONTINUOUS
 62
               2
100
AcDbLine
 10
8.0
 20
-46.113844129398487
 30
0.0
 11
8.0
 21
67.606965807124951
 31
0.0
  0
ENDBLK
  5
116
100
AcDbEntity
  8
0
100
AcDbBlockEnd
  0
BLOCK
  5
117
100
AcDbEntity
  8
0
100
AcDbBlockBegin
  2
F15MPJ-3
 70
               0
 10
0.0
 20
0.0
 30
0.0
  3
F15MPJ-3
  1

  0
LINE
  5
118
100
AcDbEntity
  8
0
  6
CONTINUOUS
 62
               4
100
AcDbLine
 10
74.12405273437497
 20
64.601937169596326
 30
0.0
 11
75.86405273437498
 21
60.686937169596327
 31
0.0
  0
LINE
  5
119
100
AcDbEntity
  8
0
  6
CONTINUOUS
 62
               4
100
AcDbLine
 10
45.994052734374975
 20
64.396937169596342
 30
0.0
 11
45.994052734374975
 21
60.396937169596342
 31
0.0
  0
ARC
  5
11A
100
AcDbEntity
  8
0
  6
CONTINUOUS
 62
               4
100
AcDbCircle
 10
46.492512284356678
 20
64.39847761961461
 30
0.0
 40
0.4984619302958243
100
AcDbArc
 50
89.822932465398097
 51
180.17706753460234
  0
ARC
  5
11B
100
AcDbEntity
  8
0
  6
CONTINUOUS
 62
               4
100
AcDbCircle
 10
73.669740598249462
 20
64.399608281673935
 30
0.0
 40
0.4973293636201366
100
AcDbArc
 50
24.005903588636848
 51
90.079246697133883
  0
LINE
  5
11C
100
AcDbEntity
  8
0
  6
CONTINUOUS
 62
               4
100
AcDbLine
 10
73.669052734374986
 20
64.896937169596342
 30
0.0
 11
46.490971834341678
 21
64.896937169596342
 31
0.0
  0
LINE
  5
11D
100
AcDbEntity
  8
0
  6
CONTINUOUS
 62
               4
100
AcDbLine
 10
50.494052734374975
 20
57.496937169596329
 30
0.0
 11
48.994052734374975
 21
57.496937169596329
 31
0.0
  0
LINE
  5
11E
100
AcDbEntity
  8
0
  6
CONTINUOUS
 62
               4
100
AcDbLine
 10
48.994052734374975
 20
48.896937169596335
 30
0.0
 11
50.394052734374952
 21
48.896937169596335
 31
0.0
  0
LINE
  5
11F
100
AcDbEntity
  8
0
  6
CONTINUOUS
 62
               4
100
AcDbLine
 10
48.994052734374975
 20
57.396937169596335
 30
0.0
 11
50.394052734374952
 21
57.396937169596335
 31
0.0
  0
LINE
  5
120
100
AcDbEntity
  8
0
  6
CONTINUOUS
 62
               7
100
AcDbLine
 10
75.994052734374975
 20
31.896937255859378
 30
0.0
 11
48.994052734374975
 21
31.896937255859378
 31
0.0
  0
LINE
  5
121
100
AcDbEntity
  8
0
  6
CONTINUOUS
 62
               7
100
AcDbLine
 10
75.994052734374975
 20
20.896937255859385
 30
0.0
 11
48.994052734374975
 21
20.896937255859385
 31
0.0
  0
LINE
  5
122
100
AcDbEntity
  8
0
  6
CONTINUOUS
 62
               7
100
AcDbLine
 10
75.994052734374975
 20
18.896937255859385
 30
0.0
 11
48.994052734374975
 21
18.896937255859385
 31
0.0
  0
LINE
  5
123
100
AcDbEntity
  8
0
  6
CONTINUOUS
 62
               7
100
AcDbLine
 10
78.994052734374975
 20
-54.603062744140615
 30
0.0
 11
48.994052734374975
 21
-54.603062744140615
 31
0.0
  0
LINE
  5
124
100
AcDbEntity
  8
0
  6
CONTINUOUS
 62
               7
100
AcDbLine
 10
79.994052734374975
 20
-45.603062744140615
 30
0.0
 11
48.994052734374975
 21
-45.603062744140615
 31
0.0
  0
LINE
  5
125
100
AcDbEntity
  8
0
  6
CONTINUOUS
 62
               7
100
AcDbLine
 10
79.994052734374975
 20
-35.603062744140615
 30
0.0
 11
48.994052734374975
 21
-35.603062744140615
 31
0.0
  0
LINE
  5
126
100
AcDbEntity
  8
0
  6
CONTINUOUS
 62
               7
100
AcDbLine
 10
75.994052734374975
 20
10.396937255859385
 30
0.0
 11
48.994052734374975
 21
10.396937255859385
 31
0.0
  0
LINE
  5
127
100
AcDbEntity
  8
0
  6
CONTINUOUS
 62
               7
100
AcDbLine
 10
48.994052734374975
 20
31.896937255859378
 30
0.0
 11
75.994052734374975
 21
31.896937255859378
 31
0.0
  0
LINE
  5
128
100
AcDbEntity
  8
0
  6
CENTER
 62
               2
100
AcDbLine
 10
77.994052734374975
 20
28.596937255859373
 30
0.0
 11
75.294052734374986
 21
28.596937255859373
 31
0.0
  0
LINE
  5
129
100
AcDbEntity
  8
0
  6
CONTINUOUS
 62
               7
100
AcDbLine
 10
75.994052734374975
 20
20.396937255859385
 30
0.0
 11
75.994052734374975
 21
22.396937255859385
 31
0.0
  0
LINE
  5
12A
100
AcDbEntity
  8
0
  6
CONTINUOUS
 62
               7
100
AcDbLine
 10
76.994052734374975
 20
26.646937255859385
 30
0.0
 11
76.994052734374975
 21
28.296937255859376
 31
0.0
  0
LINE
  5
12B
100
AcDbEntity
  8
0
  6
CONTINUOUS
 62
               7
100
AcDbLine
 10
76.994052734374975
 20
26.646937255859385
 30
0.0
 11
75.994052734374975
 21
26.646937255859385
 31
0.0
  0
LINE
  5
12C
100
AcDbEntity
  8
0
  6
CONTINUOUS
 62
               7
100
AcDbLine
 10
76.994052734374975
 20
30.546937255859376
 30
0.0
 11
75.994052734374975
 21
30.546937255859376
 31
0.0
  0
LINE
  5
12D
100
AcDbEntity
  8
0
  6
CONTINUOUS
 62
               7
100
AcDbLine
 10
76.394052734374952
 20
28.296937255859376
 30
0.0
 11
76.394052734374952
 21
28.896937255859385
 31
0.0
  0
LINE
  5
12E
100
AcDbEntity
  8
0
  6
CONTINUOUS
 62
               7
100
AcDbLine
 10
76.994052734374975
 20
28.296937255859376
 30
0.0
 11
76.394052734374952
 21
28.296937255859376
 31
0.0
  0
LINE
  5
12F
100
AcDbEntity
  8
0
  6
CONTINUOUS
 62
               7
100
AcDbLine
 10
76.994052734374975
 20
28.896937255859385
 30
0.0
 11
76.394052734374952
 21
28.896937255859385
 31
0.0
  0
LINE
  5
130
100
AcDbEntity
  8
0
  6
CONTINUOUS
 62
               7
100
AcDbLine
 10
76.994052734374975
 20
28.896937255859385
 30
0.0
 11
76.994052734374975
 21
30.546937255859376
 31
0.0
  0
LINE
  5
131
100
AcDbEntity
  8
0
  6
CONTINUOUS
 62
               7
100
AcDbLine
 10
75.994052734374975
 20
-35.603062744140615
 30
0.0
 11
75.994052734374975
 21
31.896937255859378
 31
0.0
  0
LINE
  5
132
100
AcDbEntity
  8
0
  6
CONTINUOUS
 62
               7
100
AcDbLine
 10
80.994052734374975
 20
8.0669372558593722
 30
0.0
 11
80.994052734374975
 21
-33.273062744140631
 31
0.0
  0
LINE
  5
133
100
AcDbEntity
  8
0
  6
CONTINUOUS
 62
               7
100
AcDbLine
 10
78.994052734374975
 20
-43.70306274414061
 30
0.0
 11
78.994052734374975
 21
-37.503062744140621
 31
0.0
  0
LINE
  5
134
100
AcDbEntity
  8
0
  6
CONTINUOUS
 62
               7
100
AcDbLine
 10
80.994052734374975
 20
-44.603062744140615
 30
0.0
 11
80.994052734374975
 21
-36.603062744140615
 31
0.0
  0
LINE
  5
135
100
AcDbEntity
  8
0
  6
CONTINUOUS
 62
               7
100
AcDbLine
 10
79.994052734374975
 20
-35.603062744140615
 30
0.0
 11
80.994052734374975
 21
-36.603062744140615
 31
0.0
  0
LINE
  5
136
100
AcDbEntity
  8
0
  6
CONTINUOUS
 62
               7
100
AcDbLine
 10
79.994052734374975
 20
-45.603062744140615
 30
0.0
 11
80.994052734374975
 21
-44.603062744140615
 31
0.0
  0
LINE
  5
137
100
AcDbEntity
  8
0
  6
CONTINUOUS
 62
               7
100
AcDbLine
 10
79.794052734374986
 20
-43.70306274414061
 30
0.0
 11
79.794052734374986
 21
-37.503062744140621
 31
0.0
  0
LINE
  5
138
100
AcDbEntity
  8
0
  6
CONTINUOUS
 62
               7
100
AcDbLine
 10
78.994052734374975
 20
-54.603062744140615
 30
0.0
 11
78.994052734374975
 21
-45.603062744140615
 31
0.0
  0
LINE
  5
139
100
AcDbEntity
  8
0
  6
CONTINUOUS
 62
               7
100
AcDbLine
 10
75.744052734374975
 20
-52.603062744140615
 30
0.0
 11
75.744052734374975
 21
-52.103062744140615
 31
0.0
  0
LINE
  5
13A
100
AcDbEntity
  8
0
  6
CONTINUOUS
 62
               7
100
AcDbLine
 10
70.244052734374975
 20
-52.603062744140615
 30
0.0
 11
70.244052734374975
 21
-52.103062744140615
 31
0.0
  0
LINE
  5
13B
100
AcDbEntity
  8
0
  6
CONTINUOUS
 62
               7
100
AcDbLine
 10
74.244052734374975
 20
-54.103062744140615
 30
0.0
 11
71.744052734374975
 21
-54.103062744140615
 31
0.0
  0
LINE
  5
13C
100
AcDbEntity
  8
0
  6
CONTINUOUS
 62
               7
100
AcDbLine
 10
77.094052734374998
 20
-45.603062744140615
 30
0.0
 11
77.094052734374998
 21
-43.70306274414061
 31
0.0
  0
LINE
  5
13D
100
AcDbEntity
  8
0
  6
CONTINUOUS
 62
               7
100
AcDbLine
 10
79.794052734374986
 20
-37.503062744140621
 30
0.0
 11
77.094052734374998
 21
-37.503062744140621
 31
0.0
  0
LINE
  5
13E
100
AcDbEntity
  8
0
  6
CONTINUOUS
 62
               7
100
AcDbLine
 10
79.794052734374986
 20
-43.70306274414061
 30
0.0
 11
77.094052734374998
 21
-43.70306274414061
 31
0.0
  0
LINE
  5
13F
100
AcDbEntity
  8
0
  6
CONTINUOUS
 62
               7
100
AcDbLine
 10
77.094052734374998
 20
-37.503062744140621
 30
0.0
 11
77.094052734374998
 21
-35.603062744140615
 31
0.0
  0
LINE
  5
140
100
AcDbEntity
  8
0
  6
CONTINUOUS
 62
               7
100
AcDbLine
 10
79.994052734374975
 20
-45.603062744140615
 30
0.0
 11
79.994052734374975
 21
-35.603062744140615
 31
0.0
  0
LINE
  5
141
100
AcDbEntity
  8
0
  6
CONTINUOUS
 62
               7
100
AcDbLine
 10
80.994052734374975
 20
-31.803062744140618
 30
0.0
 11
75.994052734374975
 21
-31.803062744140618
 31
0.0
  0
LINE
  5
142
100
AcDbEntity
  8
0
  6
CONTINUOUS
 62
               7
100
AcDbLine
 10
80.994052734374975
 20
-26.403062744140627
 30
0.0
 11
75.994052734374975
 21
-26.403062744140627
 31
0.0
  0
LINE
  5
143
100
AcDbEntity
  8
0
  6
CONTINUOUS
 62
               7
100
AcDbLine
 10
76.794052734374986
 20
-31.353062744140615
 30
0.0
 11
76.594052734374998
 21
-31.353062744140615
 31
0.0
  0
LINE
  5
144
100
AcDbEntity
  8
0
  6
CONTINUOUS
 62
               7
100
AcDbLine
 10
76.794052734374986
 20
-26.853062744140615
 30
0.0
 11
76.594052734374998
 21
-26.853062744140615
 31
0.0
  0
LINE
  5
145
100
AcDbEntity
  8
0
  6
CONTINUOUS
 62
               7
100
AcDbLine
 10
78.294052734374986
 20
-28.353062744140615
 30
0.0
 11
78.294052734374986
 21
-29.853062744140615
 31
0.0
  0
LINE
  5
146
100
AcDbEntity
  8
0
  6
CONTINUOUS
 62
               7
100
AcDbLine
 10
79.194052734374964
 20
8.1469372558593847
 30
0.0
 11
78.994052734374975
 21
8.1469372558593847
 31
0.0
  0
LINE
  5
147
100
AcDbEntity
  8
0
  6
CONTINUOUS
 62
               7
100
AcDbLine
 10
80.694052734374964
 20
6.6469372558593847
 30
0.0
 11
80.694052734374964
 21
5.1469372558593847
 31
0.0
  0
LINE
  5
148
100
AcDbEntity
  8
0
  6
CONTINUOUS
 62
               7
100
AcDbLine
 10
79.194052734374964
 20
3.6469372558593847
 30
0.0
 11
78.994052734374975
 21
3.6469372558593847
 31
0.0
  0
LINE
  5
149
100
AcDbEntity
  8
0
  6
CONTINUOUS
 62
               7
100
AcDbLine
 10
69.794052734374986
 20
-54.603062744140615
 30
0.0
 11
69.794052734374986
 21
-52.103062744140615
 31
0.0
  0
LINE
  5
14A
100
AcDbEntity
  8
0
  6
CONTINUOUS
 62
               7
100
AcDbLine
 10
76.194052734374964
 20
-54.603062744140615
 30
0.0
 11
76.194052734374964
 21
-52.103062744140615
 31
0.0
  0
LINE
  5
14B
100
AcDbEntity
  8
0
  6
CONTINUOUS
 62
               7
100
AcDbLine
 10
76.194052734374964
 20
-52.103062744140615
 30
0.0
 11
69.794052734374986
 21
-52.103062744140615
 31
0.0
  0
LINE
  5
14C
100
AcDbEntity
  8
0
  6
CONTINUOUS
 62
               7
100
AcDbLine
 10
78.994052734374975
 20
3.1969372558593818
 30
0.0
 11
78.994052734374975
 21
10.166937255859381
 31
0.0
  0
LINE
  5
14D
100
AcDbEntity
  8
0
  6
CONTINUOUS
 62
               7
100
AcDbLine
 10
76.594052734374998
 20
-31.603062744140615
 30
0.0
 11
76.594052734374998
 21
-26.603062744140615
 31
0.0
  0
LINE
  5
14E
100
AcDbEntity
  8
0
  6
CONTINUOUS
 62
               7
100
AcDbLine
 10
75.994052734374975
 20
-26.603062744140615
 30
0.0
 11
76.594052734374998
 21
-26.603062744140615
 31
0.0
  0
LINE
  5
14F
100
AcDbEntity
  8
0
  6
CONTINUOUS
 62
               7
100
AcDbLine
 10
75.994052734374975
 20
-31.603062744140615
 30
0.0
 11
76.594052734374998
 21
-31.603062744140615
 31
0.0
  0
LINE
  5
150
100
AcDbEntity
  8
0
  6
CONTINUOUS
 62
               7
100
AcDbLine
 10
78.86405273437498
 20
10.196937255859382
 30
0.0
 11
75.994052734374975
 21
10.196937255859382
 31
0.0
  0
LINE
  5
151
100
AcDbEntity
  8
0
  6
CONTINUOUS
 62
               7
100
AcDbLine
 10
78.86405273437498
 20
-35.403062744140627
 30
0.0
 11
75.994052734374975
 21
-35.403062744140627
 31
0.0
  0
LINE
  5
152
100
AcDbEntity
  8
0
  6
CONTINUOUS
 62
               7
100
AcDbLine
 10
80.904052734374943
 20
8.2769372558593801
 30
0.0
 11
79.074052734374959
 21
10.106937255859378
 31
0.0
  0
LINE
  5
153
100
AcDbEntity
  8
0
  6
CONTINUOUS
 62
               7
100
AcDbLine
 10
80.994052734374975
 20
3.1969372558593818
 30
0.0
 11
78.994052734374975
 21
3.1969372558593818
 31
0.0
  0
LINE
  5
154
100
AcDbEntity
  8
0
  6
CONTINUOUS
 62
               7
100
AcDbLine
 10
80.904052734374943
 20
-33.483062744140611
 30
0.0
 11
79.074052734374959
 21
-35.313062744140623
 31
0.0
  0
ARC
  5
155
100
AcDbEntity
  8
0
  6
CONTINUOUS
 62
               7
100
AcDbCircle
 10
74.244048156513941
 20
-52.60305816627961
 30
0.0
 40
1.5000045778679985
100
AcDbArc
 50
270.00017486087677
 51
359.99982513912352
  0
ARC
  5
156
100
AcDbEntity
  8
0
  6
CONTINUOUS
 62
               7
100
AcDbCircle
 10
71.744026794440572
 20
-52.603088684075047
 30
0.0
 40
1.4999740602898766
100
AcDbArc
 50
179.99900915035641
 51
270.00099084964359
  0
ARC
  5
157
100
AcDbEntity
  8
0
  6
CONTINUOUS
 62
               7
100
AcDbCircle
 10
76.794042052880343
 20
-29.853052062646015
 30
0.0
 40
1.5000106815326353
100
AcDbArc
 50
270.00040800013431
 51
359.99959199986557
  0
ARC
  5
158
100
AcDbEntity
  8
0
  6
CONTINUOUS
 62
               7
100
AcDbCircle
 10
76.794020690879904
 20
-28.353094787635683
 30
0.0
 40
1.5000320438373125
100
AcDbArc
 50
0.0012239452052493
 51
89.998776054794902
  0
ARC
  5
159
100
AcDbEntity
  8
0
  6
CONTINUOUS
 62
               7
100
AcDbCircle
 10
79.194010009753185
 20
6.646894531237578
 30
0.0
 40
1.5000427252302413
100
AcDbArc
 50
0.0016319138576915
 51
89.998368086142378
  0
ARC
  5
15A
100
AcDbEntity
  8
0
  6
CONTINUOUS
 62
               7
100
AcDbCircle
 10
79.194031371818824
 20
5.1469586184155247
 30
0.0
 40
1.5000213627082635
100
AcDbArc
 50
270.00081597791666
 51
359.99918402208317
  0
ARC
  5
15B
100
AcDbEntity
  8
0
  6
CONTINUOUS
 62
               7
100
AcDbCircle
 10
51.98905273437498
 20
21.896917863823987
 30
0.0
 40
2.5033949381400551
100
AcDbArc
 50
203.54378734154827
 51
336.45621265845165
  0
ARC
  5
15C
100
AcDbEntity
  8
0
  6
CONTINUOUS
 62
               7
100
AcDbCircle
 10
78.861257326694044
 20
9.9004146379372031
 30
0.0
 40
0.2965357942028573
100
AcDbArc
 50
44.142947475125148
 51
89.459871497572991
  0
ARC
  5
15D
100
AcDbEntity
  8
0
  6
CONTINUOUS
 62
               7
100
AcDbCircle
 10
80.697510758705391
 20
8.0641335520009818
 30
0.0
 40
0.2965552294081889
100
AcDbArc
 50
0.5416960327565352
 51
45.855484994541065
  0
ARC
  5
15E
100
AcDbEntity
  8
0
  6
CONTINUOUS
 62
               7
100
AcDbCircle
 10
80.697525185776783
 20
-33.270265223312819
 30
0.0
 40
0.2965407445873874
100
AcDbArc
 50
314.14334676547787
 51
359.45947220722297
  0
ARC
  5
15F
100
AcDbEntity
  8
0
  6
CONTINUOUS
 62
               7
100
AcDbCircle
 10
78.861272980169247
 20
-35.106576650993915
 30
0.0
 40
0.2964991238820821
100
AcDbArc
 50
270.5371702797492
 51
315.86001074755126
  0
LINE
  5
160
100
AcDbEntity
  8
0
  6
CONTINUOUS
 62
               4
100
AcDbLine
 10
75.994052734374975
 20
55.896937169596335
 30
0.0
 11
75.994052734374975
 21
31.896937169596335
 31
0.0
  0
LINE
  5
161
100
AcDbEntity
  8
0
  6
CONTINUOUS
 62
               4
100
AcDbLine
 10
50.394052734374952
 20
48.896937169596335
 30
0.0
 11
50.394052734374952
 21
57.396937165304799
 31
0.0
  0
LINE
  5
162
100
AcDbEntity
  8
0
  6
CONTINUOUS
 62
               4
100
AcDbLine
 10
75.994052734374975
 20
55.896937169596335
 30
0.0
 11
50.394052734374952
 21
55.896937169596335
 31
0.0
  0
LINE
  5
163
100
AcDbEntity
  8
0
  6
CONTINUOUS
 62
               4
100
AcDbLine
 10
63.289052734374991
 20
55.896937169596335
 30
0.0
 11
61.789052734374991
 21
55.896937169596335
 31
0.0
  0
LINE
  5
164
100
AcDbEntity
  8
0
  6
CONTINUOUS
 62
               4
100
AcDbLine
 10
50.494052734374975
 20
57.496937169596329
 30
0.0
 11
50.494052734374975
 21
55.896937169596335
 31
0.0
  0
ARC
  5
165
100
AcDbEntity
  8
0
  6
CONTINUOUS
 62
               4
100
AcDbCircle
 10
74.49517668268885
 20
60.076331571713361
 30
0.0
 40
1.4988865337462252
100
AcDbArc
 50
0.2142776266259147
 51
24.039904443234679
  0
LINE
  5
166
100
AcDbEntity
  8
0
  6
CONTINUOUS
 62
               4
100
AcDbLine
 10
75.994052734374975
 20
60.081937169596308
 30
0.0
 11
75.994052734374975
 21
55.896937169596335
 31
0.0
  0
LINE
  5
167
100
AcDbEntity
  8
0
  6
CONTINUOUS
 62
               7
100
AcDbLine
 10
48.994052734374975
 20
-43.103062744140615
 30
0.0
 11
48.994052734374975
 21
-54.603062744140615
 31
0.0
  0
LINE
  5
168
100
AcDbEntity
  8
0
  6
CONTINUOUS
 62
               4
100
AcDbLine
 10
45.336020931196686
 20
-44.599924964204192
 30
0.0
 11
41.698661840938087
 21
-46.699955217032809
 31
0.0
  0
LINE
  5
169
100
AcDbEntity
  8
0
  6
CONTINUOUS
 62
               4
100
AcDbLine
 10
41.80007011391973
 20
-46.641407111258431
 30
0.0
 11
41.80007011391973
 21
-44.599924964204192
 31
0.0
  0
LINE
  5
16A
100
AcDbEntity
  8
0
  6
CONTINUOUS
 62
               4
100
AcDbLine
 10
12.200059432767375
 20
-46.699955222993268
 30
0.0
 11
12.200059432767375
 21
-44.599924964204192
 31
0.0
  0
LINE
  5
16B
100
AcDbEntity
  8
0
  6
CONTINUOUS
 62
               4
100
AcDbLine
 10
6.6641192966427525
 20
-44.599924964204192
 30
0.0
 11
10.301478386901351
 21
-46.699955217032809
 31
0.0
  0
LINE
  5
16C
100
AcDbEntity
  8
0
  6
CONTINUOUS
 62
             200
100
AcDbLine
 10
33.75006725289677
 20
-69.099955481782317
 30
0.0
 11
33.75006725289677
 21
-45.793524176081704
 31
0.0
  0
LINE
  5
16D
100
AcDbEntity
  8
0
  6
CONTINUOUS
 62
             200
100
AcDbLine
 10
18.25006725289677
 20
-69.099955481782317
 30
0.0
 11
18.25006725289677
 21
-45.793524176081704
 31
0.0
  0
LINE
  5
16E
100
AcDbEntity
  8
0
  6
CONTINUOUS
 62
               4
100
AcDbLine
 10
11.012503669028717
 20
-64.587519065650341
 30
0.0
 11
11.00006725289677
 21
-64.599955481782317
 31
0.0
  0
LINE
  5
16F
100
AcDbEntity
  8
0
  6
CONTINUOUS
 62
               4
100
AcDbLine
 10
41.25006725289677
 20
-54.799955222993262
 30
0.0
 11
41.25006725289677
 21
-46.699955222993268
 31
0.0
  0
LINE
  5
170
100
AcDbEntity
  8
0
  6
CONTINUOUS
 62
               4
100
AcDbLine
 10
26.25006725289677
 20
-54.799955222993262
 30
0.0
 11
26.25006725289677
 21
-46.699955222993268
 31
0.0
  0
LINE
  5
171
100
AcDbEntity
  8
0
  6
CONTINUOUS
 62
               4
100
AcDbLine
 10
26.25006725289677
 20
-64.436001222993255
 30
0.0
 11
41.25006725289677
 21
-64.436001222993255
 31
0.0
  0
LINE
  5
172
100
AcDbEntity
  8
0
  6
CONTINUOUS
 62
               4
100
AcDbLine
 10
27.053656852896722
 20
-64.899955222993256
 30
0.0
 11
40.446478518923357
 21
-64.899955222993256
 31
0.0
  0
LINE
  5
173
100
AcDbEntity
  8
0
  6
CONTINUOUS
 62
               4
100
AcDbLine
 10
28.050067252896781
 20
-66.499953822993248
 30
0.0
 11
39.450066852896782
 21
-66.499953822993248
 31
0.0
  0
LINE
  5
174
100
AcDbEntity
  8
0
  6
CONTINUOUS
 62
               4
100
AcDbLine
 10
26.25006725289677
 20
-63.099960222993232
 30
0.0
 11
41.25006725289677
 21
-63.099960222993232
 31
0.0
  0
LINE
  5
175
100
AcDbEntity
  8
0
  6
CONTINUOUS
 62
               4
100
AcDbLine
 10
26.950067252896758
 20
-62.899960222993244
 30
0.0
 11
26.950067252896758
 21
-62.099960222993232
 31
0.0
  0
LINE
  5
176
100
AcDbEntity
  8
0
  6
CONTINUOUS
 62
               4
100
AcDbLine
 10
26.25006725289677
 20
-55.199960222993255
 30
0.0
 11
41.25006725289677
 21
-55.199960222993255
 31
0.0
  0
LINE
  5
177
100
AcDbEntity
  8
0
  6
CONTINUOUS
 62
               4
100
AcDbLine
 10
41.050067252896781
 20
-54.999960222993266
 30
0.0
 11
41.25006725289677
 21
-54.799960222993278
 31
0.0
  0
LINE
  5
178
100
AcDbEntity
  8
0
  6
CONTINUOUS
 62
               4
100
AcDbLine
 10
26.450067252896758
 20
-54.999960222993266
 30
0.0
 11
26.25006725289677
 21
-54.799960222993278
 31
0.0
  0
LINE
  5
179
100
AcDbEntity
  8
0
  6
CONTINUOUS
 62
               4
100
AcDbLine
 10
41.25006725289677
 20
-61.999960222993266
 30
0.0
 11
41.25006725289677
 21
-55.199960222993255
 31
0.0
  0
LINE
  5
17A
100
AcDbEntity
  8
0
  6
CONTINUOUS
 62
               4
100
AcDbLine
 10
41.150067252896804
 20
-62.099960222993232
 30
0.0
 11
41.25006725289677
 21
-61.999960222993266
 31
0.0
  0
LINE
  5
17B
100
AcDbEntity
  8
0
  6
CONTINUOUS
 62
               4
100
AcDbLine
 10
26.350067252896736
 20
-62.099960222993232
 30
0.0
 11
41.150067252896804
 21
-62.099960222993232
 31
0.0
  0
LINE
  5
17C
100
AcDbEntity
  8
0
  6
CONTINUOUS
 62
               4
100
AcDbLine
 10
26.25006725289677
 20
-61.999960222993266
 30
0.0
 11
26.350067252896736
 21
-62.099960222993232
 31
0.0
  0
LINE
  5
17D
100
AcDbEntity
  8
0
  6
CONTINUOUS
 62
               4
100
AcDbLine
 10
26.25006725289677
 20
-61.999960222993266
 30
0.0
 11
26.25006725289677
 21
-55.199960222993255
 31
0.0
  0
LINE
  5
17E
100
AcDbEntity
  8
0
  6
CONTINUOUS
 62
               4
100
AcDbLine
 10
26.450067252896758
 20
-54.999960222993266
 30
0.0
 11
41.050067252896781
 21
-54.999960222993266
 31
0.0
  0
LINE
  5
17F
100
AcDbEntity
  8
0
  6
CONTINUOUS
 62
               4
100
AcDbLine
 10
26.450067252896758
 20
-54.999960222993266
 30
0.0
 11
26.25006725289677
 21
-55.199960222993255
 31
0.0
  0
LINE
  5
180
100
AcDbEntity
  8
0
  6
CONTINUOUS
 62
               4
100
AcDbLine
 10
41.050067252896781
 20
-54.999960222993266
 30
0.0
 11
41.25006725289677
 21
-55.199960222993255
 31
0.0
  0
LINE
  5
181
100
AcDbEntity
  8
0
  6
CONTINUOUS
 62
               4
100
AcDbLine
 10
41.25006725289677
 20
-64.436001222993255
 30
0.0
 11
41.25006725289677
 21
-63.099960222993232
 31
0.0
  0
LINE
  5
182
100
AcDbEntity
  8
0
  6
CONTINUOUS
 62
               4
100
AcDbLine
 10
26.25006725289677
 20
-64.436001222993255
 30
0.0
 11
26.25006725289677
 21
-63.099960222993232
 31
0.0
  0
LINE
  5
183
100
AcDbEntity
  8
0
  6
CONTINUOUS
 62
               4
100
AcDbLine
 10
40.550067252896781
 20
-62.899960222993244
 30
0.0
 11
40.550067252896781
 21
-62.099960222993232
 31
0.0
  0
LINE
  5
184
100
AcDbEntity
  8
0
  6
CONTINUOUS
 62
               4
100
AcDbLine
 10
40.44647765289676
 20
-64.899955222993256
 30
0.0
 11
40.100067252896736
 21
-65.499955222993279
 31
0.0
  0
LINE
  5
185
100
AcDbEntity
  8
0
  6
CONTINUOUS
 62
               4
100
AcDbLine
 10
27.053656852896722
 20
-64.899955222993256
 30
0.0
 11
27.400067252896804
 21
-65.499955222993279
 31
0.0
  0
LINE
  5
186
100
AcDbEntity
  8
0
  6
CONTINUOUS
 62
               4
100
AcDbLine
 10
26.450067252896758
 20
-62.899960222993244
 30
0.0
 11
26.25006725289677
 21
-63.099960222993232
 31
0.0
  0
LINE
  5
187
100
AcDbEntity
  8
0
  6
CONTINUOUS
 62
               4
100
AcDbLine
 10
41.050067252896781
 20
-62.899960222993244
 30
0.0
 11
41.25006725289677
 21
-63.099960222993232
 31
0.0
  0
LINE
  5
188
100
AcDbEntity
  8
0
  6
CONTINUOUS
 62
               4
100
AcDbLine
 10
26.450067252896758
 20
-62.899960222993244
 30
0.0
 11
41.050067252896781
 21
-62.899960222993244
 31
0.0
  0
LINE
  5
189
100
AcDbEntity
  8
0
  6
CONTINUOUS
 62
               4
100
AcDbLine
 10
26.25006725289677
 20
-64.436001222993255
 30
0.0
 11
27.053656852896722
 21
-64.899954222993259
 31
0.0
  0
LINE
  5
18A
100
AcDbEntity
  8
0
  6
CONTINUOUS
 62
               4
100
AcDbLine
 10
40.44647765289676
 20
-64.899954222993259
 30
0.0
 11
41.25006725289677
 21
-64.436001222993255
 31
0.0
  0
LINE
  5
18B
100
AcDbEntity
  8
0
  6
CONTINUOUS
 62
               4
100
AcDbLine
 10
27.400066852896771
 20
-65.499955222993279
 30
0.0
 11
40.100067252896736
 21
-65.499955222993279
 31
0.0
  0
LINE
  5
18C
100
AcDbEntity
  8
0
  6
CONTINUOUS
 62
               4
100
AcDbLine
 10
28.850067252896736
 20
-66.899955222993256
 30
0.0
 11
28.850067252896736
 21
-66.599954222993247
 31
0.0
  0
LINE
  5
18D
100
AcDbEntity
  8
0
  6
CONTINUOUS
 62
               4
100
AcDbLine
 10
28.15006765289678
 20
-66.599954222993247
 30
0.0
 11
39.350066852896759
 21
-66.599954222993247
 31
0.0
  0
LINE
  5
18E
100
AcDbEntity
  8
0
  6
CONTINUOUS
 62
               4
100
AcDbLine
 10
38.650067252896804
 20
-66.899955222993256
 30
0.0
 11
38.650067252896804
 21
-66.599954222993247
 31
0.0
  0
LINE
  5
18F
100
AcDbEntity
  8
0
  6
CONTINUOUS
 62
               4
100
AcDbLine
 10
28.050067652896757
 20
-66.499954222993225
 30
0.0
 11
28.15006765289678
 21
-66.599954222993247
 31
0.0
  0
LINE
  5
190
100
AcDbEntity
  8
0
  6
CONTINUOUS
 62
               4
100
AcDbLine
 10
28.050067252896781
 20
-66.499954222993225
 30
0.0
 11
28.050067252896781
 21
-65.499955222993279
 31
0.0
  0
LINE
  5
191
100
AcDbEntity
  8
0
  6
CONTINUOUS
 62
               4
100
AcDbLine
 10
39.450066852896782
 20
-66.499954222993225
 30
0.0
 11
39.350066852896759
 21
-66.599954222993247
 31
0.0
  0
LINE
  5
192
100
AcDbEntity
  8
0
  6
CONTINUOUS
 62
               4
100
AcDbLine
 10
39.450067252896758
 20
-66.499954222993225
 30
0.0
 11
39.450067252896758
 21
-65.499955222993279
 31
0.0
  0
LINE
  5
193
100
AcDbEntity
  8
0
  6
CONTINUOUS
 62
               4
100
AcDbLine
 10
26.850067252896736
 20
-68.299952222993241
 30
0.0
 11
26.850067252896736
 21
-67.399955222993256
 31
0.0
  0
LINE
  5
194
100
AcDbEntity
  8
0
  6
CONTINUOUS
 62
               4
100
AcDbLine
 10
40.350065752896796
 20
-68.599955222993245
 30
0.0
 11
27.150067252896804
 21
-68.599955222993245
 31
0.0
  0
LINE
  5
195
100
AcDbEntity
  8
0
  6
CONTINUOUS
 62
               4
100
AcDbLine
 10
40.650067252896804
 20
-68.299952222993241
 30
0.0
 11
40.650067252896804
 21
-67.399955222993256
 31
0.0
  0
ARC
  5
196
100
AcDbEntity
  8
0
  6
CONTINUOUS
 62
               4
100
AcDbCircle
 10
27.150068752896743
 20
-68.299952222993241
 30
0.0
 40
0.3
100
AcDbArc
 50
179.9999999999998
 51
270.0
  0
ARC
  5
197
100
AcDbEntity
  8
0
  6
CONTINUOUS
 62
               4
100
AcDbCircle
 10
28.350067652896769
 20
-66.899955222993256
 30
0.0
 40
0.5
100
AcDbArc
 50
269.9999999999992
 51
359.99999999999937
  0
ARC
  5
198
100
AcDbEntity
  8
0
  6
CONTINUOUS
 62
               4
100
AcDbCircle
 10
39.150066852896771
 20
-66.899955222993256
 30
0.0
 40
0.5
100
AcDbArc
 50
179.9999999999998
 51
270.0
  0
ARC
  5
199
100
AcDbEntity
  8
0
  6
CONTINUOUS
 62
               4
100
AcDbCircle
 10
40.350065752896796
 20
-68.299952222993241
 30
0.0
 40
0.3
100
AcDbArc
 50
269.9999999999992
 51
359.99999999999937
  0
LINE
  5
19A
100
AcDbEntity
  8
0
  6
CONTINUOUS
 62
               4
100
AcDbLine
 10
10.75006725289677
 20
-54.799960222993278
 30
0.0
 11
41.25006725289677
 21
-54.799960222993278
 31
0.0
  0
LINE
  5
19B
100
AcDbEntity
  8
0
  6
CONTINUOUS
 62
               4
100
AcDbLine
 10
10.301478386901351
 20
-46.699955222993268
 30
0.0
 11
41.80007011391973
 21
-46.699955222993268
 31
0.0
  0
LINE
  5
19C
100
AcDbEntity
  8
0
  6
CONTINUOUS
 62
               4
100
AcDbLine
 10
25.75006725289677
 20
-54.799955222993262
 30
0.0
 11
25.75006725289677
 21
-46.699955222993268
 31
0.0
  0
LINE
  5
19D
100
AcDbEntity
  8
0
  6
CONTINUOUS
 62
               4
100
AcDbLine
 10
10.75006725289677
 20
-54.799955222993262
 30
0.0
 11
10.75006725289677
 21
-46.699955222993268
 31
0.0
  0
LINE
  5
19E
100
AcDbEntity
  8
0
  6
CONTINUOUS
 62
               4
100
AcDbLine
 10
10.75006725289677
 20
-64.436001222993255
 30
0.0
 11
25.75006725289677
 21
-64.436001222993255
 31
0.0
  0
LINE
  5
19F
100
AcDbEntity
  8
0
  6
CONTINUOUS
 62
               4
100
AcDbLine
 10
11.553656852896722
 20
-64.899955222993256
 30
0.0
 11
24.946478518923357
 21
-64.899955222993256
 31
0.0
  0
LINE
  5
1A0
100
AcDbEntity
  8
0
  6
CONTINUOUS
 62
               4
100
AcDbLine
 10
12.550067252896781
 20
-66.499953822993248
 30
0.0
 11
23.950066852896782
 21
-66.499953822993248
 31
0.0
  0
LINE
  5
1A1
100
AcDbEntity
  8
0
  6
CONTINUOUS
 62
               4
100
AcDbLine
 10
10.75006725289677
 20
-63.099960222993232
 30
0.0
 11
25.75006725289677
 21
-63.099960222993232
 31
0.0
  0
LINE
  5
1A2
100
AcDbEntity
  8
0
  6
CONTINUOUS
 62
               4
100
AcDbLine
 10
11.450067252896758
 20
-62.899960222993244
 30
0.0
 11
11.450067252896758
 21
-62.099960222993232
 31
0.0
  0
LINE
  5
1A3
100
AcDbEntity
  8
0
  6
CONTINUOUS
 62
               4
100
AcDbLine
 10
10.75006725289677
 20
-55.199960222993255
 30
0.0
 11
25.75006725289677
 21
-55.199960222993255
 31
0.0
  0
LINE
  5
1A4
100
AcDbEntity
  8
0
  6
CONTINUOUS
 62
               4
100
AcDbLine
 10
25.550067252896781
 20
-54.999960222993266
 30
0.0
 11
25.75006725289677
 21
-54.799960222993278
 31
0.0
  0
LINE
  5
1A5
100
AcDbEntity
  8
0
  6
CONTINUOUS
 62
               4
100
AcDbLine
 10
10.950067252896758
 20
-54.999960222993266
 30
0.0
 11
10.75006725289677
 21
-54.799960222993278
 31
0.0
  0
LINE
  5
1A6
100
AcDbEntity
  8
0
  6
CONTINUOUS
 62
               4
100
AcDbLine
 10
25.75006725289677
 20
-61.999960222993266
 30
0.0
 11
25.75006725289677
 21
-55.199960222993255
 31
0.0
  0
LINE
  5
1A7
100
AcDbEntity
  8
0
  6
CONTINUOUS
 62
               4
100
AcDbLine
 10
25.650067252896804
 20
-62.099960222993232
 30
0.0
 11
25.75006725289677
 21
-61.999960222993266
 31
0.0
  0
LINE
  5
1A8
100
AcDbEntity
  8
0
  6
CONTINUOUS
 62
               4
100
AcDbLine
 10
10.850067252896736
 20
-62.099960222993232
 30
0.0
 11
25.650067252896804
 21
-62.099960222993232
 31
0.0
  0
LINE
  5
1A9
100
AcDbEntity
  8
0
  6
CONTINUOUS
 62
               4
100
AcDbLine
 10
10.75006725289677
 20
-61.999960222993266
 30
0.0
 11
10.850067252896736
 21
-62.099960222993232
 31
0.0
  0
LINE
  5
1AA
100
AcDbEntity
  8
0
  6
CONTINUOUS
 62
               4
100
AcDbLine
 10
10.75006725289677
 20
-61.999960222993266
 30
0.0
 11
10.75006725289677
 21
-55.199960222993255
 31
0.0
  0
LINE
  5
1AB
100
AcDbEntity
  8
0
  6
CONTINUOUS
 62
               4
100
AcDbLine
 10
10.950067252896758
 20
-54.999960222993266
 30
0.0
 11
25.550067252896781
 21
-54.999960222993266
 31
0.0
  0
LINE
  5
1AC
100
AcDbEntity
  8
0
  6
CONTINUOUS
 62
               4
100
AcDbLine
 10
10.950067252896758
 20
-54.999960222993266
 30
0.0
 11
10.75006725289677
 21
-55.199960222993255
 31
0.0
  0
LINE
  5
1AD
100
AcDbEntity
  8
0
  6
CONTINUOUS
 62
               4
100
AcDbLine
 10
25.550067252896781
 20
-54.999960222993266
 30
0.0
 11
25.75006725289677
 21
-55.199960222993255
 31
0.0
  0
LINE
  5
1AE
100
AcDbEntity
  8
0
  6
CONTINUOUS
 62
               4
100
AcDbLine
 10
25.75006725289677
 20
-64.436001222993255
 30
0.0
 11
25.75006725289677
 21
-63.099960222993232
 31
0.0
  0
LINE
  5
1AF
100
AcDbEntity
  8
0
  6
CONTINUOUS
 62
               4
100
AcDbLine
 10
10.75006725289677
 20
-64.436001222993255
 30
0.0
 11
10.75006725289677
 21
-63.099960222993232
 31
0.0
  0
LINE
  5
1B0
100
AcDbEntity
  8
0
  6
CONTINUOUS
 62
               4
100
AcDbLine
 10
25.050067252896781
 20
-62.899960222993244
 30
0.0
 11
25.050067252896781
 21
-62.099960222993232
 31
0.0
  0
LINE
  5
1B1
100
AcDbEntity
  8
0
  6
CONTINUOUS
 62
               4
100
AcDbLine
 10
24.94647765289676
 20
-64.899955222993256
 30
0.0
 11
24.600067252896736
 21
-65.499955222993279
 31
0.0
  0
LINE
  5
1B2
100
AcDbEntity
  8
0
  6
CONTINUOUS
 62
               4
100
AcDbLine
 10
11.553656852896722
 20
-64.899955222993256
 30
0.0
 11
11.900067252896804
 21
-65.499955222993279
 31
0.0
  0
LINE
  5
1B3
100
AcDbEntity
  8
0
  6
CONTINUOUS
 62
               4
100
AcDbLine
 10
10.950067252896758
 20
-62.899960222993244
 30
0.0
 11
10.75006725289677
 21
-63.099960222993232
 31
0.0
  0
LINE
  5
1B4
100
AcDbEntity
  8
0
  6
CONTINUOUS
 62
               4
100
AcDbLine
 10
25.550067252896781
 20
-62.899960222993244
 30
0.0
 11
25.75006725289677
 21
-63.099960222993232
 31
0.0
  0
LINE
  5
1B5
100
AcDbEntity
  8
0
  6
CONTINUOUS
 62
               4
100
AcDbLine
 10
10.950067252896758
 20
-62.899960222993244
 30
0.0
 11
25.550067252896781
 21
-62.899960222993244
 31
0.0
  0
LINE
  5
1B6
100
AcDbEntity
  8
0
  6
CONTINUOUS
 62
               4
100
AcDbLine
 10
10.75006725289677
 20
-64.436001222993255
 30
0.0
 11
11.553656852896722
 21
-64.899954222993259
 31
0.0
  0
LINE
  5
1B7
100
AcDbEntity
  8
0
  6
CONTINUOUS
 62
               4
100
AcDbLine
 10
24.94647765289676
 20
-64.899954222993259
 30
0.0
 11
25.75006725289677
 21
-64.436001222993255
 31
0.0
  0
LINE
  5
1B8
100
AcDbEntity
  8
0
  6
CONTINUOUS
 62
               4
100
AcDbLine
 10
11.900066852896771
 20
-65.499955222993279
 30
0.0
 11
24.600067252896736
 21
-65.499955222993279
 31
0.0
  0
LINE
  5
1B9
100
AcDbEntity
  8
0
  6
CONTINUOUS
 62
               4
100
AcDbLine
 10
13.350067252896736
 20
-66.899955222993256
 30
0.0
 11
13.350067252896736
 21
-66.599954222993247
 31
0.0
  0
LINE
  5
1BA
100
AcDbEntity
  8
0
  6
CONTINUOUS
 62
               4
100
AcDbLine
 10
12.65006765289678
 20
-66.599954222993247
 30
0.0
 11
23.850066852896759
 21
-66.599954222993247
 31
0.0
  0
LINE
  5
1BB
100
AcDbEntity
  8
0
  6
CONTINUOUS
 62
               4
100
AcDbLine
 10
23.150067252896804
 20
-66.899955222993256
 30
0.0
 11
23.150067252896804
 21
-66.599954222993247
 31
0.0
  0
LINE
  5
1BC
100
AcDbEntity
  8
0
  6
CONTINUOUS
 62
               4
100
AcDbLine
 10
12.550067652896757
 20
-66.499954222993225
 30
0.0
 11
12.65006765289678
 21
-66.599954222993247
 31
0.0
  0
LINE
  5
1BD
100
AcDbEntity
  8
0
  6
CONTINUOUS
 62
               4
100
AcDbLine
 10
12.550067252896781
 20
-66.499954222993225
 30
0.0
 11
12.550067252896781
 21
-65.499955222993279
 31
0.0
  0
LINE
  5
1BE
100
AcDbEntity
  8
0
  6
CONTINUOUS
 62
               4
100
AcDbLine
 10
23.950066852896782
 20
-66.499954222993225
 30
0.0
 11
23.850066852896759
 21
-66.599954222993247
 31
0.0
  0
LINE
  5
1BF
100
AcDbEntity
  8
0
  6
CONTINUOUS
 62
               4
100
AcDbLine
 10
23.950067252896758
 20
-66.499954222993225
 30
0.0
 11
23.950067252896758
 21
-65.499955222993279
 31
0.0
  0
LINE
  5
1C0
100
AcDbEntity
  8
0
  6
CONTINUOUS
 62
               4
100
AcDbLine
 10
11.350067252896736
 20
-68.299952222993241
 30
0.0
 11
11.350067252896736
 21
-67.399955222993256
 31
0.0
  0
LINE
  5
1C1
100
AcDbEntity
  8
0
  6
CONTINUOUS
 62
               4
100
AcDbLine
 10
24.850065752896796
 20
-68.599955222993245
 30
0.0
 11
11.650067252896804
 21
-68.599955222993245
 31
0.0
  0
LINE
  5
1C2
100
AcDbEntity
  8
0
  6
CONTINUOUS
 62
               4
100
AcDbLine
 10
25.150067252896804
 20
-68.299952222993241
 30
0.0
 11
25.150067252896804
 21
-67.399955222993256
 31
0.0
  0
ARC
  5
1C3
100
AcDbEntity
  8
0
  6
CONTINUOUS
 62
               4
100
AcDbCircle
 10
11.650068752896743
 20
-68.299952222993241
 30
0.0
 40
0.3
100
AcDbArc
 50
179.9999999999998
 51
270.0
  0
ARC
  5
1C4
100
AcDbEntity
  8
0
  6
CONTINUOUS
 62
               4
100
AcDbCircle
 10
12.850067652896769
 20
-66.899955222993256
 30
0.0
 40
0.5
100
AcDbArc
 50
269.9999999999992
 51
359.99999999999937
  0
ARC
  5
1C5
100
AcDbEntity
  8
0
  6
CONTINUOUS
 62
               4
100
AcDbCircle
 10
23.650066852896771
 20
-66.899955222993256
 30
0.0
 40
0.5
100
AcDbArc
 50
179.9999999999998
 51
270.0
  0
ARC
  5
1C6
100
AcDbEntity
  8
0
  6
CONTINUOUS
 62
               4
100
AcDbCircle
 10
24.850065752896796
 20
-68.299952222993241
 30
0.0
 40
0.3
100
AcDbArc
 50
269.9999999999992
 51
359.99999999999937
  0
LINE
  5
1C7
100
AcDbEntity
  8
0
  6
CONTINUOUS
 62
               4
100
AcDbLine
 10
11.03404415839924
 20
-64.599955481782317
 30
0.0
 11
11.00006725289677
 21
-64.599955481782317
 31
0.0
  0
LINE
  5
1C8
100
AcDbEntity
  8
0
  6
CONTINUOUS
 62
               4
100
AcDbLine
 10
11.350067252896736
 20
-67.399955222993256
 30
0.0
 11
25.150067252896804
 21
-67.399954938042455
 31
0.0
  0
LINE
  5
1C9
100
AcDbEntity
  8
0
  6
CONTINUOUS
 62
               4
100
AcDbLine
 10
26.850067252896736
 20
-67.399954902939825
 30
0.0
 11
40.650067252896804
 21
-67.399954617989025
 31
0.0
  0
ENDBLK
  5
1CA
100
AcDbEntity
  8
0
100
AcDbBlockEnd
  0
BLOCK
  5
1CB
100
AcDbEntity
  8
0
100
AcDbBlockBegin
  2
F15MPJ-4
 70
               0
 10
0.0
 20
0.0
 30
0.0
  3
F15MPJ-4
  1

  0
LINE
  5
1CC
100
AcDbEntity
  8
0
  6
CONTINUOUS
 62
               7
100
AcDbLine
 10
0.0
 20
0.0
 30
0.0
 11
16.0
 21
0.0
 31
0.0
  0
LINE
  5
1CD
100
AcDbEntity
  8
0
  6
CONTINUOUS
 62
               2
100
AcDbLine
 10
7.9999818801879883
 20
49.0
 30
0.0
 11
7.9999818801879883
 21
82.820709228515625
 31
0.0
  0
LINE
  5
1CE
100
AcDbEntity
  8
0
  6
CONTINUOUS
 62
               7
100
AcDbLine
 10
0.4999818801879883
 20
49.0
 30
0.0
 11
0.4999818801879883
 21
80.499984741210937
 31
0.0
  0
LINE
  5
1CF
100
AcDbEntity
  8
0
  6
CONTINUOUS
 62
               7
100
AcDbLine
 10
15.499981880187988
 20
49.0
 30
0.0
 11
15.499981880187988
 21
80.499984741210937
 31
0.0
  0
LINE
  5
1D0
100
AcDbEntity
  8
0
  6
CONTINUOUS
 62
               7
100
AcDbLine
 10
0.4999971389770508
 20
79.0
 30
0.0
 11
15.499997138977051
 21
79.0
 31
0.0
  0
LINE
  5
1D1
100
AcDbEntity
  8
0
  6
CONTINUOUS
 62
               7
100
AcDbLine
 10
0.9999971389770508
 20
81.0
 30
0.0
 11
14.999997138977051
 21
81.0
 31
0.0
  0
LINE
  5
1D2
100
AcDbEntity
  8
0
  6
CONTINUOUS
 62
               7
100
AcDbLine
 10
0.4999971389770508
 20
80.0
 30
0.0
 11
15.499997138977051
 21
80.0
 31
0.0
  0
LINE
  5
1D3
100
AcDbEntity
  8
0
  6
CONTINUOUS
 62
               7
100
AcDbLine
 10
0.4999465157688974
 20
80.000029495906347
 30
0.0
 11
1.4999476616521861
 21
81.00003047320206
 31
0.0
  0
LINE
  5
1D4
100
AcDbEntity
  8
0
  6
CONTINUOUS
 62
               7
100
AcDbLine
 10
14.499935234784971
 20
80.999938951102195
 30
0.0
 11
15.499938150837806
 21
79.999939659682241
 31
0.0
  0
LINE
  5
1D5
100
AcDbEntity
  8
0
  6
CONTINUOUS
 62
               7
100
AcDbLine
 10
13.560791754697675
 20
53.060472040056084
 30
0.0
 11
11.439470732187146
 21
50.939152269243095
 31
0.0
  0
LINE
  5
1D6
100
AcDbEntity
  8
0
  6
CONTINUOUS
 62
               7
100
AcDbLine
 10
11.439341882952249
 20
53.060602141064919
 30
0.0
 11
13.560661653765237
 21
50.939281118554391
 31
0.0
  0
LINE
  5
1D7
100
AcDbEntity
  8
0
  6
CONTINUOUS
 62
               7
100
AcDbLine
 10
9.4999818801879883
 20
51.999969482421875
 30
0.0
 11
9.4999818801879883
 21
48.999969482421875
 31
0.0
  0
LINE
  5
1D8
100
AcDbEntity
  8
0
  6
CONTINUOUS
 62
               7
100
AcDbLine
 10
12.499981880187988
 20
54.999954223632812
 30
0.0
 11
15.499981880187988
 21
54.999954223632812
 31
0.0
  0
LINE
  5
1D9
100
AcDbEntity
  8
0
  6
CONTINUOUS
 62
               7
100
AcDbLine
 10
3.4999971389770508
 20
70.000015258789063
 30
0.0
 11
0.4999971389770508
 21
70.000015258789063
 31
0.0
  0
LINE
  5
1DA
100
AcDbEntity
  8
0
  6
CONTINUOUS
 62
               7
100
AcDbLine
 10
2.4394595660887717
 20
71.939226885497192
 30
0.0
 11
4.5607701566286778
 21
74.060535509093825
 31
0.0
  0
LINE
  5
1DB
100
AcDbEntity
  8
0
  6
CONTINUOUS
 62
               7
100
AcDbLine
 10
4.5606504876786857
 20
71.939333798015468
 30
0.0
 11
2.4393310744935661
 21
74.060655178153866
 31
0.0
  0
LINE
  5
1DC
100
AcDbEntity
  8
0
  6
CONTINUOUS
 62
               7
100
AcDbLine
 10
3.4999971389770508
 20
76.0
 30
0.0
 11
0.4999971389770508
 21
76.0
 31
0.0
  0
LINE
  5
1DD
100
AcDbEntity
  8
0
  6
CONTINUOUS
 62
               7
100
AcDbLine
 10
15.999997138977051
 20
49.0
 30
0.0
 11
15.999997138977051
 21
3.0
 31
0.0
  0
LINE
  5
1DE
100
AcDbEntity
  8
0
  6
CONTINUOUS
 62
               7
100
AcDbLine
 10
0.4999971389770508
 20
12.100021362304688
 30
0.0
 11
2.4999971389770508
 21
12.100021362304688
 31
0.0
  0
LINE
  5
1DF
100
AcDbEntity
  8
0
  6
CONTINUOUS
 62
               7
100
AcDbLine
 10
0.4999971389770508
 20
6.899993896484375
 30
0.0
 11
2.4999971389770508
 21
6.899993896484375
 31
0.0
  0
LINE
  5
1E0
100
AcDbEntity
  8
0
  6
CONTINUOUS
 62
               7
100
AcDbLine
 10
0.4999971389770508
 20
12.100021362304688
 30
0.0
 11
0.4999971389770508
 21
6.899993896484375
 31
0.0
  0
LINE
  5
1E1
100
AcDbEntity
  8
0
  6
CONTINUOUS
 62
               7
100
AcDbLine
 10
15.499997138977051
 20
45.099990844726563
 30
0.0
 11
13.499997138977051
 21
45.099990844726563
 31
0.0
  0
LINE
  5
1E2
100
AcDbEntity
  8
0
  6
CONTINUOUS
 62
               7
100
AcDbLine
 10
15.499997138977051
 20
39.899978637695312
 30
0.0
 11
13.499997138977051
 21
39.899978637695312
 31
0.0
  0
LINE
  5
1E3
100
AcDbEntity
  8
0
  6
CONTINUOUS
 62
               7
100
AcDbLine
 10
15.499981880187988
 20
39.899993896484375
 30
0.0
 11
15.499981880187988
 21
45.100006103515625
 31
0.0
  0
LINE
  5
1E4
100
AcDbEntity
  8
0
  6
CONTINUOUS
 62
               7
100
AcDbLine
 10
-0.0000028610229492
 20
49.0
 30
0.0
 11
15.999997138977051
 21
49.0
 31
0.0
  0
LINE
  5
1E5
100
AcDbEntity
  8
0
  6
CONTINUOUS
 62
               7
100
AcDbLine
 10
-0.0000028610229492
 20
49.0
 30
0.0
 11
-0.0000028610229492
 21
3.0
 31
0.0
  0
ARC
  5
1E6
100
AcDbEntity
  8
0
  6
CONTINUOUS
 62
               7
100
AcDbCircle
 10
0.9999971389770508
 20
80.499984741210937
 30
0.0
 40
0.5
100
AcDbArc
 50
89.999982013910653
 51
179.99996402782131
  0
ARC
  5
1E7
100
AcDbEntity
  8
0
  6
CONTINUOUS
 62
               7
100
AcDbCircle
 10
14.999997138977051
 20
80.499984741210937
 30
0.0
 40
0.5
100
AcDbArc
 50
0.00001366037834
 51
89.999982013910653
  0
CIRCLE
  5
1E8
100
AcDbEntity
  8
0
  6
CONTINUOUS
 62
               7
100
AcDbCircle
 10
12.499981880187988
 20
51.999969482421875
 30
0.0
 40
2.7999992370605469
  0
ARC
  5
1E9
100
AcDbEntity
  8
0
  6
CONTINUOUS
 62
               7
100
AcDbCircle
 10
12.499981880187988
 20
51.999969482421875
 30
0.0
 40
3.0
100
AcDbArc
 50
89.999982013910653
 51
179.99996402782131
  0
CIRCLE
  5
1EA
100
AcDbEntity
  8
0
  6
CONTINUOUS
 62
               7
100
AcDbCircle
 10
3.4999971389770508
 20
73.0
 30
0.0
 40
2.7999992370605469
  0
ARC
  5
1EB
100
AcDbEntity
  8
0
  6
CONTINUOUS
 62
               7
100
AcDbCircle
 10
3.4999971389770508
 20
73.000015258789063
 30
0.0
 40
3.0
100
AcDbArc
 50
270.00001798608935
 51
90.000145938450743
  0
ARC
  5
1EC
100
AcDbEntity
  8
0
  6
CONTINUOUS
 62
               7
100
AcDbCircle
 10
2.4999971389770508
 20
9.5000152587890625
 30
0.0
 40
2.5999994277954102
100
AcDbArc
 50
270.00001798608935
 51
89.999982013910653
  0
ARC
  5
1ED
100
AcDbEntity
  8
0
  6
CONTINUOUS
 62
               7
100
AcDbCircle
 10
13.499997138977051
 20
42.5
 30
0.0
 40
2.5999994277954102
100
AcDbArc
 50
89.999982013910653
 51
270.00000068324533
  0
LINE
  5
1EE
100
AcDbEntity
  8
0
  6
CENTER
 62
               2
100
AcDbLine
 10
8.0
 20
0.70770263671875
 30
0.0
 11
8.0
 21
48.999999046325684
 31
0.0
  0
LINE
  5
1EF
100
AcDbEntity
  8
0
  6
CONTINUOUS
 62
               4
100
AcDbLine
 10
13.5
 20
45.200008392333984
 30
0.0
 11
15.20001220703125
 21
45.200008392333984
 31
0.0
  0
LINE
  5
1F0
100
AcDbEntity
  8
0
  6
CONTINUOUS
 62
               4
100
AcDbLine
 10
2.5
 20
6.800018310546875
 30
0.0
 11
0.79998779296875
 21
6.800018310546875
 31
0.0
  0
LINE
  5
1F1
100
AcDbEntity
  8
0
  6
CONTINUOUS
 62
               4
100
AcDbLine
 10
2.5
 20
12.20001220703125
 30
0.0
 11
0.79998779296875
 21
12.20001220703125
 31
0.0
  0
LINE
  5
1F2
100
AcDbEntity
  8
0
  6
CONTINUOUS
 62
               4
100
AcDbLine
 10
13.499984741210937
 20
39.800014495849609
 30
0.0
 11
15.20001220703125
 21
39.800014495849609
 31
0.0
  0
LINE
  5
1F3
100
AcDbEntity
  8
0
  6
CONTINUOUS
 62
               4
100
AcDbLine
 10
15.20001220703125
 20
48.799999237060547
 30
0.0
 11
0.79998779296875
 21
48.799999237060547
 31
0.0
  0
LINE
  5
1F4
100
AcDbEntity
  8
0
  6
CONTINUOUS
 62
               4
100
AcDbLine
 10
15.20001220703125
 20
3.20001220703125
 30
0.0
 11
0.79998779296875
 21
3.20001220703125
 31
0.0
  0
LINE
  5
1F5
100
AcDbEntity
  8
0
  6
CONTINUOUS
 62
               4
100
AcDbLine
 10
13.5
 20
10.20001220703125
 30
0.0
 11
15.5
 21
10.20001220703125
 31
0.0
  0
LINE
  5
1F6
100
AcDbEntity
  8
0
  6
CONTINUOUS
 62
               4
100
AcDbLine
 10
10.800003051757813
 20
7.5000152587890625
 30
0.0
 11
10.800003051757813
 21
3.20001220703125
 31
0.0
  0
LINE
  5
1F7
100
AcDbEntity
  8
0
  6
CONTINUOUS
 62
               4
100
AcDbLine
 10
5.20001220703125
 20
48.799999237060547
 30
0.0
 11
5.20001220703125
 21
44.5
 31
0.0
  0
LINE
  5
1F8
100
AcDbEntity
  8
0
  6
CONTINUOUS
 62
               4
100
AcDbLine
 10
3.4192699582363844
 20
43.580769083498581
 30
0.0
 11
1.5807881977507918
 21
45.419251308901494
 31
0.0
  0
LINE
  5
1F9
100
AcDbEntity
  8
0
  6
CONTINUOUS
 62
               4
100
AcDbLine
 10
1.5807709481196071
 20
43.580761894626818
 30
0.0
 11
3.4192422289561364
 21
45.419233020491816
 31
0.0
  0
LINE
  5
1FA
100
AcDbEntity
  8
0
  6
CONTINUOUS
 62
               4
100
AcDbLine
 10
15.5
 20
8.530792236328125
 30
0.0
 11
15.5
 21
39.500011444091797
 31
0.0
  0
LINE
  5
1FB
100
AcDbEntity
  8
0
  6
CONTINUOUS
 62
               4
100
AcDbLine
 10
12.580780336044882
 20
6.580750109188557
 30
0.0
 11
14.419262406475355
 21
8.4192320246465897
 31
0.0
  0
LINE
  5
1FC
100
AcDbEntity
  8
0
  6
CONTINUOUS
 62
               4
100
AcDbLine
 10
14.419248343046092
 20
6.5807813957653707
 30
0.0
 11
12.580777372152625
 21
8.4192528315734307
 31
0.0
  0
LINE
  5
1FD
100
AcDbEntity
  8
0
  6
CONTINUOUS
 62
               4
100
AcDbLine
 10
0.5
 20
12.5
 30
0.0
 11
0.5
 21
43.469242095947266
 31
0.0
  0
LINE
  5
1FE
100
AcDbEntity
  8
0
  6
CONTINUOUS
 62
               4
100
AcDbLine
 10
15.5
 20
3.5000152587890625
 30
0.0
 11
15.5
 21
6.46923828125
 31
0.0
  0
LINE
  5
1FF
100
AcDbEntity
  8
0
  6
CONTINUOUS
 62
               4
100
AcDbLine
 10
0.5
 20
3.5000152587890625
 30
0.0
 11
0.5
 21
6.5000152587890625
 31
0.0
  0
LINE
  5
200
100
AcDbEntity
  8
0
  6
CONTINUOUS
 62
               4
100
AcDbLine
 10
0.5
 20
45.530757904052734
 30
0.0
 11
0.5
 21
48.500019073486328
 31
0.0
  0
LINE
  5
201
100
AcDbEntity
  8
0
  6
CONTINUOUS
 62
               4
100
AcDbLine
 10
15.5
 20
45.499996185302734
 30
0.0
 11
15.5
 21
48.500011444091797
 31
0.0
  0
ARC
  5
202
100
AcDbEntity
  8
0
  6
CONTINUOUS
 62
               4
100
AcDbCircle
 10
13.499984741210937
 20
42.500011444091797
 30
0.0
 40
2.6999998092651367
100
AcDbArc
 50
89.999982013910653
 51
270.00000068324533
  0
ARC
  5
203
100
AcDbEntity
  8
0
  6
CONTINUOUS
 62
               4
100
AcDbCircle
 10
2.5
 20
9.5000152587890625
 30
0.0
 40
2.6999998092651367
100
AcDbArc
 50
270.00001798608935
 51
89.999982013910653
  0
ARC
  5
204
100
AcDbEntity
  8
0
  6
CONTINUOUS
 62
               4
100
AcDbCircle
 10
2.5
 20
44.500015258789063
 30
0.0
 40
2.6999998092651367
100
AcDbArc
 50
270.00001798608935
 51
0.0
  0
ARC
  5
205
100
AcDbEntity
  8
0
  6
CONTINUOUS
 62
               4
100
AcDbCircle
 10
15.20001220703125
 20
45.499996185302734
 30
0.0
 40
0.300000011920929
100
AcDbArc
 50
270.00001798608935
 51
0.0
  0
ARC
  5
206
100
AcDbEntity
  8
0
  6
CONTINUOUS
 62
               4
100
AcDbCircle
 10
0.8000030517578125
 20
12.5
 30
0.0
 40
0.300000011920929
100
AcDbArc
 50
179.99996402782131
 51
270.00000068324533
  0
ARC
  5
207
100
AcDbEntity
  8
0
  6
CONTINUOUS
 62
               4
100
AcDbCircle
 10
15.20001220703125
 20
39.500011444091797
 30
0.0
 40
0.300000011920929
100
AcDbArc
 50
0.0
 51
89.999982013910653
  0
ARC
  5
208
100
AcDbEntity
  8
0
  6
CONTINUOUS
 62
               4
100
AcDbCircle
 10
0.8000030517578125
 20
6.5000152587890625
 30
0.0
 40
0.300000011920929
100
AcDbArc
 50
89.999982013910653
 51
179.99996402782131
  0
ARC
  5
209
100
AcDbEntity
  8
0
  6
CONTINUOUS
 62
               4
100
AcDbCircle
 10
0.79998779296875
 20
48.500019073486328
 30
0.0
 40
0.300000011920929
100
AcDbArc
 50
89.999982013910653
 51
179.99996402782131
  0
ARC
  5
20A
100
AcDbEntity
  8
0
  6
CONTINUOUS
 62
               4
100
AcDbCircle
 10
15.20001220703125
 20
48.500011444091797
 30
0.0
 40
0.300000011920929
100
AcDbArc
 50
0.0
 51
89.999982013910653
  0
ARC
  5
20B
100
AcDbEntity
  8
0
  6
CONTINUOUS
 62
               4
100
AcDbCircle
 10
15.20001220703125
 20
3.5000152587890625
 30
0.0
 40
0.300000011920929
100
AcDbArc
 50
270.00001798608935
 51
0.0
  0
ARC
  5
20C
100
AcDbEntity
  8
0
  6
CONTINUOUS
 62
               4
100
AcDbCircle
 10
0.8000030517578125
 20
3.5000152587890625
 30
0.0
 40
0.300000011920929
100
AcDbArc
 50
179.99996402782131
 51
270.00000068324533
  0
ARC
  5
20D
100
AcDbEntity
  8
0
  6
CONTINUOUS
 62
               4
100
AcDbCircle
 10
13.5
 20
7.5000152587890625
 30
0.0
 40
2.6999998092651367
100
AcDbArc
 50
89.999982013910653
 51
179.99996402782131
  0
CIRCLE
  5
20E
100
AcDbEntity
  8
0
  6
CONTINUOUS
 62
               4
100
AcDbCircle
 10
2.5
 20
44.5
 30
0.0
 40
2.25
  0
CIRCLE
  5
20F
100
AcDbEntity
  8
0
  6
CONTINUOUS
 62
               4
100
AcDbCircle
 10
13.5
 20
7.5000152587890625
 30
0.0
 40
2.25
  0
LINE
  5
210
100
AcDbEntity
  8
0
  6
CONTINUOUS
 62
               4
100
AcDbLine
 10
10.892319037918952
 20
41.799996185302746
 30
0.0
 11
0.4999999940395696
 21
41.799996185302746
 31
0.0
  0
LINE
  5
211
100
AcDbEntity
  8
0
  6
CONTINUOUS
 62
               4
100
AcDbLine
 10
5.078322088718437
 20
10.301404489514681
 30
0.0
 11
15.500000005960487
 21
10.301404489514681
 31
0.0
  0
CIRCLE
  5
212
100
AcDbEntity
  8
0
  6
CONTINUOUS
 62
               4
100
AcDbCircle
 10
8.0
 20
33.75
 30
0.0
 40
7.4500000000000002
  0
ARC
  5
213
100
AcDbEntity
  8
0
  6
CONTINUOUS
 62
               4
100
AcDbCircle
 10
8.0
 20
33.75
 30
0.0
 40
6.9000000000000004
100
AcDbArc
 50
8.6933494299441296
 51
171.30665057005587
  0
CIRCLE
  5
214
100
AcDbEntity
  8
0
  6
CONTINUOUS
 62
               4
100
AcDbCircle
 10
8.0
 20
33.75
 30
0.0
 40
4.0499999999999998
  0
CIRCLE
  5
215
100
AcDbEntity
  8
0
  6
CONTINUOUS
 62
               4
100
AcDbCircle
 10
8.0
 20
33.75
 30
0.0
 40
3.0499999999999998
  0
ARC
  5
216
100
AcDbEntity
  8
0
  6
CONTINUOUS
 62
               4
100
AcDbCircle
 10
8.0
 20
33.75
 30
0.0
 40
6.9000000000000004
100
AcDbArc
 50
188.69334942994413
 51
351.30665057005587
  0
CIRCLE
  5
217
100
AcDbEntity
  8
0
  6
CONTINUOUS
 62
               4
100
AcDbCircle
 10
8.0
 20
18.25
 30
0.0
 40
7.4500000000000002
  0
ARC
  5
218
100
AcDbEntity
  8
0
  6
CONTINUOUS
 62
               4
100
AcDbCircle
 10
8.0
 20
18.25
 30
0.0
 40
6.9000000000000004
100
AcDbArc
 50
8.6933494299441296
 51
171.30665057005587
  0
CIRCLE
  5
219
100
AcDbEntity
  8
0
  6
CONTINUOUS
 62
               4
100
AcDbCircle
 10
8.0
 20
18.25
 30
0.0
 40
4.0499999999999998
  0
CIRCLE
  5
21A
100
AcDbEntity
  8
0
  6
CONTINUOUS
 62
               4
100
AcDbCircle
 10
8.0
 20
18.25
 30
0.0
 40
3.0499999999999998
  0
ARC
  5
21B
100
AcDbEntity
  8
0
  6
CONTINUOUS
 62
               4
100
AcDbCircle
 10
8.0
 20
18.25
 30
0.0
 40
6.9000000000000004
100
AcDbArc
 50
188.69334942994413
 51
351.30665057005587
  0
LINE
  5
21C
100
AcDbEntity
  8
0
  6
CONTINUOUS
 62
               4
100
AcDbLine
 10
7.25
 20
25.928541528180972
 30
0.0
 11
7.25
 21
26.071458471819028
 31
0.0
  0
LINE
  5
21D
100
AcDbEntity
  8
0
  6
CONTINUOUS
 62
               4
100
AcDbLine
 10
8.75
 20
25.928541528180972
 30
0.0
 11
8.75
 21
26.071458471819028
 31
0.0
  0
ARC
  5
21E
100
AcDbEntity
  8
0
  6
CONTINUOUS
 62
               4
100
AcDbCircle
 10
6.9500000000000171
 20
25.928541528180972
 30
0.0
 40
0.3
100
AcDbArc
 50
277.78660072413862
 51
0.0
  0
ARC
  5
21F
100
AcDbEntity
  8
0
  6
CONTINUOUS
 62
               4
100
AcDbCircle
 10
6.9500000000000171
 20
26.071458471819028
 30
0.0
 40
0.3
100
AcDbArc
 50
0.0
 51
82.213399275864049
  0
ARC
  5
220
100
AcDbEntity
  8
0
  6
CONTINUOUS
 62
               4
100
AcDbCircle
 10
9.0500000000000114
 20
25.928541528180972
 30
0.0
 40
0.3
100
AcDbArc
 50
180.0
 51
262.21339927586268
  0
ARC
  5
221
100
AcDbEntity
  8
0
  6
CONTINUOUS
 62
               4
100
AcDbCircle
 10
9.0500000000000114
 20
26.071458471819028
 30
0.0
 40
0.3
100
AcDbArc
 50
97.786600724137301
 51
180.0
  0
LINE
  5
222
100
AcDbEntity
  8
0
  6
CONTINUOUS
 62
               4
100
AcDbLine
 10
14.400000000000034
 20
32.949999999999989
 30
0.0
 11
14.820728919785722
 21
32.707092044905863
 31
0.0
  0
LINE
  5
223
100
AcDbEntity
  8
0
  6
CONTINUOUS
 62
               4
100
AcDbLine
 10
14.400000000000034
 20
34.550000000000011
 30
0.0
 11
14.820728919785722
 21
34.792907955094137
 31
0.0
  0
LINE
  5
224
100
AcDbEntity
  8
0
  6
CONTINUOUS
 62
               4
100
AcDbLine
 10
14.400000000000034
 20
32.949999999999989
 30
0.0
 11
14.400000000000034
 21
34.549999994039524
 31
0.0
  0
LINE
  5
225
100
AcDbEntity
  8
0
  6
CONTINUOUS
 62
               4
100
AcDbLine
 10
14.400000000000034
 20
17.449999999999989
 30
0.0
 11
14.820728919785722
 21
17.207092044905863
 31
0.0
  0
LINE
  5
226
100
AcDbEntity
  8
0
  6
CONTINUOUS
 62
               4
100
AcDbLine
 10
14.400000000000034
 20
19.050000000000011
 30
0.0
 11
14.820728919785722
 21
19.292907955094137
 31
0.0
  0
LINE
  5
227
100
AcDbEntity
  8
0
  6
CONTINUOUS
 62
               4
100
AcDbLine
 10
14.400000000000034
 20
17.449999999999989
 30
0.0
 11
14.400000000000034
 21
19.049999994039524
 31
0.0
  0
LINE
  5
228
100
AcDbEntity
  8
0
  6
CONTINUOUS
 62
               4
100
AcDbLine
 10
1.6000000000000227
 20
17.449999999999989
 30
0.0
 11
1.6000000000000227
 21
19.049999994039524
 31
0.0
  0
LINE
  5
229
100
AcDbEntity
  8
0
  6
CONTINUOUS
 62
               4
100
AcDbLine
 10
1.6000000000000227
 20
19.050000000000011
 30
0.0
 11
1.1792710802142778
 21
19.292907955094137
 31
0.0
  0
LINE
  5
22A
100
AcDbEntity
  8
0
  6
CONTINUOUS
 62
               4
100
AcDbLine
 10
1.6000000000000227
 20
17.449999999999989
 30
0.0
 11
1.1792710802142778
 21
17.207092044905863
 31
0.0
  0
LINE
  5
22B
100
AcDbEntity
  8
0
  6
CONTINUOUS
 62
               4
100
AcDbLine
 10
1.6000000000000227
 20
32.949999999999989
 30
0.0
 11
1.6000000000000227
 21
34.549999994039524
 31
0.0
  0
LINE
  5
22C
100
AcDbEntity
  8
0
  6
CONTINUOUS
 62
               4
100
AcDbLine
 10
1.6000000000000227
 20
32.949999999999989
 30
0.0
 11
1.1792710802142778
 21
32.707092044905863
 31
0.0
  0
LINE
  5
22D
100
AcDbEntity
  8
0
  6
CONTINUOUS
 62
               4
100
AcDbLine
 10
1.6000000000000227
 20
34.550000000000011
 30
0.0
 11
1.1792710802142778
 21
34.792907955094137
 31
0.0
  0
LINE
  5
22E
100
AcDbEntity
  8
0
  6
CONTINUOUS
 62
               7
100
AcDbLine
 10
0.0
 20
3.0
 30
0.0
 11
16.0
 21
3.0
 31
0.0
  0
LINE
  5
22F
100
AcDbEntity
  8
0
  6
CONTINUOUS
 62
             200
100
AcDbLine
 10
-1.037139892578125
 20
33.75
 30
0.0
 11
17.416468798890492
 21
33.75
 31
0.0
  0
LINE
  5
230
100
AcDbEntity
  8
0
  6
CONTINUOUS
 62
             200
100
AcDbLine
 10
-1.037139892578125
 20
18.25
 30
0.0
 11
17.416468798890492
 21
18.25
 31
0.0
  0
ENDBLK
  5
231
100
AcDbEntity
  8
0
100
AcDbBlockEnd
  0
BLOCK
  5
232
100
AcDbEntity
  8
0
100
AcDbBlockBegin
  2
F15MPJ-5
 70
               0
 10
0.0
 20
0.0
 30
0.0
  3
F15MPJ-5
  1

  0
LINE
  5
233
100
AcDbEntity
  8
0
  6
CONTINUOUS
 62
               7
100
AcDbLine
 10
13.5
 20
1.2
 30
0.0
 11
15.199999999999999
 21
1.2
 31
0.0
  0
LINE
  5
234
100
AcDbEntity
  8
0
  6
CONTINUOUS
 62
               7
100
AcDbLine
 10
2.5
 20
3.2000000000000002
 30
0.0
 11
0.5
 21
3.2000000000000002
 31
0.0
  0
LINE
  5
235
100
AcDbEntity
  8
0
  6
CONTINUOUS
 62
               7
100
AcDbLine
 10
0.0
 20
-39.600000000000001
 30
0.0
 11
0.5
 21
-39.600000000000001
 31
0.0
  0
LINE
  5
236
100
AcDbEntity
  8
0
  6
CONTINUOUS
 62
               7
100
AcDbLine
 10
15.5
 20
-39.600000000000001
 30
0.0
 11
16.0
 21
-39.600000000000001
 31
0.0
  0
LINE
  5
237
100
AcDbEntity
  8
0
  6
CONTINUOUS
 62
               7
100
AcDbLine
 10
0.0
 20
-39.600000000000001
 30
0.0
 11
0.0
 21
60.399999999999999
 31
0.0
  0
LINE
  5
238
100
AcDbEntity
  8
0
  6
CONTINUOUS
 62
               7
100
AcDbLine
 10
16.0
 20
-39.600000000000001
 30
0.0
 11
16.0
 21
60.399999999999999
 31
0.0
  0
LINE
  5
239
100
AcDbEntity
  8
0
  6
CONTINUOUS
 62
               7
100
AcDbLine
 10
12.949999999999999
 20
57.899999999999999
 30
0.0
 11
16.0
 21
57.899999999999999
 31
0.0
  0
LINE
  5
23A
100
AcDbEntity
  8
0
  6
CONTINUOUS
 62
               7
100
AcDbLine
 10
13.0
 20
48.0
 30
0.0
 11
13.199999999999999
 21
48.0
 31
0.0
  0
LINE
  5
23B
100
AcDbEntity
  8
0
  6
CONTINUOUS
 62
               7
100
AcDbLine
 10
13.199999999999999
 20
48.0
 30
0.0
 11
13.199999999999999
 21
57.899999999999999
 31
0.0
  0
LINE
  5
23C
100
AcDbEntity
  8
0
  6
CONTINUOUS
 62
               7
100
AcDbLine
 10
2.7999999999999998
 20
48.0
 30
0.0
 11
2.7999999999999998
 21
57.899999999999999
 31
0.0
  0
LINE
  5
23D
100
AcDbEntity
  8
0
  6
CONTINUOUS
 62
               7
100
AcDbLine
 10
2.7999999999999998
 20
48.0
 30
0.0
 11
3.0
 21
48.0
 31
0.0
  0
LINE
  5
23E
100
AcDbEntity
  8
0
  6
CONTINUOUS
 62
               7
100
AcDbLine
 10
3.0499999999999998
 20
57.899999999999999
 30
0.0
 11
0.0
 21
57.899999999999999
 31
0.0
  0
LINE
  5
23F
100
AcDbEntity
  8
0
  6
CONTINUOUS
 62
               7
100
AcDbLine
 10
0.0
 20
60.399999999999999
 30
0.0
 11
0.0
 21
48.399999999999999
 31
0.0
  0
LINE
  5
240
100
AcDbEntity
  8
0
  6
CONTINUOUS
 62
               7
100
AcDbLine
 10
3.0
 20
20.399999999999999
 30
0.0
 11
13.0
 21
20.399999999999999
 31
0.0
  0
LINE
  5
241
100
AcDbEntity
  8
0
  6
CONTINUOUS
 62
               7
100
AcDbLine
 10
3.0
 20
31.800000000000001
 30
0.0
 11
13.0
 21
31.800000000000001
 31
0.0
  0
LINE
  5
242
100
AcDbEntity
  8
0
  6
CONTINUOUS
 62
               7
100
AcDbLine
 10
3.0
 20
22.399999999999999
 30
0.0
 11
13.0
 21
22.399999999999999
 31
0.0
  0
LINE
  5
243
100
AcDbEntity
  8
0
  6
CENTER
 62
               2
100
AcDbLine
 10
5.5
 20
28.600000000000001
 30
0.0
 11
10.5
 21
28.600000000000001
 31
0.0
  0
LINE
  5
244
100
AcDbEntity
  8
0
  6
CONTINUOUS
 62
               2
100
AcDbLine
 10
8.0
 20
-57.438797938144347
 30
0.0
 11
8.0
 21
68.550000000000011
 31
0.0
  0
LINE
  5
245
100
AcDbEntity
  8
0
  6
CONTINUOUS
 62
               4
100
AcDbLine
 10
3.0
 20
55.899999999999999
 30
0.0
 11
13.0
 21
55.899999999999999
 31
0.0
  0
LINE
  5
246
100
AcDbEntity
  8
0
  6
CONTINUOUS
 62
               7
100
AcDbLine
 10
6.0700000000000003
 20
28.300000000000001
 30
0.0
 11
9.9199999999999999
 21
28.300000000000001
 31
0.0
  0
LINE
  5
247
100
AcDbEntity
  8
0
  6
CONTINUOUS
 62
               7
100
AcDbLine
 10
6.0700000000000003
 20
28.899999999999999
 30
0.0
 11
9.9199999999999999
 21
28.899999999999999
 31
0.0
  0
LINE
  5
248
100
AcDbEntity
  8
0
  6
CONTINUOUS
 62
               4
100
AcDbLine
 10
3.0499999999999998
 20
55.899999999999999
 30
0.0
 11
3.0499999999999998
 21
64.400000000000006
 31
0.0
  0
LINE
  5
249
100
AcDbEntity
  8
0
  6
CONTINUOUS
 62
               4
100
AcDbLine
 10
12.5
 20
64.900000000000006
 30
0.0
 11
3.5
 21
64.900000000000006
 31
0.0
  0
LINE
  5
24A
100
AcDbEntity
  8
0
  6
CONTINUOUS
 62
               4
100
AcDbLine
 10
12.949999999999999
 20
60.399999999999999
 30
0.0
 11
3.0499999999999998
 21
60.399999999999999
 31
0.0
  0
LINE
  5
24B
100
AcDbEntity
  8
0
  6
CONTINUOUS
 62
               4
100
AcDbLine
 10
12.949999999999999
 20
55.899999999999999
 30
0.0
 11
12.949999999999999
 21
64.400000000000006
 31
0.0
  0
LINE
  5
24C
100
AcDbEntity
  8
0
  6
CONTINUOUS
 62
               7
100
AcDbLine
 10
13.0
 20
20.399999999999999
 30
0.0
 11
13.0
 21
31.800000000000001
 31
0.0
  0
LINE
  5
24D
100
AcDbEntity
  8
0
  6
CONTINUOUS
 62
               7
100
AcDbLine
 10
3.0
 20
20.399999999999999
 30
0.0
 11
3.0
 21
31.800000000000001
 31
0.0
  0
LINE
  5
24E
100
AcDbEntity
  8
0
  6
CONTINUOUS
 62
               7
100
AcDbLine
 10
15.5
 20
-54.100000000000001
 30
0.0
 11
15.5
 21
-32.130000000000003
 31
0.0
  0
LINE
  5
24F
100
AcDbEntity
  8
0
  6
CONTINUOUS
 62
               7
100
AcDbLine
 10
0.5
 20
-54.100000000000001
 30
0.0
 11
0.5
 21
-30.129999999999999
 31
0.0
  0
LINE
  5
250
100
AcDbEntity
  8
0
  6
CONTINUOUS
 62
               7
100
AcDbLine
 10
0.5
 20
10.4
 30
0.0
 11
15.5
 21
10.4
 31
0.0
  0
LINE
  5
251
100
AcDbEntity
  8
0
  6
CONTINUOUS
 62
               7
100
AcDbLine
 10
2.5
 20
20.899999999999999
 30
0.0
 11
0.5
 21
18.899999999999999
 31
0.0
  0
LINE
  5
252
100
AcDbEntity
  8
0
  6
CONTINUOUS
 62
               7
100
AcDbLine
 10
13.5
 20
20.899999999999999
 30
0.0
 11
15.5
 21
18.899999999999999
 31
0.0
  0
LINE
  5
253
100
AcDbEntity
  8
0
  6
CONTINUOUS
 62
               7
100
AcDbLine
 10
13.5
 20
6.5999999999999996
 30
0.0
 11
15.5
 21
6.5999999999999996
 31
0.0
  0
LINE
  5
254
100
AcDbEntity
  8
0
  6
CONTINUOUS
 62
               7
100
AcDbLine
 10
2.5
 20
-31.800000000000001
 30
0.0
 11
0.5
 21
-31.800000000000001
 31
0.0
  0
LINE
  5
255
100
AcDbEntity
  8
0
  6
CONTINUOUS
 62
               7
100
AcDbLine
 10
2.5
 20
-26.399999999999999
 30
0.0
 11
0.5
 21
-26.399999999999999
 31
0.0
  0
LINE
  5
256
100
AcDbEntity
  8
0
  6
CONTINUOUS
 62
               7
100
AcDbLine
 10
13.5
 20
1.2
 30
0.0
 11
15.5
 21
1.2
 31
0.0
  0
LINE
  5
257
100
AcDbEntity
  8
0
  6
CONTINUOUS
 62
               7
100
AcDbLine
 10
15.5
 20
10.199999999999999
 30
0.0
 11
0.5
 21
10.199999999999999
 31
0.0
  0
LINE
  5
258
100
AcDbEntity
  8
0
  6
CONTINUOUS
 62
               7
100
AcDbLine
 10
15.5
 20
-35.399999999999999
 30
0.0
 11
0.5
 21
-35.399999999999999
 31
0.0
  0
LINE
  5
259
100
AcDbEntity
  8
0
  6
CONTINUOUS
 62
               7
100
AcDbLine
 10
2.5
 20
3.2000000000000002
 30
0.0
 11
0.5
 21
3.2000000000000002
 31
0.0
  0
LINE
  5
25A
100
AcDbEntity
  8
0
  6
CONTINUOUS
 62
               7
100
AcDbLine
 10
13.5
 20
-28.399999999999999
 30
0.0
 11
15.5
 21
-28.399999999999999
 31
0.0
  0
LINE
  5
25B
100
AcDbEntity
  8
0
  6
CONTINUOUS
 62
               7
100
AcDbLine
 10
10.800000000000001
 20
-31.100000000000001
 30
0.0
 11
10.800000000000001
 21
-35.399999999999999
 31
0.0
  0
LINE
  5
25C
100
AcDbEntity
  8
0
  6
CONTINUOUS
 62
               7
100
AcDbLine
 10
5.2000000000000002
 20
10.199999999999999
 30
0.0
 11
5.2000000000000002
 21
5.9000000000000004
 31
0.0
  0
LINE
  5
25D
100
AcDbEntity
  8
0
  6
CONTINUOUS
 62
               7
100
AcDbLine
 10
10.800000000000001
 20
-33.399999999999999
 30
0.0
 11
0.5
 21
-33.399999999999999
 31
0.0
  0
LINE
  5
25E
100
AcDbEntity
  8
0
  6
CONTINUOUS
 62
               7
100
AcDbLine
 10
15.5
 20
8.1999999999999993
 30
0.0
 11
5.2000000000000002
 21
8.1999999999999993
 31
0.0
  0
LINE
  5
25F
100
AcDbEntity
  8
0
  6
CONTINUOUS
 62
               7
100
AcDbLine
 10
0.5
 20
-35.600000000000001
 30
0.0
 11
15.5
 21
-35.600000000000001
 31
0.0
  0
LINE
  5
260
100
AcDbEntity
  8
0
  6
CONTINUOUS
 62
               7
100
AcDbLine
 10
0.5
 20
-45.600000000000001
 30
0.0
 11
15.5
 21
-45.600000000000001
 31
0.0
  0
LINE
  5
261
100
AcDbEntity
  8
0
  6
CONTINUOUS
 62
               7
100
AcDbLine
 10
1.5
 20
-44.600000000000001
 30
0.0
 11
14.5
 21
-44.600000000000001
 31
0.0
  0
LINE
  5
262
100
AcDbEntity
  8
0
  6
CONTINUOUS
 62
               7
100
AcDbLine
 10
1.5
 20
-36.600000000000001
 30
0.0
 11
14.5
 21
-36.600000000000001
 31
0.0
  0
LINE
  5
263
100
AcDbEntity
  8
0
  6
CONTINUOUS
 62
               7
100
AcDbLine
 10
14.5
 20
-44.600000000000001
 30
0.0
 11
14.5
 21
-36.600000000000001
 31
0.0
  0
LINE
  5
264
100
AcDbEntity
  8
0
  6
CONTINUOUS
 62
               7
100
AcDbLine
 10
1.5
 20
-44.600000000000001
 30
0.0
 11
1.5
 21
-36.600000000000001
 31
0.0
  0
LINE
  5
265
100
AcDbEntity
  8
0
  6
CONTINUOUS
 62
               7
100
AcDbLine
 10
0.5
 20
-35.600000000000001
 30
0.0
 11
1.5
 21
-36.600000000000001
 31
0.0
  0
LINE
  5
266
100
AcDbEntity
  8
0
  6
CONTINUOUS
 62
               7
100
AcDbLine
 10
15.5
 20
-35.600000000000001
 30
0.0
 11
14.5
 21
-36.600000000000001
 31
0.0
  0
LINE
  5
267
100
AcDbEntity
  8
0
  6
CONTINUOUS
 62
               7
100
AcDbLine
 10
14.5
 20
-44.600000000000001
 30
0.0
 11
15.5
 21
-45.600000000000001
 31
0.0
  0
LINE
  5
268
100
AcDbEntity
  8
0
  6
CONTINUOUS
 62
               7
100
AcDbLine
 10
1.5
 20
-44.600000000000001
 30
0.0
 11
0.5
 21
-45.600000000000001
 31
0.0
  0
LINE
  5
269
100
AcDbEntity
  8
0
  6
CONTINUOUS
 62
               7
100
AcDbLine
 10
1.0
 20
-54.600000000000001
 30
0.0
 11
15.0
 21
-54.600000000000001
 31
0.0
  0
LINE
  5
26A
100
AcDbEntity
  8
0
  6
CONTINUOUS
 62
               7
100
AcDbLine
 10
14.41
 20
2.98
 30
0.0
 11
12.58
 21
4.8099999999999996
 31
0.0
  0
LINE
  5
26B
100
AcDbEntity
  8
0
  6
CONTINUOUS
 62
               7
100
AcDbLine
 10
3.4100000000000001
 20
4.9800000000000004
 30
0.0
 11
1.5800000000000001
 21
6.8099999999999996
 31
0.0
  0
LINE
  5
26C
100
AcDbEntity
  8
0
  6
CONTINUOUS
 62
               7
100
AcDbLine
 10
1.5800000000000001
 20
4.9800000000000004
 30
0.0
 11
3.4100000000000001
 21
6.8099999999999996
 31
0.0
  0
LINE
  5
26D
100
AcDbEntity
  8
0
  6
CONTINUOUS
 62
               7
100
AcDbLine
 10
12.58
 20
2.98
 30
0.0
 11
14.41
 21
4.8099999999999996
 31
0.0
  0
LINE
  5
26E
100
AcDbEntity
  8
0
  6
CONTINUOUS
 62
               7
100
AcDbLine
 10
0.5
 20
6.9299999999999997
 30
0.0
 11
0.5
 21
18.899999999999999
 31
0.0
  0
LINE
  5
26F
100
AcDbEntity
  8
0
  6
CONTINUOUS
 62
               7
100
AcDbLine
 10
15.5
 20
-30.059999999999999
 30
0.0
 11
15.5
 21
2.8599999999999999
 31
0.0
  0
LINE
  5
270
100
AcDbEntity
  8
0
  6
CONTINUOUS
 62
               7
100
AcDbLine
 10
12.58
 20
-32.009999999999998
 30
0.0
 11
14.41
 21
-30.18
 31
0.0
  0
LINE
  5
271
100
AcDbEntity
  8
0
  6
CONTINUOUS
 62
               7
100
AcDbLine
 10
14.41
 20
-32.009999999999998
 30
0.0
 11
12.58
 21
-30.18
 31
0.0
  0
LINE
  5
272
100
AcDbEntity
  8
0
  6
CONTINUOUS
 62
               7
100
AcDbLine
 10
1.5800000000000001
 20
-30.010000000000002
 30
0.0
 11
3.4100000000000001
 21
-28.18
 31
0.0
  0
LINE
  5
273
100
AcDbEntity
  8
0
  6
CONTINUOUS
 62
               7
100
AcDbLine
 10
3.4100000000000001
 20
-30.010000000000002
 30
0.0
 11
1.5800000000000001
 21
-28.18
 31
0.0
  0
LINE
  5
274
100
AcDbEntity
  8
0
  6
CONTINUOUS
 62
               7
100
AcDbLine
 10
0.5
 20
-28.059999999999999
 30
0.0
 11
0.5
 21
4.8600000000000003
 31
0.0
  0
LINE
  5
275
100
AcDbEntity
  8
0
  6
CONTINUOUS
 62
               7
100
AcDbLine
 10
15.5
 20
4.9299999999999997
 30
0.0
 11
15.5
 21
18.899999999999999
 31
0.0
  0
LINE
  5
276
100
AcDbEntity
  8
0
  6
CONTINUOUS
 62
               7
100
AcDbLine
 10
2.5
 20
20.899999999999999
 30
0.0
 11
3.0
 21
20.899999999999999
 31
0.0
  0
LINE
  5
277
100
AcDbEntity
  8
0
  6
CONTINUOUS
 62
               7
100
AcDbLine
 10
13.0
 20
20.899999999999999
 30
0.0
 11
13.5
 21
20.899999999999999
 31
0.0
  0
LINE
  5
278
100
AcDbEntity
  8
0
  6
CONTINUOUS
 62
               4
100
AcDbLine
 10
3.0
 20
31.800000000000001
 30
0.0
 11
3.0
 21
55.899999999999999
 31
0.0
  0
LINE
  5
279
100
AcDbEntity
  8
0
  6
CONTINUOUS
 62
               4
100
AcDbLine
 10
13.0
 20
31.800000000000001
 30
0.0
 11
13.0
 21
55.899999999999999
 31
0.0
  0
LINE
  5
27A
100
AcDbEntity
  8
0
  6
CONTINUOUS
 62
               7
100
AcDbLine
 10
16.0
 20
60.399999999999999
 30
0.0
 11
0.0
 21
60.399999999999999
 31
0.0
  0
ARC
  5
27B
100
AcDbEntity
  8
0
  6
CONTINUOUS
 62
               7
100
AcDbCircle
 10
15.200006866407541
 20
0.9000068664075419
 30
0.0
 40
0.2999931336710392
100
AcDbArc
 50
359.9986885827426
 51
90.00131141725744
  0
CIRCLE
  5
27C
100
AcDbEntity
  8
0
  6
CONTINUOUS
 62
               7
100
AcDbCircle
 10
8.0
 20
28.599990844726562
 30
0.0
 40
1.9499998092651367
  0
ARC
  5
27D
100
AcDbEntity
  8
0
  6
CONTINUOUS
 62
               4
100
AcDbCircle
 10
12.450003051673994
 20
64.400003051673991
 30
0.0
 40
0.4999969483353183
100
AcDbArc
 50
359.99965030178521
 51
90.00034969821499
  0
ARC
  5
27E
100
AcDbEntity
  8
0
  6
CONTINUOUS
 62
               4
100
AcDbCircle
 10
3.5499893188499838
 20
64.400010681150007
 30
0.0
 40
0.4999893189640733
100
AcDbArc
 50
89.998776004220304
 51
180.0012239957797
  0
ARC
  5
27F
100
AcDbEntity
  8
0
  6
CONTINUOUS
 62
               7
100
AcDbCircle
 10
13.5
 20
3.8999999999999999
 30
0.0
 40
2.6999999999999997
100
AcDbArc
 50
90.0
 51
270.0
  0
ARC
  5
280
100
AcDbEntity
  8
0
  6
CONTINUOUS
 62
               7
100
AcDbCircle
 10
2.5
 20
-29.100000000000001
 30
0.0
 40
2.7000000000000011
100
AcDbArc
 50
270.0
 51
90.0
  0
CIRCLE
  5
281
100
AcDbEntity
  8
0
  6
CONTINUOUS
 62
               7
100
AcDbCircle
 10
13.5
 20
3.9000320434570313
 30
0.0
 40
2.25
  0
ARC
  5
282
100
AcDbEntity
  8
0
  6
CONTINUOUS
 62
               7
100
AcDbCircle
 10
2.4999992370604391
 20
5.9000007629395617
 30
0.0
 40
2.700000762939669
100
AcDbArc
 50
270.00001619007571
 51
359.99998380992423
  0
ARC
  5
283
100
AcDbEntity
  8
0
  6
CONTINUOUS
 62
               7
100
AcDbCircle
 10
13.499995422367162
 20
-31.099995422367162
 30
0.0
 40
2.6999954223710425
100
AcDbArc
 50
89.999902859449463
 51
180.00009714055057
  0
ARC
  5
284
100
AcDbEntity
  8
0
  6
CONTINUOUS
 62
               7
100
AcDbCircle
 10
1.000004577657674
 20
-54.099995422342325
 30
0.0
 40
0.5000045776786289
100
AcDbArc
 50
180.00052455612737
 51
269.99947544387288
  0
ARC
  5
285
100
AcDbEntity
  8
0
  6
CONTINUOUS
 62
               7
100
AcDbCircle
 10
14.999995422342327
 20
-54.099995422342325
 30
0.0
 40
0.5000045776786289
100
AcDbArc
 50
270.000524556127
 51
359.9994754438726
  0
CIRCLE
  5
286
100
AcDbEntity
  8
0
  6
CONTINUOUS
 62
               7
100
AcDbCircle
 10
2.5
 20
5.9000015258789062
 30
0.0
 40
2.25
  0
CIRCLE
  5
287
100
AcDbEntity
  8
0
  6
CONTINUOUS
 62
               7
100
AcDbCircle
 10
13.5
 20
-31.099990844726562
 30
0.0
 40
2.25
  0
CIRCLE
  5
288
100
AcDbEntity
  8
0
  6
CONTINUOUS
 62
               7
100
AcDbCircle
 10
2.5
 20
-29.099990844726562
 30
0.0
 40
2.25
  0
ENDBLK
  5
289
100
AcDbEntity
  8
0
100
AcDbBlockEnd
  0
BLOCK
  5
28A
100
AcDbEntity
  8
0
100
AcDbBlockBegin
  2
F15MPJ-6
 70
               0
 10
0.0
 20
0.0
 30
0.0
  3
F15MPJ-6
  1

  0
LINE
  5
28B
100
AcDbEntity
  8
0
  6
CENTER
 62
               2
100
AcDbLine
 10
78.0
 20
28.600000000000001
 30
0.0
 11
75.299999999999997
 21
28.600000000000001
 31
0.0
  0
LINE
  5
28C
100
AcDbEntity
  8
0
  6
CONTINUOUS
 62
               7
100
AcDbLine
 10
76.0
 20
20.399999999999999
 30
0.0
 11
76.0
 21
22.399999999999999
 31
0.0
  0
LINE
  5
28D
100
AcDbEntity
  8
0
  6
CONTINUOUS
 62
               7
100
AcDbLine
 10
77.0
 20
26.649999999999999
 30
0.0
 11
77.0
 21
28.300000000000001
 31
0.0
  0
LINE
  5
28E
100
AcDbEntity
  8
0
  6
CONTINUOUS
 62
               7
100
AcDbLine
 10
77.0
 20
26.649999999999999
 30
0.0
 11
76.0
 21
26.649999999999999
 31
0.0
  0
LINE
  5
28F
100
AcDbEntity
  8
0
  6
CONTINUOUS
 62
               7
100
AcDbLine
 10
77.0
 20
30.550000000000001
 30
0.0
 11
76.0
 21
30.550000000000001
 31
0.0
  0
LINE
  5
290
100
AcDbEntity
  8
0
  6
CONTINUOUS
 62
               7
100
AcDbLine
 10
76.400000000000006
 20
28.300000000000001
 30
0.0
 11
76.400000000000006
 21
28.899999999999999
 31
0.0
  0
LINE
  5
291
100
AcDbEntity
  8
0
  6
CONTINUOUS
 62
               7
100
AcDbLine
 10
77.0
 20
28.300000000000001
 30
0.0
 11
76.400000000000006
 21
28.300000000000001
 31
0.0
  0
LINE
  5
292
100
AcDbEntity
  8
0
  6
CONTINUOUS
 62
               7
100
AcDbLine
 10
77.0
 20
28.899999999999999
 30
0.0
 11
76.400000000000006
 21
28.899999999999999
 31
0.0
  0
LINE
  5
293
100
AcDbEntity
  8
0
  6
CONTINUOUS
 62
               7
100
AcDbLine
 10
77.0
 20
28.899999999999999
 30
0.0
 11
77.0
 21
30.550000000000001
 31
0.0
  0
LINE
  5
294
100
AcDbEntity
  8
0
  6
CONTINUOUS
 62
               7
100
AcDbLine
 10
49.0
 20
31.899999999999999
 30
0.0
 11
76.0
 21
31.899999999999999
 31
0.0
  0
LINE
  5
295
100
AcDbEntity
  8
0
  6
CONTINUOUS
 62
               7
100
AcDbLine
 10
76.0
 20
10.4
 30
0.0
 11
49.0
 21
10.4
 31
0.0
  0
LINE
  5
296
100
AcDbEntity
  8
0
  6
CONTINUOUS
 62
               7
100
AcDbLine
 10
80.0
 20
-35.600000000000001
 30
0.0
 11
49.0
 21
-35.600000000000001
 31
0.0
  0
LINE
  5
297
100
AcDbEntity
  8
0
  6
CONTINUOUS
 62
               7
100
AcDbLine
 10
76.0
 20
-35.600000000000001
 30
0.0
 11
76.0
 21
31.899999999999999
 31
0.0
  0
LINE
  5
298
100
AcDbEntity
  8
0
  6
CONTINUOUS
 62
               7
100
AcDbLine
 10
81.0
 20
8.0700000000000003
 30
0.0
 11
81.0
 21
-33.270000000000003
 31
0.0
  0
LINE
  5
299
100
AcDbEntity
  8
0
  6
CONTINUOUS
 62
               7
100
AcDbLine
 10
79.0
 20
-43.700000000000003
 30
0.0
 11
79.0
 21
-37.5
 31
0.0
  0
LINE
  5
29A
100
AcDbEntity
  8
0
  6
CONTINUOUS
 62
               7
100
AcDbLine
 10
81.0
 20
-44.600000000000001
 30
0.0
 11
81.0
 21
-36.600000000000001
 31
0.0
  0
LINE
  5
29B
100
AcDbEntity
  8
0
  6
CONTINUOUS
 62
               7
100
AcDbLine
 10
80.0
 20
-35.600000000000001
 30
0.0
 11
81.0
 21
-36.600000000000001
 31
0.0
  0
LINE
  5
29C
100
AcDbEntity
  8
0
  6
CONTINUOUS
 62
               7
100
AcDbLine
 10
80.0
 20
-45.600000000000001
 30
0.0
 11
81.0
 21
-44.600000000000001
 31
0.0
  0
LINE
  5
29D
100
AcDbEntity
  8
0
  6
CONTINUOUS
 62
               7
100
AcDbLine
 10
79.799999999999997
 20
-43.700000000000003
 30
0.0
 11
79.799999999999997
 21
-37.5
 31
0.0
  0
LINE
  5
29E
100
AcDbEntity
  8
0
  6
CONTINUOUS
 62
               7
100
AcDbLine
 10
80.0
 20
-45.600000000000001
 30
0.0
 11
49.0
 21
-45.600000000000001
 31
0.0
  0
LINE
  5
29F
100
AcDbEntity
  8
0
  6
CONTINUOUS
 62
               7
100
AcDbLine
 10
79.0
 20
-54.600000000000001
 30
0.0
 11
49.0
 21
-54.600000000000001
 31
0.0
  0
LINE
  5
2A0
100
AcDbEntity
  8
0
  6
CONTINUOUS
 62
               7
100
AcDbLine
 10
79.0
 20
-54.600000000000001
 30
0.0
 11
79.0
 21
-45.600000000000001
 31
0.0
  0
LINE
  5
2A1
100
AcDbEntity
  8
0
  6
CONTINUOUS
 62
               7
100
AcDbLine
 10
75.75
 20
-52.600000000000001
 30
0.0
 11
75.75
 21
-52.100000000000001
 31
0.0
  0
LINE
  5
2A2
100
AcDbEntity
  8
0
  6
CONTINUOUS
 62
               7
100
AcDbLine
 10
70.25
 20
-52.600000000000001
 30
0.0
 11
70.25
 21
-52.100000000000001
 31
0.0
  0
LINE
  5
2A3
100
AcDbEntity
  8
0
  6
CONTINUOUS
 62
               7
100
AcDbLine
 10
74.25
 20
-54.100000000000001
 30
0.0
 11
71.75
 21
-54.100000000000001
 31
0.0
  0
LINE
  5
2A4
100
AcDbEntity
  8
0
  6
CONTINUOUS
 62
               7
100
AcDbLine
 10
77.099999999999994
 20
-45.600000000000001
 30
0.0
 11
77.099999999999994
 21
-43.700000000000003
 31
0.0
  0
LINE
  5
2A5
100
AcDbEntity
  8
0
  6
CONTINUOUS
 62
               7
100
AcDbLine
 10
79.799999999999997
 20
-37.5
 30
0.0
 11
77.099999999999994
 21
-37.5
 31
0.0
  0
LINE
  5
2A6
100
AcDbEntity
  8
0
  6
CONTINUOUS
 62
               7
100
AcDbLine
 10
79.799999999999997
 20
-43.700000000000003
 30
0.0
 11
77.099999999999994
 21
-43.700000000000003
 31
0.0
  0
LINE
  5
2A7
100
AcDbEntity
  8
0
  6
CONTINUOUS
 62
               7
100
AcDbLine
 10
77.099999999999994
 20
-37.5
 30
0.0
 11
77.099999999999994
 21
-35.600000000000001
 31
0.0
  0
LINE
  5
2A8
100
AcDbEntity
  8
0
  6
CONTINUOUS
 62
               7
100
AcDbLine
 10
80.0
 20
-45.600000000000001
 30
0.0
 11
80.0
 21
-35.600000000000001
 31
0.0
  0
LINE
  5
2A9
100
AcDbEntity
  8
0
  6
CONTINUOUS
 62
               7
100
AcDbLine
 10
81.0
 20
-31.800000000000001
 30
0.0
 11
76.0
 21
-31.800000000000001
 31
0.0
  0
LINE
  5
2AA
100
AcDbEntity
  8
0
  6
CONTINUOUS
 62
               7
100
AcDbLine
 10
81.0
 20
-26.399999999999999
 30
0.0
 11
76.0
 21
-26.399999999999999
 31
0.0
  0
LINE
  5
2AB
100
AcDbEntity
  8
0
  6
CONTINUOUS
 62
               7
100
AcDbLine
 10
76.799999999999997
 20
-31.350000000000001
 30
0.0
 11
76.599999999999994
 21
-31.350000000000001
 31
0.0
  0
LINE
  5
2AC
100
AcDbEntity
  8
0
  6
CONTINUOUS
 62
               7
100
AcDbLine
 10
76.799999999999997
 20
-26.850000000000001
 30
0.0
 11
76.599999999999994
 21
-26.850000000000001
 31
0.0
  0
LINE
  5
2AD
100
AcDbEntity
  8
0
  6
CONTINUOUS
 62
               7
100
AcDbLine
 10
78.299999999999997
 20
-28.350000000000001
 30
0.0
 11
78.299999999999997
 21
-29.850000000000001
 31
0.0
  0
LINE
  5
2AE
100
AcDbEntity
  8
0
  6
CONTINUOUS
 62
               7
100
AcDbLine
 10
79.200000000000003
 20
8.1500000000000004
 30
0.0
 11
79.0
 21
8.1500000000000004
 31
0.0
  0
LINE
  5
2AF
100
AcDbEntity
  8
0
  6
CONTINUOUS
 62
               7
100
AcDbLine
 10
80.700000000000003
 20
6.6500000000000004
 30
0.0
 11
80.700000000000003
 21
5.1500000000000004
 31
0.0
  0
LINE
  5
2B0
100
AcDbEntity
  8
0
  6
CONTINUOUS
 62
               7
100
AcDbLine
 10
79.200000000000003
 20
3.6499999999999999
 30
0.0
 11
79.0
 21
3.6499999999999999
 31
0.0
  0
LINE
  5
2B1
100
AcDbEntity
  8
0
  6
CONTINUOUS
 62
               7
100
AcDbLine
 10
76.0
 20
18.899999999999999
 30
0.0
 11
49.0
 21
18.899999999999999
 31
0.0
  0
LINE
  5
2B2
100
AcDbEntity
  8
0
  6
CONTINUOUS
 62
               7
100
AcDbLine
 10
69.799999999999997
 20
-54.600000000000001
 30
0.0
 11
69.799999999999997
 21
-52.100000000000001
 31
0.0
  0
LINE
  5
2B3
100
AcDbEntity
  8
0
  6
CONTINUOUS
 62
               7
100
AcDbLine
 10
76.200000000000003
 20
-54.600000000000001
 30
0.0
 11
76.200000000000003
 21
-52.100000000000001
 31
0.0
  0
LINE
  5
2B4
100
AcDbEntity
  8
0
  6
CONTINUOUS
 62
               7
100
AcDbLine
 10
76.200000000000003
 20
-52.100000000000001
 30
0.0
 11
69.799999999999997
 21
-52.100000000000001
 31
0.0
  0
LINE
  5
2B5
100
AcDbEntity
  8
0
  6
CONTINUOUS
 62
               7
100
AcDbLine
 10
79.0
 20
3.2000000000000002
 30
0.0
 11
79.0
 21
10.17
 31
0.0
  0
LINE
  5
2B6
100
AcDbEntity
  8
0
  6
CONTINUOUS
 62
               7
100
AcDbLine
 10
76.0
 20
20.899999999999999
 30
0.0
 11
49.0
 21
20.899999999999999
 31
0.0
  0
LINE
  5
2B7
100
AcDbEntity
  8
0
  6
CONTINUOUS
 62
               7
100
AcDbLine
 10
76.599999999999994
 20
-31.600000000000001
 30
0.0
 11
76.599999999999994
 21
-26.600000000000001
 31
0.0
  0
LINE
  5
2B8
100
AcDbEntity
  8
0
  6
CONTINUOUS
 62
               7
100
AcDbLine
 10
76.0
 20
-26.600000000000001
 30
0.0
 11
76.599999999999994
 21
-26.600000000000001
 31
0.0
  0
LINE
  5
2B9
100
AcDbEntity
  8
0
  6
CONTINUOUS
 62
               7
100
AcDbLine
 10
76.0
 20
-31.600000000000001
 30
0.0
 11
76.599999999999994
 21
-31.600000000000001
 31
0.0
  0
LINE
  5
2BA
100
AcDbEntity
  8
0
  6
CONTINUOUS
 62
               7
100
AcDbLine
 10
78.870000000000005
 20
10.199999999999999
 30
0.0
 11
76.0
 21
10.199999999999999
 31
0.0
  0
LINE
  5
2BB
100
AcDbEntity
  8
0
  6
CONTINUOUS
 62
               7
100
AcDbLine
 10
78.870000000000005
 20
-35.399999999999999
 30
0.0
 11
76.0
 21
-35.399999999999999
 31
0.0
  0
LINE
  5
2BC
100
AcDbEntity
  8
0
  6
CONTINUOUS
 62
               7
100
AcDbLine
 10
80.909999999999997
 20
8.2799999999999994
 30
0.0
 11
79.079999999999998
 21
10.109999999999999
 31
0.0
  0
LINE
  5
2BD
100
AcDbEntity
  8
0
  6
CONTINUOUS
 62
               7
100
AcDbLine
 10
81.0
 20
3.2000000000000002
 30
0.0
 11
79.0
 21
3.2000000000000002
 31
0.0
  0
LINE
  5
2BE
100
AcDbEntity
  8
0
  6
CONTINUOUS
 62
               7
100
AcDbLine
 10
80.909999999999997
 20
-33.479999999999997
 30
0.0
 11
79.079999999999998
 21
-35.310000000000002
 31
0.0
  0
LINE
  5
2BF
100
AcDbEntity
  8
0
  6
CONTINUOUS
 62
               7
100
AcDbLine
 10
49.0
 20
-43.100000000000001
 30
0.0
 11
49.0
 21
-54.600000000000001
 31
0.0
  0
ARC
  5
2C0
100
AcDbEntity
  8
0
  6
CONTINUOUS
 62
               7
100
AcDbCircle
 10
74.24999542213898
 20
-52.599995422138988
 30
0.0
 40
1.5000045778679985
100
AcDbArc
 50
270.00017486087677
 51
359.99982513912352
  0
ARC
  5
2C1
100
AcDbEntity
  8
0
  6
CONTINUOUS
 62
               7
100
AcDbCircle
 10
71.749974060065583
 20
-52.600025939934419
 30
0.0
 40
1.4999740602898766
100
AcDbArc
 50
179.99900915035641
 51
270.00099084964359
  0
ARC
  5
2C2
100
AcDbEntity
  8
0
  6
CONTINUOUS
 62
               7
100
AcDbCircle
 10
76.799989318505396
 20
-29.849989318505397
 30
0.0
 40
1.5000106815326353
100
AcDbArc
 50
270.00040800013431
 51
359.99959199986557
  0
ARC
  5
2C3
100
AcDbEntity
  8
0
  6
CONTINUOUS
 62
               7
100
AcDbCircle
 10
76.799967956504943
 20
-28.350032043495059
 30
0.0
 40
1.5000320438373125
100
AcDbArc
 50
0.0012239452052493
 51
89.998776054794902
  0
ARC
  5
2C4
100
AcDbEntity
  8
0
  6
CONTINUOUS
 62
               7
100
AcDbCircle
 10
79.19995727537821
 20
6.6499572753782061
 30
0.0
 40
1.5000427252302413
100
AcDbArc
 50
0.0016319138576915
 51
89.998368086142378
  0
ARC
  5
2C5
100
AcDbEntity
  8
0
  6
CONTINUOUS
 62
               7
100
AcDbCircle
 10
79.199978637443863
 20
5.1500213625561457
 30
0.0
 40
1.5000213627082635
100
AcDbArc
 50
270.00081597791666
 51
359.99918402208317
  0
ARC
  5
2C6
100
AcDbEntity
  8
0
  6
CONTINUOUS
 62
               7
100
AcDbCircle
 10
51.995000000000005
 20
21.899980607964604
 30
0.0
 40
2.5033949381400551
100
AcDbArc
 50
203.54378734154827
 51
336.45621265845165
  0
ARC
  5
2C7
100
AcDbEntity
  8
0
  6
CONTINUOUS
 62
               7
100
AcDbCircle
 10
78.867204592319055
 20
9.9034773820778295
 30
0.0
 40
0.2965357942028573
100
AcDbArc
 50
44.142947475125148
 51
89.459871497572991
  0
ARC
  5
2C8
100
AcDbEntity
  8
0
  6
CONTINUOUS
 62
               7
100
AcDbCircle
 10
80.703458024330416
 20
8.0671962961416046
 30
0.0
 40
0.2965552294081889
100
AcDbArc
 50
0.5416960327565352
 51
45.855484994541065
  0
ARC
  5
2C9
100
AcDbEntity
  8
0
  6
CONTINUOUS
 62
               7
100
AcDbCircle
 10
80.703472451401794
 20
-33.267202479172191
 30
0.0
 40
0.2965407445873874
100
AcDbArc
 50
314.14334676547787
 51
359.45947220722297
  0
ARC
  5
2CA
100
AcDbEntity
  8
0
  6
CONTINUOUS
 62
               7
100
AcDbCircle
 10
78.867220245794257
 20
-35.103513906853294
 30
0.0
 40
0.2964991238820821
100
AcDbArc
 50
270.5371702797492
 51
315.86001074755126
  0
LINE
  5
2CB
100
AcDbEntity
  8
0
  6
CONTINUOUS
 62
               4
100
AcDbLine
 10
76.0
 20
55.899999913736956
 30
0.0
 11
76.0
 21
31.899999913736956
 31
0.0
  0
LINE
  5
2CC
100
AcDbEntity
  8
0
  6
CONTINUOUS
 62
               7
100
AcDbLine
 10
76.0
 20
31.899999999999999
 30
0.0
 11
49.000000000000007
 21
31.899999999999999
 31
0.0
  0
LINE
  5
2CD
100
AcDbEntity
  8
0
  6
CONTINUOUS
 62
               4
100
AcDbLine
 10
50.399999999999991
 20
48.899999913736956
 30
0.0
 11
50.399999999999991
 21
57.39999990944542
 31
0.0
  0
LINE
  5
2CE
100
AcDbEntity
  8
0
  6
CONTINUOUS
 62
               4
100
AcDbLine
 10
49.0
 20
57.399999913736956
 30
0.0
 11
50.399999999999991
 21
57.399999913736956
 31
0.0
  0
LINE
  5
2CF
100
AcDbEntity
  8
0
  6
CONTINUOUS
 62
               4
100
AcDbLine
 10
49.0
 20
48.899999913736956
 30
0.0
 11
50.399999999999991
 21
48.899999913736956
 31
0.0
  0
LINE
  5
2D0
100
AcDbEntity
  8
0
  6
CONTINUOUS
 62
               4
100
AcDbLine
 10
76.0
 20
55.899999913736956
 30
0.0
 11
50.399999999999991
 21
55.899999913736956
 31
0.0
  0
LINE
  5
2D1
100
AcDbEntity
  8
0
  6
CONTINUOUS
 62
               4
100
AcDbLine
 10
63.295000000000009
 20
55.899999913736956
 30
0.0
 11
61.795000000000009
 21
55.899999913736956
 31
0.0
  0
LINE
  5
2D2
100
AcDbEntity
  8
0
  6
CONTINUOUS
 62
               4
100
AcDbLine
 10
50.5
 20
57.49999991373695
 30
0.0
 11
49.0
 21
57.49999991373695
 31
0.0
  0
ARC
  5
2D3
100
AcDbEntity
  8
0
  6
CONTINUOUS
 62
               4
100
AcDbCircle
 10
46.498459549981717
 20
64.401540363755231
 30
0.0
 40
0.4984619302958243
100
AcDbArc
 50
89.822932465398097
 51
180.17706753460234
  0
LINE
  5
2D4
100
AcDbEntity
  8
0
  6
CONTINUOUS
 62
               4
100
AcDbLine
 10
45.999999999999986
 20
64.399999913736963
 30
0.0
 11
45.999999999999986
 21
60.399999913736963
 31
0.0
  0
LINE
  5
2D5
100
AcDbEntity
  8
0
  6
CONTINUOUS
 62
               4
100
AcDbLine
 10
50.5
 20
57.49999991373695
 30
0.0
 11
50.5
 21
55.899999913736956
 31
0.0
  0
ARC
  5
2D6
100
AcDbEntity
  8
0
  6
CONTINUOUS
 62
               4
100
AcDbCircle
 10
74.501123948313889
 20
60.079394315853982
 30
0.0
 40
1.4988865337462252
100
AcDbArc
 50
0.2142776266259147
 51
24.039904443234679
  0
ARC
  5
2D7
100
AcDbEntity
  8
0
  6
CONTINUOUS
 62
               4
100
AcDbCircle
 10
73.675687863874501
 20
64.402671025814556
 30
0.0
 40
0.4973293636201366
100
AcDbArc
 50
24.005903588636848
 51
90.079246697133883
  0
LINE
  5
2D8
100
AcDbEntity
  8
0
  6
CONTINUOUS
 62
               4
100
AcDbLine
 10
74.129999999999995
 20
64.604999913736947
 30
0.0
 11
75.870000000000005
 21
60.689999913736948
 31
0.0
  0
LINE
  5
2D9
100
AcDbEntity
  8
0
  6
CONTINUOUS
 62
               4
100
AcDbLine
 10
73.674999999999997
 20
64.899999913736963
 30
0.0
 11
46.496919099966703
 21
64.899999913736963
 31
0.0
  0
LINE
  5
2DA
100
AcDbEntity
  8
0
  6
CONTINUOUS
 62
               4
100
AcDbLine
 10
76.0
 20
60.084999913736929
 30
0.0
 11
76.0
 21
55.899999913736956
 31
0.0
  0
LINE
  5
2DB
100
AcDbEntity
  8
0
  6
CONTINUOUS
 62
               4
100
AcDbLine
 10
18.25
 20
-44.600000000000001
 30
0.0
 11
18.25
 21
-46.600000000000001
 31
0.0
  0
LINE
  5
2DC
100
AcDbEntity
  8
0
  6
CONTINUOUS
 62
               4
100
AcDbLine
 10
33.750015258789062
 20
-44.600000000000001
 30
0.0
 11
33.750015258789062
 21
-46.600000000000001
 31
0.0
  0
LINE
  5
2DD
100
AcDbEntity
  8
0
  6
CONTINUOUS
 62
               4
100
AcDbLine
 10
18.25
 20
-46.600000000000001
 30
0.0
 11
5.3242950439453196
 21
-46.600000000000001
 31
0.0
  0
LINE
  5
2DE
100
AcDbEntity
  8
0
  6
CONTINUOUS
 62
               4
100
AcDbLine
 10
33.750015258789062
 20
-44.600000000000001
 30
0.0
 11
18.25
 21
-44.600000000000001
 31
0.0
  0
LINE
  5
2DF
100
AcDbEntity
  8
0
  6
CONTINUOUS
 62
               4
100
AcDbLine
 10
27.000015258789063
 20
-49.600000000000001
 30
0.0
 11
40.500015258789063
 21
-49.600000000000001
 31
0.0
  0
ARC
  5
2E0
100
AcDbEntity
  8
0
  6
CONTINUOUS
 62
               4
100
AcDbCircle
 10
48.500030517578125
 20
-44.475747680664064
 30
0.0
 40
0.300000011920929
100
AcDbArc
 50
314.99993636544195
 51
359.29205667834054
  0
ARC
  5
2E1
100
AcDbEntity
  8
0
  6
CONTINUOUS
 62
               4
100
AcDbCircle
 10
46.675765991210938
 20
-46.300012207031251
 30
0.0
 40
0.300000011920929
100
AcDbArc
 50
269.99997267924334
 51
314.99993636544195
  0
ARC
  5
2E2
100
AcDbEntity
  8
0
  6
CONTINUOUS
 62
               4
100
AcDbCircle
 10
5.3242950439453196
 20
-46.299996948242189
 30
0.0
 40
0.300000011920929
100
AcDbArc
 50
225.00000899304467
 51
269.99997267924334
  0
LINE
  5
2E3
100
AcDbEntity
  8
0
  6
CONTINUOUS
 62
             200
100
AcDbLine
 10
18.25
 20
-43.420968627929689
 30
0.0
 11
18.25
 21
-51.178445434570314
 31
0.0
  0
LINE
  5
2E4
100
AcDbEntity
  8
0
  6
CONTINUOUS
 62
               4
100
AcDbLine
 10
11.5
 20
-49.600000000000001
 30
0.0
 11
25.0
 21
-49.600000000000001
 31
0.0
  0
LINE
  5
2E5
100
AcDbEntity
  8
0
  6
CONTINUOUS
 62
             200
100
AcDbLine
 10
33.750015258789062
 20
-43.420968627929689
 30
0.0
 11
33.750015258789062
 21
-51.178445434570314
 31
0.0
  0
LINE
  5
2E6
100
AcDbEntity
  8
0
  6
CONTINUOUS
 62
               4
100
AcDbLine
 10
12.20001220703125
 20
-46.600000000000001
 30
0.0
 11
12.20001220703125
 21
-44.600000000000001
 31
0.0
  0
LINE
  5
2E7
100
AcDbEntity
  8
0
  6
CONTINUOUS
 62
               4
100
AcDbLine
 10
6.8000030517578125
 20
-46.600000000000001
 30
0.0
 11
6.8000030517578125
 21
-44.600000000000001
 31
0.0
  0
LINE
  5
2E8
100
AcDbEntity
  8
0
  6
CONTINUOUS
 62
               4
100
AcDbLine
 10
41.800018310546875
 20
-46.600000000000001
 30
0.0
 11
41.800018310546875
 21
-44.600000000000001
 31
0.0
  0
LINE
  5
2E9
100
AcDbEntity
  8
0
  6
CONTINUOUS
 62
               4
100
AcDbLine
 10
5.1121319611910465
 20
-46.512139771697925
 30
0.0
 11
3.2878727284104414
 21
-44.687876387026712
 31
0.0
  0
LINE
  5
2EA
100
AcDbEntity
  8
0
  6
CONTINUOUS
 62
               4
100
AcDbLine
 10
46.887909688824038
 20
-46.512121545365154
 30
0.0
 11
48.712169229152096
 21
-44.687858468241394
 31
0.0
  0
LINE
  5
2EB
100
AcDbEntity
  8
0
  6
CONTINUOUS
 62
               4
100
AcDbLine
 10
46.675765991210938
 20
-46.600000000000001
 30
0.0
 11
33.750015258789062
 21
-46.600000000000001
 31
0.0
  0
LINE
  5
2EC
100
AcDbEntity
  8
0
  6
CONTINUOUS
 62
               4
100
AcDbLine
 10
41.000015258789063
 20
-46.600000000000001
 30
0.0
 11
41.000015258789063
 21
-49.100000000000001
 31
0.0
  0
LINE
  5
2ED
100
AcDbEntity
  8
0
  6
CONTINUOUS
 62
               4
100
AcDbLine
 10
26.500015258789063
 20
-44.600000000000001
 30
0.0
 11
26.500015258789063
 21
-49.100000000000001
 31
0.0
  0
LINE
  5
2EE
100
AcDbEntity
  8
0
  6
CONTINUOUS
 62
               4
100
AcDbLine
 10
25.5
 20
-44.600000000000001
 30
0.0
 11
25.5
 21
-49.100000000000001
 31
0.0
  0
LINE
  5
2EF
100
AcDbEntity
  8
0
  6
CONTINUOUS
 62
               4
100
AcDbLine
 10
11.0
 20
-46.600000000000001
 30
0.0
 11
11.0
 21
-49.100000000000001
 31
0.0
  0
ARC
  5
2F0
100
AcDbEntity
  8
0
  6
CONTINUOUS
 62
               4
100
AcDbCircle
 10
40.500015258789063
 20
-49.100000000000001
 30
0.0
 40
0.5
100
AcDbArc
 50
270.0
 51
0.0
  0
ARC
  5
2F1
100
AcDbEntity
  8
0
  6
CONTINUOUS
 62
               4
100
AcDbCircle
 10
27.000015258789063
 20
-49.100000000000001
 30
0.0
 40
0.5
100
AcDbArc
 50
180.0
 51
270.0
  0
ARC
  5
2F2
100
AcDbEntity
  8
0
  6
CONTINUOUS
 62
               4
100
AcDbCircle
 10
25.0
 20
-49.100000000000001
 30
0.0
 40
0.5
100
AcDbArc
 50
270.0
 51
0.0
  0
ARC
  5
2F3
100
AcDbEntity
  8
0
  6
CONTINUOUS
 62
               4
100
AcDbCircle
 10
11.5
 20
-49.100000000000001
 30
0.0
 40
0.5
100
AcDbArc
 50
180.0
 51
270.0
  0
LINE
  5
2F4
100
AcDbEntity
  8
0
  6
CONTINUOUS
 62
               4
100
AcDbLine
 10
48.800007629394528
 20
-44.479454369057564
 30
0.0
 11
48.800007629394528
 21
-43.300410461425784
 31
0.0
  0
LINE
  5
2F5
100
AcDbEntity
  8
0
  6
CONTINUOUS
 62
               4
100
AcDbLine
 10
3.2000076293945305
 20
-44.47574721930512
 30
0.0
 11
3.2000076293945305
 21
-43.293464050292997
 31
0.0
  0
ARC
  5
2F6
100
AcDbEntity
  8
0
  6
CONTINUOUS
 62
               4
100
AcDbCircle
 10
3.5000076293945304
 20
-44.47574721930512
 30
0.0
 40
0.3
100
AcDbArc
 50
180.0
 51
224.99993479941529
  0
ENDBLK
  5
2F7
100
AcDbEntity
  8
0
100
AcDbBlockEnd
  0
BLOCK
  5
2F8
100
AcDbEntity
  8
0
100
AcDbBlockBegin
  2
F15MPJ-7
 70
               0
 10
0.0
 20
0.0
 30
0.0
  3
F15MPJ-7
  1

  0
LINE
  5
2F9
100
AcDbEntity
  8
0
  6
CONTINUOUS
 62
               2
100
AcDbLine
 10
8.0
 20
0.7
 30
0.0
 11
8.0
 21
82.819999999999993
 31
0.0
  0
LINE
  5
2FA
100
AcDbEntity
  8
0
  6
CONTINUOUS
 62
               7
100
AcDbLine
 10
0.5
 20
49.0
 30
0.0
 11
0.5
 21
80.5
 31
0.0
  0
LINE
  5
2FB
100
AcDbEntity
  8
0
  6
CONTINUOUS
 62
               7
100
AcDbLine
 10
15.5
 20
49.0
 30
0.0
 11
15.5
 21
80.5
 31
0.0
  0
LINE
  5
2FC
100
AcDbEntity
  8
0
  6
CONTINUOUS
 62
               7
100
AcDbLine
 10
0.5
 20
79.0
 30
0.0
 11
15.5
 21
79.0
 31
0.0
  0
LINE
  5
2FD
100
AcDbEntity
  8
0
  6
CONTINUOUS
 62
               7
100
AcDbLine
 10
1.0
 20
81.0
 30
0.0
 11
15.0
 21
81.0
 31
0.0
  0
LINE
  5
2FE
100
AcDbEntity
  8
0
  6
CONTINUOUS
 62
               7
100
AcDbLine
 10
0.5
 20
80.0
 30
0.0
 11
15.5
 21
80.0
 31
0.0
  0
LINE
  5
2FF
100
AcDbEntity
  8
0
  6
CONTINUOUS
 62
               7
100
AcDbLine
 10
0.5
 20
80.0
 30
0.0
 11
1.5
 21
81.0
 31
0.0
  0
LINE
  5
300
100
AcDbEntity
  8
0
  6
CONTINUOUS
 62
               7
100
AcDbLine
 10
14.5
 20
81.0
 30
0.0
 11
15.5
 21
80.0
 31
0.0
  0
LINE
  5
301
100
AcDbEntity
  8
0
  6
CONTINUOUS
 62
               7
100
AcDbLine
 10
13.56
 20
53.060000000000002
 30
0.0
 11
11.43
 21
50.93
 31
0.0
  0
LINE
  5
302
100
AcDbEntity
  8
0
  6
CONTINUOUS
 62
               7
100
AcDbLine
 10
11.43
 20
53.060000000000002
 30
0.0
 11
13.56
 21
50.93
 31
0.0
  0
LINE
  5
303
100
AcDbEntity
  8
0
  6
CONTINUOUS
 62
               7
100
AcDbLine
 10
9.5
 20
52.0
 30
0.0
 11
9.5
 21
49.0
 31
0.0
  0
LINE
  5
304
100
AcDbEntity
  8
0
  6
CONTINUOUS
 62
               7
100
AcDbLine
 10
12.5
 20
55.0
 30
0.0
 11
15.5
 21
55.0
 31
0.0
  0
LINE
  5
305
100
AcDbEntity
  8
0
  6
CONTINUOUS
 62
               7
100
AcDbLine
 10
3.5
 20
70.0
 30
0.0
 11
0.5
 21
70.0
 31
0.0
  0
LINE
  5
306
100
AcDbEntity
  8
0
  6
CONTINUOUS
 62
               7
100
AcDbLine
 10
2.4399999999999999
 20
71.930000000000007
 30
0.0
 11
4.5599999999999996
 21
74.060000000000002
 31
0.0
  0
LINE
  5
307
100
AcDbEntity
  8
0
  6
CONTINUOUS
 62
               7
100
AcDbLine
 10
4.5599999999999996
 20
71.930000000000007
 30
0.0
 11
2.4300000000000002
 21
74.060000000000002
 31
0.0
  0
LINE
  5
308
100
AcDbEntity
  8
0
  6
CONTINUOUS
 62
               7
100
AcDbLine
 10
3.5
 20
76.0
 30
0.0
 11
0.5
 21
76.0
 31
0.0
  0
LINE
  5
309
100
AcDbEntity
  8
0
  6
CONTINUOUS
 62
               7
100
AcDbLine
 10
16.0
 20
49.0
 30
0.0
 11
16.0
 21
3.0
 31
0.0
  0
LINE
  5
30A
100
AcDbEntity
  8
0
  6
CONTINUOUS
 62
               7
100
AcDbLine
 10
0.5
 20
12.1
 30
0.0
 11
2.5
 21
12.1
 31
0.0
  0
LINE
  5
30B
100
AcDbEntity
  8
0
  6
CONTINUOUS
 62
               7
100
AcDbLine
 10
0.5
 20
6.9000000000000004
 30
0.0
 11
2.5
 21
6.9000000000000004
 31
0.0
  0
LINE
  5
30C
100
AcDbEntity
  8
0
  6
CONTINUOUS
 62
               7
100
AcDbLine
 10
0.5
 20
12.1
 30
0.0
 11
0.5
 21
6.9000000000000004
 31
0.0
  0
LINE
  5
30D
100
AcDbEntity
  8
0
  6
CONTINUOUS
 62
               7
100
AcDbLine
 10
15.5
 20
45.100000000000001
 30
0.0
 11
13.5
 21
45.100000000000001
 31
0.0
  0
LINE
  5
30E
100
AcDbEntity
  8
0
  6
CONTINUOUS
 62
               7
100
AcDbLine
 10
15.5
 20
39.899999999999999
 30
0.0
 11
13.5
 21
39.899999999999999
 31
0.0
  0
LINE
  5
30F
100
AcDbEntity
  8
0
  6
CONTINUOUS
 62
               7
100
AcDbLine
 10
15.5
 20
39.899999999999999
 30
0.0
 11
15.5
 21
45.100000000000001
 31
0.0
  0
LINE
  5
310
100
AcDbEntity
  8
0
  6
CONTINUOUS
 62
               7
100
AcDbLine
 10
15.5
 20
79.0
 30
0.0
 11
15.75
 21
79.0
 31
0.0
  0
LINE
  5
311
100
AcDbEntity
  8
0
  6
CONTINUOUS
 62
               7
100
AcDbLine
 10
15.75
 20
79.200000000000003
 30
0.0
 11
15.75
 21
79.0
 31
0.0
  0
LINE
  5
312
100
AcDbEntity
  8
0
  6
CONTINUOUS
 62
               7
100
AcDbLine
 10
0.0
 20
0.0
 30
0.0
 11
16.0
 21
0.0
 31
0.0
  0
LINE
  5
313
100
AcDbEntity
  8
0
  6
CONTINUOUS
 62
               7
100
AcDbLine
 10
0.0
 20
49.0
 30
0.0
 11
16.0
 21
49.0
 31
0.0
  0
LINE
  5
314
100
AcDbEntity
  8
0
  6
CONTINUOUS
 62
               7
100
AcDbLine
 10
0.0
 20
49.0
 30
0.0
 11
0.0
 21
3.0
 31
0.0
  0
LINE
  5
315
100
AcDbEntity
  8
0
  6
CONTINUOUS
 62
               7
100
AcDbLine
 10
0.0
 20
3.0
 30
0.0
 11
16.0
 21
3.0
 31
0.0
  0
LINE
  5
316
100
AcDbEntity
  8
0
  6
CONTINUOUS
 62
               4
100
AcDbLine
 10
13.5
 20
45.200000000000003
 30
0.0
 11
15.5
 21
45.200000000000003
 31
0.0
  0
LINE
  5
317
100
AcDbEntity
  8
0
  6
CONTINUOUS
 62
               4
100
AcDbLine
 10
2.5
 20
6.7999999999999998
 30
0.0
 11
0.5
 21
6.7999999999999998
 31
0.0
  0
LINE
  5
318
100
AcDbEntity
  8
0
  6
CONTINUOUS
 62
               4
100
AcDbLine
 10
2.5
 20
12.199999999999999
 30
0.0
 11
0.5
 21
12.199999999999999
 31
0.0
  0
LINE
  5
319
100
AcDbEntity
  8
0
  6
CONTINUOUS
 62
               4
100
AcDbLine
 10
13.5
 20
39.799999999999997
 30
0.0
 11
15.5
 21
39.799999999999997
 31
0.0
  0
LINE
  5
31A
100
AcDbEntity
  8
0
  6
CONTINUOUS
 62
               4
100
AcDbLine
 10
15.5
 20
48.799999999999997
 30
0.0
 11
0.5
 21
48.799999999999997
 31
0.0
  0
LINE
  5
31B
100
AcDbEntity
  8
0
  6
CONTINUOUS
 62
               4
100
AcDbLine
 10
15.5
 20
3.2000000000000002
 30
0.0
 11
0.5
 21
3.2000000000000002
 31
0.0
  0
LINE
  5
31C
100
AcDbEntity
  8
0
  6
CONTINUOUS
 62
               4
100
AcDbLine
 10
2.5
 20
41.799999999999997
 30
0.0
 11
0.5
 21
41.799999999999997
 31
0.0
  0
LINE
  5
31D
100
AcDbEntity
  8
0
  6
CONTINUOUS
 62
               4
100
AcDbLine
 10
13.5
 20
10.199999999999999
 30
0.0
 11
15.5
 21
10.199999999999999
 31
0.0
  0
LINE
  5
31E
100
AcDbEntity
  8
0
  6
CONTINUOUS
 62
               4
100
AcDbLine
 10
10.800000000000001
 20
7.5
 30
0.0
 11
10.800000000000001
 21
3.2000000000000002
 31
0.0
  0
LINE
  5
31F
100
AcDbEntity
  8
0
  6
CONTINUOUS
 62
               4
100
AcDbLine
 10
5.2000000000000002
 20
48.799999999999997
 30
0.0
 11
5.2000000000000002
 21
44.5
 31
0.0
  0
LINE
  5
320
100
AcDbEntity
  8
0
  6
CONTINUOUS
 62
               4
100
AcDbLine
 10
10.800000000000001
 20
5.2000000000000002
 30
0.0
 11
0.5
 21
5.2000000000000002
 31
0.0
  0
LINE
  5
321
100
AcDbEntity
  8
0
  6
CONTINUOUS
 62
               4
100
AcDbLine
 10
15.5
 20
46.799999999999997
 30
0.0
 11
5.2000000000000002
 21
46.799999999999997
 31
0.0
  0
LINE
  5
322
100
AcDbEntity
  8
0
  6
CONTINUOUS
 62
               4
100
AcDbLine
 10
3.4100000000000001
 20
43.579999999999998
 30
0.0
 11
1.5800000000000001
 21
45.409999999999997
 31
0.0
  0
LINE
  5
323
100
AcDbEntity
  8
0
  6
CONTINUOUS
 62
               4
100
AcDbLine
 10
1.5800000000000001
 20
43.579999999999998
 30
0.0
 11
3.4100000000000001
 21
45.409999999999997
 31
0.0
  0
LINE
  5
324
100
AcDbEntity
  8
0
  6
CONTINUOUS
 62
               4
100
AcDbLine
 10
15.5
 20
8.5299999999999994
 30
0.0
 11
15.5
 21
39.799999999999997
 31
0.0
  0
LINE
  5
325
100
AcDbEntity
  8
0
  6
CONTINUOUS
 62
               4
100
AcDbLine
 10
12.58
 20
6.5800000000000001
 30
0.0
 11
14.41
 21
8.4100000000000001
 31
0.0
  0
LINE
  5
326
100
AcDbEntity
  8
0
  6
CONTINUOUS
 62
               4
100
AcDbLine
 10
14.41
 20
6.5800000000000001
 30
0.0
 11
12.58
 21
8.4100000000000001
 31
0.0
  0
LINE
  5
327
100
AcDbEntity
  8
0
  6
CONTINUOUS
 62
               4
100
AcDbLine
 10
0.5
 20
12.199999999999999
 30
0.0
 11
0.5
 21
43.460000000000001
 31
0.0
  0
LINE
  5
328
100
AcDbEntity
  8
0
  6
CONTINUOUS
 62
               4
100
AcDbLine
 10
15.5
 20
3.2000000000000002
 30
0.0
 11
15.5
 21
6.46
 31
0.0
  0
LINE
  5
329
100
AcDbEntity
  8
0
  6
CONTINUOUS
 62
               4
100
AcDbLine
 10
0.5
 20
3.2000000000000002
 30
0.0
 11
0.5
 21
6.7999999999999998
 31
0.0
  0
LINE
  5
32A
100
AcDbEntity
  8
0
  6
CONTINUOUS
 62
               4
100
AcDbLine
 10
0.5
 20
45.530000000000001
 30
0.0
 11
0.5
 21
48.799999999999997
 31
0.0
  0
LINE
  5
32B
100
AcDbEntity
  8
0
  6
CONTINUOUS
 62
               4
100
AcDbLine
 10
15.5
 20
45.200000000000003
 30
0.0
 11
15.5
 21
48.799999999999997
 31
0.0
  0
LINE
  5
32C
100
AcDbEntity
  8
0
  6
CONTINUOUS
 62
             200
100
AcDbLine
 10
-1.03
 20
18.25
 30
0.0
 11
16.949999999999999
 21
18.25
 31
0.0
  0
LINE
  5
32D
100
AcDbEntity
  8
0
  6
CONTINUOUS
 62
             200
100
AcDbLine
 10
-1.03
 20
33.75
 30
0.0
 11
16.949999999999999
 21
33.75
 31
0.0
  0
ARC
  5
32E
100
AcDbEntity
  8
0
  6
CONTINUOUS
 62
               7
100
AcDbCircle
 10
1.0000152590218931
 20
80.499984740978107
 30
0.0
 40
0.5000152592547238
100
AcDbArc
 50
90.001748501746562
 51
179.99825149825347
  0
ARC
  5
32F
100
AcDbEntity
  8
0
  6
CONTINUOUS
 62
               7
100
AcDbCircle
 10
14.999984740978107
 20
80.499984740978107
 30
0.0
 40
0.5000152592547238
100
AcDbArc
 50
0.001748501746554
 51
89.998251498253452
  0
CIRCLE
  5
330
100
AcDbEntity
  8
0
  6
CONTINUOUS
 62
               7
100
AcDbCircle
 10
12.499984741210938
 20
51.99993896484375
 30
0.0
 40
2.7999992370605469
  0
ARC
  5
331
100
AcDbEntity
  8
0
  6
CONTINUOUS
 62
               7
100
AcDbCircle
 10
12.500022888426127
 20
51.999977111573877
 30
0.0
 40
3.0000228885134383
100
AcDbArc
 50
90.000437133403821
 51
179.99956286659628
  0
CIRCLE
  5
332
100
AcDbEntity
  8
0
  6
CONTINUOUS
 62
               7
100
AcDbCircle
 10
3.5
 20
72.999984741210937
 30
0.0
 40
2.7999992370605469
  0
ARC
  5
333
100
AcDbEntity
  8
0
  6
CONTINUOUS
 62
               7
100
AcDbCircle
 10
3.5
 20
73.0
 30
0.0
 40
3.0
100
AcDbArc
 50
270.0
 51
90.0
  0
ARC
  5
334
100
AcDbEntity
  8
0
  6
CONTINUOUS
 62
               7
100
AcDbCircle
 10
2.5
 20
9.5
 30
0.0
 40
2.5999999999999996
100
AcDbArc
 50
270.0
 51
90.0
  0
ARC
  5
335
100
AcDbEntity
  8
0
  6
CONTINUOUS
 62
               7
100
AcDbCircle
 10
13.5
 20
42.5
 30
0.0
 40
2.6000000000000014
100
AcDbArc
 50
90.0
 51
270.0
  0
ARC
  5
336
100
AcDbEntity
  8
0
  6
CONTINUOUS
 62
               7
100
AcDbCircle
 10
14.253906261652187
 20
79.193201314914063
 30
0.0
 40
1.4961091858692774
100
AcDbArc
 50
0.2603668943532875
 51
60.086673164935334
  0
ARC
  5
337
100
AcDbEntity
  8
0
  6
CONTINUOUS
 62
               4
100
AcDbCircle
 10
13.5
 20
42.5
 30
0.0
 40
2.7000000000431195
100
AcDbArc
 50
90.0
 51
270.0
  0
ARC
  5
338
100
AcDbEntity
  8
0
  6
CONTINUOUS
 62
               4
100
AcDbCircle
 10
2.5
 20
9.5
 30
0.0
 40
2.7000000000431168
100
AcDbArc
 50
270.0
 51
90.0
  0
ARC
  5
339
100
AcDbEntity
  8
0
  6
CONTINUOUS
 62
               4
100
AcDbCircle
 10
2.499992370594688
 20
44.50000762940531
 30
0.0
 40
2.7000076294160911
100
AcDbArc
 50
270.00016190055163
 51
359.99983809944843
  0
ARC
  5
33A
100
AcDbEntity
  8
0
  6
CONTINUOUS
 62
               4
100
AcDbCircle
 10
13.499992370616248
 20
7.5000076293837514
 30
0.0
 40
2.6999923706270268
100
AcDbArc
 50
89.999838098990949
 51
180.00016190100905
  0
CIRCLE
  5
33B
100
AcDbEntity
  8
0
  6
CONTINUOUS
 62
               4
100
AcDbCircle
 10
2.4999847412109375
 20
44.499984741210937
 30
0.0
 40
2.25
  0
CIRCLE
  5
33C
100
AcDbEntity
  8
0
  6
CONTINUOUS
 62
               4
100
AcDbCircle
 10
13.499984741210937
 20
7.5
 30
0.0
 40
2.25
  0
CIRCLE
  5
33D
100
AcDbEntity
  8
0
  6
CONTINUOUS
 62
             200
100
AcDbCircle
 10
7.9999847412109375
 20
18.25
 30
0.0
 40
5.0
  0
CIRCLE
  5
33E
100
AcDbEntity
  8
0
  6
CONTINUOUS
 62
               4
100
AcDbCircle
 10
7.9999847412109375
 20
18.25
 30
0.0
 40
4.25
  0
CIRCLE
  5
33F
100
AcDbEntity
  8
0
  6
CONTINUOUS
 62
             200
100
AcDbCircle
 10
7.9999847412109375
 20
33.75
 30
0.0
 40
5.0
  0
CIRCLE
  5
340
100
AcDbEntity
  8
0
  6
CONTINUOUS
 62
               4
100
AcDbCircle
 10
7.9999847412109375
 20
33.75
 30
0.0
 40
4.25
  0
CIRCLE
  5
341
100
AcDbEntity
  8
0
  6
CONTINUOUS
 62
               4
100
AcDbCircle
 10
7.9950000000000001
 20
33.750001351793046
 30
0.0
 40
7.4997760997211564
  0
CIRCLE
  5
342
100
AcDbEntity
  8
0
  6
CONTINUOUS
 62
               4
100
AcDbCircle
 10
7.9950000000000001
 20
18.249998647474904
 30
0.0
 40
7.4916180847570253
  0
ENDBLK
  5
343
100
AcDbEntity
  8
0
100
AcDbBlockEnd
  0
BLOCK
  5
344
100
AcDbEntity
  8
0
100
AcDbBlockBegin
  2
F15MPJ-8
 70
               0
 10
0.0
 20
0.0
 30
0.0
  3
F15MPJ-8
  1

  0
LINE
  5
345
100
AcDbEntity
  8
0
  6
CONTINUOUS
 62
             200
100
AcDbLine
 10
9.4997065001619987
 20
-73.092338233250658
 30
0.0
 11
9.4998289602816932
 21
-42.595237403418395
 31
0.0
  0
LINE
  5
346
100
AcDbEntity
  8
0
  6
CONTINUOUS
 62
               2
100
AcDbLine
 10
9.4998289602816932
 20
-42.595237403418395
 30
0.0
 11
9.5002565745538963
 21
63.896538108418376
 31
0.0
  0
LINE
  5
347
100
AcDbEntity
  8
0
  6
CONTINUOUS
 62
               7
100
AcDbLine
 10
18.999828960205104
 20
-42.595275550360412
 30
0.0
 11
19.000242553427206
 21
60.40473970759826
 31
0.0
  0
LINE
  5
348
100
AcDbEntity
  8
0
  6
CONTINUOUS
 62
               7
100
AcDbLine
 10
-0.0001710396417177
 20
-42.595199256476377
 30
0.0
 11
0.0002425535803861
 21
60.404816001482295
 31
0.0
  0
LINE
  5
349
100
AcDbEntity
  8
0
  6
CONTINUOUS
 62
               7
100
AcDbLine
 10
0.4998871846341744
 20
-28.09520126432707
 30
0.0
 11
2.9998871846140194
 21
-28.09521130299602
 31
0.0
  0
LINE
  5
34A
100
AcDbEntity
  8
0
  6
CONTINUOUS
 62
               7
100
AcDbLine
 10
0.499864698052484
 20
-33.695192109008488
 30
0.0
 11
2.9998646980323289
 21
-33.695202147677442
 31
0.0
  0
LINE
  5
34B
100
AcDbEntity
  8
0
  6
CONTINUOUS
 62
               7
100
AcDbLine
 10
16.00004780327372
 20
11.904751754392009
 30
0.0
 11
18.500047803253565
 21
11.904741715723057
 31
0.0
  0
LINE
  5
34C
100
AcDbEntity
  8
0
  6
CONTINUOUS
 62
               7
100
AcDbLine
 10
16.000025316630758
 20
6.3047456509215314
 30
0.0
 11
18.500025316610603
 21
6.3047356122525793
 31
0.0
  0
LINE
  5
34D
100
AcDbEntity
  8
0
  6
CONTINUOUS
 62
               7
100
AcDbLine
 10
18.500025316610603
 20
6.3047356122525793
 30
0.0
 11
18.500047803253565
 21
11.904741715723057
 31
0.0
  0
LINE
  5
34E
100
AcDbEntity
  8
0
  6
CONTINUOUS
 62
               7
100
AcDbLine
 10
0.499864698052484
 20
-33.695192109008488
 30
0.0
 11
0.4998871846341744
 21
-28.09520126432707
 31
0.0
  0
LINE
  5
34F
100
AcDbEntity
  8
0
  6
CONTINUOUS
 62
               7
100
AcDbLine
 10
0.0000626606205076
 20
15.604812950085662
 30
0.0
 11
19.000062660467329
 21
15.604736656201625
 31
0.0
  0
LINE
  5
350
100
AcDbEntity
  8
0
  6
CONTINUOUS
 62
               7
100
AcDbLine
 10
-0.0001501591612801
 20
-37.395187049487049
 30
0.0
 11
18.999849840685542
 21
-37.395263343371084
 31
0.0
  0
LINE
  5
351
100
AcDbEntity
  8
0
  6
CONTINUOUS
 62
               7
100
AcDbLine
 10
8.4395181561698553
 20
41.844130120445229
 30
0.0
 11
10.560847160314401
 21
43.965441909589273
 31
0.0
  0
LINE
  5
352
100
AcDbEntity
  8
0
  6
CONTINUOUS
 62
               7
100
AcDbLine
 10
8.4395724036558057
 20
43.965465912254132
 30
0.0
 11
10.560873582063888
 21
41.844147876559163
 31
0.0
  0
LINE
  5
353
100
AcDbEntity
  8
0
  6
CONTINUOUS
 62
               7
100
AcDbLine
 10
0.5000618574126723
 20
15.40478347653317
 30
0.0
 11
18.500061857267557
 21
15.404711198116715
 31
0.0
  0
LINE
  5
354
100
AcDbEntity
  8
0
  6
CONTINUOUS
 62
               7
100
AcDbLine
 10
0.4998506438546797
 20
-37.195207367769328
 30
0.0
 11
18.499850643709564
 21
-37.195279646185782
 31
0.0
  0
LINE
  5
355
100
AcDbEntity
  8
0
  6
CONTINUOUS
 62
               7
100
AcDbLine
 10
16.00004860629371
 20
12.104733443843521
 30
0.0
 11
18.500048606273555
 21
12.104723405174569
 31
0.0
  0
LINE
  5
356
100
AcDbEntity
  8
0
  6
CONTINUOUS
 62
               7
100
AcDbLine
 10
16.000024513488224
 20
6.1047334438918943
 30
0.0
 11
18.50002451346807
 21
6.1047234052229422
 31
0.0
  0
LINE
  5
357
100
AcDbEntity
  8
0
  6
CONTINUOUS
 62
               7
100
AcDbLine
 10
0.4998638949099509
 20
-33.895204316038125
 30
0.0
 11
2.999863894889796
 21
-33.895214354707079
 31
0.0
  0
LINE
  5
358
100
AcDbEntity
  8
0
  6
CONTINUOUS
 62
               7
100
AcDbLine
 10
0.4998879877154363
 20
-27.895204316086495
 30
0.0
 11
2.9998879876952813
 21
-27.895214354755446
 31
0.0
  0
LINE
  5
359
100
AcDbEntity
  8
0
  6
CONTINUOUS
 62
               7
100
AcDbLine
 10
6.0000445909680211
 20
11.104788857316455
 30
0.0
 11
6.0000618574296025
 21
15.404776650250538
 31
0.0
  0
LINE
  5
35A
100
AcDbEntity
  8
0
  6
CONTINUOUS
 62
               7
100
AcDbLine
 10
3.0000325445281937
 20
8.1047856449543207
 30
0.0
 11
0.5000325445483487
 21
8.1047956836232729
 31
0.0
  0
LINE
  5
35B
100
AcDbEntity
  8
0
  6
CONTINUOUS
 62
               7
100
AcDbLine
 10
0.4998586747898415
 20
-35.195207367785457
 30
0.0
 11
12.999858674689067
 21
-35.195257561130219
 31
0.0
  0
LINE
  5
35C
100
AcDbEntity
  8
0
  6
CONTINUOUS
 62
               7
100
AcDbLine
 10
6.0000538264331693
 20
13.404761391477599
 30
0.0
 11
18.500053826332394
 21
13.404711198132839
 31
0.0
  0
LINE
  5
35D
100
AcDbEntity
  8
0
  6
CONTINUOUS
 62
               7
100
AcDbLine
 10
18.499850643709564
 20
-37.195279646185782
 30
0.0
 11
18.499862846966508
 21
-34.156217146210288
 31
0.0
  0
LINE
  5
35E
100
AcDbEntity
  8
0
  6
CONTINUOUS
 62
               7
100
AcDbLine
 10
0.4998506438546797
 20
-37.195207367769328
 30
0.0
 11
0.4998638949099509
 21
-33.895204316038125
 31
0.0
  0
LINE
  5
35F
100
AcDbEntity
  8
0
  6
CONTINUOUS
 62
               7
100
AcDbLine
 10
15.999879956655313
 20
-29.895266555817873
 30
0.0
 11
18.499879956635159
 21
-29.895276594486827
 31
0.0
  0
LINE
  5
360
100
AcDbEntity
  8
0
  6
CONTINUOUS
 62
               7
100
AcDbLine
 10
12.999867910338029
 20
-32.895239250601882
 30
0.0
 11
12.999850643753906
 21
-37.19525756111409
 31
0.0
  0
LINE
  5
361
100
AcDbEntity
  8
0
  6
CONTINUOUS
 62
               7
100
AcDbLine
 10
14.93923934219058
 20
-33.955951863816956
 30
0.0
 11
17.060568346335128
 21
-31.834640074672901
 31
0.0
  0
LINE
  5
362
100
AcDbEntity
  8
0
  6
CONTINUOUS
 62
               7
100
AcDbLine
 10
14.939269529315608
 20
-31.834523571325327
 30
0.0
 11
17.060581318459654
 21
-33.955852575469876
 31
0.0
  0
LINE
  5
363
100
AcDbEntity
  8
0
  6
CONTINUOUS
 62
               7
100
AcDbLine
 10
1.9393684626571248
 20
10.044119778028222
 30
0.0
 11
4.0606974668016704
 21
12.16543156717227
 31
0.0
  0
LINE
  5
364
100
AcDbEntity
  8
0
  6
CONTINUOUS
 62
               7
100
AcDbLine
 10
1.9394391106811193
 20
12.165529188567067
 30
0.0
 11
4.0607508998251678
 21
10.04420018442252
 31
0.0
  0
LINE
  5
365
100
AcDbEntity
  8
0
  6
CONTINUOUS
 62
               7
100
AcDbLine
 10
0.4998879877154363
 20
-27.895204316086495
 30
0.0
 11
0.5000395276851843
 21
9.8438551318514413
 31
0.0
  0
LINE
  5
366
100
AcDbEntity
  8
0
  6
CONTINUOUS
 62
               7
100
AcDbLine
 10
18.500048606273555
 20
12.104723405174569
 30
0.0
 11
18.500061857267557
 21
15.404711198116715
 31
0.0
  0
LINE
  5
367
100
AcDbEntity
  8
0
  6
CONTINUOUS
 62
               7
100
AcDbLine
 10
0.5000496543395407
 20
12.365766752924859
 30
0.0
 11
0.5000618574126723
 21
15.40478347653317
 31
0.0
  0
LINE
  5
368
100
AcDbEntity
  8
0
  6
CONTINUOUS
 62
               7
100
AcDbLine
 10
18.499872973620867
 20
-31.63430552513687
 30
0.0
 11
18.50002451346807
 21
6.1047234052229422
 31
0.0
  0
ARC
  5
369
100
AcDbEntity
  8
0
  6
CONTINUOUS
 62
               7
100
AcDbCircle
 10
2.9998759413538099
 20
-30.895199095942196
 30
0.0
 40
2.7999992370605469
100
AcDbArc
 50
269.99978791674414
 51
89.99975194456546
  0
ARC
  5
36A
100
AcDbEntity
  8
0
  6
CONTINUOUS
 62
               7
100
AcDbCircle
 10
16.000036559952239
 20
9.1047487026567708
 30
0.0
 40
2.7999992370605469
100
AcDbArc
 50
89.999751944565517
 51
269.99977061390018
  0
CIRCLE
  5
36B
100
AcDbEntity
  8
0
  6
CONTINUOUS
 62
               7
100
AcDbCircle
 10
9.500172282821131
 20
42.904777854681363
 30
0.0
 40
3.0
  0
CIRCLE
  5
36C
100
AcDbEntity
  8
0
  6
CONTINUOUS
 62
               7
100
AcDbCircle
 10
9.500172282821131
 20
42.904777854681363
 30
0.0
 40
2.75
  0
ARC
  5
36D
100
AcDbEntity
  8
0
  6
CONTINUOUS
 62
               7
100
AcDbCircle
 10
16.000036559952239
 20
9.1047487026567708
 30
0.0
 40
3.0
100
AcDbArc
 50
89.999751944565517
 51
269.99971597238681
  0
ARC
  5
36E
100
AcDbEntity
  8
0
  6
CONTINUOUS
 62
               7
100
AcDbCircle
 10
2.9998759413538099
 20
-30.895199095942196
 30
0.0
 40
3.0
100
AcDbArc
 50
269.99973327523077
 51
89.99975194456546
  0
ARC
  5
36F
100
AcDbEntity
  8
0
  6
CONTINUOUS
 62
               7
100
AcDbCircle
 10
3.0000445909922075
 20
11.104800903719198
 30
0.0
 40
3.0
100
AcDbArc
 50
269.99978791674414
 51
359.99978359103312
  0
ARC
  5
370
100
AcDbEntity
  8
0
  6
CONTINUOUS
 62
               7
100
AcDbCircle
 10
15.999867910313842
 20
-32.895251297004627
 30
0.0
 40
3.0
100
AcDbArc
 50
89.999751944565517
 51
179.99973395847616
  0
CIRCLE
  5
371
100
AcDbEntity
  8
0
  6
CONTINUOUS
 62
               7
100
AcDbCircle
 10
15.999867910313842
 20
-32.895251297004627
 30
0.0
 40
2.7999992370605469
  0
CIRCLE
  5
372
100
AcDbEntity
  8
0
  6
CONTINUOUS
 62
               7
100
AcDbCircle
 10
3.0000445909922075
 20
11.104800903719198
 30
0.0
 40
2.7999992370605469
  0
LINE
  5
373
100
AcDbEntity
  8
0
  6
CONTINUOUS
 62
               4
100
AcDbLine
 10
18.499766096182853
 20
-58.295273342500771
 30
0.0
 11
18.49982913902307
 21
-42.595273542627339
 31
0.0
  0
LINE
  5
374
100
AcDbEntity
  8
0
  6
CONTINUOUS
 62
               4
100
AcDbLine
 10
5.9998202463930461
 20
-44.809842349264734
 30
0.0
 11
5.999829139123845
 21
-42.595223349282584
 31
0.0
  0
LINE
  5
375
100
AcDbEntity
  8
0
  6
CONTINUOUS
 62
               7
100
AcDbLine
 10
5.6998264042464424
 20
-43.095214515240826
 30
0.0
 11
5.6998284119802323
 21
-42.595214515244855
 31
0.0
  0
LINE
  5
376
100
AcDbEntity
  8
0
  6
CONTINUOUS
 62
               7
100
AcDbLine
 10
0.1998271195158848
 20
-43.095200059566537
 30
0.0
 11
0.1998291272496753
 21
-42.595200059570566
 31
0.0
  0
ARC
  5
377
100
AcDbEntity
  8
0
  6
CONTINUOUS
 62
               4
100
AcDbCircle
 10
1.6998271195344274
 20
-43.095198453373378
 30
0.0
 40
1.5
100
AcDbArc
 50
179.99978791674425
 51
269.99975627027658
  0
LINE
  5
378
100
AcDbEntity
  8
0
  6
CONTINUOUS
 62
               4
100
AcDbLine
 10
0.4998110563355152
 20
-47.098495664174571
 30
0.0
 11
0.4998235175441442
 21
-43.995193650699633
 31
0.0
  0
ARC
  5
379
100
AcDbEntity
  8
0
  6
CONTINUOUS
 62
               4
100
AcDbCircle
 10
4.1998271195142731
 20
-43.095208492042325
 30
0.0
 40
1.5
100
AcDbArc
 50
269.99975627027658
 51
359.99976993065491
  0
SPLINE
  5
37A
100
AcDbEntity
  8
0
  6
CONTINUOUS
 62
               4
100
AcDbSpline
210
0.0
220
0.0
230
1.0
 70
               0
 71
               3
 72
               0
 73
               0
 74
              41
 44
0.000001
 12
-0.9936240580166941
 22
-0.1127440966544914
 32
0.0
 13
0.7599846574949752
 23
-0.6499410129944448
 33
0.0
 11
15.999821488533462
 21
-44.500523503943036
 31
0.0
 11
15.816226387941509
 21
-44.523378404937553
 31
0.0
 11
15.633152608615184
 21
-44.550149819906544
 31
0.0
 11
15.450630103124537
 21
-44.580733033788
 31
0.0
 11
15.268764205250136
 21
-44.615011474920472
 31
0.0
 11
15.059158227101785
 21
-44.659251078867634
 31
0.0
 11
14.850713773773187
 21
-44.708670348808894
 31
0.0
 11
14.643660940937105
 21
-44.763638407634637
 31
0.0
 11
14.43826217448068
 21
-44.824507895354493
 31
0.0
 11
14.264514008732341
 21
-44.881496613507416
 31
0.0
 11
14.092641182013768
 21
-44.943886752983914
 31
0.0
 11
13.923147682988033
 21
-45.012506188393601
 31
0.0
 11
13.756639881058414
 21
-45.088110961359632
 31
0.0
 11
13.615160315753458
 21
-45.160193058046616
 31
0.0
 11
13.47779844067605
 21
-45.239830089284432
 31
0.0
 11
13.345847308307519
 21
-45.328770053567524
 31
0.0
 11
13.221477503742204
 21
-45.427953330961515
 31
0.0
 11
13.152943216777606
 21
-45.491527548997226
 31
0.0
 11
13.08927116216009
 21
-45.559981124547321
 31
0.0
 11
13.032679988254632
 21
-45.633420009611953
 31
0.0
 11
12.984818751640343
 21
-45.712690490115925
 31
0.0
 11
12.949898475351667
 21
-45.791456927460288
 31
0.0
 11
12.924300293934955
 21
-45.873820369722232
 31
0.0
 11
12.90761731908756
 21
-45.95891524877549
 31
0.0
 11
12.89981528570504
 21
-46.045251055981097
 31
0.0
 11
12.904181774881124
 21
-46.176750638630232
 31
0.0
 11
12.925899199895508
 21
-46.306710796830664
 31
0.0
 11
12.962609017338846
 21
-46.433829657035645
 31
0.0
 11
13.011809850140754
 21
-46.556621489165749
 31
0.0
 11
13.069659957110526
 21
-46.671631595269972
 31
0.0
 11
13.136158802013986
 21
-46.781844686662758
 31
0.0
 11
13.21012544450055
 21
-46.886702347600377
 31
0.0
 11
13.290780210760049
 21
-46.986514021867798
 31
0.0
 11
13.375285523321196
 21
-47.079383051027079
 31
0.0
 11
13.464520340162172
 21
-47.167718891506652
 31
0.0
 11
13.557826453149971
 21
-47.251868496622478
 31
0.0
 11
13.654483959881254
 21
-47.332123011485344
 31
0.0
 11
13.738542377071797
 21
-47.397700760213013
 31
0.0
 11
13.823325369314887
 21
-47.46237183711731
 31
0.0
 11
13.907492313972263
 21
-47.52768061855113
 31
0.0
 11
13.989809061721534
 21
-47.595255432828246
 31
0.0
  0
SPLINE
  5
37B
100
AcDbEntity
  8
0
  6
CONTINUOUS
 62
               4
100
AcDbSpline
210
0.0
220
0.0
230
1.0
 70
               0
 71
               3
 72
               0
 73
               0
 74
              37
 44
0.000001
 12
0.9881355337368425
 22
0.1535843968852478
 32
0.0
 13
0.280143426957856
 23
0.9599581555111183
 33
0.0
 11
2.9998122154820703
 21
-46.80983030284586
 31
0.0
 11
3.1300521610233196
 21
-46.787963412759346
 31
0.0
 11
3.2597297596296619
 21
-46.762931219994833
 31
0.0
 11
3.3887776830526488
 21
-46.734734453828487
 31
0.0
 11
3.5170904481688869
 21
-46.703379410329802
 31
0.0
 11
3.6137537927596468
 21
-46.67752883061749
 31
0.0
 11
3.7099197243986342
 21
-46.64988880004821
 31
0.0
 11
3.8055562718265228
 21
-46.620482714327231
 31
0.0
 11
3.9006403602138082
 21
-46.589332213211563
 31
0.0
 11
4.0178666295134251
 21
-46.548252370585004
 31
0.0
 11
4.1341112625530103
 21
-46.504468916709925
 31
0.0
 11
4.249287063384986
 21
-46.457930494946737
 31
0.0
 11
4.3632903280594686
 21
-46.408592233244455
 31
0.0
 11
4.4624385310097674
 21
-46.362873365114375
 31
0.0
 11
4.5605098092430287
 21
-46.314889146617801
 31
0.0
 11
4.6573967142316741
 21
-46.264580071021882
 31
0.0
 11
4.7530034608692926
 21
-46.211880772088989
 31
0.0
 11
4.8317835755833656
 21
-46.165992693364522
 31
0.0
 11
4.9095095637610662
 21
-46.118343112801483
 31
0.0
 11
4.9860994122018019
 21
-46.068876902183398
 31
0.0
 11
5.0614558157445915
 21
-46.017549387209229
 31
0.0
 11
5.140711875395426
 21
-45.960431931730646
 31
0.0
 11
5.2182780005038438
 21
-45.901039261394438
 31
0.0
 11
5.2939780604290592
 21
-45.839294715219346
 31
0.0
 11
5.3676318956003009
 21
-45.775124847865193
 31
0.0
 11
5.4332623988022224
 21
-45.714044291928573
 31
0.0
 11
5.4968435838334662
 21
-45.650834547023884
 31
0.0
 11
5.5582125819979442
 21
-45.585462592177016
 31
0.0
 11
5.6171853800891718
 21
-45.517919613217948
 31
0.0
 11
5.6726791678544135
 21
-45.449316043582506
 31
0.0
 11
5.7253686569849975
 21
-45.37853695585531
 31
0.0
 11
5.7749374958074302
 21
-45.305533150546388
 31
0.0
 11
5.821044839776075
 21
-45.230297473728598
 31
0.0
 11
5.8752710165781252
 21
-45.129451620821136
 31
0.0
 11
5.9231252775460099
 21
-45.025396020399725
 31
0.0
 11
5.964625398483415
 21
-44.918717436498838
 31
0.0
 11
5.9998202463930461
 21
-44.809842349264734
 31
0.0
  0
LINE
  5
37C
100
AcDbEntity
  8
0
  6
CONTINUOUS
 62
               4
100
AcDbLine
 10
0.4998122155022253
 20
-46.809820264176906
 30
0.0
 11
2.9998122154820703
 21
-46.80983030284586
 31
0.0
  0
LINE
  5
37D
100
AcDbEntity
  8
0
  6
CONTINUOUS
 62
               4
100
AcDbLine
 10
4.199820738685033
 20
-44.595208492028767
 30
0.0
 11
1.6998207387051874
 21
-44.595198453359814
 31
0.0
  0
LINE
  5
37E
100
AcDbEntity
  8
0
  6
CONTINUOUS
 62
               4
100
AcDbLine
 10
13.220969561727721
 20
-47.595252345578153
 30
0.0
 11
18.499809061685166
 21
-47.59527354258703
 31
0.0
  0
ARC
  5
37F
100
AcDbEntity
  8
0
  6
CONTINUOUS
 62
               4
100
AcDbCircle
 10
9.4997540879059184
 20
-61.285760535772418
 30
0.0
 40
14.187228732503996
100
AcDbArc
 50
74.793816120769222
 51
105.20572374054061
  0
LINE
  5
380
100
AcDbEntity
  8
0
  6
CONTINUOUS
 62
               4
100
AcDbLine
 10
0.4998090618302811
 20
-47.595201264170576
 30
0.0
 11
5.7786485617877261
 21
-47.595222461179453
 31
0.0
  0
ARC
  5
381
100
AcDbEntity
  8
0
  6
CONTINUOUS
 62
               4
100
AcDbCircle
 10
1.3997155014283678
 20
-70.895204877903566
 30
0.0
 40
0.3
100
AcDbArc
 50
179.99976993065542
 51
269.99976993065565
  0
ARC
  5
382
100
AcDbEntity
  8
0
  6
CONTINUOUS
 62
               4
100
AcDbCircle
 10
15.999721122965299
 20
-69.49526350374154
 30
0.0
 40
0.5
100
AcDbArc
 50
179.99976993065542
 51
269.99976993065565
  0
ARC
  5
383
100
AcDbEntity
  8
0
  6
CONTINUOUS
 62
               4
100
AcDbCircle
 10
17.599715501297808
 20
-70.895269928478371
 30
0.0
 40
0.3
100
AcDbArc
 50
269.99976993065491
 51
359.99976993065513
  0
ARC
  5
384
100
AcDbEntity
  8
0
  6
CONTINUOUS
 62
               4
100
AcDbCircle
 10
2.9997211230701044
 20
-69.49521130266298
 30
0.0
 40
0.5
100
AcDbArc
 50
269.99976993065491
 51
359.99976993065513
  0
LINE
  5
385
100
AcDbEntity
  8
0
  6
CONTINUOUS
 62
               4
100
AcDbLine
 10
1.0997154986962983
 20
-70.895884673263282
 30
0.0
 11
1.0997191153516546
 21
-69.995203673270552
 31
0.0
  0
LINE
  5
386
100
AcDbEntity
  8
0
  6
CONTINUOUS
 62
               4
100
AcDbLine
 10
17.599714296657535
 20
-71.195269928475938
 30
0.0
 11
1.3997142967880933
 21
-71.195204877901134
 31
0.0
  0
LINE
  5
387
100
AcDbEntity
  8
0
  6
CONTINUOUS
 62
               4
100
AcDbLine
 10
1.0997191153516546
 20
-69.995203673270552
 30
0.0
 11
17.899719115216165
 21
-69.995271133125911
 31
0.0
  0
LINE
  5
388
100
AcDbEntity
  8
0
  6
CONTINUOUS
 62
               4
100
AcDbLine
 10
17.899715498560809
 20
-70.895952133118641
 30
0.0
 11
17.899719115216165
 21
-69.995271133125911
 31
0.0
  0
LINE
  5
389
100
AcDbEntity
  8
0
  6
CONTINUOUS
 62
               4
100
AcDbLine
 10
15.49972112296933
 20
-69.495261496007743
 30
0.0
 11
15.499722729156362
 21
-69.095261496010949
 31
0.0
  0
LINE
  5
38A
100
AcDbEntity
  8
0
  6
CONTINUOUS
 62
               4
100
AcDbLine
 10
2.399723130808709
 20
-68.995208893386462
 30
0.0
 11
2.3997271462803056
 21
-67.995207893394522
 31
0.0
  0
LINE
  5
38B
100
AcDbEntity
  8
0
  6
CONTINUOUS
 62
               4
100
AcDbLine
 10
2.4997227292611677
 20
-69.095209294932403
 30
0.0
 11
2.399723130808709
 21
-68.995208893386462
 31
0.0
  0
LINE
  5
38C
100
AcDbEntity
  8
0
  6
CONTINUOUS
 62
               4
100
AcDbLine
 10
16.499722729148299
 20
-69.09526551147853
 30
0.0
 11
16.599723130694272
 21
-68.995265913026103
 31
0.0
  0
LINE
  5
38D
100
AcDbEntity
  8
0
  6
CONTINUOUS
 62
               4
100
AcDbLine
 10
16.499722729148299
 20
-69.09526551147853
 30
0.0
 11
2.4997227292611677
 21
-69.095209294932403
 31
0.0
  0
LINE
  5
38E
100
AcDbEntity
  8
0
  6
CONTINUOUS
 62
               4
100
AcDbLine
 10
16.599723130694272
 20
-68.995265913026103
 30
0.0
 11
16.599727146165868
 21
-67.995264913034163
 31
0.0
  0
LINE
  5
38F
100
AcDbEntity
  8
0
  6
CONTINUOUS
 62
               4
100
AcDbLine
 10
0.5997452158949613
 20
-63.495201665589157
 30
0.0
 11
18.399745215751413
 21
-63.495273140912097
 31
0.0
  0
LINE
  5
390
100
AcDbEntity
  8
0
  6
CONTINUOUS
 62
               4
100
AcDbLine
 10
17.399727146159375
 20
-67.995268125408231
 30
0.0
 11
1.5997279462867533
 21
-67.995204681023665
 31
0.0
  0
LINE
  5
391
100
AcDbEntity
  8
0
  6
CONTINUOUS
 62
               4
100
AcDbLine
 10
18.299741601831489
 20
-64.395272739358091
 30
0.0
 11
18.499740798736291
 21
-64.595273542449974
 31
0.0
  0
LINE
  5
392
100
AcDbEntity
  8
0
  6
CONTINUOUS
 62
               4
100
AcDbLine
 10
18.499731302504806
 20
-66.960186542430918
 30
0.0
 11
17.746139155437149
 21
-67.395269516409599
 31
0.0
  0
LINE
  5
393
100
AcDbEntity
  8
0
  6
CONTINUOUS
 62
               4
100
AcDbLine
 10
0.4997313026499227
 20
-66.960114264014464
 30
0.0
 11
1.2533199555701269
 21
-67.395203290028789
 31
0.0
  0
LINE
  5
394
100
AcDbEntity
  8
0
  6
CONTINUOUS
 62
               4
100
AcDbLine
 10
1.2533199555701269
 20
-67.395203290028789
 30
0.0
 11
1.5997279462867533
 21
-67.995204681023665
 31
0.0
  0
LINE
  5
395
100
AcDbEntity
  8
0
  6
CONTINUOUS
 62
               4
100
AcDbLine
 10
17.746139155437149
 20
-67.395269516409599
 30
0.0
 11
17.399726346159422
 21
-67.995268125405019
 31
0.0
  0
LINE
  5
396
100
AcDbEntity
  8
0
  6
CONTINUOUS
 62
               4
100
AcDbLine
 10
0.6997416019732414
 20
-64.395202067128665
 30
0.0
 11
18.299741601831489
 21
-64.395272739358091
 31
0.0
  0
LINE
  5
397
100
AcDbEntity
  8
0
  6
CONTINUOUS
 62
               4
100
AcDbLine
 10
0.4997313026459073
 20
-66.960115264014462
 30
0.0
 11
0.4997407988814059
 21
-64.59520126403352
 31
0.0
  0
LINE
  5
398
100
AcDbEntity
  8
0
  6
CONTINUOUS
 62
               4
100
AcDbLine
 10
0.6997416019732414
 20
-64.395202067128665
 30
0.0
 11
0.4997407988814059
 21
-64.59520126403352
 31
0.0
  0
LINE
  5
399
100
AcDbEntity
  8
0
  6
CONTINUOUS
 62
               4
100
AcDbLine
 10
18.499731302500791
 20
-66.960187542430916
 30
0.0
 11
18.499740798736291
 21
-64.595273542449974
 31
0.0
  0
LINE
  5
39A
100
AcDbEntity
  8
0
  6
CONTINUOUS
 62
               4
100
AcDbLine
 10
0.6997652932343781
 20
-58.49520146717623
 30
0.0
 11
0.4997644901417394
 21
-58.69520086408108
 31
0.0
  0
LINE
  5
39B
100
AcDbEntity
  8
0
  6
CONTINUOUS
 62
               4
100
AcDbLine
 10
18.29976529309182
 20
-58.495272339405645
 30
0.0
 11
0.699765293233575
 21
-58.495201667176218
 31
0.0
  0
LINE
  5
39C
100
AcDbEntity
  8
0
  6
CONTINUOUS
 62
               4
100
AcDbLine
 10
0.499745617442503
 20
-63.395201264043209
 30
0.0
 11
0.4997644901417394
 21
-58.69520086408108
 31
0.0
  0
LINE
  5
39D
100
AcDbEntity
  8
0
  6
CONTINUOUS
 62
               4
100
AcDbLine
 10
18.499745617297389
 20
-63.395273542459663
 30
0.0
 11
18.499764489996625
 21
-58.695273142497534
 31
0.0
  0
LINE
  5
39E
100
AcDbEntity
  8
0
  6
CONTINUOUS
 62
               4
100
AcDbLine
 10
18.299765293092623
 20
-58.495272139405657
 30
0.0
 11
18.499764489996625
 21
-58.695273142497534
 31
0.0
  0
LINE
  5
39F
100
AcDbEntity
  8
0
  6
CONTINUOUS
 62
               4
100
AcDbLine
 10
0.499745617442503
 20
-63.395201264043209
 30
0.0
 11
0.5997452158949613
 21
-63.495201665589157
 31
0.0
  0
LINE
  5
3A0
100
AcDbEntity
  8
0
  6
CONTINUOUS
 62
               4
100
AcDbLine
 10
18.499745617297389
 20
-63.395273542459663
 30
0.0
 11
18.399745215751413
 21
-63.495273140912097
 31
0.0
  0
LINE
  5
3A1
100
AcDbEntity
  8
0
  6
CONTINUOUS
 62
               4
100
AcDbLine
 10
18.299765293090214
 20
-58.49527273940565
 30
0.0
 11
18.499766096182853
 21
-58.295273342500771
 31
0.0
  0
LINE
  5
3A2
100
AcDbEntity
  8
0
  6
CONTINUOUS
 62
               4
100
AcDbLine
 10
1.1997416019692104
 20
-64.395204074862463
 30
0.0
 11
1.1997452158900332
 21
-63.495204074869704
 31
0.0
  0
LINE
  5
3A3
100
AcDbEntity
  8
0
  6
CONTINUOUS
 62
               4
100
AcDbLine
 10
17.799741601835517
 20
-64.395270731624308
 30
0.0
 11
17.799745215756339
 21
-63.49527073163155
 31
0.0
  0
LINE
  5
3A4
100
AcDbEntity
  8
0
  6
CONTINUOUS
 62
               4
100
AcDbLine
 10
0.6997652932319688
 20
-58.495202067176223
 30
0.0
 11
0.4997660963279687
 21
-58.295201064084317
 31
0.0
  0
LINE
  5
3A5
100
AcDbEntity
  8
0
  6
CONTINUOUS
 62
               4
100
AcDbLine
 10
18.499764489996625
 20
-58.695273142497534
 30
0.0
 11
0.4997644901417394
 21
-58.69520086408108
 31
0.0
  0
LINE
  5
3A6
100
AcDbEntity
  8
0
  6
CONTINUOUS
 62
               4
100
AcDbLine
 10
3.4997211230660734
 20
-69.495213310396778
 30
0.0
 11
3.4997227292531057
 21
-69.095213310399984
 31
0.0
  0
LINE
  5
3A7
100
AcDbEntity
  8
0
  6
CONTINUOUS
 62
               4
100
AcDbLine
 10
16.599723130694272
 20
-68.995265913026103
 30
0.0
 11
2.399723130808709
 21
-68.995208893386462
 31
0.0
  0
LINE
  5
3A8
100
AcDbEntity
  8
0
  6
CONTINUOUS
 62
               4
100
AcDbLine
 10
17.746139155437149
 20
-67.395269516409599
 30
0.0
 11
1.2533199555701269
 21
-67.395203290028789
 31
0.0
  0
LINE
  5
3A9
100
AcDbEntity
  8
0
  6
CONTINUOUS
 62
               4
100
AcDbLine
 10
18.499731302504806
 20
-66.960186542430918
 30
0.0
 11
0.4997313026499227
 21
-66.960114264014464
 31
0.0
  0
LINE
  5
3AA
100
AcDbEntity
  8
0
  6
CONTINUOUS
 62
               4
100
AcDbLine
 10
18.499740798736291
 20
-64.595273542449974
 30
0.0
 11
0.4997407988814059
 21
-64.59520126403352
 31
0.0
  0
LINE
  5
3AB
100
AcDbEntity
  8
0
  6
CONTINUOUS
 62
               4
100
AcDbLine
 10
18.499745617297389
 20
-63.395273542459663
 30
0.0
 11
0.499745617442503
 21
-63.395201264043209
 31
0.0
  0
LINE
  5
3AC
100
AcDbEntity
  8
0
  6
CONTINUOUS
 62
               4
100
AcDbLine
 10
0.4997660963271655
 20
-58.295201264084305
 30
0.0
 11
0.4998110563355152
 21
-47.098495664174571
 31
0.0
  0
LINE
  5
3AD
100
AcDbEntity
  8
0
  6
CONTINUOUS
 62
               4
100
AcDbLine
 10
0.4997660963279687
 20
-58.295201064084317
 30
0.0
 11
18.499766096182853
 21
-58.295273342500771
 31
0.0
  0
LINE
  5
3AE
100
AcDbEntity
  8
0
  6
CONTINUOUS
 62
               4
100
AcDbLine
 10
18.499821488513305
 20
-44.500533542611983
 30
0.0
 11
15.999821488533462
 21
-44.500523503943036
 31
0.0
  0
LINE
  5
3AF
100
AcDbEntity
  8
0
  6
CONTINUOUS
 62
               7
100
AcDbLine
 10
-0.0001710396417177
 20
-42.595199256476377
 30
0.0
 11
18.999828960205104
 21
-42.595275550360412
 31
0.0
  0
LINE
  5
3B0
100
AcDbEntity
  8
0
  6
CONTINUOUS
 62
               7
100
AcDbLine
 10
19.000242553427206
 20
60.40473970759826
 30
0.0
 11
0.0002425535803861
 21
60.404816001482295
 31
0.0
  0
ENDBLK
  5
3B1
100
AcDbEntity
  8
0
100
AcDbBlockEnd
  0
BLOCK
  5
3B2
100
AcDbEntity
  8
0
100
AcDbBlockBegin
  2
F15MPJ-9
 70
               0
 10
0.0
 20
0.0
 30
0.0
  3
F15MPJ-9
  1

  0
LINE
  5
3B3
100
AcDbEntity
  8
0
  6
CONTINUOUS
 62
             200
100
AcDbLine
 10
20.053583656608431
 20
-73.551418506482179
 30
0.0
 11
20.052319098229198
 21
-45.884460732583705
 31
0.0
  0
LINE
  5
3B4
100
AcDbEntity
  8
0
  6
CONTINUOUS
 62
             200
100
AcDbLine
 10
39.003495735224462
 20
-73.350560002488294
 30
0.0
 11
39.002231176845228
 21
-45.68360222858982
 31
0.0
  0
LINE
  5
3B5
100
AcDbEntity
  8
0
  6
CONTINUOUS
 62
               4
100
AcDbLine
 10
52.338079939737838
 20
-44.597630747017377
 30
0.0
 11
47.142064641803941
 21
-47.597868241556341
 31
0.0
  0
LINE
  5
3B6
100
AcDbEntity
  8
0
  6
CONTINUOUS
 62
               4
100
AcDbLine
 10
46.502311050922067
 20
-47.597897482420876
 30
0.0
 11
46.502176792599819
 21
-44.597897485423744
 31
0.0
  0
LINE
  5
3B7
100
AcDbEntity
  8
0
  6
CONTINUOUS
 62
               4
100
AcDbLine
 10
10.502282822679122
 20
-46.81419988011919
 30
0.0
 11
10.502181598226107
 21
-44.599535287953699
 31
0.0
  0
LINE
  5
3B8
100
AcDbEntity
  8
0
  6
CONTINUOUS
 62
               4
100
AcDbLine
 10
6.66627000287159
 20
-44.599710613849254
 30
0.0
 11
11.862572754343597
 21
-47.599480741833617
 31
0.0
  0
LINE
  5
3B9
100
AcDbEntity
  8
0
  6
CONTINUOUS
 62
               4
100
AcDbLine
 10
30.00280775654025
 20
-58.298651427294203
 30
0.0
 11
30.002318697551495
 21
-47.598651638470784
 31
0.0
  0
LINE
  5
3BA
100
AcDbEntity
  8
0
  6
CONTINUOUS
 62
               4
100
AcDbLine
 10
11.002807776386506
 20
-58.299519849813834
 30
0.0
 11
11.002296016471997
 21
-47.102852161188281
 31
0.0
  0
ARC
  5
3BB
100
AcDbEntity
  8
0
  6
CONTINUOUS
 62
               4
100
AcDbCircle
 10
27.153343584539158
 20
-68.298779247232346
 30
0.0
 40
0.3
100
AcDbArc
 50
260.39329466544069
 51
270.00261878659165
  0
LINE
  5
3BC
100
AcDbEntity
  8
0
  6
CONTINUOUS
 62
               4
100
AcDbLine
 10
11.002656945361396
 20
-54.999525423866288
 30
0.0
 11
10.952734206062638
 21
-54.999527705657385
 31
0.0
  0
LINE
  5
3BD
100
AcDbEntity
  8
0
  6
CONTINUOUS
 62
               4
100
AcDbLine
 10
11.003018026303765
 20
-62.89952541561442
 30
0.0
 11
10.953095287005008
 21
-62.899527697405517
 31
0.0
  0
LINE
  5
3BE
100
AcDbEntity
  8
0
  6
CONTINUOUS
 62
               4
100
AcDbLine
 10
11.653430442752958
 20
-70.199482695197958
 30
0.0
 11
11.603351682156211
 21
-70.199484984120261
 31
0.0
  0
ARC
  5
3BF
100
AcDbEntity
  8
0
  6
CONTINUOUS
 62
               4
100
AcDbCircle
 10
12.853351640537197
 20
-68.499427849285894
 30
0.0
 40
0.5
100
AcDbArc
 50
270.00261878659086
 51
275.73284524633152
  0
ARC
  5
3C0
100
AcDbEntity
  8
0
  6
CONTINUOUS
 62
               4
100
AcDbCircle
 10
28.103383659783894
 20
-70.89873845638499
 30
0.0
 40
0.3
100
AcDbArc
 50
270.00261878659001
 51
0.0026187865902256
  0
ARC
  5
3C1
100
AcDbEntity
  8
0
  6
CONTINUOUS
 62
               4
100
AcDbCircle
 10
13.503319686006394
 20
-69.49940577199402
 30
0.0
 40
0.5
100
AcDbArc
 50
270.00261878659001
 51
0.0026187865902256
  0
ARC
  5
3C2
100
AcDbEntity
  8
0
  6
CONTINUOUS
 62
               4
100
AcDbCircle
 10
11.903383676705397
 20
-70.89947890084909
 30
0.0
 40
0.3
100
AcDbArc
 50
180.00261878659063
 51
270.00261878659086
  0
ARC
  5
3C3
100
AcDbEntity
  8
0
  6
CONTINUOUS
 62
               4
100
AcDbCircle
 10
26.503319672427374
 20
-69.498811588164784
 30
0.0
 40
0.5
100
AcDbArc
 50
180.00261878659063
 51
270.00261878659086
  0
LINE
  5
3C4
100
AcDbEntity
  8
0
  6
CONTINUOUS
 62
               4
100
AcDbLine
 10
28.403383690596577
 20
-70.899405744449723
 30
0.0
 11
28.403342523666922
 21
-69.998724745390547
 31
0.0
  0
LINE
  5
3C5
100
AcDbEntity
  8
0
  6
CONTINUOUS
 62
               4
100
AcDbLine
 10
11.903397388639915
 20
-71.199478900535723
 30
0.0
 11
28.103397371718415
 21
-71.198738456071624
 31
0.0
  0
LINE
  5
3C6
100
AcDbEntity
  8
0
  6
CONTINUOUS
 62
               4
100
AcDbLine
 10
28.403342523666922
 20
-69.998724745390547
 30
0.0
 11
11.603342541215243
 21
-69.999492613723703
 31
0.0
  0
LINE
  5
3C7
100
AcDbEntity
  8
0
  6
CONTINUOUS
 62
               4
100
AcDbLine
 10
11.603383708144895
 20
-70.900173612782879
 30
0.0
 11
11.603342541215243
 21
-69.999492613723703
 31
0.0
  0
LINE
  5
3C8
100
AcDbEntity
  8
0
  6
CONTINUOUS
 62
               4
100
AcDbLine
 10
14.003319685484124
 20
-69.499382918769811
 30
0.0
 11
14.003301402904762
 21
-69.099382919187605
 31
0.0
  0
LINE
  5
3C9
100
AcDbEntity
  8
0
  6
CONTINUOUS
 62
               4
100
AcDbLine
 10
27.103296818576474
 20
-68.998784164818005
 30
0.0
 11
27.103251112082368
 21
-67.998783165862562
 31
0.0
  0
LINE
  5
3CA
100
AcDbEntity
  8
0
  6
CONTINUOUS
 62
               4
100
AcDbLine
 10
27.003301389325742
 20
-69.098788735358397
 30
0.0
 11
27.103296818576474
 21
-68.998784164818005
 31
0.0
  0
LINE
  5
3CB
100
AcDbEntity
  8
0
  6
CONTINUOUS
 62
               4
100
AcDbLine
 10
13.003301403949303
 20
-69.099428625635994
 30
0.0
 11
12.903296833408893
 21
-68.999433196385326
 31
0.0
  0
LINE
  5
3CC
100
AcDbEntity
  8
0
  6
CONTINUOUS
 62
               4
100
AcDbLine
 10
13.003301403949303
 20
-69.099428625635994
 30
0.0
 11
27.003301389325742
 21
-69.098788735358397
 31
0.0
  0
LINE
  5
3CD
100
AcDbEntity
  8
0
  6
CONTINUOUS
 62
               4
100
AcDbLine
 10
12.903296833408893
 20
-68.999433196385326
 30
0.0
 11
12.903251126914784
 21
-67.999432197429854
 31
0.0
  0
LINE
  5
3CE
100
AcDbEntity
  8
0
  6
CONTINUOUS
 62
               4
100
AcDbLine
 10
28.903045431230048
 20
-63.498701898955858
 30
0.0
 11
11.103045449822902
 21
-63.499515473737404
 31
0.0
  0
LINE
  5
3CF
100
AcDbEntity
  8
0
  6
CONTINUOUS
 62
               4
100
AcDbLine
 10
12.103251127750463
 20
-67.999468762588577
 30
0.0
 11
27.903250311246737
 21
-67.99874660074039
 31
0.0
  0
LINE
  5
3D0
100
AcDbEntity
  8
0
  6
CONTINUOUS
 62
               4
100
AcDbLine
 10
11.203086585521975
 20
-64.399510902152485
 30
0.0
 11
11.003095727020577
 21
-64.599520043233241
 31
0.0
  0
LINE
  5
3D1
100
AcDbEntity
  8
0
  6
CONTINUOUS
 62
               4
100
AcDbLine
 10
11.003203818794583
 20
-66.964433040762998
 30
0.0
 11
11.756814104243245
 21
-67.399484596367813
 31
0.0
  0
LINE
  5
3D2
100
AcDbEntity
  8
0
  6
CONTINUOUS
 62
               4
100
AcDbLine
 10
29.003203799992868
 20
-66.963610324691786
 30
0.0
 11
28.249633287015826
 21
-67.398730768178041
 31
0.0
  0
LINE
  5
3D3
100
AcDbEntity
  8
0
  6
CONTINUOUS
 62
               4
100
AcDbLine
 10
28.249633287015826
 20
-67.398730768178041
 30
0.0
 11
27.903250311246737
 21
-67.99874660074039
 31
0.0
  0
LINE
  5
3D4
100
AcDbEntity
  8
0
  6
CONTINUOUS
 62
               4
100
AcDbLine
 10
11.756814104243245
 20
-67.399484596367813
 30
0.0
 11
12.103251927750415
 21
-67.999468762551999
 31
0.0
  0
LINE
  5
3D5
100
AcDbEntity
  8
0
  6
CONTINUOUS
 62
               4
100
AcDbLine
 10
28.803086567138102
 20
-64.398706468660635
 30
0.0
 11
11.203086585521975
 21
-64.399510902152485
 31
0.0
  0
LINE
  5
3D6
100
AcDbEntity
  8
0
  6
CONTINUOUS
 62
               4
100
AcDbLine
 10
29.00320380003857
 20
-66.963611324691783
 30
0.0
 11
29.003095708218858
 21
-64.598697327162029
 31
0.0
  0
LINE
  5
3D7
100
AcDbEntity
  8
0
  6
CONTINUOUS
 62
               4
100
AcDbLine
 10
28.803086567138102
 20
-64.398706468660635
 30
0.0
 11
29.003095708218858
 21
-64.598697327162029
 31
0.0
  0
LINE
  5
3D8
100
AcDbEntity
  8
0
  6
CONTINUOUS
 62
               4
100
AcDbLine
 10
11.003203818840293
 20
-66.964434040762995
 30
0.0
 11
11.003095727020577
 21
-64.599520043233241
 31
0.0
  0
LINE
  5
3D9
100
AcDbEntity
  8
0
  6
CONTINUOUS
 62
               4
100
AcDbLine
 10
28.802816899065107
 20
-58.498705874823401
 30
0.0
 11
29.002826040155007
 21
-58.698696933324783
 31
0.0
  0
LINE
  5
3DA
100
AcDbEntity
  8
0
  6
CONTINUOUS
 62
               4
100
AcDbLine
 10
11.202816917458128
 20
-58.499510508315268
 30
0.0
 11
28.802816899074251
 21
-58.498706074823389
 31
0.0
  0
LINE
  5
3DB
100
AcDbEntity
  8
0
  6
CONTINUOUS
 62
               4
100
AcDbLine
 10
29.003040860480773
 20
-63.398697328415466
 30
0.0
 11
29.002826040155007
 21
-58.698696933324783
 31
0.0
  0
LINE
  5
3DC
100
AcDbEntity
  8
0
  6
CONTINUOUS
 62
               4
100
AcDbLine
 10
11.003040879282496
 20
-63.399520044486707
 30
0.0
 11
11.002826058956726
 21
-58.699519649396024
 31
0.0
  0
LINE
  5
3DD
100
AcDbEntity
  8
0
  6
CONTINUOUS
 62
               4
100
AcDbLine
 10
11.202816917448986
 20
-58.49951030831528
 30
0.0
 11
11.002826058956726
 21
-58.699519649396024
 31
0.0
  0
LINE
  5
3DE
100
AcDbEntity
  8
0
  6
CONTINUOUS
 62
               4
100
AcDbLine
 10
29.003040860480773
 20
-63.398697328415466
 30
0.0
 11
28.903045431230048
 21
-63.498701898955858
 31
0.0
  0
LINE
  5
3DF
100
AcDbEntity
  8
0
  6
CONTINUOUS
 62
               4
100
AcDbLine
 10
11.003040879282496
 20
-63.399520044486707
 30
0.0
 11
11.103045449822902
 21
-63.499515473737404
 31
0.0
  0
LINE
  5
3E0
100
AcDbEntity
  8
0
  6
CONTINUOUS
 62
               4
100
AcDbLine
 10
11.20281691747641
 20
-58.499510908315244
 30
0.0
 11
11.002807776386506
 21
-58.299519849813834
 31
0.0
  0
LINE
  5
3E1
100
AcDbEntity
  8
0
  6
CONTINUOUS
 62
               4
100
AcDbLine
 10
28.303086567660372
 20
-64.398729321884815
 30
0.0
 11
28.303045431856809
 21
-63.498729322824886
 31
0.0
  0
LINE
  5
3E2
100
AcDbEntity
  8
0
  6
CONTINUOUS
 62
               4
100
AcDbLine
 10
11.703086584999705
 20
-64.399488048928276
 30
0.0
 11
11.703045449196145
 21
-63.499488049868376
 31
0.0
  0
LINE
  5
3E3
100
AcDbEntity
  8
0
  6
CONTINUOUS
 62
               4
100
AcDbLine
 10
28.802816899092534
 20
-58.498706474823393
 30
0.0
 11
29.00280775758479
 21
-58.298697133742621
 31
0.0
  0
LINE
  5
3E4
100
AcDbEntity
  8
0
  6
CONTINUOUS
 62
               4
100
AcDbLine
 10
11.002826058956726
 20
-58.699519649396024
 30
0.0
 11
29.002826040155007
 21
-58.698696933324783
 31
0.0
  0
LINE
  5
3E5
100
AcDbEntity
  8
0
  6
CONTINUOUS
 62
               4
100
AcDbLine
 10
26.003319672949644
 20
-69.498834441388993
 30
0.0
 11
26.003301390370282
 21
-69.098834441806787
 31
0.0
  0
LINE
  5
3E6
100
AcDbEntity
  8
0
  6
CONTINUOUS
 62
               4
100
AcDbLine
 10
12.903296833408893
 20
-68.999433196385326
 30
0.0
 11
27.103296818576474
 21
-68.998784164818005
 31
0.0
  0
LINE
  5
3E7
100
AcDbEntity
  8
0
  6
CONTINUOUS
 62
               4
100
AcDbLine
 10
11.756814104243245
 20
-67.399484596367813
 30
0.0
 11
28.249633287015826
 21
-67.398730768178041
 31
0.0
  0
LINE
  5
3E8
100
AcDbEntity
  8
0
  6
CONTINUOUS
 62
               4
100
AcDbLine
 10
11.003203818794583
 20
-66.964433040762998
 30
0.0
 11
29.003203799992868
 21
-66.963610324691786
 31
0.0
  0
LINE
  5
3E9
100
AcDbEntity
  8
0
  6
CONTINUOUS
 62
               4
100
AcDbLine
 10
11.003095727020577
 20
-64.599520043233241
 30
0.0
 11
29.003095708218858
 21
-64.598697327162029
 31
0.0
  0
LINE
  5
3EA
100
AcDbEntity
  8
0
  6
CONTINUOUS
 62
               4
100
AcDbLine
 10
11.003040879282496
 20
-63.399520044486707
 30
0.0
 11
29.003040860480773
 21
-63.398697328415466
 31
0.0
  0
LINE
  5
3EB
100
AcDbEntity
  8
0
  6
CONTINUOUS
 62
               4
100
AcDbLine
 10
29.002807757593928
 20
-58.298697333742609
 30
0.0
 11
29.002318698596035
 21
-47.598697344919174
 31
0.0
  0
ARC
  5
3EC
100
AcDbEntity
  8
0
  6
CONTINUOUS
 62
               4
100
AcDbCircle
 10
47.103383639937647
 20
-70.89787003386536
 30
0.0
 40
0.3
100
AcDbArc
 50
270.00261878659001
 51
0.0026187865902256
  0
ARC
  5
3ED
100
AcDbEntity
  8
0
  6
CONTINUOUS
 62
               4
100
AcDbCircle
 10
32.503319666160138
 20
-69.498537349474361
 30
0.0
 40
0.5
100
AcDbArc
 50
270.00261878659001
 51
0.0026187865902256
  0
ARC
  5
3EE
100
AcDbEntity
  8
0
  6
CONTINUOUS
 62
               4
100
AcDbCircle
 10
30.903383656859141
 20
-70.898610478329459
 30
0.0
 40
0.3
100
AcDbArc
 50
180.00261878659063
 51
270.00261878659086
  0
ARC
  5
3EF
100
AcDbEntity
  8
0
  6
CONTINUOUS
 62
               4
100
AcDbCircle
 10
45.503319652581119
 20
-69.497943165645154
 30
0.0
 40
0.5
100
AcDbArc
 50
180.00261878659063
 51
270.00261878659086
  0
LINE
  5
3F0
100
AcDbEntity
  8
0
  6
CONTINUOUS
 62
               4
100
AcDbLine
 10
47.40338367075033
 20
-70.898537321930121
 30
0.0
 11
47.403342503820674
 21
-69.997856322870916
 31
0.0
  0
LINE
  5
3F1
100
AcDbEntity
  8
0
  6
CONTINUOUS
 62
               4
100
AcDbLine
 10
30.903397368793662
 20
-71.198610478016093
 30
0.0
 11
47.103397351872168
 21
-71.197870033551993
 31
0.0
  0
LINE
  5
3F2
100
AcDbEntity
  8
0
  6
CONTINUOUS
 62
               4
100
AcDbLine
 10
47.403342503820674
 20
-69.997856322870916
 30
0.0
 11
30.60334252136898
 21
-69.998624191204044
 31
0.0
  0
LINE
  5
3F3
100
AcDbEntity
  8
0
  6
CONTINUOUS
 62
               4
100
AcDbLine
 10
30.603383688298635
 20
-70.899305190263249
 30
0.0
 11
30.60334252136898
 21
-69.998624191204044
 31
0.0
  0
LINE
  5
3F4
100
AcDbEntity
  8
0
  6
CONTINUOUS
 62
               4
100
AcDbLine
 10
33.003319665637868
 20
-69.498514496250181
 30
0.0
 11
33.003301383058513
 21
-69.098514496667974
 31
0.0
  0
LINE
  5
3F5
100
AcDbEntity
  8
0
  6
CONTINUOUS
 62
               4
100
AcDbLine
 10
46.10329679873022
 20
-68.997915742298403
 30
0.0
 11
46.103251092236107
 21
-67.997914743342932
 31
0.0
  0
LINE
  5
3F6
100
AcDbEntity
  8
0
  6
CONTINUOUS
 62
               4
100
AcDbLine
 10
46.003301369479495
 20
-69.097920312838767
 30
0.0
 11
46.10329679873022
 21
-68.997915742298403
 31
0.0
  0
LINE
  5
3F7
100
AcDbEntity
  8
0
  6
CONTINUOUS
 62
               4
100
AcDbLine
 10
32.003301384103047
 20
-69.098560203116392
 30
0.0
 11
31.903296813562633
 21
-68.998564773865667
 31
0.0
  0
LINE
  5
3F8
100
AcDbEntity
  8
0
  6
CONTINUOUS
 62
               4
100
AcDbLine
 10
32.003301384103047
 20
-69.098560203116392
 30
0.0
 11
46.003301369479495
 21
-69.097920312838767
 31
0.0
  0
LINE
  5
3F9
100
AcDbEntity
  8
0
  6
CONTINUOUS
 62
               4
100
AcDbLine
 10
31.903296813562633
 20
-68.998564773865667
 30
0.0
 11
31.903251107068527
 21
-67.998563774910224
 31
0.0
  0
LINE
  5
3FA
100
AcDbEntity
  8
0
  6
CONTINUOUS
 62
               4
100
AcDbLine
 10
47.9030454113838
 20
-63.497833476436227
 30
0.0
 11
30.103045429976646
 21
-63.498647051217773
 31
0.0
  0
LINE
  5
3FB
100
AcDbEntity
  8
0
  6
CONTINUOUS
 62
               4
100
AcDbLine
 10
31.103251107904207
 20
-67.998600340068947
 30
0.0
 11
46.903250291400482
 21
-67.997878178220788
 31
0.0
  0
LINE
  5
3FC
100
AcDbEntity
  8
0
  6
CONTINUOUS
 62
               4
100
AcDbLine
 10
30.203086565675719
 20
-64.398642479632855
 30
0.0
 11
30.003095707174317
 21
-64.598651620713611
 31
0.0
  0
LINE
  5
3FD
100
AcDbEntity
  8
0
  6
CONTINUOUS
 62
               4
100
AcDbLine
 10
30.003203798948327
 20
-66.963564618243367
 30
0.0
 11
30.756814084396986
 21
-67.398616173848183
 31
0.0
  0
LINE
  5
3FE
100
AcDbEntity
  8
0
  6
CONTINUOUS
 62
               4
100
AcDbLine
 10
48.003203780146613
 20
-66.962741902172155
 30
0.0
 11
47.249633267169571
 21
-67.397862345658439
 31
0.0
  0
LINE
  5
3FF
100
AcDbEntity
  8
0
  6
CONTINUOUS
 62
               4
100
AcDbLine
 10
47.249633267169571
 20
-67.397862345658439
 30
0.0
 11
46.903250291400482
 21
-67.997878178220788
 31
0.0
  0
LINE
  5
400
100
AcDbEntity
  8
0
  6
CONTINUOUS
 62
               4
100
AcDbLine
 10
30.756814084396986
 20
-67.398616173848183
 30
0.0
 11
31.103251907904159
 21
-67.998600340032397
 31
0.0
  0
LINE
  5
401
100
AcDbEntity
  8
0
  6
CONTINUOUS
 62
               4
100
AcDbLine
 10
47.803086547291841
 20
-64.397838046141004
 30
0.0
 11
30.203086565675719
 21
-64.398642479632855
 31
0.0
  0
LINE
  5
402
100
AcDbEntity
  8
0
  6
CONTINUOUS
 62
               4
100
AcDbLine
 10
48.003203780192322
 20
-66.962742902172153
 30
0.0
 11
48.003095688372603
 21
-64.597828904642398
 31
0.0
  0
LINE
  5
403
100
AcDbEntity
  8
0
  6
CONTINUOUS
 62
               4
100
AcDbLine
 10
47.803086547291841
 20
-64.397838046141004
 30
0.0
 11
48.003095688372603
 21
-64.597828904642398
 31
0.0
  0
LINE
  5
404
100
AcDbEntity
  8
0
  6
CONTINUOUS
 62
               4
100
AcDbLine
 10
30.003203798994029
 20
-66.963565618243365
 30
0.0
 11
30.003095707174317
 21
-64.598651620713611
 31
0.0
  0
LINE
  5
405
100
AcDbEntity
  8
0
  6
CONTINUOUS
 62
               4
100
AcDbLine
 10
47.802816879218852
 20
-58.49783745230377
 30
0.0
 11
48.002826020308753
 21
-58.697828510805152
 31
0.0
  0
LINE
  5
406
100
AcDbEntity
  8
0
  6
CONTINUOUS
 62
               4
100
AcDbLine
 10
30.202816897611868
 20
-58.498642085795638
 30
0.0
 11
47.80281687922799
 21
-58.497837652303758
 31
0.0
  0
LINE
  5
407
100
AcDbEntity
  8
0
  6
CONTINUOUS
 62
               4
100
AcDbLine
 10
48.003040840634526
 20
-63.397828905895835
 30
0.0
 11
48.002826020308753
 21
-58.697828510805152
 31
0.0
  0
LINE
  5
408
100
AcDbEntity
  8
0
  6
CONTINUOUS
 62
               4
100
AcDbLine
 10
30.003040859436233
 20
-63.398651621967076
 30
0.0
 11
30.002826039110467
 21
-58.698651226876393
 31
0.0
  0
LINE
  5
409
100
AcDbEntity
  8
0
  6
CONTINUOUS
 62
               4
100
AcDbLine
 10
30.20281689760273
 20
-58.498641885795649
 30
0.0
 11
30.002826039110467
 21
-58.698651226876393
 31
0.0
  0
LINE
  5
40A
100
AcDbEntity
  8
0
  6
CONTINUOUS
 62
               4
100
AcDbLine
 10
48.003040840634526
 20
-63.397828905895835
 30
0.0
 11
47.9030454113838
 21
-63.497833476436227
 31
0.0
  0
LINE
  5
40B
100
AcDbEntity
  8
0
  6
CONTINUOUS
 62
               4
100
AcDbLine
 10
30.003040859436233
 20
-63.398651621967076
 30
0.0
 11
30.103045429976646
 21
-63.498647051217773
 31
0.0
  0
LINE
  5
40C
100
AcDbEntity
  8
0
  6
CONTINUOUS
 62
               4
100
AcDbLine
 10
30.20281689763015
 20
-58.498642485795642
 30
0.0
 11
30.00280775654025
 21
-58.298651427294203
 31
0.0
  0
LINE
  5
40D
100
AcDbEntity
  8
0
  6
CONTINUOUS
 62
               4
100
AcDbLine
 10
47.303086547814111
 20
-64.397860899365185
 30
0.0
 11
47.303045412010555
 21
-63.497860900305284
 31
0.0
  0
LINE
  5
40E
100
AcDbEntity
  8
0
  6
CONTINUOUS
 62
               4
100
AcDbLine
 10
30.703086565153448
 20
-64.398619626408674
 30
0.0
 11
30.703045429349885
 21
-63.498619627348745
 31
0.0
  0
LINE
  5
40F
100
AcDbEntity
  8
0
  6
CONTINUOUS
 62
               4
100
AcDbLine
 10
47.802816879246272
 20
-58.497838052303763
 30
0.0
 11
48.002807737738536
 21
-58.297828711222991
 31
0.0
  0
LINE
  5
410
100
AcDbEntity
  8
0
  6
CONTINUOUS
 62
               4
100
AcDbLine
 10
30.002826039110467
 20
-58.698651226876393
 30
0.0
 11
48.002826020308753
 21
-58.697828510805152
 31
0.0
  0
LINE
  5
411
100
AcDbEntity
  8
0
  6
CONTINUOUS
 62
               4
100
AcDbLine
 10
45.003319653103389
 20
-69.497966018869363
 30
0.0
 11
45.003301370524035
 21
-69.097966019287185
 31
0.0
  0
LINE
  5
412
100
AcDbEntity
  8
0
  6
CONTINUOUS
 62
               4
100
AcDbLine
 10
31.903296813562633
 20
-68.998564773865667
 30
0.0
 11
46.10329679873022
 21
-68.997915742298403
 31
0.0
  0
LINE
  5
413
100
AcDbEntity
  8
0
  6
CONTINUOUS
 62
               4
100
AcDbLine
 10
30.756814084396986
 20
-67.398616173848183
 30
0.0
 11
47.249633267169571
 21
-67.397862345658439
 31
0.0
  0
LINE
  5
414
100
AcDbEntity
  8
0
  6
CONTINUOUS
 62
               4
100
AcDbLine
 10
30.003203798948327
 20
-66.963564618243367
 30
0.0
 11
48.003203780146613
 21
-66.962741902172155
 31
0.0
  0
LINE
  5
415
100
AcDbEntity
  8
0
  6
CONTINUOUS
 62
               4
100
AcDbLine
 10
30.003095707174317
 20
-64.598651620713611
 30
0.0
 11
48.003095688372603
 21
-64.597828904642398
 31
0.0
  0
LINE
  5
416
100
AcDbEntity
  8
0
  6
CONTINUOUS
 62
               4
100
AcDbLine
 10
30.003040859436233
 20
-63.398651621967076
 30
0.0
 11
48.003040840634526
 21
-63.397828905895835
 31
0.0
  0
LINE
  5
417
100
AcDbEntity
  8
0
  6
CONTINUOUS
 62
               4
100
AcDbLine
 10
48.002807737747681
 20
-58.297828911222979
 30
0.0
 11
48.002295977824026
 21
-47.101161022597438
 31
0.0
  0
LINE
  5
418
100
AcDbEntity
  8
0
  6
CONTINUOUS
 62
               4
100
AcDbLine
 10
11.862572754343597
 20
-47.599480741833617
 30
0.0
 11
29.502318698073765
 21
-47.598674491694993
 31
0.0
  0
LINE
  5
419
100
AcDbEntity
  8
0
  6
CONTINUOUS
 62
               4
100
AcDbLine
 10
47.142064641803941
 20
-47.597868241556341
 30
0.0
 11
29.502318698073765
 21
-47.598674491694993
 31
0.0
  0
LINE
  5
41A
100
AcDbEntity
  8
0
  6
CONTINUOUS
 62
               4
100
AcDbLine
 10
52.502181553658019
 20
-44.597600358331817
 30
0.0
 11
47.502059488568342
 21
-44.597828896153203
 31
0.0
  0
LINE
  5
41B
100
AcDbEntity
  8
0
  6
CONTINUOUS
 62
               7
100
AcDbLine
 10
51.060582604323827
 20
36.402333835907854
 30
0.0
 11
48.998479334993391
 21
36.40223958449107
 31
0.0
  0
LINE
  5
41C
100
AcDbEntity
  8
0
  6
CONTINUOUS
 62
               7
100
AcDbLine
 10
64.997382363519137
 20
60.40297086259654
 30
0.0
 11
48.99738238023177
 21
60.402239559422121
 31
0.0
  0
LINE
  5
41D
100
AcDbEntity
  8
0
  6
CONTINUOUS
 62
               7
100
AcDbLine
 10
51.001404545602
 20
-27.59766893576159
 30
0.0
 11
49.001404547691081
 21
-27.597760348658397
 31
0.0
  0
LINE
  5
41E
100
AcDbEntity
  8
0
  6
CONTINUOUS
 62
               7
100
AcDbLine
 10
57.001953016715575
 20
-39.59739468453671
 30
0.0
 11
49.001953025071899
 21
-39.597760336123912
 31
0.0
  0
LINE
  5
41F
100
AcDbEntity
  8
0
  6
CONTINUOUS
 62
               4
100
AcDbLine
 10
51.402129744842981
 20
-43.597650636748568
 30
0.0
 11
49.0021358508655
 21
-43.59776033194575
 31
0.0
  0
LINE
  5
420
100
AcDbEntity
  8
0
  6
CONTINUOUS
 62
               4
100
AcDbLine
 10
52.402175450246844
 20
-44.597604929255624
 30
0.0
 11
47.502038457983076
 21
-44.597828897114454
 31
0.0
  0
LINE
  5
421
100
AcDbEntity
  8
0
  6
CONTINUOUS
 62
               4
100
AcDbLine
 10
52.401946918004839
 20
-39.597604934478312
 30
0.0
 11
52.402175450246844
 21
-44.597604929255624
 31
0.0
  0
LINE
  5
422
100
AcDbEntity
  8
0
  6
CONTINUOUS
 62
               4
100
AcDbLine
 10
51.401946919049379
 20
-39.59765064092673
 30
0.0
 11
51.402129744842981
 21
-43.597650636748568
 31
0.0
  0
LINE
  5
423
100
AcDbEntity
  8
0
  6
CONTINUOUS
 62
               4
100
AcDbLine
 10
52.502181553658019
 20
-44.597600358331817
 30
0.0
 11
52.501953021416014
 21
-39.597600363554506
 31
0.0
  0
LINE
  5
424
100
AcDbEntity
  8
0
  6
CONTINUOUS
 62
               4
100
AcDbLine
 10
55.802077931651255
 20
-42.597479465615464
 30
0.0
 11
52.502177224287294
 21
-44.502879134940116
 31
0.0
  0
LINE
  5
425
100
AcDbEntity
  8
0
  6
CONTINUOUS
 62
               7
100
AcDbLine
 10
54.998479328726162
 20
36.402513823181479
 30
0.0
 11
55.001404541423838
 21
-27.597486109967974
 31
0.0
  0
LINE
  5
426
100
AcDbEntity
  8
0
  6
CONTINUOUS
 62
               7
100
AcDbLine
 10
52.998479330815243
 20
36.402422410284686
 30
0.0
 11
53.001404543512919
 21
-27.597577522864782
 31
0.0
  0
LINE
  5
427
100
AcDbEntity
  8
0
  6
CONTINUOUS
 62
               7
100
AcDbLine
 10
50.998479332904324
 20
36.402330997387878
 30
0.0
 11
51.001404545602
 21
-27.59766893576159
 31
0.0
  0
LINE
  5
428
100
AcDbEntity
  8
0
  6
CONTINUOUS
 62
               7
100
AcDbLine
 10
56.997382371875446
 20
60.40260521100933
 30
0.0
 11
57.001962158563202
 21
-39.797406891359032
 31
0.0
  0
LINE
  5
429
100
AcDbEntity
  8
0
  6
CONTINUOUS
 62
               7
100
AcDbLine
 10
61.999430015680616
 20
15.602830738288901
 30
0.0
 11
62.001852457445878
 21
-37.397169206350497
 31
0.0
  0
LINE
  5
42A
100
AcDbEntity
  8
0
  6
CONTINUOUS
 62
               7
100
AcDbLine
 10
67.001782415754278
 20
-35.196943726769433
 30
0.0
 11
66.999561082780431
 21
13.403047067192517
 31
0.0
  0
LINE
  5
42B
100
AcDbEntity
  8
0
  6
CONTINUOUS
 62
               4
100
AcDbLine
 10
55.802077930282991
 20
-42.597449529699105
 30
0.0
 11
55.801940810937793
 21
-39.597449532832741
 31
0.0
  0
LINE
  5
42C
100
AcDbEntity
  8
0
  6
CONTINUOUS
 62
               4
100
AcDbLine
 10
55.802077930282991
 20
-42.597449529699105
 30
0.0
 11
55.801940810937793
 21
-39.597449532832741
 31
0.0
  0
LINE
  5
42D
100
AcDbEntity
  8
0
  6
CONTINUOUS
 62
               7
100
AcDbLine
 10
67.001722997929306
 20
-33.896955935158587
 30
0.0
 11
62.001723003151994
 21
-33.897184467400592
 31
0.0
  0
LINE
  5
42E
100
AcDbEntity
  8
0
  6
CONTINUOUS
 62
               7
100
AcDbLine
 10
67.001448759238897
 20
-27.896955941425801
 30
0.0
 11
62.001448764461585
 21
-27.897184473667807
 31
0.0
  0
LINE
  5
42F
100
AcDbEntity
  8
0
  6
CONTINUOUS
 62
               7
100
AcDbLine
 10
67.001790253791015
 20
-35.196972032993187
 30
0.0
 11
65.001876510979884
 21
-37.197062532639279
 31
0.0
  0
LINE
  5
430
100
AcDbEntity
  8
0
  6
CONTINUOUS
 62
               7
100
AcDbLine
 10
65.001873830740166
 20
-37.19703513757716
 30
0.0
 11
62.001873833873773
 21
-37.197172256922357
 31
0.0
  0
LINE
  5
431
100
AcDbEntity
  8
0
  6
CONTINUOUS
 62
               7
100
AcDbLine
 10
65.001852454312271
 20
-37.3970320870053
 30
0.0
 11
65.002090127704463
 21
-42.597029029815872
 31
0.0
  0
LINE
  5
432
100
AcDbEntity
  8
0
  6
CONTINUOUS
 62
               7
100
AcDbLine
 10
65.001852454312271
 20
-37.3970320870053
 30
0.0
 11
62.001852457445878
 21
-37.397169206350497
 31
0.0
  0
LINE
  5
433
100
AcDbEntity
  8
0
  6
CONTINUOUS
 62
               7
100
AcDbLine
 10
67.001713856779105
 20
-33.696958987125299
 30
0.0
 11
67.001457900389084
 21
-28.096952889459089
 31
0.0
  0
LINE
  5
434
100
AcDbEntity
  8
0
  6
CONTINUOUS
 62
               7
100
AcDbLine
 10
67.001457900389084
 20
-28.096952889459089
 30
0.0
 11
62.001457905611787
 21
-28.097181421701094
 31
0.0
  0
LINE
  5
435
100
AcDbEntity
  8
0
  6
CONTINUOUS
 62
               7
100
AcDbLine
 10
67.001713856779105
 20
-33.696958987125299
 30
0.0
 11
62.001713862001793
 21
-33.697187519367304
 31
0.0
  0
LINE
  5
436
100
AcDbEntity
  8
0
  6
CONTINUOUS
 62
               7
100
AcDbLine
 10
57.001962158563202
 20
-39.797406891359032
 30
0.0
 11
56.001962159607743
 21
-39.797452597807421
 31
0.0
  0
LINE
  5
437
100
AcDbEntity
  8
0
  6
CONTINUOUS
 62
               7
100
AcDbLine
 10
56.001962159607743
 20
-39.797452597807421
 30
0.0
 11
56.002090137105313
 21
-42.597440387851492
 31
0.0
  0
LINE
  5
438
100
AcDbEntity
  8
0
  6
CONTINUOUS
 62
               7
100
AcDbLine
 10
65.002090127704463
 20
-42.597029029815872
 30
0.0
 11
56.002090137105313
 21
-42.597440387851492
 31
0.0
  0
LINE
  5
439
100
AcDbEntity
  8
0
  6
CONTINUOUS
 62
               7
100
AcDbLine
 10
55.001404541423838
 20
-27.597486109967974
 30
0.0
 11
53.001404543512919
 21
-27.597577522864782
 31
0.0
  0
ARC
  5
43A
100
AcDbEntity
  8
0
  6
CONTINUOUS
 62
               7
100
AcDbCircle
 10
65.499692825497888
 20
9.8529601992863149
 30
0.0
 40
1.5
100
AcDbArc
 50
270.00260080050151
 51
0.0025828144121508
  0
ARC
  5
43B
100
AcDbEntity
  8
0
  6
CONTINUOUS
 62
               7
100
AcDbCircle
 10
65.499578559376886
 20
12.352960196674971
 30
0.0
 40
1.5
100
AcDbArc
 50
0.0026547587695218
 51
90.002636772680177
  0
LINE
  5
43C
100
AcDbEntity
  8
0
  6
CONTINUOUS
 62
               7
100
AcDbLine
 10
65.499509999704287
 20
13.852960195108153
 30
0.0
 11
64.99951000022655
 21
13.852937341883958
 31
0.0
  0
LINE
  5
43D
100
AcDbEntity
  8
0
  6
CONTINUOUS
 62
               7
100
AcDbLine
 10
65.499761385170501
 20
8.3529602008531327
 30
0.0
 11
64.999761385692764
 21
8.3529373476289237
 31
0.0
  0
LINE
  5
43E
100
AcDbEntity
  8
0
  6
CONTINUOUS
 62
               7
100
AcDbLine
 10
64.999803329185525
 20
8.1029526080739629
 30
0.0
 11
64.999469671972719
 21
15.402955652206629
 31
0.0
  0
LINE
  5
43F
100
AcDbEntity
  8
0
  6
CONTINUOUS
 62
               7
100
AcDbLine
 10
66.999803327096444
 20
8.1030440209707564
 30
0.0
 11
64.999803329185525
 21
8.1029526080739629
 31
0.0
  0
LINE
  5
440
100
AcDbEntity
  8
0
  6
CONTINUOUS
 62
               7
100
AcDbLine
 10
66.999528264200819
 20
13.403040875921647
 30
0.0
 11
64.999450577564346
 21
15.40294602133568
 31
0.0
  0
LINE
  5
441
100
AcDbEntity
  8
0
  6
CONTINUOUS
 62
               7
100
AcDbLine
 10
64.999439154394622
 20
15.402955650811776
 30
0.0
 11
61.999439157528229
 21
15.402818531466579
 31
0.0
  0
LINE
  5
442
100
AcDbEntity
  8
0
  6
CONTINUOUS
 62
               7
100
AcDbLine
 10
64.999430012546995
 20
15.602967857634113
 30
0.0
 11
61.999430015680616
 21
15.602830738288901
 31
0.0
  0
LINE
  5
443
100
AcDbEntity
  8
0
  6
CONTINUOUS
 62
               7
100
AcDbLine
 10
54.998479328726162
 20
36.402513823181479
 30
0.0
 11
52.998479330815243
 21
36.402422410284686
 31
0.0
  0
LINE
  5
444
100
AcDbEntity
  8
0
  6
CONTINUOUS
 62
               7
100
AcDbLine
 10
64.997382363519137
 20
60.40297086259654
 30
0.0
 11
64.999430012546995
 21
15.602967857634113
 31
0.0
  0
LINE
  5
445
100
AcDbEntity
  8
0
  6
CONTINUOUS
 62
               4
100
AcDbLine
 10
49.0021358508655
 20
-43.59776033194575
 30
0.0
 11
49.002112991013973
 21
-43.09761533478013
 31
0.0
  0
ENDBLK
  5
446
100
AcDbEntity
  8
0
100
AcDbBlockEnd
  0
BLOCK
  5
447
100
AcDbEntity
  8
0
100
AcDbBlockBegin
  2
F15MPJ-10
 70
               0
 10
0.0
 20
0.0
 30
0.0
  3
F15MPJ-10
  1

  0
LINE
  5
448
100
AcDbEntity
  8
0
  6
CONTINUOUS
 62
               7
100
AcDbLine
 10
0.0
 20
49.0
 30
0.0
 11
0.0
 21
3.0
 31
0.0
  0
LINE
  5
449
100
AcDbEntity
  8
0
  6
CONTINUOUS
 62
               2
100
AcDbLine
 10
8.0
 20
0.70770263671875
 30
0.0
 11
8.0
 21
48.999999046325684
 31
0.0
  0
LINE
  5
44A
100
AcDbEntity
  8
0
  6
CONTINUOUS
 62
               4
100
AcDbLine
 10
13.5
 20
45.200008392333984
 30
0.0
 11
15.20001220703125
 21
45.200008392333984
 31
0.0
  0
LINE
  5
44B
100
AcDbEntity
  8
0
  6
CONTINUOUS
 62
               4
100
AcDbLine
 10
2.5
 20
6.800018310546875
 30
0.0
 11
0.79998779296875
 21
6.800018310546875
 31
0.0
  0
LINE
  5
44C
100
AcDbEntity
  8
0
  6
CONTINUOUS
 62
               4
100
AcDbLine
 10
2.5
 20
12.20001220703125
 30
0.0
 11
0.79998779296875
 21
12.20001220703125
 31
0.0
  0
LINE
  5
44D
100
AcDbEntity
  8
0
  6
CONTINUOUS
 62
               4
100
AcDbLine
 10
13.499984741210937
 20
39.800014495849609
 30
0.0
 11
15.20001220703125
 21
39.800014495849609
 31
0.0
  0
LINE
  5
44E
100
AcDbEntity
  8
0
  6
CONTINUOUS
 62
               4
100
AcDbLine
 10
15.20001220703125
 20
48.799999237060547
 30
0.0
 11
0.79998779296875
 21
48.799999237060547
 31
0.0
  0
LINE
  5
44F
100
AcDbEntity
  8
0
  6
CONTINUOUS
 62
               4
100
AcDbLine
 10
15.20001220703125
 20
3.20001220703125
 30
0.0
 11
0.79998779296875
 21
3.20001220703125
 31
0.0
  0
LINE
  5
450
100
AcDbEntity
  8
0
  6
CONTINUOUS
 62
               4
100
AcDbLine
 10
13.5
 20
10.20001220703125
 30
0.0
 11
15.5
 21
10.20001220703125
 31
0.0
  0
LINE
  5
451
100
AcDbEntity
  8
0
  6
CONTINUOUS
 62
               4
100
AcDbLine
 10
10.800003051757813
 20
7.5000152587890625
 30
0.0
 11
10.800003051757813
 21
3.20001220703125
 31
0.0
  0
LINE
  5
452
100
AcDbEntity
  8
0
  6
CONTINUOUS
 62
               4
100
AcDbLine
 10
5.20001220703125
 20
48.799999237060547
 30
0.0
 11
5.20001220703125
 21
44.5
 31
0.0
  0
LINE
  5
453
100
AcDbEntity
  8
0
  6
CONTINUOUS
 62
               4
100
AcDbLine
 10
3.4192699582363844
 20
43.580769083498581
 30
0.0
 11
1.5807881977507918
 21
45.419251308901494
 31
0.0
  0
LINE
  5
454
100
AcDbEntity
  8
0
  6
CONTINUOUS
 62
               4
100
AcDbLine
 10
1.5807709481196071
 20
43.580761894626818
 30
0.0
 11
3.4192422289561364
 21
45.419233020491816
 31
0.0
  0
LINE
  5
455
100
AcDbEntity
  8
0
  6
CONTINUOUS
 62
               4
100
AcDbLine
 10
15.5
 20
8.530792236328125
 30
0.0
 11
15.5
 21
39.500011444091797
 31
0.0
  0
LINE
  5
456
100
AcDbEntity
  8
0
  6
CONTINUOUS
 62
               4
100
AcDbLine
 10
12.580780336044882
 20
6.580750109188557
 30
0.0
 11
14.419262406475355
 21
8.4192320246465897
 31
0.0
  0
LINE
  5
457
100
AcDbEntity
  8
0
  6
CONTINUOUS
 62
               4
100
AcDbLine
 10
14.419248343046092
 20
6.5807813957653707
 30
0.0
 11
12.580777372152625
 21
8.4192528315734307
 31
0.0
  0
LINE
  5
458
100
AcDbEntity
  8
0
  6
CONTINUOUS
 62
               4
100
AcDbLine
 10
0.5
 20
12.5
 30
0.0
 11
0.5
 21
43.469242095947266
 31
0.0
  0
LINE
  5
459
100
AcDbEntity
  8
0
  6
CONTINUOUS
 62
               4
100
AcDbLine
 10
15.5
 20
3.5000152587890625
 30
0.0
 11
15.5
 21
6.46923828125
 31
0.0
  0
LINE
  5
45A
100
AcDbEntity
  8
0
  6
CONTINUOUS
 62
               4
100
AcDbLine
 10
0.5
 20
3.5000152587890625
 30
0.0
 11
0.5
 21
6.5000152587890625
 31
0.0
  0
LINE
  5
45B
100
AcDbEntity
  8
0
  6
CONTINUOUS
 62
               4
100
AcDbLine
 10
0.5
 20
45.530757904052734
 30
0.0
 11
0.5
 21
48.500019073486328
 31
0.0
  0
LINE
  5
45C
100
AcDbEntity
  8
0
  6
CONTINUOUS
 62
               4
100
AcDbLine
 10
15.5
 20
45.499996185302734
 30
0.0
 11
15.5
 21
48.500011444091797
 31
0.0
  0
LINE
  5
45D
100
AcDbEntity
  8
0
  6
CONTINUOUS
 62
             200
100
AcDbLine
 10
-1.037139892578125
 20
18.25
 30
0.0
 11
16.957107543945313
 21
18.25
 31
0.0
  0
LINE
  5
45E
100
AcDbEntity
  8
0
  6
CONTINUOUS
 62
             200
100
AcDbLine
 10
-1.037139892578125
 20
33.75
 30
0.0
 11
16.957107543945313
 21
33.75
 31
0.0
  0
ARC
  5
45F
100
AcDbEntity
  8
0
  6
CONTINUOUS
 62
               4
100
AcDbCircle
 10
13.499984741210937
 20
42.500011444091797
 30
0.0
 40
2.6999998092651367
100
AcDbArc
 50
89.999982013910653
 51
270.00000068324533
  0
ARC
  5
460
100
AcDbEntity
  8
0
  6
CONTINUOUS
 62
               4
100
AcDbCircle
 10
2.5
 20
9.5000152587890625
 30
0.0
 40
2.6999998092651367
100
AcDbArc
 50
270.00001798608935
 51
89.999982013910653
  0
ARC
  5
461
100
AcDbEntity
  8
0
  6
CONTINUOUS
 62
               4
100
AcDbCircle
 10
2.5
 20
44.500015258789063
 30
0.0
 40
2.6999998092651367
100
AcDbArc
 50
270.00001798608935
 51
0.0
  0
ARC
  5
462
100
AcDbEntity
  8
0
  6
CONTINUOUS
 62
               4
100
AcDbCircle
 10
15.20001220703125
 20
45.499996185302734
 30
0.0
 40
0.300000011920929
100
AcDbArc
 50
270.00001798608935
 51
0.0
  0
ARC
  5
463
100
AcDbEntity
  8
0
  6
CONTINUOUS
 62
               4
100
AcDbCircle
 10
0.8000030517578125
 20
12.5
 30
0.0
 40
0.300000011920929
100
AcDbArc
 50
179.99996402782131
 51
270.00000068324533
  0
ARC
  5
464
100
AcDbEntity
  8
0
  6
CONTINUOUS
 62
               4
100
AcDbCircle
 10
15.20001220703125
 20
39.500011444091797
 30
0.0
 40
0.300000011920929
100
AcDbArc
 50
0.0
 51
89.999982013910653
  0
ARC
  5
465
100
AcDbEntity
  8
0
  6
CONTINUOUS
 62
               4
100
AcDbCircle
 10
0.8000030517578125
 20
6.5000152587890625
 30
0.0
 40
0.300000011920929
100
AcDbArc
 50
89.999982013910653
 51
179.99996402782131
  0
ARC
  5
466
100
AcDbEntity
  8
0
  6
CONTINUOUS
 62
               4
100
AcDbCircle
 10
0.79998779296875
 20
48.500019073486328
 30
0.0
 40
0.300000011920929
100
AcDbArc
 50
89.999982013910653
 51
179.99996402782131
  0
ARC
  5
467
100
AcDbEntity
  8
0
  6
CONTINUOUS
 62
               4
100
AcDbCircle
 10
15.20001220703125
 20
48.500011444091797
 30
0.0
 40
0.300000011920929
100
AcDbArc
 50
0.0
 51
89.999982013910653
  0
ARC
  5
468
100
AcDbEntity
  8
0
  6
CONTINUOUS
 62
               4
100
AcDbCircle
 10
15.20001220703125
 20
3.5000152587890625
 30
0.0
 40
0.300000011920929
100
AcDbArc
 50
270.00001798608935
 51
0.0
  0
ARC
  5
469
100
AcDbEntity
  8
0
  6
CONTINUOUS
 62
               4
100
AcDbCircle
 10
0.8000030517578125
 20
3.5000152587890625
 30
0.0
 40
0.300000011920929
100
AcDbArc
 50
179.99996402782131
 51
270.00000068324533
  0
ARC
  5
46A
100
AcDbEntity
  8
0
  6
CONTINUOUS
 62
               4
100
AcDbCircle
 10
13.5
 20
7.5000152587890625
 30
0.0
 40
2.6999998092651367
100
AcDbArc
 50
89.999982013910653
 51
179.99996402782131
  0
CIRCLE
  5
46B
100
AcDbEntity
  8
0
  6
CONTINUOUS
 62
               4
100
AcDbCircle
 10
2.5
 20
44.5
 30
0.0
 40
2.25
  0
CIRCLE
  5
46C
100
AcDbEntity
  8
0
  6
CONTINUOUS
 62
               4
100
AcDbCircle
 10
13.5
 20
7.5000152587890625
 30
0.0
 40
2.25
  0
LINE
  5
46D
100
AcDbEntity
  8
0
  6
CONTINUOUS
 62
               4
100
AcDbLine
 10
10.892319037918952
 20
41.799996185302746
 30
0.0
 11
0.4999999940395696
 21
41.799996185302746
 31
0.0
  0
LINE
  5
46E
100
AcDbEntity
  8
0
  6
CONTINUOUS
 62
               4
100
AcDbLine
 10
5.078322088718437
 20
10.301404489514681
 30
0.0
 11
15.500000005960487
 21
10.301404489514681
 31
0.0
  0
CIRCLE
  5
46F
100
AcDbEntity
  8
0
  6
CONTINUOUS
 62
               4
100
AcDbCircle
 10
8.0
 20
33.75
 30
0.0
 40
7.4500000000000002
  0
ARC
  5
470
100
AcDbEntity
  8
0
  6
CONTINUOUS
 62
               4
100
AcDbCircle
 10
8.0
 20
33.75
 30
0.0
 40
6.9000000000000004
100
AcDbArc
 50
8.6933494299441296
 51
171.30665057005587
  0
CIRCLE
  5
471
100
AcDbEntity
  8
0
  6
CONTINUOUS
 62
               4
100
AcDbCircle
 10
8.0
 20
33.75
 30
0.0
 40
4.0499999999999998
  0
CIRCLE
  5
472
100
AcDbEntity
  8
0
  6
CONTINUOUS
 62
               4
100
AcDbCircle
 10
8.0
 20
33.75
 30
0.0
 40
3.0499999999999998
  0
ARC
  5
473
100
AcDbEntity
  8
0
  6
CONTINUOUS
 62
               4
100
AcDbCircle
 10
8.0
 20
33.75
 30
0.0
 40
6.9000000000000004
100
AcDbArc
 50
188.69334942994413
 51
351.30665057005587
  0
CIRCLE
  5
474
100
AcDbEntity
  8
0
  6
CONTINUOUS
 62
               4
100
AcDbCircle
 10
8.0
 20
18.25
 30
0.0
 40
7.4500000000000002
  0
ARC
  5
475
100
AcDbEntity
  8
0
  6
CONTINUOUS
 62
               4
100
AcDbCircle
 10
8.0
 20
18.25
 30
0.0
 40
6.9000000000000004
100
AcDbArc
 50
8.6933494299441296
 51
171.30665057005587
  0
CIRCLE
  5
476
100
AcDbEntity
  8
0
  6
CONTINUOUS
 62
               4
100
AcDbCircle
 10
8.0
 20
18.25
 30
0.0
 40
4.0499999999999998
  0
CIRCLE
  5
477
100
AcDbEntity
  8
0
  6
CONTINUOUS
 62
               4
100
AcDbCircle
 10
8.0
 20
18.25
 30
0.0
 40
3.0499999999999998
  0
ARC
  5
478
100
AcDbEntity
  8
0
  6
CONTINUOUS
 62
               4
100
AcDbCircle
 10
8.0
 20
18.25
 30
0.0
 40
6.9000000000000004
100
AcDbArc
 50
188.69334942994413
 51
351.30665057005587
  0
LINE
  5
479
100
AcDbEntity
  8
0
  6
CONTINUOUS
 62
               4
100
AcDbLine
 10
7.25
 20
25.928541528180972
 30
0.0
 11
7.25
 21
26.071458471819028
 31
0.0
  0
LINE
  5
47A
100
AcDbEntity
  8
0
  6
CONTINUOUS
 62
               4
100
AcDbLine
 10
8.75
 20
25.928541528180972
 30
0.0
 11
8.75
 21
26.071458471819028
 31
0.0
  0
ARC
  5
47B
100
AcDbEntity
  8
0
  6
CONTINUOUS
 62
               4
100
AcDbCircle
 10
6.9500000000000171
 20
25.928541528180972
 30
0.0
 40
0.3
100
AcDbArc
 50
277.78660072413862
 51
0.0
  0
ARC
  5
47C
100
AcDbEntity
  8
0
  6
CONTINUOUS
 62
               4
100
AcDbCircle
 10
6.9500000000000171
 20
26.071458471819028
 30
0.0
 40
0.3
100
AcDbArc
 50
0.0
 51
82.213399275864049
  0
ARC
  5
47D
100
AcDbEntity
  8
0
  6
CONTINUOUS
 62
               4
100
AcDbCircle
 10
9.0500000000000114
 20
25.928541528180972
 30
0.0
 40
0.3
100
AcDbArc
 50
180.0
 51
262.21339927586268
  0
ARC
  5
47E
100
AcDbEntity
  8
0
  6
CONTINUOUS
 62
               4
100
AcDbCircle
 10
9.0500000000000114
 20
26.071458471819028
 30
0.0
 40
0.3
100
AcDbArc
 50
97.786600724137301
 51
180.0
  0
LINE
  5
47F
100
AcDbEntity
  8
0
  6
CONTINUOUS
 62
               4
100
AcDbLine
 10
14.400000000000034
 20
32.949999999999989
 30
0.0
 11
14.820728919785722
 21
32.707092044905863
 31
0.0
  0
LINE
  5
480
100
AcDbEntity
  8
0
  6
CONTINUOUS
 62
               4
100
AcDbLine
 10
14.400000000000034
 20
34.550000000000011
 30
0.0
 11
14.820728919785722
 21
34.792907955094137
 31
0.0
  0
LINE
  5
481
100
AcDbEntity
  8
0
  6
CONTINUOUS
 62
               4
100
AcDbLine
 10
14.400000000000034
 20
32.949999999999989
 30
0.0
 11
14.400000000000034
 21
34.549999994039524
 31
0.0
  0
LINE
  5
482
100
AcDbEntity
  8
0
  6
CONTINUOUS
 62
               4
100
AcDbLine
 10
14.400000000000034
 20
17.449999999999989
 30
0.0
 11
14.820728919785722
 21
17.207092044905863
 31
0.0
  0
LINE
  5
483
100
AcDbEntity
  8
0
  6
CONTINUOUS
 62
               4
100
AcDbLine
 10
14.400000000000034
 20
19.050000000000011
 30
0.0
 11
14.820728919785722
 21
19.292907955094137
 31
0.0
  0
LINE
  5
484
100
AcDbEntity
  8
0
  6
CONTINUOUS
 62
               4
100
AcDbLine
 10
14.400000000000034
 20
17.449999999999989
 30
0.0
 11
14.400000000000034
 21
19.049999994039524
 31
0.0
  0
LINE
  5
485
100
AcDbEntity
  8
0
  6
CONTINUOUS
 62
               4
100
AcDbLine
 10
1.6000000000000227
 20
17.449999999999989
 30
0.0
 11
1.6000000000000227
 21
19.049999994039524
 31
0.0
  0
LINE
  5
486
100
AcDbEntity
  8
0
  6
CONTINUOUS
 62
               4
100
AcDbLine
 10
1.6000000000000227
 20
19.050000000000011
 30
0.0
 11
1.1792710802142778
 21
19.292907955094137
 31
0.0
  0
LINE
  5
487
100
AcDbEntity
  8
0
  6
CONTINUOUS
 62
               4
100
AcDbLine
 10
1.6000000000000227
 20
17.449999999999989
 30
0.0
 11
1.1792710802142778
 21
17.207092044905863
 31
0.0
  0
LINE
  5
488
100
AcDbEntity
  8
0
  6
CONTINUOUS
 62
               4
100
AcDbLine
 10
1.6000000000000227
 20
32.949999999999989
 30
0.0
 11
1.6000000000000227
 21
34.549999994039524
 31
0.0
  0
LINE
  5
489
100
AcDbEntity
  8
0
  6
CONTINUOUS
 62
               4
100
AcDbLine
 10
1.6000000000000227
 20
32.949999999999989
 30
0.0
 11
1.1792710802142778
 21
32.707092044905863
 31
0.0
  0
LINE
  5
48A
100
AcDbEntity
  8
0
  6
CONTINUOUS
 62
               4
100
AcDbLine
 10
1.6000000000000227
 20
34.550000000000011
 30
0.0
 11
1.1792710802142778
 21
34.792907955094137
 31
0.0
  0
LINE
  5
48B
100
AcDbEntity
  8
0
  6
CONTINUOUS
 62
               7
100
AcDbLine
 10
0.0
 20
49.0
 30
0.0
 11
16.0
 21
49.0
 31
0.0
  0
LINE
  5
48C
100
AcDbEntity
  8
0
  6
CONTINUOUS
 62
               7
100
AcDbLine
 10
0.0
 20
3.0
 30
0.0
 11
16.0
 21
3.0
 31
0.0
  0
ARC
  5
48D
100
AcDbEntity
  8
0
  6
CONTINUOUS
 62
               7
100
AcDbCircle
 10
13.5
 20
42.5
 30
0.0
 40
2.5999994277954102
100
AcDbArc
 50
89.999982013910653
 51
270.00000068324533
  0
ARC
  5
48E
100
AcDbEntity
  8
0
  6
CONTINUOUS
 62
               7
100
AcDbCircle
 10
2.5
 20
9.5000152587890625
 30
0.0
 40
2.5999994277954102
100
AcDbArc
 50
270.00001798608935
 51
89.999982013910653
  0
ARC
  5
48F
100
AcDbEntity
  8
0
  6
CONTINUOUS
 62
               7
100
AcDbCircle
 10
14.25
 20
51.199996948242188
 30
0.0
 40
1.5
100
AcDbArc
 50
0.0
 51
89.999982013910653
  0
ARC
  5
490
100
AcDbEntity
  8
0
  6
CONTINUOUS
 62
               7
100
AcDbCircle
 10
12.75
 20
51.199996948242188
 30
0.0
 40
1.5
100
AcDbArc
 50
89.999982013910653
 51
179.99996402782131
  0
ARC
  5
491
100
AcDbEntity
  8
0
  6
CONTINUOUS
 62
               7
100
AcDbCircle
 10
1.75
 20
51.199996948242188
 30
0.0
 40
1.5
100
AcDbArc
 50
89.999982013910653
 51
179.99996402782131
  0
ARC
  5
492
100
AcDbEntity
  8
0
  6
CONTINUOUS
 62
               7
100
AcDbCircle
 10
3.25
 20
51.199996948242188
 30
0.0
 40
1.5
100
AcDbArc
 50
0.0
 51
89.999982013910653
  0
LINE
  5
493
100
AcDbEntity
  8
0
  6
CONTINUOUS
 62
               7
100
AcDbLine
 10
0.0
 20
0.0
 30
0.0
 11
16.0
 21
0.0
 31
0.0
  0
LINE
  5
494
100
AcDbEntity
  8
0
  6
CONTINUOUS
 62
               7
100
AcDbLine
 10
15.499984741210938
 20
39.899993896484375
 30
0.0
 11
15.499984741210938
 21
45.100006103515625
 31
0.0
  0
LINE
  5
495
100
AcDbEntity
  8
0
  6
CONTINUOUS
 62
               7
100
AcDbLine
 10
15.5
 20
39.899978637695312
 30
0.0
 11
13.5
 21
39.899978637695312
 31
0.0
  0
LINE
  5
496
100
AcDbEntity
  8
0
  6
CONTINUOUS
 62
               7
100
AcDbLine
 10
15.5
 20
45.099990844726563
 30
0.0
 11
13.5
 21
45.099990844726563
 31
0.0
  0
LINE
  5
497
100
AcDbEntity
  8
0
  6
CONTINUOUS
 62
               7
100
AcDbLine
 10
0.5
 20
12.100021362304688
 30
0.0
 11
0.5
 21
6.899993896484375
 31
0.0
  0
LINE
  5
498
100
AcDbEntity
  8
0
  6
CONTINUOUS
 62
               7
100
AcDbLine
 10
0.5
 20
6.899993896484375
 30
0.0
 11
2.5
 21
6.899993896484375
 31
0.0
  0
LINE
  5
499
100
AcDbEntity
  8
0
  6
CONTINUOUS
 62
               7
100
AcDbLine
 10
0.5
 20
12.100021362304688
 30
0.0
 11
2.5
 21
12.100021362304688
 31
0.0
  0
LINE
  5
49A
100
AcDbEntity
  8
0
  6
CONTINUOUS
 62
               7
100
AcDbLine
 10
16.0
 20
49.0
 30
0.0
 11
16.0
 21
3.0
 31
0.0
  0
LINE
  5
49B
100
AcDbEntity
  8
0
  6
CONTINUOUS
 62
               7
100
AcDbLine
 10
15.75
 20
51.199996948242188
 30
0.0
 11
15.75
 21
51.0
 31
0.0
  0
LINE
  5
49C
100
AcDbEntity
  8
0
  6
CONTINUOUS
 62
               7
100
AcDbLine
 10
14.25
 20
52.699996948242188
 30
0.0
 11
12.75
 21
52.699996948242188
 31
0.0
  0
LINE
  5
49D
100
AcDbEntity
  8
0
  6
CONTINUOUS
 62
               7
100
AcDbLine
 10
11.25
 20
51.199996948242188
 30
0.0
 11
11.25
 21
51.0
 31
0.0
  0
LINE
  5
49E
100
AcDbEntity
  8
0
  6
CONTINUOUS
 62
               2
100
AcDbLine
 10
8.0
 20
53.462860107421875
 30
0.0
 11
8.0
 21
49.0
 31
0.0
  0
LINE
  5
49F
100
AcDbEntity
  8
0
  6
CONTINUOUS
 62
               7
100
AcDbLine
 10
1.75
 20
52.699996948242188
 30
0.0
 11
3.25
 21
52.699996948242188
 31
0.0
  0
LINE
  5
4A0
100
AcDbEntity
  8
0
  6
CONTINUOUS
 62
               7
100
AcDbLine
 10
0.25
 20
51.199996948242188
 30
0.0
 11
0.25
 21
51.0
 31
0.0
  0
LINE
  5
4A1
100
AcDbEntity
  8
0
  6
CONTINUOUS
 62
               7
100
AcDbLine
 10
4.75
 20
51.199996948242188
 30
0.0
 11
4.75
 21
51.0
 31
0.0
  0
LINE
  5
4A2
100
AcDbEntity
  8
0
  6
CONTINUOUS
 62
               7
100
AcDbLine
 10
15.5
 20
51.0
 30
0.0
 11
15.5
 21
49.0
 31
0.0
  0
LINE
  5
4A3
100
AcDbEntity
  8
0
  6
CONTINUOUS
 62
               7
100
AcDbLine
 10
0.5
 20
51.0
 30
0.0
 11
0.5
 21
49.0
 31
0.0
  0
LINE
  5
4A4
100
AcDbEntity
  8
0
  6
CONTINUOUS
 62
               7
100
AcDbLine
 10
0.25
 20
51.0
 30
0.0
 11
15.75
 21
51.0
 31
0.0
  0
ENDBLK
  5
4A5
100
AcDbEntity
  8
0
100
AcDbBlockEnd
  0
BLOCK
  5
4A6
100
AcDbEntity
  8
0
100
AcDbBlockBegin
  2
F15MPJ-11
 70
               0
 10
0.0
 20
0.0
 30
0.0
  3
F15MPJ-11
  1

  0
LINE
  5
4A7
100
AcDbEntity
  8
0
  6
CONTINUOUS
 62
               7
100
AcDbLine
 10
19.0
 20
-42.600000000000001
 30
0.0
 11
19.0
 21
60.399999999999999
 31
0.0
  0
LINE
  5
4A8
100
AcDbEntity
  8
0
  6
CONTINUOUS
 62
               7
100
AcDbLine
 10
0.0
 20
-42.600000000000001
 30
0.0
 11
0.0
 21
60.399999999999999
 31
0.0
  0
LINE
  5
4A9
100
AcDbEntity
  8
0
  6
CONTINUOUS
 62
               7
100
AcDbLine
 10
0.0
 20
-42.600000000000001
 30
0.0
 11
19.0
 21
-42.600000000000001
 31
0.0
  0
LINE
  5
4AA
100
AcDbEntity
  8
0
  6
CONTINUOUS
 62
               7
100
AcDbLine
 10
0.5
 20
-28.100000000000001
 30
0.0
 11
3.0
 21
-28.100000000000001
 31
0.0
  0
LINE
  5
4AB
100
AcDbEntity
  8
0
  6
CONTINUOUS
 62
               7
100
AcDbLine
 10
0.5
 20
-33.700000000000003
 30
0.0
 11
3.0
 21
-33.700000000000003
 31
0.0
  0
LINE
  5
4AC
100
AcDbEntity
  8
0
  6
CONTINUOUS
 62
               7
100
AcDbLine
 10
16.0
 20
11.9
 30
0.0
 11
18.5
 21
11.9
 31
0.0
  0
LINE
  5
4AD
100
AcDbEntity
  8
0
  6
CONTINUOUS
 62
               7
100
AcDbLine
 10
16.0
 20
6.2999999999999998
 30
0.0
 11
18.5
 21
6.2999999999999998
 31
0.0
  0
LINE
  5
4AE
100
AcDbEntity
  8
0
  6
CONTINUOUS
 62
               7
100
AcDbLine
 10
18.5
 20
6.2999999999999998
 30
0.0
 11
18.5
 21
11.9
 31
0.0
  0
LINE
  5
4AF
100
AcDbEntity
  8
0
  6
CONTINUOUS
 62
               7
100
AcDbLine
 10
0.5
 20
-33.700000000000003
 30
0.0
 11
0.5
 21
-28.100000000000001
 31
0.0
  0
LINE
  5
4B0
100
AcDbEntity
  8
0
  6
CONTINUOUS
 62
               7
100
AcDbLine
 10
0.0
 20
15.6
 30
0.0
 11
19.0
 21
15.6
 31
0.0
  0
LINE
  5
4B1
100
AcDbEntity
  8
0
  6
CONTINUOUS
 62
               7
100
AcDbLine
 10
0.0
 20
-37.399999999999999
 30
0.0
 11
19.0
 21
-37.399999999999999
 31
0.0
  0
LINE
  5
4B2
100
AcDbEntity
  8
0
  6
CONTINUOUS
 62
               7
100
AcDbLine
 10
8.4299999999999997
 20
41.829999999999998
 30
0.0
 11
10.56
 21
43.960000000000001
 31
0.0
  0
LINE
  5
4B3
100
AcDbEntity
  8
0
  6
CONTINUOUS
 62
               7
100
AcDbLine
 10
8.4299999999999997
 20
43.960000000000001
 30
0.0
 11
10.56
 21
41.840000000000003
 31
0.0
  0
LINE
  5
4B4
100
AcDbEntity
  8
0
  6
CONTINUOUS
 62
               7
100
AcDbLine
 10
0.5
 20
15.4
 30
0.0
 11
18.5
 21
15.4
 31
0.0
  0
LINE
  5
4B5
100
AcDbEntity
  8
0
  6
CONTINUOUS
 62
               7
100
AcDbLine
 10
0.5
 20
-37.200000000000003
 30
0.0
 11
18.5
 21
-37.200000000000003
 31
0.0
  0
LINE
  5
4B6
100
AcDbEntity
  8
0
  6
CONTINUOUS
 62
               7
100
AcDbLine
 10
16.0
 20
12.1
 30
0.0
 11
18.5
 21
12.1
 31
0.0
  0
LINE
  5
4B7
100
AcDbEntity
  8
0
  6
CONTINUOUS
 62
               7
100
AcDbLine
 10
16.0
 20
6.0999999999999996
 30
0.0
 11
18.5
 21
6.0999999999999996
 31
0.0
  0
LINE
  5
4B8
100
AcDbEntity
  8
0
  6
CONTINUOUS
 62
               7
100
AcDbLine
 10
0.5
 20
-33.899999999999999
 30
0.0
 11
3.0
 21
-33.899999999999999
 31
0.0
  0
LINE
  5
4B9
100
AcDbEntity
  8
0
  6
CONTINUOUS
 62
               7
100
AcDbLine
 10
0.5
 20
-27.899999999999999
 30
0.0
 11
3.0
 21
-27.899999999999999
 31
0.0
  0
LINE
  5
4BA
100
AcDbEntity
  8
0
  6
CONTINUOUS
 62
               7
100
AcDbLine
 10
6.0
 20
11.1
 30
0.0
 11
6.0
 21
15.4
 31
0.0
  0
LINE
  5
4BB
100
AcDbEntity
  8
0
  6
CONTINUOUS
 62
               7
100
AcDbLine
 10
3.0
 20
8.0999999999999996
 30
0.0
 11
0.5
 21
8.0999999999999996
 31
0.0
  0
LINE
  5
4BC
100
AcDbEntity
  8
0
  6
CONTINUOUS
 62
               7
100
AcDbLine
 10
0.5
 20
-35.200000000000003
 30
0.0
 11
13.0
 21
-35.200000000000003
 31
0.0
  0
LINE
  5
4BD
100
AcDbEntity
  8
0
  6
CONTINUOUS
 62
               7
100
AcDbLine
 10
6.0
 20
13.4
 30
0.0
 11
18.5
 21
13.4
 31
0.0
  0
LINE
  5
4BE
100
AcDbEntity
  8
0
  6
CONTINUOUS
 62
               7
100
AcDbLine
 10
18.5
 20
-37.200000000000003
 30
0.0
 11
18.5
 21
-34.159999999999997
 31
0.0
  0
LINE
  5
4BF
100
AcDbEntity
  8
0
  6
CONTINUOUS
 62
               7
100
AcDbLine
 10
0.5
 20
-37.200000000000003
 30
0.0
 11
0.5
 21
-33.899999999999999
 31
0.0
  0
LINE
  5
4C0
100
AcDbEntity
  8
0
  6
CONTINUOUS
 62
               7
100
AcDbLine
 10
16.0
 20
-29.899999999999999
 30
0.0
 11
18.5
 21
-29.899999999999999
 31
0.0
  0
LINE
  5
4C1
100
AcDbEntity
  8
0
  6
CONTINUOUS
 62
               7
100
AcDbLine
 10
13.0
 20
-32.899999999999999
 30
0.0
 11
13.0
 21
-37.200000000000003
 31
0.0
  0
LINE
  5
4C2
100
AcDbEntity
  8
0
  6
CONTINUOUS
 62
               7
100
AcDbLine
 10
14.94
 20
-33.960000000000001
 30
0.0
 11
17.059999999999999
 21
-31.84
 31
0.0
  0
LINE
  5
4C3
100
AcDbEntity
  8
0
  6
CONTINUOUS
 62
               7
100
AcDbLine
 10
14.94
 20
-31.829999999999998
 30
0.0
 11
17.059999999999999
 21
-33.960000000000001
 31
0.0
  0
LINE
  5
4C4
100
AcDbEntity
  8
0
  6
CONTINUOUS
 62
               7
100
AcDbLine
 10
1.9299999999999999
 20
10.029999999999999
 30
0.0
 11
4.0599999999999996
 21
12.16
 31
0.0
  0
LINE
  5
4C5
100
AcDbEntity
  8
0
  6
CONTINUOUS
 62
               7
100
AcDbLine
 10
1.9399999999999999
 20
12.16
 30
0.0
 11
4.0599999999999996
 21
10.039999999999999
 31
0.0
  0
LINE
  5
4C6
100
AcDbEntity
  8
0
  6
CONTINUOUS
 62
               7
100
AcDbLine
 10
0.5
 20
-27.899999999999999
 30
0.0
 11
0.5
 21
9.8300000000000001
 31
0.0
  0
LINE
  5
4C7
100
AcDbEntity
  8
0
  6
CONTINUOUS
 62
               7
100
AcDbLine
 10
18.5
 20
12.1
 30
0.0
 11
18.5
 21
15.4
 31
0.0
  0
LINE
  5
4C8
100
AcDbEntity
  8
0
  6
CONTINUOUS
 62
               7
100
AcDbLine
 10
0.5
 20
12.359999999999999
 30
0.0
 11
0.5
 21
15.4
 31
0.0
  0
LINE
  5
4C9
100
AcDbEntity
  8
0
  6
CONTINUOUS
 62
               7
100
AcDbLine
 10
18.5
 20
-31.629999999999999
 30
0.0
 11
18.5
 21
6.0999999999999996
 31
0.0
  0
LINE
  5
4CA
100
AcDbEntity
  8
0
  6
CONTINUOUS
 62
               2
100
AcDbLine
 10
9.5
 20
-42.600000000000001
 30
0.0
 11
9.5
 21
63.399999999999999
 31
0.0
  0
LINE
  5
4CB
100
AcDbEntity
  8
0
  6
CONTINUOUS
 62
               7
100
AcDbLine
 10
19.0
 20
60.399999999999999
 30
0.0
 11
0.0
 21
60.399999999999999
 31
0.0
  0
LINE
  5
4CC
100
AcDbEntity
  8
0
  6
CONTINUOUS
 62
               4
100
AcDbLine
 10
0.25
 20
-42.600000000000001
 30
0.0
 11
0.25
 21
-43.100000000000001
 31
0.0
  0
LINE
  5
4CD
100
AcDbEntity
  8
0
  6
CONTINUOUS
 62
               4
100
AcDbLine
 10
0.5
 20
-43.920000000000002
 30
0.0
 11
0.5
 21
-51.100000000000001
 31
0.0
  0
LINE
  5
4CE
100
AcDbEntity
  8
0
  6
CONTINUOUS
 62
               4
100
AcDbLine
 10
5.75
 20
-42.600000000000001
 30
0.0
 11
5.75
 21
-43.100000000000001
 31
0.0
  0
LINE
  5
4CF
100
AcDbEntity
  8
0
  6
CONTINUOUS
 62
               4
100
AcDbLine
 10
18.0
 20
-46.600000000000001
 30
0.0
 11
1.0
 21
-46.600000000000001
 31
0.0
  0
LINE
  5
4D0
100
AcDbEntity
  8
0
  6
CONTINUOUS
 62
               4
100
AcDbLine
 10
6.0
 20
-42.600000000000001
 30
0.0
 11
6.0
 21
-46.600000000000001
 31
0.0
  0
LINE
  5
4D1
100
AcDbEntity
  8
0
  6
CONTINUOUS
 62
             200
100
AcDbLine
 10
9.5
 20
-54.009999999999998
 30
0.0
 11
9.5
 21
-42.600000000000001
 31
0.0
  0
LINE
  5
4D2
100
AcDbEntity
  8
0
  6
CONTINUOUS
 62
               4
100
AcDbLine
 10
1.0
 20
-51.600000000000001
 30
0.0
 11
18.0
 21
-51.600000000000001
 31
0.0
  0
LINE
  5
4D3
100
AcDbEntity
  8
0
  6
CONTINUOUS
 62
               4
100
AcDbLine
 10
18.5
 20
-42.600000000000001
 30
0.0
 11
18.5
 21
-51.100000000000001
 31
0.0
  0
ARC
  5
4D4
100
AcDbEntity
  8
0
  6
CONTINUOUS
 62
               7
100
AcDbCircle
 10
3.0
 20
-30.900000000000002
 30
0.0
 40
2.8000000000000007
100
AcDbArc
 50
270.0
 51
90.0
  0
ARC
  5
4D5
100
AcDbEntity
  8
0
  6
CONTINUOUS
 62
               7
100
AcDbCircle
 10
16.0
 20
9.0999999999999996
 30
0.0
 40
2.8000000000000003
100
AcDbArc
 50
90.0
 51
270.0
  0
CIRCLE
  5
4D6
100
AcDbEntity
  8
0
  6
CONTINUOUS
 62
               7
100
AcDbCircle
 10
9.5
 20
42.899993896484375
 30
0.0
 40
3.0
  0
ARC
  5
4D7
100
AcDbEntity
  8
0
  6
CONTINUOUS
 62
               7
100
AcDbCircle
 10
16.0
 20
9.0999999999999996
 30
0.0
 40
3.0
100
AcDbArc
 50
90.0
 51
270.0
  0
ARC
  5
4D8
100
AcDbEntity
  8
0
  6
CONTINUOUS
 62
               7
100
AcDbCircle
 10
3.0
 20
-30.899999999999999
 30
0.0
 40
3.0
100
AcDbArc
 50
270.0
 51
90.0
  0
ARC
  5
4D9
100
AcDbEntity
  8
0
  6
CONTINUOUS
 62
               7
100
AcDbCircle
 10
3.0000083923222451
 20
11.099991607677755
 30
0.0
 40
2.999991607689493
100
AcDbArc
 50
269.99983971800327
 51
0.000160281996702
  0
ARC
  5
4DA
100
AcDbEntity
  8
0
  6
CONTINUOUS
 62
               7
100
AcDbCircle
 10
16.000004577640212
 20
-32.90000457764021
 30
0.0
 40
3.0000045776437041
100
AcDbArc
 50
90.00008742635471
 51
179.9999125736453
  0
CIRCLE
  5
4DB
100
AcDbEntity
  8
0
  6
CONTINUOUS
 62
               7
100
AcDbCircle
 10
16.0
 20
-32.900009155273437
 30
0.0
 40
2.7999992370605469
  0
CIRCLE
  5
4DC
100
AcDbEntity
  8
0
  6
CONTINUOUS
 62
               7
100
AcDbCircle
 10
3.0
 20
11.099983215332031
 30
0.0
 40
2.7999992370605469
  0
ARC
  5
4DD
100
AcDbEntity
  8
0
  6
CONTINUOUS
 62
               4
100
AcDbCircle
 10
0.9999893189617439
 20
-46.100010681038256
 30
0.0
 40
0.499989319075831
100
AcDbArc
 50
179.99877601702775
 51
270.00122398297242
  0
ARC
  5
4DE
100
AcDbEntity
  8
0
  6
CONTINUOUS
 62
               4
100
AcDbCircle
 10
4.2500106811143139
 20
-43.100010681114313
 30
0.0
 40
1.4999893189237148
100
AcDbArc
 50
269.99959200858098
 51
0.0004079914188991
  0
ARC
  5
4DF
100
AcDbEntity
  8
0
  6
CONTINUOUS
 62
               4
100
AcDbCircle
 10
1.7499893188856859
 20
-43.100010681114313
 30
0.0
 40
1.4999893189237148
100
AcDbArc
 50
179.99959200858112
 51
270.0
  0
ARC
  5
4E0
100
AcDbEntity
  8
0
  6
CONTINUOUS
 62
               4
100
AcDbCircle
 10
18.000010681038255
 20
-46.100010681038256
 30
0.0
 40
0.499989319075831
100
AcDbArc
 50
269.99877601702769
 51
0.0012239829722824
  0
ARC
  5
4E1
100
AcDbEntity
  8
0
  6
CONTINUOUS
 62
               4
100
AcDbCircle
 10
18.000010681038255
 20
-51.100010681038256
 30
0.0
 40
0.499989319075831
100
AcDbArc
 50
269.99877601702769
 51
0.0012239829722824
  0
ARC
  5
4E2
100
AcDbEntity
  8
0
  6
CONTINUOUS
 62
               4
100
AcDbCircle
 10
0.9999893189617439
 20
-51.100010681038256
 30
0.0
 40
0.499989319075831
100
AcDbArc
 50
179.99877601702775
 51
270.00122398297242
  0
LINE
  5
4E3
100
AcDbEntity
  8
0
  6
CONTINUOUS
 62
               4
100
AcDbLine
 10
4.2500106811143148
 20
-44.600000000000001
 30
0.0
 11
1.7499893188856861
 21
-44.600000000000001
 31
0.0
  0
ENDBLK
  5
4E4
100
AcDbEntity
  8
0
100
AcDbBlockEnd
  0
BLOCK
  5
4E5
100
AcDbEntity
  8
0
100
AcDbBlockBegin
  2
F15MPJ-12
 70
               0
 10
0.0
 20
0.0
 30
0.0
  3
F15MPJ-12
  1

  0
LINE
  5
4E6
100
AcDbEntity
  8
0
  6
CONTINUOUS
 62
               7
100
AcDbLine
 10
49.0
 20
20.399999999999999
 30
0.0
 11
49.0
 21
22.399999999999999
 31
0.0
  0
LINE
  5
4E7
100
AcDbEntity
  8
0
  6
CONTINUOUS
 62
               7
100
AcDbLine
 10
3.0
 20
60.399999999999999
 30
0.0
 11
49.0
 21
60.399999999999999
 31
0.0
  0
LINE
  5
4E8
100
AcDbEntity
  8
0
  6
CONTINUOUS
 62
               7
100
AcDbLine
 10
3.0
 20
-43.100000000000001
 30
0.0
 11
4.5
 21
-44.600000000000001
 31
0.0
  0
LINE
  5
4E9
100
AcDbEntity
  8
0
  6
CONTINUOUS
 62
               7
100
AcDbLine
 10
4.5
 20
-44.600000000000001
 30
0.0
 11
47.5
 21
-44.600000000000001
 31
0.0
  0
LINE
  5
4EA
100
AcDbEntity
  8
0
  6
CONTINUOUS
 62
               7
100
AcDbLine
 10
47.5
 20
-44.600000000000001
 30
0.0
 11
49.0
 21
-43.100000000000001
 31
0.0
  0
LINE
  5
4EB
100
AcDbEntity
  8
0
  6
CONTINUOUS
 62
               7
100
AcDbLine
 10
49.0
 20
-43.100000000000001
 30
0.0
 11
49.0
 21
60.399999999999999
 31
0.0
  0
LINE
  5
4EC
100
AcDbEntity
  8
0
  6
CONTINUOUS
 62
               7
100
AcDbLine
 10
3.0
 20
-43.100000000000001
 30
0.0
 11
3.0
 21
-19.5
 31
0.0
  0
LINE
  5
4ED
100
AcDbEntity
  8
0
  6
CONTINUOUS
 62
               7
100
AcDbLine
 10
3.0
 20
19.5
 30
0.0
 11
3.0
 21
60.399999999999999
 31
0.0
  0
LINE
  5
4EE
100
AcDbEntity
  8
0
  6
CONTINUOUS
 62
               7
100
AcDbLine
 10
6.5
 20
-17.5
 30
0.0
 11
7.5
 21
-17.5
 31
0.0
  0
LINE
  5
4EF
100
AcDbEntity
  8
0
  6
CONTINUOUS
 62
               7
100
AcDbLine
 10
6.5
 20
17.5
 30
0.0
 11
7.5
 21
17.5
 31
0.0
  0
LINE
  5
4F0
100
AcDbEntity
  8
0
  6
CONTINUOUS
 62
               7
100
AcDbLine
 10
6.5
 20
-17.5
 30
0.0
 11
6.5
 21
-14.5
 31
0.0
  0
LINE
  5
4F1
100
AcDbEntity
  8
0
  6
CONTINUOUS
 62
               7
100
AcDbLine
 10
6.5
 20
14.5
 30
0.0
 11
6.5
 21
17.5
 31
0.0
  0
LINE
  5
4F2
100
AcDbEntity
  8
0
  6
CONTINUOUS
 62
               7
100
AcDbLine
 10
2.0
 20
12.5
 30
0.0
 11
7.5
 21
12.5
 31
0.0
  0
LINE
  5
4F3
100
AcDbEntity
  8
0
  6
CONTINUOUS
 62
               7
100
AcDbLine
 10
2.0
 20
-12.5
 30
0.0
 11
7.5
 21
-12.5
 31
0.0
  0
LINE
  5
4F4
100
AcDbEntity
  8
0
  6
CONTINUOUS
 62
               7
100
AcDbLine
 10
0.0
 20
-14.5
 30
0.0
 11
6.5
 21
-14.5
 31
0.0
  0
LINE
  5
4F5
100
AcDbEntity
  8
0
  6
CONTINUOUS
 62
               7
100
AcDbLine
 10
0.0
 20
14.5
 30
0.0
 11
6.5
 21
14.5
 31
0.0
  0
LINE
  5
4F6
100
AcDbEntity
  8
0
  6
CONTINUOUS
 62
               7
100
AcDbLine
 10
0.0
 20
-14.5
 30
0.0
 11
0.0
 21
14.5
 31
0.0
  0
LINE
  5
4F7
100
AcDbEntity
  8
0
  6
CONTINUOUS
 62
               7
100
AcDbLine
 10
2.0
 20
-12.5
 30
0.0
 11
2.0
 21
12.5
 31
0.0
  0
LINE
  5
4F8
100
AcDbEntity
  8
0
  6
CONTINUOUS
 62
               7
100
AcDbLine
 10
7.5
 20
-19.5
 30
0.0
 11
7.5
 21
19.5
 31
0.0
  0
LINE
  5
4F9
100
AcDbEntity
  8
0
  6
CONTINUOUS
 62
               7
100
AcDbLine
 10
7.5
 20
-19.5
 30
0.0
 11
3.0
 21
-19.5
 31
0.0
  0
LINE
  5
4FA
100
AcDbEntity
  8
0
  6
CONTINUOUS
 62
               7
100
AcDbLine
 10
46.5
 20
-42.0
 30
0.0
 11
46.5
 21
42.0
 31
0.0
  0
LINE
  5
4FB
100
AcDbEntity
  8
0
  6
CONTINUOUS
 62
               7
100
AcDbLine
 10
46.5
 20
-42.0
 30
0.0
 11
14.9
 21
-42.0
 31
0.0
  0
LINE
  5
4FC
100
AcDbEntity
  8
0
  6
CONTINUOUS
 62
               7
100
AcDbLine
 10
46.5
 20
42.0
 30
0.0
 11
14.9
 21
42.0
 31
0.0
  0
LINE
  5
4FD
100
AcDbEntity
  8
0
  6
CONTINUOUS
 62
               7
100
AcDbLine
 10
7.5
 20
19.5
 30
0.0
 11
3.0
 21
19.5
 31
0.0
  0
LINE
  5
4FE
100
AcDbEntity
  8
0
  6
CONTINUOUS
 62
               7
100
AcDbLine
 10
44.920000000000002
 20
40.420000000000002
 30
0.0
 11
46.5
 21
42.0
 31
0.0
  0
LINE
  5
4FF
100
AcDbEntity
  8
0
  6
CONTINUOUS
 62
               7
100
AcDbLine
 10
44.920000000000002
 20
-40.420000000000002
 30
0.0
 11
46.5
 21
-42.0
 31
0.0
  0
LINE
  5
500
100
AcDbEntity
  8
0
  6
CONTINUOUS
 62
               7
100
AcDbLine
 10
3.0
 20
40.420000000000002
 30
0.0
 11
44.920000000000002
 21
40.420000000000002
 31
0.0
  0
LINE
  5
501
100
AcDbEntity
  8
0
  6
CONTINUOUS
 62
               7
100
AcDbLine
 10
44.920000000000002
 20
40.420000000000002
 30
0.0
 11
44.920000000000002
 21
-40.420000000000002
 31
0.0
  0
LINE
  5
502
100
AcDbEntity
  8
0
  6
CONTINUOUS
 62
               7
100
AcDbLine
 10
3.0
 20
-40.420000000000002
 30
0.0
 11
44.920000000000002
 21
-40.420000000000002
 31
0.0
  0
LINE
  5
503
100
AcDbEntity
  8
0
  6
CONTINUOUS
 62
               7
100
AcDbLine
 10
3.5
 20
-19.5
 30
0.0
 11
3.5
 21
-19.25
 31
0.0
  0
LINE
  5
504
100
AcDbEntity
  8
0
  6
CONTINUOUS
 62
               7
100
AcDbLine
 10
3.5
 20
19.25
 30
0.0
 11
3.5
 21
19.5
 31
0.0
  0
LINE
  5
505
100
AcDbEntity
  8
0
  6
CONTINUOUS
 62
               7
100
AcDbLine
 10
7.5
 20
-17.550000000000001
 30
0.0
 11
7.5
 21
17.550000000000001
 31
0.0
  0
LINE
  5
506
100
AcDbEntity
  8
0
  6
CONTINUOUS
 62
               7
100
AcDbLine
 10
7.5
 20
17.75
 30
0.0
 11
5.0
 21
17.75
 31
0.0
  0
LINE
  5
507
100
AcDbEntity
  8
0
  6
CONTINUOUS
 62
               7
100
AcDbLine
 10
7.5
 20
-17.75
 30
0.0
 11
5.0
 21
-17.75
 31
0.0
  0
LINE
  5
508
100
AcDbEntity
  8
0
  6
CONTINUOUS
 62
               7
100
AcDbLine
 10
3.7000000000000002
 20
-18.5
 30
0.0
 11
3.7000000000000002
 21
-17.5
 31
0.0
  0
LINE
  5
509
100
AcDbEntity
  8
0
  6
CONTINUOUS
 62
               7
100
AcDbLine
 10
14.9
 20
41.5
 30
0.0
 11
14.9
 21
45.399999999999999
 31
0.0
  0
LINE
  5
50A
100
AcDbEntity
  8
0
  6
CONTINUOUS
 62
               7
100
AcDbLine
 10
7.5
 20
17.5
 30
0.0
 11
7.2999999999999998
 21
17.5
 31
0.0
  0
LINE
  5
50B
100
AcDbEntity
  8
0
  6
CONTINUOUS
 62
               7
100
AcDbLine
 10
6.5
 20
16.0
 30
0.0
 11
5.2000000000000002
 21
16.0
 31
0.0
  0
LINE
  5
50C
100
AcDbEntity
  8
0
  6
CONTINUOUS
 62
               7
100
AcDbLine
 10
6.5
 20
-16.0
 30
0.0
 11
5.2000000000000002
 21
-16.0
 31
0.0
  0
LINE
  5
50D
100
AcDbEntity
  8
0
  6
CONTINUOUS
 62
               7
100
AcDbLine
 10
3.7000000000000002
 20
17.5
 30
0.0
 11
3.7000000000000002
 21
18.5
 31
0.0
  0
LINE
  5
50E
100
AcDbEntity
  8
0
  6
CONTINUOUS
 62
               7
100
AcDbLine
 10
19.899999999999999
 20
47.0
 30
0.0
 11
14.9
 21
47.0
 31
0.0
  0
LINE
  5
50F
100
AcDbEntity
  8
0
  6
CONTINUOUS
 62
               7
100
AcDbLine
 10
19.899999999999999
 20
45.399999999999999
 30
0.0
 11
19.899999999999999
 21
47.0
 31
0.0
  0
LINE
  5
510
100
AcDbEntity
  8
0
  6
CONTINUOUS
 62
               7
100
AcDbLine
 10
19.899999999999999
 20
45.399999999999999
 30
0.0
 11
14.9
 21
45.399999999999999
 31
0.0
  0
LINE
  5
511
100
AcDbEntity
  8
0
  6
CONTINUOUS
 62
               7
100
AcDbLine
 10
13.300000000000001
 20
41.5
 30
0.0
 11
13.300000000000001
 21
45.289999999999999
 31
0.0
  0
LINE
  5
512
100
AcDbEntity
  8
0
  6
CONTINUOUS
 62
               7
100
AcDbLine
 10
10.1
 20
41.5
 30
0.0
 11
10.1
 21
42.0
 31
0.0
  0
LINE
  5
513
100
AcDbEntity
  8
0
  6
CONTINUOUS
 62
               7
100
AcDbLine
 10
14.9
 20
41.5
 30
0.0
 11
10.1
 21
41.5
 31
0.0
  0
LINE
  5
514
100
AcDbEntity
  8
0
  6
CONTINUOUS
 62
               7
100
AcDbLine
 10
10.1
 20
42.0
 30
0.0
 11
3.0
 21
42.0
 31
0.0
  0
LINE
  5
515
100
AcDbEntity
  8
0
  6
CONTINUOUS
 62
               7
100
AcDbLine
 10
14.9
 20
-41.5
 30
0.0
 11
10.1
 21
-41.5
 31
0.0
  0
LINE
  5
516
100
AcDbEntity
  8
0
  6
CONTINUOUS
 62
               7
100
AcDbLine
 10
10.1
 20
-41.5
 30
0.0
 11
10.1
 21
-42.0
 31
0.0
  0
LINE
  5
517
100
AcDbEntity
  8
0
  6
CONTINUOUS
 62
               7
100
AcDbLine
 10
14.9
 20
-41.5
 30
0.0
 11
14.9
 21
-42.0
 31
0.0
  0
LINE
  5
518
100
AcDbEntity
  8
0
  6
CONTINUOUS
 62
               7
100
AcDbLine
 10
10.1
 20
-42.0
 30
0.0
 11
3.0
 21
-42.0
 31
0.0
  0
LINE
  5
519
100
AcDbEntity
  8
0
  6
CONTINUOUS
 62
               2
100
AcDbLine
 10
7.5
 20
0.0
 30
0.0
 11
-5.0
 21
0.0
 31
0.0
  0
ARC
  5
51A
100
AcDbEntity
  8
0
  6
CONTINUOUS
 62
               7
100
AcDbCircle
 10
5.0
 20
-19.25
 30
0.0
 40
1.5
100
AcDbArc
 50
90.0
 51
180.0
  0
ARC
  5
51B
100
AcDbEntity
  8
0
  6
CONTINUOUS
 62
               7
100
AcDbCircle
 10
5.0
 20
19.25
 30
0.0
 40
1.5
100
AcDbArc
 50
180.0
 51
270.0
  0
ARC
  5
51C
100
AcDbEntity
  8
0
  6
CONTINUOUS
 62
               7
100
AcDbCircle
 10
14.899984741353547
 20
45.400015258646455
 30
0.0
 40
1.5999847414263049
100
AcDbArc
 50
89.999453584762264
 51
180.00054641523784
  0
ARC
  5
51D
100
AcDbEntity
  8
0
  6
CONTINUOUS
 62
               7
100
AcDbCircle
 10
5.1999908447545025
 20
-17.499990844754503
 30
0.0
 40
1.4999908447824417
100
AcDbArc
 50
89.999650293247285
 51
180.00034970675267
  0
ARC
  5
51E
100
AcDbEntity
  8
0
  6
CONTINUOUS
 62
               7
100
AcDbCircle
 10
5.2000061035280432
 20
17.500006103528044
 30
0.0
 40
1.5000061035404602
100
AcDbArc
 50
180.00023313664937
 51
269.9997668633506
  0
ENDBLK
  5
51F
100
AcDbEntity
  8
0
100
AcDbBlockEnd
  0
BLOCK
  5
520
100
AcDbEntity
  8
0
100
AcDbBlockBegin
  2
F15MPJ-13
 70
               0
 10
0.0
 20
0.0
 30
0.0
  3
F15MPJ-13
  1

  0
LINE
  5
521
100
AcDbEntity
  8
0
  6
CONTINUOUS
 62
               7
100
AcDbLine
 10
57.549999999999997
 20
60.390000000000001
 30
0.0
 11
58.549999999999997
 21
60.390000000000001
 31
0.0
  0
LINE
  5
522
100
AcDbEntity
  8
0
  6
CONTINUOUS
 62
               7
100
AcDbLine
 10
65.0
 20
60.399999999999999
 30
0.0
 11
49.0
 21
60.399999999999999
 31
0.0
  0
LINE
  5
523
100
AcDbEntity
  8
0
  6
CONTINUOUS
 62
               7
100
AcDbLine
 10
65.0
 20
60.399999999999999
 30
0.0
 11
65.0
 21
15.6
 31
0.0
  0
LINE
  5
524
100
AcDbEntity
  8
0
  6
CONTINUOUS
 62
               7
100
AcDbLine
 10
65.0
 20
-42.600000000000001
 30
0.0
 11
56.0
 21
-42.600000000000001
 31
0.0
  0
LINE
  5
525
100
AcDbEntity
  8
0
  6
CONTINUOUS
 62
               7
100
AcDbLine
 10
57.0
 20
60.399999999999999
 30
0.0
 11
57.0
 21
-39.799999999999997
 31
0.0
  0
LINE
  5
526
100
AcDbEntity
  8
0
  6
CONTINUOUS
 62
               7
100
AcDbLine
 10
62.0
 20
15.6
 30
0.0
 11
62.0
 21
-37.399999999999999
 31
0.0
  0
LINE
  5
527
100
AcDbEntity
  8
0
  6
CONTINUOUS
 62
               7
100
AcDbLine
 10
56.0
 20
-39.799999999999997
 30
0.0
 11
56.0
 21
-42.600000000000001
 31
0.0
  0
LINE
  5
528
100
AcDbEntity
  8
0
  6
CONTINUOUS
 62
               7
100
AcDbLine
 10
57.0
 20
-39.799999999999997
 30
0.0
 11
48.998471679687498
 21
-39.799999999999997
 31
0.0
  0
LINE
  5
529
100
AcDbEntity
  8
0
  6
CONTINUOUS
 62
               7
100
AcDbLine
 10
67.0
 20
-33.700000000000003
 30
0.0
 11
62.0
 21
-33.700000000000003
 31
0.0
  0
LINE
  5
52A
100
AcDbEntity
  8
0
  6
CONTINUOUS
 62
               7
100
AcDbLine
 10
67.0
 20
-28.100000000000001
 30
0.0
 11
62.0
 21
-28.100000000000001
 31
0.0
  0
LINE
  5
52B
100
AcDbEntity
  8
0
  6
CONTINUOUS
 62
               7
100
AcDbLine
 10
67.0
 20
11.9
 30
0.0
 11
67.0
 21
6.2999999999999998
 31
0.0
  0
LINE
  5
52C
100
AcDbEntity
  8
0
  6
CONTINUOUS
 62
               7
100
AcDbLine
 10
65.0
 20
-37.399999999999999
 30
0.0
 11
62.0
 21
-37.399999999999999
 31
0.0
  0
LINE
  5
52D
100
AcDbEntity
  8
0
  6
CONTINUOUS
 62
               7
100
AcDbLine
 10
65.0
 20
15.6
 30
0.0
 11
62.0
 21
15.6
 31
0.0
  0
LINE
  5
52E
100
AcDbEntity
  8
0
  6
CONTINUOUS
 62
               7
100
AcDbLine
 10
65.0
 20
-37.399999999999999
 30
0.0
 11
65.0
 21
-42.600000000000001
 31
0.0
  0
LINE
  5
52F
100
AcDbEntity
  8
0
  6
CONTINUOUS
 62
               7
100
AcDbLine
 10
67.0
 20
13.4
 30
0.0
 11
67.0
 21
-35.200000000000003
 31
0.0
  0
LINE
  5
530
100
AcDbEntity
  8
0
  6
CONTINUOUS
 62
               7
100
AcDbLine
 10
65.0
 20
15.4
 30
0.0
 11
62.0
 21
15.4
 31
0.0
  0
LINE
  5
531
100
AcDbEntity
  8
0
  6
CONTINUOUS
 62
               7
100
AcDbLine
 10
65.0
 20
-37.200000000000003
 30
0.0
 11
62.0
 21
-37.200000000000003
 31
0.0
  0
LINE
  5
532
100
AcDbEntity
  8
0
  6
CONTINUOUS
 62
               7
100
AcDbLine
 10
67.0
 20
-35.200000000000003
 30
0.0
 11
65.0
 21
-37.200000000000003
 31
0.0
  0
LINE
  5
533
100
AcDbEntity
  8
0
  6
CONTINUOUS
 62
               7
100
AcDbLine
 10
67.0
 20
13.4
 30
0.0
 11
65.0
 21
15.4
 31
0.0
  0
LINE
  5
534
100
AcDbEntity
  8
0
  6
CONTINUOUS
 62
               7
100
AcDbLine
 10
67.0
 20
8.0999999999999996
 30
0.0
 11
65.0
 21
8.0999999999999996
 31
0.0
  0
LINE
  5
535
100
AcDbEntity
  8
0
  6
CONTINUOUS
 62
               7
100
AcDbLine
 10
67.0
 20
-27.899999999999999
 30
0.0
 11
62.0
 21
-27.899999999999999
 31
0.0
  0
LINE
  5
536
100
AcDbEntity
  8
0
  6
CONTINUOUS
 62
               7
100
AcDbLine
 10
67.0
 20
-33.899999999999999
 30
0.0
 11
62.0
 21
-33.899999999999999
 31
0.0
  0
LINE
  5
537
100
AcDbEntity
  8
0
  6
CONTINUOUS
 62
               7
100
AcDbLine
 10
65.0
 20
8.0999999999999996
 30
0.0
 11
65.0
 21
15.4
 31
0.0
  0
LINE
  5
538
100
AcDbEntity
  8
0
  6
CONTINUOUS
 62
               7
100
AcDbLine
 10
65.5
 20
8.3499999999999996
 30
0.0
 11
65.0
 21
8.3499999999999996
 31
0.0
  0
LINE
  5
539
100
AcDbEntity
  8
0
  6
CONTINUOUS
 62
               7
100
AcDbLine
 10
65.5
 20
13.85
 30
0.0
 11
65.0
 21
13.85
 31
0.0
  0
ARC
  5
53A
100
AcDbEntity
  8
0
  6
CONTINUOUS
 62
               7
100
AcDbCircle
 10
65.499934387200042
 20
12.349934387200046
 30
0.0
 40
1.500065614234904
100
AcDbArc
 50
0.0025061147225363
 51
89.997493885277336
  0
ARC
  5
53B
100
AcDbEntity
  8
0
  6
CONTINUOUS
 62
               7
100
AcDbCircle
 10
65.500004576201704
 20
9.8499954237982941
 30
0.0
 40
1.4999954238052748
100
AcDbArc
 50
269.99982520143749
 51
0.0001747985625512
  0
LINE
  5
53D
100
AcDbEntity
  8
0
  6
DASHED
 62
               2
100
AcDbLine
 10
2.9984716796874977
 20
-43.09695251464845
 30
0.0
 11
4.4984716796874977
 21
-44.59695251464845
 31
0.0
  0
LINE
  5
53E
100
AcDbEntity
  8
0
  6
DASHED
 62
               2
100
AcDbLine
 10
4.4984716796874977
 20
-44.59695251464845
 30
0.0
 11
47.498471679687498
 21
-44.59695251464845
 31
0.0
  0
LINE
  5
53F
100
AcDbEntity
  8
0
  6
DASHED
 62
               2
100
AcDbLine
 10
47.498471679687498
 20
-44.59695251464845
 30
0.0
 11
48.998471679687498
 21
-43.09695251464845
 31
0.0
  0
LINE
  5
540
100
AcDbEntity
  8
0
  6
CONTINUOUS
 62
               4
100
AcDbLine
 10
19.996952514648449
 20
-44.59695251464845
 30
0.0
 11
19.996952514648449
 21
-46.59695251464845
 31
0.0
  0
LINE
  5
541
100
AcDbEntity
  8
0
  6
CONTINUOUS
 62
               4
100
AcDbLine
 10
38.996952514648449
 20
-44.59695251464845
 30
0.0
 11
38.996952514648449
 21
-46.59695251464845
 31
0.0
  0
LINE
  5
542
100
AcDbEntity
  8
0
  6
CONTINUOUS
 62
               4
100
AcDbLine
 10
52.746925811767589
 20
-44.59695251464845
 30
0.0
 11
50.246925811767589
 21
-44.59695251464845
 31
0.0
  0
LINE
  5
543
100
AcDbEntity
  8
0
  6
CONTINUOUS
 62
               4
100
AcDbLine
 10
38.996952514648449
 20
-46.59695251464845
 30
0.0
 11
53.796944122314464
 21
-46.59695251464845
 31
0.0
  0
ARC
  5
544
100
AcDbEntity
  8
0
  6
CONTINUOUS
 62
               4
100
AcDbCircle
 10
28.496952514648449
 20
-51.096967773437513
 30
0.0
 40
0.5
100
AcDbArc
 50
270.0
 51
0.0
  0
ARC
  5
545
100
AcDbEntity
  8
0
  6
CONTINUOUS
 62
               4
100
AcDbCircle
 10
30.496952514648449
 20
-51.096967773437513
 30
0.0
 40
0.5
100
AcDbArc
 50
180.0
 51
270.0
  0
LINE
  5
546
100
AcDbEntity
  8
0
  6
CONTINUOUS
 62
               4
100
AcDbLine
 10
30.496952514648449
 20
-51.596967773437513
 30
0.0
 11
47.496941070556652
 21
-51.596967773437513
 31
0.0
  0
LINE
  5
547
100
AcDbEntity
  8
0
  6
CONTINUOUS
 62
               4
100
AcDbLine
 10
28.996952514648449
 20
-44.59695251464845
 30
0.0
 11
28.996952514648449
 21
-51.096967773437513
 31
0.0
  0
LINE
  5
548
100
AcDbEntity
  8
0
  6
CONTINUOUS
 62
               4
100
AcDbLine
 10
29.996952514648449
 20
-44.59695251464845
 30
0.0
 11
29.996952514648449
 21
-51.096967773437513
 31
0.0
  0
ARC
  5
549
100
AcDbEntity
  8
0
  6
CONTINUOUS
 62
               4
100
AcDbCircle
 10
50.246925811767589
 20
-43.09695251464845
 30
0.0
 40
1.5
100
AcDbArc
 50
188.94745635278935
 51
270.0
  0
ARC
  5
54A
100
AcDbEntity
  8
0
  6
CONTINUOUS
 62
               4
100
AcDbCircle
 10
52.746925811767589
 20
-43.09695251464845
 30
0.0
 40
1.5
100
AcDbArc
 50
270.0
 51
359.99998201391065
  0
ARC
  5
54B
100
AcDbEntity
  8
0
  6
CONTINUOUS
 62
               4
100
AcDbCircle
 10
11.496956329345714
 20
-51.096967773437513
 30
0.0
 40
0.5
100
AcDbArc
 50
179.99996334457597
 51
270.0
  0
ARC
  5
54C
100
AcDbEntity
  8
0
  6
CONTINUOUS
 62
               4
100
AcDbCircle
 10
47.496941070556652
 20
-51.096967773437513
 30
0.0
 40
0.5
100
AcDbArc
 50
270.0
 51
359.99998201391065
  0
LINE
  5
54D
100
AcDbEntity
  8
0
  6
CONTINUOUS
 62
               4
100
AcDbLine
 10
54.246925811767589
 20
-43.09695251464845
 30
0.0
 11
54.246925811767589
 21
-42.59695251464845
 31
0.0
  0
LINE
  5
54E
100
AcDbEntity
  8
0
  6
CONTINUOUS
 62
               4
100
AcDbLine
 10
48.998471679687498
 20
-42.59695251464845
 30
0.0
 11
55.796944122314464
 21
-42.59695251464845
 31
0.0
  0
LINE
  5
54F
100
AcDbEntity
  8
0
  6
CONTINUOUS
 62
               4
100
AcDbLine
 10
6.4969563293457213
 20
-46.59695251464845
 30
0.0
 11
6.4969563293457213
 21
-44.59695251464845
 31
0.0
  0
LINE
  5
550
100
AcDbEntity
  8
0
  6
CONTINUOUS
 62
               4
100
AcDbLine
 10
12.496956329345714
 20
-46.59695251464845
 30
0.0
 11
12.496956329345714
 21
-44.59695251464845
 31
0.0
  0
LINE
  5
551
100
AcDbEntity
  8
0
  6
CONTINUOUS
 62
               4
100
AcDbLine
 10
48.496941070556652
 20
-46.59695251464845
 30
0.0
 11
48.496941070556652
 21
-43.598483123779296
 31
0.0
  0
LINE
  5
552
100
AcDbEntity
  8
0
  6
CONTINUOUS
 62
               4
100
AcDbLine
 10
5.1969681700343244
 20
-46.596942303582267
 30
0.0
 11
3.1969591347974529
 21
-44.596925513275067
 31
0.0
  0
LINE
  5
553
100
AcDbEntity
  8
0
  6
CONTINUOUS
 62
               4
100
AcDbLine
 10
53.796970392755149
 20
-46.59695606905106
 30
0.0
 11
55.796967795461107
 21
-44.596970635998417
 31
0.0
  0
LINE
  5
554
100
AcDbEntity
  8
0
  6
CONTINUOUS
 62
               4
100
AcDbLine
 10
55.796944122314464
 20
-44.596970635998417
 30
0.0
 11
55.796944122314464
 21
-39.799999999999997
 31
0.0
  0
LINE
  5
555
100
AcDbEntity
  8
0
  6
CONTINUOUS
 62
               4
100
AcDbLine
 10
3.1969685363769713
 20
-44.596934914891044
 30
0.0
 11
3.1969685363769713
 21
-43.295449371337924
 31
0.0
  0
LINE
  5
556
100
AcDbEntity
  8
0
  6
CONTINUOUS
 62
               4
100
AcDbLine
 10
5.1969685363769713
 20
-46.59695251464845
 30
0.0
 11
19.996952514648449
 21
-46.59695251464845
 31
0.0
  0
LINE
  5
557
100
AcDbEntity
  8
0
  6
CONTINUOUS
 62
             200
100
AcDbLine
 10
38.996952514648449
 20
-53.38259704589845
 30
0.0
 11
38.996952514648449
 21
-42.69436462402345
 31
0.0
  0
LINE
  5
558
100
AcDbEntity
  8
0
  6
CONTINUOUS
 62
             200
100
AcDbLine
 10
19.996952514648449
 20
-53.38259704589845
 30
0.0
 11
19.996952514648449
 21
-42.69436462402345
 31
0.0
  0
LINE
  5
559
100
AcDbEntity
  8
0
  6
CONTINUOUS
 62
               4
100
AcDbLine
 10
10.996956329345714
 20
-51.096967773437513
 30
0.0
 11
10.996956329345714
 21
-46.59695251464845
 31
0.0
  0
LINE
  5
55A
100
AcDbEntity
  8
0
  6
CONTINUOUS
 62
               4
100
AcDbLine
 10
47.996941070556652
 20
-51.096967773437513
 30
0.0
 11
47.996941070556652
 21
-46.59695251464845
 31
0.0
  0
LINE
  5
55B
100
AcDbEntity
  8
0
  6
CONTINUOUS
 62
               4
100
AcDbLine
 10
11.496956329345714
 20
-51.596967773437513
 30
0.0
 11
28.496952514648449
 21
-51.596967773437513
 31
0.0
  0
ENDBLK
  5
55C
100
AcDbEntity
  8
0
100
AcDbBlockEnd
  0
BLOCK
  5
55D
100
AcDbEntity
  8
0
100
AcDbBlockBegin
  2
F15MPJ-14
 70
               0
 10
0.0
 20
0.0
 30
0.0
  3
F15MPJ-14
  1

  0
LINE
  5
55E
100
AcDbEntity
  8
0
  6
CONTINUOUS
 62
               7
100
AcDbLine
 10
0.0
 20
65.0
 30
0.0
 11
0.0
 21
3.0
 31
0.0
  0
LINE
  5
55F
100
AcDbEntity
  8
0
  6
CONTINUOUS
 62
               7
100
AcDbLine
 10
19.0
 20
65.0
 30
0.0
 11
19.0
 21
3.0
 31
0.0
  0
LINE
  5
560
100
AcDbEntity
  8
0
  6
CONTINUOUS
 62
               7
100
AcDbLine
 10
0.5
 20
3.2000000000000002
 30
0.0
 11
18.5
 21
3.2000000000000002
 31
0.0
  0
LINE
  5
561
100
AcDbEntity
  8
0
  6
CONTINUOUS
 62
               7
100
AcDbLine
 10
0.0
 20
56.0
 30
0.0
 11
19.0
 21
56.0
 31
0.0
  0
LINE
  5
562
100
AcDbEntity
  8
0
  6
CONTINUOUS
 62
               7
100
AcDbLine
 10
0.0
 20
65.0
 30
0.0
 11
19.0
 21
65.0
 31
0.0
  0
LINE
  5
563
100
AcDbEntity
  8
0
  6
CONTINUOUS
 62
               7
100
AcDbLine
 10
0.25
 20
65.0
 30
0.0
 11
0.25
 21
65.5
 31
0.0
  0
LINE
  5
564
100
AcDbEntity
  8
0
  6
CONTINUOUS
 62
               7
100
AcDbLine
 10
0.5
 20
66.319999999999993
 30
0.0
 11
0.5
 21
66.5
 31
0.0
  0
LINE
  5
565
100
AcDbEntity
  8
0
  6
CONTINUOUS
 62
               7
100
AcDbLine
 10
5.75
 20
65.0
 30
0.0
 11
5.75
 21
65.5
 31
0.0
  0
LINE
  5
566
100
AcDbEntity
  8
0
  6
CONTINUOUS
 62
               7
100
AcDbLine
 10
1.0
 20
67.0
 30
0.0
 11
18.0
 21
67.0
 31
0.0
  0
LINE
  5
567
100
AcDbEntity
  8
0
  6
CONTINUOUS
 62
               7
100
AcDbLine
 10
6.0
 20
65.0
 30
0.0
 11
6.0
 21
67.0
 31
0.0
  0
LINE
  5
568
100
AcDbEntity
  8
0
  6
CONTINUOUS
 62
               7
100
AcDbLine
 10
18.5
 20
66.5
 30
0.0
 11
18.5
 21
65.0
 31
0.0
  0
LINE
  5
569
100
AcDbEntity
  8
0
  6
CONTINUOUS
 62
               2
100
AcDbLine
 10
9.5
 20
73.590000000000003
 30
0.0
 11
9.5
 21
1.51
 31
0.0
  0
LINE
  5
56A
100
AcDbEntity
  8
0
  6
CONTINUOUS
 62
               7
100
AcDbLine
 10
0.0
 20
3.0
 30
0.0
 11
19.0
 21
3.0
 31
0.0
  0
LINE
  5
56B
100
AcDbEntity
  8
0
  6
CONTINUOUS
 62
               7
100
AcDbLine
 10
0.0
 20
0.0
 30
0.0
 11
19.0
 21
0.0
 31
0.0
  0
LINE
  5
56C
100
AcDbEntity
  8
0
  6
CONTINUOUS
 62
               4
100
AcDbLine
 10
18.5
 20
3.2000000000000002
 30
0.0
 11
18.5
 21
6.2300000000000004
 31
0.0
  0
LINE
  5
56D
100
AcDbEntity
  8
0
  6
CONTINUOUS
 62
               4
100
AcDbLine
 10
0.5
 20
55.799999999999997
 30
0.0
 11
18.5
 21
55.799999999999997
 31
0.0
  0
LINE
  5
56E
100
AcDbEntity
  8
0
  6
CONTINUOUS
 62
               4
100
AcDbLine
 10
0.5
 20
3.2000000000000002
 30
0.0
 11
18.5
 21
3.2000000000000002
 31
0.0
  0
LINE
  5
56F
100
AcDbEntity
  8
0
  6
CONTINUOUS
 62
               4
100
AcDbLine
 10
16.0
 20
52.5
 30
0.0
 11
18.5
 21
52.5
 31
0.0
  0
LINE
  5
570
100
AcDbEntity
  8
0
  6
CONTINUOUS
 62
               4
100
AcDbLine
 10
16.0
 20
46.5
 30
0.0
 11
18.5
 21
46.5
 31
0.0
  0
LINE
  5
571
100
AcDbEntity
  8
0
  6
CONTINUOUS
 62
               4
100
AcDbLine
 10
0.5
 20
6.5
 30
0.0
 11
3.0
 21
6.5
 31
0.0
  0
LINE
  5
572
100
AcDbEntity
  8
0
  6
CONTINUOUS
 62
               4
100
AcDbLine
 10
0.5
 20
12.5
 30
0.0
 11
3.0
 21
12.5
 31
0.0
  0
LINE
  5
573
100
AcDbEntity
  8
0
  6
CONTINUOUS
 62
               4
100
AcDbLine
 10
6.0
 20
51.5
 30
0.0
 11
6.0
 21
55.799999999999997
 31
0.0
  0
LINE
  5
574
100
AcDbEntity
  8
0
  6
CONTINUOUS
 62
               4
100
AcDbLine
 10
3.0
 20
48.5
 30
0.0
 11
0.5
 21
48.5
 31
0.0
  0
LINE
  5
575
100
AcDbEntity
  8
0
  6
CONTINUOUS
 62
               4
100
AcDbLine
 10
0.5
 20
5.2000000000000002
 30
0.0
 11
13.0
 21
5.2000000000000002
 31
0.0
  0
LINE
  5
576
100
AcDbEntity
  8
0
  6
CONTINUOUS
 62
               4
100
AcDbLine
 10
6.0
 20
53.799999999999997
 30
0.0
 11
18.5
 21
53.799999999999997
 31
0.0
  0
LINE
  5
577
100
AcDbEntity
  8
0
  6
CONTINUOUS
 62
             200
100
AcDbLine
 10
-1.0
 20
39.0
 30
0.0
 11
20.0
 21
39.0
 31
0.0
  0
LINE
  5
578
100
AcDbEntity
  8
0
  6
CONTINUOUS
 62
             200
100
AcDbLine
 10
-1.0
 20
20.0
 30
0.0
 11
20.0
 21
20.0
 31
0.0
  0
LINE
  5
579
100
AcDbEntity
  8
0
  6
CONTINUOUS
 62
               4
100
AcDbLine
 10
16.0
 20
10.5
 30
0.0
 11
18.5
 21
10.5
 31
0.0
  0
LINE
  5
57A
100
AcDbEntity
  8
0
  6
CONTINUOUS
 62
               4
100
AcDbLine
 10
13.0
 20
7.5
 30
0.0
 11
13.0
 21
3.2000000000000002
 31
0.0
  0
LINE
  5
57B
100
AcDbEntity
  8
0
  6
CONTINUOUS
 62
               4
100
AcDbLine
 10
1.9299999999999999
 20
50.43
 30
0.0
 11
4.0599999999999996
 21
52.560000000000002
 31
0.0
  0
LINE
  5
57C
100
AcDbEntity
  8
0
  6
CONTINUOUS
 62
               4
100
AcDbLine
 10
1.9299999999999999
 20
52.560000000000002
 30
0.0
 11
4.0599999999999996
 21
50.43
 31
0.0
  0
LINE
  5
57D
100
AcDbEntity
  8
0
  6
CONTINUOUS
 62
               4
100
AcDbLine
 10
14.93
 20
6.4299999999999997
 30
0.0
 11
17.059999999999999
 21
8.5600000000000005
 31
0.0
  0
LINE
  5
57E
100
AcDbEntity
  8
0
  6
CONTINUOUS
 62
               4
100
AcDbLine
 10
14.93
 20
8.5600000000000005
 30
0.0
 11
17.059999999999999
 21
6.4299999999999997
 31
0.0
  0
LINE
  5
57F
100
AcDbEntity
  8
0
  6
CONTINUOUS
 62
               4
100
AcDbLine
 10
0.5
 20
55.799999999999997
 30
0.0
 11
0.5
 21
52.759999999999998
 31
0.0
  0
LINE
  5
580
100
AcDbEntity
  8
0
  6
CONTINUOUS
 62
               4
100
AcDbLine
 10
18.5
 20
55.799999999999997
 30
0.0
 11
18.5
 21
52.5
 31
0.0
  0
LINE
  5
581
100
AcDbEntity
  8
0
  6
CONTINUOUS
 62
               4
100
AcDbLine
 10
0.5
 20
6.5
 30
0.0
 11
0.5
 21
3.2000000000000002
 31
0.0
  0
LINE
  5
582
100
AcDbEntity
  8
0
  6
CONTINUOUS
 62
               4
100
AcDbLine
 10
0.5
 20
50.229999999999997
 30
0.0
 11
0.5
 21
12.5
 31
0.0
  0
LINE
  5
583
100
AcDbEntity
  8
0
  6
CONTINUOUS
 62
               4
100
AcDbLine
 10
18.5
 20
46.5
 30
0.0
 11
18.5
 21
8.7599999999999998
 31
0.0
  0
ARC
  5
584
100
AcDbEntity
  8
0
  6
CONTINUOUS
 62
               7
100
AcDbCircle
 10
1.0
 20
66.5
 30
0.0
 40
0.5
100
AcDbArc
 50
90.0
 51
180.0
  0
ARC
  5
585
100
AcDbEntity
  8
0
  6
CONTINUOUS
 62
               7
100
AcDbCircle
 10
4.25
 20
65.5
 30
0.0
 40
1.5
100
AcDbArc
 50
0.0
 51
90.0
  0
ARC
  5
586
100
AcDbEntity
  8
0
  6
CONTINUOUS
 62
               7
100
AcDbCircle
 10
1.75
 20
65.5
 30
0.0
 40
1.5
100
AcDbArc
 50
90.0
 51
180.0
  0
ARC
  5
587
100
AcDbEntity
  8
0
  6
CONTINUOUS
 62
               7
100
AcDbCircle
 10
18.0
 20
66.5
 30
0.0
 40
0.5
100
AcDbArc
 50
0.0
 51
90.0
  0
ARC
  5
588
100
AcDbEntity
  8
0
  6
CONTINUOUS
 62
               4
100
AcDbCircle
 10
16.0
 20
49.5
 30
0.0
 40
3.0000000006208816
100
AcDbArc
 50
90.0
 51
270.0
  0
ARC
  5
589
100
AcDbEntity
  8
0
  6
CONTINUOUS
 62
               4
100
AcDbCircle
 10
3.0
 20
9.5
 30
0.0
 40
3.0000000006208816
100
AcDbArc
 50
270.0
 51
90.0
  0
ARC
  5
58A
100
AcDbEntity
  8
0
  6
CONTINUOUS
 62
               4
100
AcDbCircle
 10
2.9999618529400318
 20
51.500038147059968
 30
0.0
 40
3.0000381473024977
100
AcDbArc
 50
270.00072854591502
 51
359.99927145408498
  0
CIRCLE
  5
58B
100
AcDbEntity
  8
0
  6
CONTINUOUS
 62
               4
100
AcDbCircle
 10
9.4949999999999992
 20
39.000001170117301
 30
0.0
 40
9.0052564209480792
  0
CIRCLE
  5
58C
100
AcDbEntity
  8
0
  6
CONTINUOUS
 62
               4
100
AcDbCircle
 10
9.4949999999999992
 20
19.999998829141568
 30
0.0
 40
8.9966184311185167
  0
CIRCLE
  5
58D
100
AcDbEntity
  8
0
  6
CONTINUOUS
 62
               4
100
AcDbCircle
 10
9.49993896484375
 20
39.0
 30
0.0
 40
5.6799993515014648
  0
CIRCLE
  5
58E
100
AcDbEntity
  8
0
  6
CONTINUOUS
 62
             200
100
AcDbCircle
 10
9.49993896484375
 20
39.0
 30
0.0
 40
6.5
  0
CIRCLE
  5
58F
100
AcDbEntity
  8
0
  6
CONTINUOUS
 62
             200
100
AcDbCircle
 10
9.49993896484375
 20
20.0
 30
0.0
 40
6.5
  0
CIRCLE
  5
590
100
AcDbEntity
  8
0
  6
CONTINUOUS
 62
               4
100
AcDbCircle
 10
9.49993896484375
 20
20.0
 30
0.0
 40
5.6799993515014648
  0
ARC
  5
591
100
AcDbEntity
  8
0
  6
CONTINUOUS
 62
               4
100
AcDbCircle
 10
15.999961853114655
 20
7.5000381468853448
 30
0.0
 40
2.9999618533571892
100
AcDbArc
 50
89.999271438891981
 51
180.00072856110802
  0
CIRCLE
  5
592
100
AcDbEntity
  8
0
  6
CONTINUOUS
 62
               4
100
AcDbCircle
 10
2.99993896484375
 20
51.500015258789063
 30
0.0
 40
2.7999992370605469
  0
CIRCLE
  5
593
100
AcDbEntity
  8
0
  6
CONTINUOUS
 62
               4
100
AcDbCircle
 10
15.99993896484375
 20
7.5000152587890625
 30
0.0
 40
2.7999992370605469
  0
ENDBLK
  5
594
100
AcDbEntity
  8
0
100
AcDbBlockEnd
  0
BLOCK
  5
595
100
AcDbEntity
  8
0
100
AcDbBlockBegin
  2
F15MPJ-15
 70
               0
 10
0.0
 20
0.0
 30
0.0
  3
F15MPJ-15
  1

  0
LINE
  5
596
100
AcDbEntity
  8
0
  6
CONTINUOUS
 62
               7
100
AcDbLine
 10
32.75
 20
49.0
 30
0.0
 11
41.75
 21
49.0
 31
0.0
  0
LINE
  5
597
100
AcDbEntity
  8
0
  6
CONTINUOUS
 62
               7
100
AcDbLine
 10
32.75
 20
3.0
 30
0.0
 11
41.75
 21
3.0
 31
0.0
  0
LINE
  5
598
100
AcDbEntity
  8
0
  6
CONTINUOUS
 62
               7
100
AcDbLine
 10
32.75
 20
49.0
 30
0.0
 11
32.75
 21
3.0
 31
0.0
  0
LINE
  5
599
100
AcDbEntity
  8
0
  6
CONTINUOUS
 62
               7
100
AcDbLine
 10
154.75
 20
49.0
 30
0.0
 11
154.75
 21
3.0
 31
0.0
  0
LINE
  5
59A
100
AcDbEntity
  8
0
  6
CONTINUOUS
 62
               7
100
AcDbLine
 10
32.75
 20
47.0
 30
0.0
 11
41.75
 21
47.0
 31
0.0
  0
LINE
  5
59B
100
AcDbEntity
  8
0
  6
CONTINUOUS
 62
               7
100
AcDbLine
 10
32.75
 20
5.0
 30
0.0
 11
41.75
 21
5.0
 31
0.0
  0
LINE
  5
59C
100
AcDbEntity
  8
0
  6
CONTINUOUS
 62
               7
100
AcDbLine
 10
145.75
 20
47.0
 30
0.0
 11
154.75
 21
47.0
 31
0.0
  0
LINE
  5
59D
100
AcDbEntity
  8
0
  6
CONTINUOUS
 62
               7
100
AcDbLine
 10
145.75
 20
5.0
 30
0.0
 11
154.75
 21
5.0
 31
0.0
  0
LINE
  5
59E
100
AcDbEntity
  8
0
  6
CONTINUOUS
 62
               7
100
AcDbLine
 10
145.75
 20
49.0
 30
0.0
 11
145.75
 21
3.0
 31
0.0
  0
LINE
  5
59F
100
AcDbEntity
  8
0
  6
CONTINUOUS
 62
               7
100
AcDbLine
 10
145.75
 20
49.0
 30
0.0
 11
154.75
 21
49.0
 31
0.0
  0
LINE
  5
5A0
100
AcDbEntity
  8
0
  6
CONTINUOUS
 62
               7
100
AcDbLine
 10
-5.25
 20
0.0
 30
0.0
 11
41.75
 21
0.0
 31
0.0
  0
LINE
  5
5A1
100
AcDbEntity
  8
0
  6
CONTINUOUS
 62
               7
100
AcDbLine
 10
-5.25
 20
7.5
 30
0.0
 11
16.75
 21
7.5
 31
0.0
  0
LINE
  5
5A2
100
AcDbEntity
  8
0
  6
CONTINUOUS
 62
               7
100
AcDbLine
 10
-5.25
 20
6.5
 30
0.0
 11
16.75
 21
6.5
 31
0.0
  0
LINE
  5
5A3
100
AcDbEntity
  8
0
  6
CONTINUOUS
 62
               7
100
AcDbLine
 10
192.75
 20
7.5
 30
0.0
 11
170.75
 21
7.5
 31
0.0
  0
LINE
  5
5A4
100
AcDbEntity
  8
0
  6
CONTINUOUS
 62
               7
100
AcDbLine
 10
192.75
 20
6.5
 30
0.0
 11
170.75
 21
6.5
 31
0.0
  0
LINE
  5
5A5
100
AcDbEntity
  8
0
  6
CONTINUOUS
 62
               7
100
AcDbLine
 10
41.75
 20
49.0
 30
0.0
 11
41.75
 21
3.0
 31
0.0
  0
LINE
  5
5A6
100
AcDbEntity
  8
0
  6
CONTINUOUS
 62
               7
100
AcDbLine
 10
16.75
 20
3.0
 30
0.0
 11
32.75
 21
3.0
 31
0.0
  0
LINE
  5
5A7
100
AcDbEntity
  8
0
  6
CONTINUOUS
 62
               7
100
AcDbLine
 10
18.75
 20
31.0
 30
0.0
 11
18.75
 21
21.0
 31
0.0
  0
LINE
  5
5A8
100
AcDbEntity
  8
0
  6
CONTINUOUS
 62
               7
100
AcDbLine
 10
22.170000000000002
 20
31.0
 30
0.0
 11
22.170000000000002
 21
21.0
 31
0.0
  0
LINE
  5
5A9
100
AcDbEntity
  8
0
  6
CONTINUOUS
 62
               7
100
AcDbLine
 10
25.600000000000001
 20
31.0
 30
0.0
 11
25.600000000000001
 21
21.0
 31
0.0
  0
LINE
  5
5AA
100
AcDbEntity
  8
0
  6
CONTINUOUS
 62
               7
100
AcDbLine
 10
29.030000000000001
 20
31.0
 30
0.0
 11
29.030000000000001
 21
21.0
 31
0.0
  0
LINE
  5
5AB
100
AcDbEntity
  8
0
  6
CONTINUOUS
 62
               7
100
AcDbLine
 10
29.030000000000001
 20
31.0
 30
0.0
 11
18.75
 21
31.0
 31
0.0
  0
LINE
  5
5AC
100
AcDbEntity
  8
0
  6
CONTINUOUS
 62
               7
100
AcDbLine
 10
29.030000000000001
 20
21.0
 30
0.0
 11
18.75
 21
21.0
 31
0.0
  0
LINE
  5
5AD
100
AcDbEntity
  8
0
  6
CONTINUOUS
 62
               7
100
AcDbLine
 10
32.75
 20
46.5
 30
0.0
 11
17.199999999999999
 21
45.140000000000001
 31
0.0
  0
LINE
  5
5AE
100
AcDbEntity
  8
0
  6
CONTINUOUS
 62
               7
100
AcDbLine
 10
16.75
 20
44.640000000000001
 30
0.0
 11
16.75
 21
3.0
 31
0.0
  0
LINE
  5
5AF
100
AcDbEntity
  8
0
  6
CONTINUOUS
 62
               7
100
AcDbLine
 10
32.75
 20
15.0
 30
0.0
 11
22.25
 21
15.0
 31
0.0
  0
LINE
  5
5B0
100
AcDbEntity
  8
0
  6
CONTINUOUS
 62
               7
100
AcDbLine
 10
32.75
 20
10.4
 30
0.0
 11
22.25
 21
10.4
 31
0.0
  0
LINE
  5
5B1
100
AcDbEntity
  8
0
  6
CONTINUOUS
 62
               7
100
AcDbLine
 10
22.25
 20
15.0
 30
0.0
 11
22.25
 21
10.4
 31
0.0
  0
LINE
  5
5B2
100
AcDbEntity
  8
0
  6
CONTINUOUS
 62
               7
100
AcDbLine
 10
31.149999999999999
 20
15.0
 30
0.0
 11
31.149999999999999
 21
10.4
 31
0.0
  0
LINE
  5
5B3
100
AcDbEntity
  8
0
  6
CONTINUOUS
 62
               7
100
AcDbLine
 10
29.550000000000001
 20
13.4
 30
0.0
 11
22.25
 21
13.4
 31
0.0
  0
LINE
  5
5B4
100
AcDbEntity
  8
0
  6
CONTINUOUS
 62
               7
100
AcDbLine
 10
29.550000000000001
 20
13.4
 30
0.0
 11
29.550000000000001
 21
10.4
 31
0.0
  0
LINE
  5
5B5
100
AcDbEntity
  8
0
  6
CONTINUOUS
 62
               7
100
AcDbLine
 10
170.75
 20
3.0
 30
0.0
 11
154.75
 21
3.0
 31
0.0
  0
LINE
  5
5B6
100
AcDbEntity
  8
0
  6
CONTINUOUS
 62
               7
100
AcDbLine
 10
168.75
 20
31.0
 30
0.0
 11
168.75
 21
21.0
 31
0.0
  0
LINE
  5
5B7
100
AcDbEntity
  8
0
  6
CONTINUOUS
 62
               7
100
AcDbLine
 10
165.31999999999999
 20
31.0
 30
0.0
 11
165.31999999999999
 21
21.0
 31
0.0
  0
LINE
  5
5B8
100
AcDbEntity
  8
0
  6
CONTINUOUS
 62
               7
100
AcDbLine
 10
161.88999999999999
 20
31.0
 30
0.0
 11
161.88999999999999
 21
21.0
 31
0.0
  0
LINE
  5
5B9
100
AcDbEntity
  8
0
  6
CONTINUOUS
 62
               7
100
AcDbLine
 10
158.46000000000001
 20
31.0
 30
0.0
 11
158.46000000000001
 21
21.0
 31
0.0
  0
LINE
  5
5BA
100
AcDbEntity
  8
0
  6
CONTINUOUS
 62
               7
100
AcDbLine
 10
158.46000000000001
 20
31.0
 30
0.0
 11
168.75
 21
31.0
 31
0.0
  0
LINE
  5
5BB
100
AcDbEntity
  8
0
  6
CONTINUOUS
 62
               7
100
AcDbLine
 10
158.46000000000001
 20
21.0
 30
0.0
 11
168.75
 21
21.0
 31
0.0
  0
LINE
  5
5BC
100
AcDbEntity
  8
0
  6
CONTINUOUS
 62
               7
100
AcDbLine
 10
154.75
 20
46.5
 30
0.0
 11
170.28999999999999
 21
45.140000000000001
 31
0.0
  0
LINE
  5
5BD
100
AcDbEntity
  8
0
  6
CONTINUOUS
 62
               7
100
AcDbLine
 10
170.75
 20
44.640000000000001
 30
0.0
 11
170.75
 21
3.0
 31
0.0
  0
LINE
  5
5BE
100
AcDbEntity
  8
0
  6
CONTINUOUS
 62
               7
100
AcDbLine
 10
154.75
 20
15.0
 30
0.0
 11
165.25
 21
15.0
 31
0.0
  0
LINE
  5
5BF
100
AcDbEntity
  8
0
  6
CONTINUOUS
 62
               7
100
AcDbLine
 10
154.75
 20
10.4
 30
0.0
 11
165.25
 21
10.4
 31
0.0
  0
LINE
  5
5C0
100
AcDbEntity
  8
0
  6
CONTINUOUS
 62
               7
100
AcDbLine
 10
165.25
 20
15.0
 30
0.0
 11
165.25
 21
10.4
 31
0.0
  0
LINE
  5
5C1
100
AcDbEntity
  8
0
  6
CONTINUOUS
 62
               7
100
AcDbLine
 10
156.34999999999999
 20
15.0
 30
0.0
 11
156.34999999999999
 21
10.4
 31
0.0
  0
LINE
  5
5C2
100
AcDbEntity
  8
0
  6
CONTINUOUS
 62
               7
100
AcDbLine
 10
157.94999999999999
 20
13.4
 30
0.0
 11
165.25
 21
13.4
 31
0.0
  0
LINE
  5
5C3
100
AcDbEntity
  8
0
  6
CONTINUOUS
 62
               7
100
AcDbLine
 10
157.94999999999999
 20
13.4
 30
0.0
 11
157.94999999999999
 21
10.4
 31
0.0
  0
LINE
  5
5C4
100
AcDbEntity
  8
0
  6
CONTINUOUS
 62
               7
100
AcDbLine
 10
145.75
 20
3.0
 30
0.0
 11
154.75
 21
3.0
 31
0.0
  0
LINE
  5
5C5
100
AcDbEntity
  8
0
  6
CONTINUOUS
 62
               7
100
AcDbLine
 10
145.75
 20
0.0
 30
0.0
 11
192.75
 21
0.0
 31
0.0
  0
LINE
  5
5C6
100
AcDbEntity
  8
0
  6
CONTINUOUS
 62
               7
100
AcDbLine
 10
192.75
 20
7.5
 30
0.0
 11
192.75
 21
0.0
 31
0.0
  0
LINE
  5
5C7
100
AcDbEntity
  8
0
  6
CONTINUOUS
 62
               7
100
AcDbLine
 10
-5.25
 20
7.5
 30
0.0
 11
-5.25
 21
0.0
 31
0.0
  0
LINE
  5
5C8
100
AcDbEntity
  8
0
  6
CONTINUOUS
 62
               2
100
AcDbLine
 10
0.0
 20
12.5
 30
0.0
 11
0.0
 21
-5.0
 31
0.0
  0
LINE
  5
5C9
100
AcDbEntity
  8
0
  6
CONTINUOUS
 62
               2
100
AcDbLine
 10
187.5
 20
12.5
 30
0.0
 11
187.5
 21
-5.0
 31
0.0
  0
ARC
  5
5CA
100
AcDbEntity
  8
0
  6
CONTINUOUS
 62
               7
100
AcDbCircle
 10
17.250241953210061
 20
44.642282242110944
 30
0.0
 40
0.5002471592927513
100
AcDbArc
 50
95.764177633140974
 51
180.26139737522564
  0
ARC
  5
5CB
100
AcDbEntity
  8
0
  6
CONTINUOUS
 62
               7
100
AcDbCircle
 10
170.25021427557181
 20
44.641797133526083
 30
0.0
 40
0.499788955491315
100
AcDbArc
 50
359.79397626332747
 51
85.43413567589333
  0
ENDBLK
  5
5CC
100
AcDbEntity
  8
0
100
AcDbBlockEnd
  0
BLOCK
  5
5CD
100
AcDbEntity
  8
0
100
AcDbBlockBegin
  2
F15MPJ-16
 70
               0
 10
0.0
 20
0.0
 30
0.0
  3
F15MPJ-16
  1

  0
LINE
  5
5CE
100
AcDbEntity
  8
0
  6
CONTINUOUS
 62
               2
100
AcDbLine
 10
8.0
 20
-39.600015258789043
 30
0.0
 11
8.0
 21
63.558432006835972
 31
0.0
  0
LINE
  5
5CF
100
AcDbEntity
  8
0
  6
CONTINUOUS
 62
               7
100
AcDbLine
 10
0.0
 20
-39.600015258789043
 30
0.0
 11
0.0
 21
60.400000000000034
 31
0.0
  0
LINE
  5
5D0
100
AcDbEntity
  8
0
  6
CONTINUOUS
 62
               4
100
AcDbLine
 10
15.5
 20
-42.600015258789043
 30
0.0
 11
15.5
 21
-39.600015258789043
 31
0.0
  0
ARC
  5
5D1
100
AcDbEntity
  8
0
  6
CONTINUOUS
 62
               4
100
AcDbCircle
 10
3.25
 20
-42.80001220703123
 30
0.0
 40
1.5
100
AcDbArc
 50
270.00001798608935
 51
0.0
  0
ARC
  5
5D2
100
AcDbEntity
  8
0
  6
CONTINUOUS
 62
               4
100
AcDbCircle
 10
1.75
 20
-42.80001220703123
 30
0.0
 40
1.5
100
AcDbArc
 50
179.99996402782131
 51
270.00000068324533
  0
ELLIPSE
  5
5D3
100
AcDbEntity
  8
0
  6
CONTINUOUS
 62
               4
100
AcDbEllipse
 10
13.5
 20
-45.400015444091778
 30
0.0
 11
-2.7000000000000028
 21
0.0000000000000003
 31
0.0
210
0.0
220
0.0
230
1.0
 40
0.4814815501121251
 41
4.7123889803846897
 42
1.5707963267948966
  0
LINE
  5
5D4
100
AcDbEntity
  8
0
  6
CONTINUOUS
 62
               4
100
AcDbLine
 10
15.5
 20
-44.100015258789043
 30
0.0
 11
13.5
 21
-44.100015258789043
 31
0.0
  0
ARC
  5
5D5
100
AcDbEntity
  8
0
  6
CONTINUOUS
 62
               4
100
AcDbCircle
 10
3.1999999999999886
 20
-44.700015629394514
 30
0.0
 40
2.0
100
AcDbArc
 50
270.0
 51
0.0
  0
LINE
  5
5D6
100
AcDbEntity
  8
0
  6
CONTINUOUS
 62
               4
100
AcDbLine
 10
0.5
 20
-46.700015629394514
 30
0.0
 11
3.1999999999999886
 21
-46.700015629394514
 31
0.0
  0
LINE
  5
5D7
100
AcDbEntity
  8
0
  6
CONTINUOUS
 62
               4
100
AcDbLine
 10
0.5
 20
-46.700015629394514
 30
0.0
 11
15.499999999999972
 21
-46.700015629394514
 31
0.0
  0
LINE
  5
5D8
100
AcDbEntity
  8
0
  6
CONTINUOUS
 62
               4
100
AcDbLine
 10
0.5
 20
-54.800015629394508
 30
0.0
 11
0.5
 21
-43.629159545898418
 31
0.0
  0
LINE
  5
5D9
100
AcDbEntity
  8
0
  6
CONTINUOUS
 62
               4
100
AcDbLine
 10
0.5
 20
-54.800020629394524
 30
0.0
 11
15.5
 21
-54.800020629394524
 31
0.0
  0
ARC
  5
5DA
100
AcDbEntity
  8
0
  6
CONTINUOUS
 62
               4
100
AcDbCircle
 10
14.599998499999998
 20
-68.300012629394502
 30
0.0
 40
0.3
100
AcDbArc
 50
269.9999999999992
 51
359.99999999999937
  0
ARC
  5
5DB
100
AcDbEntity
  8
0
  6
CONTINUOUS
 62
               4
100
AcDbCircle
 10
13.399999600000001
 20
-66.900015629394517
 30
0.0
 40
0.5
100
AcDbArc
 50
179.9999999999998
 51
270.0
  0
ARC
  5
5DC
100
AcDbEntity
  8
0
  6
CONTINUOUS
 62
               4
100
AcDbCircle
 10
2.600000399999999
 20
-66.900015629394517
 30
0.0
 40
0.5
100
AcDbArc
 50
269.9999999999992
 51
359.99999999999937
  0
ARC
  5
5DD
100
AcDbEntity
  8
0
  6
CONTINUOUS
 62
               4
100
AcDbCircle
 10
1.4000015000000019
 20
-68.300012629394502
 30
0.0
 40
0.3
100
AcDbArc
 50
179.9999999999998
 51
270.0
  0
LINE
  5
5DE
100
AcDbEntity
  8
0
  6
CONTINUOUS
 62
               4
100
AcDbLine
 10
14.900000000000006
 20
-68.300012629394502
 30
0.0
 11
14.900000000000006
 21
-67.400015629394517
 31
0.0
  0
LINE
  5
5DF
100
AcDbEntity
  8
0
  6
CONTINUOUS
 62
               4
100
AcDbLine
 10
14.599998499999998
 20
-68.600015629394505
 30
0.0
 11
1.4000000000000057
 21
-68.600015629394505
 31
0.0
  0
LINE
  5
5E0
100
AcDbEntity
  8
0
  6
CONTINUOUS
 62
               4
100
AcDbLine
 10
1.0999999999999943
 20
-67.400015629394517
 30
0.0
 11
14.900000000000006
 21
-67.400015629394517
 31
0.0
  0
LINE
  5
5E1
100
AcDbEntity
  8
0
  6
CONTINUOUS
 62
               4
100
AcDbLine
 10
1.0999999999999943
 20
-68.300012629394502
 30
0.0
 11
1.0999999999999943
 21
-67.400015629394517
 31
0.0
  0
LINE
  5
5E2
100
AcDbEntity
  8
0
  6
CONTINUOUS
 62
               4
100
AcDbLine
 10
13.699999999999989
 20
-66.500014629394499
 30
0.0
 11
13.699999999999989
 21
-65.500015629394525
 31
0.0
  0
LINE
  5
5E3
100
AcDbEntity
  8
0
  6
CONTINUOUS
 62
               4
100
AcDbLine
 10
13.699999599999984
 20
-66.500014629394499
 30
0.0
 11
13.59999959999999
 21
-66.600014629394508
 31
0.0
  0
LINE
  5
5E4
100
AcDbEntity
  8
0
  6
CONTINUOUS
 62
               4
100
AcDbLine
 10
2.2999999999999829
 20
-66.500014629394499
 30
0.0
 11
2.2999999999999829
 21
-65.500015629394525
 31
0.0
  0
LINE
  5
5E5
100
AcDbEntity
  8
0
  6
CONTINUOUS
 62
               4
100
AcDbLine
 10
2.300000400000016
 20
-66.500014629394499
 30
0.0
 11
2.4000003999999819
 21
-66.600014629394508
 31
0.0
  0
LINE
  5
5E6
100
AcDbEntity
  8
0
  6
CONTINUOUS
 62
               4
100
AcDbLine
 10
12.900000000000006
 20
-66.900015629394517
 30
0.0
 11
12.900000000000006
 21
-66.600014629394508
 31
0.0
  0
LINE
  5
5E7
100
AcDbEntity
  8
0
  6
CONTINUOUS
 62
               4
100
AcDbLine
 10
2.4000003999999819
 20
-66.600014629394508
 30
0.0
 11
13.59999959999999
 21
-66.600014629394508
 31
0.0
  0
LINE
  5
5E8
100
AcDbEntity
  8
0
  6
CONTINUOUS
 62
               4
100
AcDbLine
 10
3.0999999999999943
 20
-66.900015629394517
 30
0.0
 11
3.0999999999999943
 21
-66.600014629394508
 31
0.0
  0
LINE
  5
5E9
100
AcDbEntity
  8
0
  6
CONTINUOUS
 62
               4
100
AcDbLine
 10
1.649999600000001
 20
-65.500015629394525
 30
0.0
 11
14.349999999999994
 21
-65.500015629394525
 31
0.0
  0
LINE
  5
5EA
100
AcDbEntity
  8
0
  6
CONTINUOUS
 62
               4
100
AcDbLine
 10
14.696410399999991
 20
-64.900014629394533
 30
0.0
 11
15.5
 21
-64.43606162939453
 31
0.0
  0
LINE
  5
5EB
100
AcDbEntity
  8
0
  6
CONTINUOUS
 62
               4
100
AcDbLine
 10
0.5
 20
-64.43606162939453
 30
0.0
 11
1.3035895999999809
 21
-64.900014629394533
 31
0.0
  0
LINE
  5
5EC
100
AcDbEntity
  8
0
  6
CONTINUOUS
 62
               4
100
AcDbLine
 10
0.7000000000000171
 20
-62.900020629394518
 30
0.0
 11
15.299999999999983
 21
-62.900020629394518
 31
0.0
  0
LINE
  5
5ED
100
AcDbEntity
  8
0
  6
CONTINUOUS
 62
               4
100
AcDbLine
 10
15.299999999999983
 20
-62.900020629394518
 30
0.0
 11
15.5
 21
-63.100020629394507
 31
0.0
  0
LINE
  5
5EE
100
AcDbEntity
  8
0
  6
CONTINUOUS
 62
               4
100
AcDbLine
 10
0.7000000000000171
 20
-62.900020629394518
 30
0.0
 11
0.5
 21
-63.100020629394507
 31
0.0
  0
LINE
  5
5EF
100
AcDbEntity
  8
0
  6
CONTINUOUS
 62
               4
100
AcDbLine
 10
1.3035895999999809
 20
-64.900015629394531
 30
0.0
 11
1.6500000000000057
 21
-65.500015629394525
 31
0.0
  0
LINE
  5
5F0
100
AcDbEntity
  8
0
  6
CONTINUOUS
 62
               4
100
AcDbLine
 10
14.696410399999991
 20
-64.900015629394531
 30
0.0
 11
14.349999999999994
 21
-65.500015629394525
 31
0.0
  0
LINE
  5
5F1
100
AcDbEntity
  8
0
  6
CONTINUOUS
 62
               4
100
AcDbLine
 10
14.799999999999983
 20
-62.900020629394518
 30
0.0
 11
14.799999999999983
 21
-62.100020629394507
 31
0.0
  0
LINE
  5
5F2
100
AcDbEntity
  8
0
  6
CONTINUOUS
 62
               4
100
AcDbLine
 10
0.5
 20
-64.43606162939453
 30
0.0
 11
0.5
 21
-63.100020629394507
 31
0.0
  0
LINE
  5
5F3
100
AcDbEntity
  8
0
  6
CONTINUOUS
 62
               4
100
AcDbLine
 10
15.5
 20
-64.43606162939453
 30
0.0
 11
15.5
 21
-63.100020629394507
 31
0.0
  0
LINE
  5
5F4
100
AcDbEntity
  8
0
  6
CONTINUOUS
 62
               4
100
AcDbLine
 10
15.299999999999983
 20
-55.000020629394513
 30
0.0
 11
15.5
 21
-55.20002062939453
 31
0.0
  0
LINE
  5
5F5
100
AcDbEntity
  8
0
  6
CONTINUOUS
 62
               4
100
AcDbLine
 10
0.7000000000000171
 20
-55.000020629394513
 30
0.0
 11
0.5
 21
-55.200020629394501
 31
0.0
  0
LINE
  5
5F6
100
AcDbEntity
  8
0
  6
CONTINUOUS
 62
               4
100
AcDbLine
 10
0.7000000000000171
 20
-55.000020629394513
 30
0.0
 11
15.299999999999983
 21
-55.000020629394513
 31
0.0
  0
LINE
  5
5F7
100
AcDbEntity
  8
0
  6
CONTINUOUS
 62
               4
100
AcDbLine
 10
0.5
 20
-62.000020629394513
 30
0.0
 11
0.5
 21
-55.200020629394501
 31
0.0
  0
LINE
  5
5F8
100
AcDbEntity
  8
0
  6
CONTINUOUS
 62
               4
100
AcDbLine
 10
0.5
 20
-62.000020629394513
 30
0.0
 11
0.5999999999999943
 21
-62.100020629394507
 31
0.0
  0
LINE
  5
5F9
100
AcDbEntity
  8
0
  6
CONTINUOUS
 62
               4
100
AcDbLine
 10
0.5999999999999943
 20
-62.100020629394507
 30
0.0
 11
15.400000000000006
 21
-62.100020629394507
 31
0.0
  0
LINE
  5
5FA
100
AcDbEntity
  8
0
  6
CONTINUOUS
 62
               4
100
AcDbLine
 10
15.400000000000006
 20
-62.100020629394507
 30
0.0
 11
15.5
 21
-62.000020629394513
 31
0.0
  0
LINE
  5
5FB
100
AcDbEntity
  8
0
  6
CONTINUOUS
 62
               4
100
AcDbLine
 10
15.5
 20
-62.000020629394513
 30
0.0
 11
15.5
 21
-55.20002062939453
 31
0.0
  0
LINE
  5
5FC
100
AcDbEntity
  8
0
  6
CONTINUOUS
 62
               4
100
AcDbLine
 10
0.7000000000000171
 20
-55.000020629394513
 30
0.0
 11
0.5
 21
-54.800020629394524
 31
0.0
  0
LINE
  5
5FD
100
AcDbEntity
  8
0
  6
CONTINUOUS
 62
               4
100
AcDbLine
 10
15.299999999999983
 20
-55.000020629394513
 30
0.0
 11
15.5
 21
-54.800020629394524
 31
0.0
  0
LINE
  5
5FE
100
AcDbEntity
  8
0
  6
CONTINUOUS
 62
               4
100
AcDbLine
 10
0.5
 20
-55.200020629394501
 30
0.0
 11
15.5
 21
-55.20002062939453
 31
0.0
  0
LINE
  5
5FF
100
AcDbEntity
  8
0
  6
CONTINUOUS
 62
               4
100
AcDbLine
 10
1.1999999999999886
 20
-62.900020629394518
 30
0.0
 11
1.1999999999999886
 21
-62.100020629394507
 31
0.0
  0
LINE
  5
600
100
AcDbEntity
  8
0
  6
CONTINUOUS
 62
               4
100
AcDbLine
 10
0.5
 20
-63.100020629394507
 30
0.0
 11
15.5
 21
-63.100020629394507
 31
0.0
  0
LINE
  5
601
100
AcDbEntity
  8
0
  6
CONTINUOUS
 62
               4
100
AcDbLine
 10
2.2999999999999829
 20
-66.500014229394523
 30
0.0
 11
13.699999599999984
 21
-66.500014229394523
 31
0.0
  0
LINE
  5
602
100
AcDbEntity
  8
0
  6
CONTINUOUS
 62
               4
100
AcDbLine
 10
1.3035895999999809
 20
-64.900015629394531
 30
0.0
 11
14.696411266026615
 21
-64.900015629394531
 31
0.0
  0
LINE
  5
603
100
AcDbEntity
  8
0
  6
CONTINUOUS
 62
               4
100
AcDbLine
 10
0.5
 20
-64.43606162939453
 30
0.0
 11
15.5
 21
-64.43606162939453
 31
0.0
  0
LINE
  5
604
100
AcDbEntity
  8
0
  6
CONTINUOUS
 62
               4
100
AcDbLine
 10
3.25
 20
-44.30001220703123
 30
0.0
 11
1.75
 21
-44.30001220703123
 31
0.0
  0
LINE
  5
605
100
AcDbEntity
  8
0
  6
CONTINUOUS
 62
               4
100
AcDbLine
 10
4.75
 20
-42.80001220703123
 30
0.0
 11
4.75
 21
-42.600015258789043
 31
0.0
  0
LINE
  5
606
100
AcDbEntity
  8
0
  6
CONTINUOUS
 62
               4
100
AcDbLine
 10
0.25
 20
-42.80001220703123
 30
0.0
 11
0.25
 21
-42.59999999999998
 31
0.0
  0
LINE
  5
607
100
AcDbEntity
  8
0
  6
CONTINUOUS
 62
               4
100
AcDbLine
 10
5.1999999999999886
 20
-42.600015258789043
 30
0.0
 11
5.1999999999999886
 21
-44.700015629394514
 31
0.0
  0
LINE
  5
608
100
AcDbEntity
  8
0
  6
CONTINUOUS
 62
               4
100
AcDbLine
 10
15.5
 20
-54.800015629394508
 30
0.0
 11
15.5
 21
-42.600015258789043
 31
0.0
  0
LINE
  5
609
100
AcDbEntity
  8
0
  6
CONTINUOUS
 62
               7
100
AcDbLine
 10
13.199996948242188
 20
58.900015258789097
 30
0.0
 11
16.0
 21
58.900015258789097
 31
0.0
  0
LINE
  5
60A
100
AcDbEntity
  8
0
  6
CONTINUOUS
 62
               7
100
AcDbLine
 10
0.0
 20
58.900015258789097
 30
0.0
 11
2.8000030517578125
 21
58.900015258789097
 31
0.0
  0
ARC
  5
60B
100
AcDbEntity
  8
0
  6
CONTINUOUS
 62
               7
100
AcDbCircle
 10
12.5
 20
48.400000000000034
 30
0.0
 40
0.5
100
AcDbArc
 50
270.00001798608935
 51
0.0
  0
ARC
  5
60C
100
AcDbEntity
  8
0
  6
CONTINUOUS
 62
               7
100
AcDbCircle
 10
3.5
 20
48.400000000000034
 30
0.0
 40
0.5
100
AcDbArc
 50
179.99998133066532
 51
270.00001798608935
  0
ARC
  5
60D
100
AcDbEntity
  8
0
  6
CONTINUOUS
 62
               7
100
AcDbCircle
 10
3.5
 20
56.900000000000034
 30
0.0
 40
0.5
100
AcDbArc
 50
89.999982013910653
 51
179.99996402782131
  0
ARC
  5
60E
100
AcDbEntity
  8
0
  6
CONTINUOUS
 62
               7
100
AcDbCircle
 10
12.5
 20
56.900000000000034
 30
0.0
 40
0.5
100
AcDbArc
 50
0.0
 51
89.999982013910653
  0
CIRCLE
  5
60F
100
AcDbEntity
  8
0
  6
CONTINUOUS
 62
               4
100
AcDbCircle
 10
2.5
 20
-29.099984741210903
 30
0.0
 40
2.25
  0
CIRCLE
  5
610
100
AcDbEntity
  8
0
  6
CONTINUOUS
 62
               4
100
AcDbCircle
 10
13.5
 20
3.9000152587890966
 30
0.0
 40
2.25
  0
LINE
  5
611
100
AcDbEntity
  8
0
  6
CONTINUOUS
 62
               7
100
AcDbLine
 10
12.800033569335937
 20
48.000021362304722
 30
0.0
 11
13.199996948242188
 21
48.000021362304722
 31
0.0
  0
LINE
  5
612
100
AcDbEntity
  8
0
  6
CONTINUOUS
 62
               7
100
AcDbLine
 10
13.0
 20
48.400000000000034
 30
0.0
 11
13.0
 21
56.900000000000034
 31
0.0
  0
LINE
  5
613
100
AcDbEntity
  8
0
  6
CONTINUOUS
 62
               7
100
AcDbLine
 10
3.0
 20
48.400000000000034
 30
0.0
 11
3.0
 21
56.900000000000034
 31
0.0
  0
LINE
  5
614
100
AcDbEntity
  8
0
  6
CONTINUOUS
 62
               7
100
AcDbLine
 10
3.5
 20
47.900000000000034
 30
0.0
 11
12.5
 21
47.900000000000034
 31
0.0
  0
LINE
  5
615
100
AcDbEntity
  8
0
  6
CONTINUOUS
 62
               7
100
AcDbLine
 10
3.5
 20
57.400000000000034
 30
0.0
 11
12.5
 21
57.400000000000034
 31
0.0
  0
LINE
  5
616
100
AcDbEntity
  8
0
  6
CONTINUOUS
 62
               7
100
AcDbLine
 10
16.0
 20
-39.600015258789043
 30
0.0
 11
16.0
 21
60.400000000000034
 31
0.0
  0
LINE
  5
617
100
AcDbEntity
  8
0
  6
CONTINUOUS
 62
               4
100
AcDbLine
 10
15.5
 20
-42.600015258789043
 30
0.0
 11
0.25
 21
-42.600015258789043
 31
0.0
  0
LINE
  5
618
100
AcDbEntity
  8
0
  6
CONTINUOUS
 62
               4
100
AcDbLine
 10
0.5
 20
-42.59999999999998
 30
0.0
 11
0.5
 21
-39.59999999999998
 31
0.0
  0
LINE
  5
619
100
AcDbEntity
  8
0
  6
CONTINUOUS
 62
               7
100
AcDbLine
 10
14.499955320547997
 20
20.399955792370235
 30
0.0
 11
15.99995311971179
 21
18.899950406765527
 31
0.0
  0
LINE
  5
61A
100
AcDbEntity
  8
0
  6
CONTINUOUS
 62
               7
100
AcDbLine
 10
1.5000108091217044
 20
20.400004092061351
 30
0.0
 11
0.0000092167374532
 21
18.9000024996771
 31
0.0
  0
LINE
  5
61B
100
AcDbEntity
  8
0
  6
CONTINUOUS
 62
               7
100
AcDbLine
 10
14.5
 20
20.400000000000034
 30
0.0
 11
1.5
 21
20.400000000000034
 31
0.0
  0
LINE
  5
61C
100
AcDbEntity
  8
0
  6
CONTINUOUS
 62
               7
100
AcDbLine
 10
11.850006103515625
 20
57.400000000000034
 30
0.0
 11
11.850006103515625
 21
57.900015258789097
 31
0.0
  0
LINE
  5
61D
100
AcDbEntity
  8
0
  6
CONTINUOUS
 62
               7
100
AcDbLine
 10
4.1500091552734375
 20
57.400000000000034
 30
0.0
 11
4.1500091552734375
 21
57.900015258789097
 31
0.0
  0
LINE
  5
61E
100
AcDbEntity
  8
0
  6
CONTINUOUS
 62
               7
100
AcDbLine
 10
16.0
 20
60.400000000000034
 30
0.0
 11
0.0
 21
60.400000000000034
 31
0.0
  0
LINE
  5
61F
100
AcDbEntity
  8
0
  6
CONTINUOUS
 62
               7
100
AcDbLine
 10
0.0
 20
57.900015258789097
 30
0.0
 11
16.0
 21
57.900015258789097
 31
0.0
  0
LINE
  5
620
100
AcDbEntity
  8
0
  6
CONTINUOUS
 62
               7
100
AcDbLine
 10
2.8000030517578125
 20
48.000021362304722
 30
0.0
 11
2.8000030517578125
 21
60.400000000000034
 31
0.0
  0
LINE
  5
621
100
AcDbEntity
  8
0
  6
CONTINUOUS
 62
               7
100
AcDbLine
 10
13.199996948242188
 20
48.000021362304722
 30
0.0
 11
13.199996948242188
 21
60.400000000000034
 31
0.0
  0
LINE
  5
622
100
AcDbEntity
  8
0
  6
CONTINUOUS
 62
               7
100
AcDbLine
 10
2.8000030517578125
 20
48.000021362304722
 30
0.0
 11
3.1999664306640625
 21
48.000021362304722
 31
0.0
  0
LINE
  5
623
100
AcDbEntity
  8
0
  6
CONTINUOUS
 62
               7
100
AcDbLine
 10
0.0
 20
-39.600015258789043
 30
0.0
 11
16.0
 21
-39.600015258789043
 31
0.0
  0
LINE
  5
624
100
AcDbEntity
  8
0
  6
CONTINUOUS
 62
               4
100
AcDbLine
 10
0.5
 20
-30.499993896484341
 30
0.0
 11
0.7386016845703125
 21
-30.499993896484341
 31
0.0
  0
LINE
  5
625
100
AcDbEntity
  8
0
  6
CONTINUOUS
 62
               4
100
AcDbLine
 10
0.5
 20
-27.699990844726528
 30
0.0
 11
0.7386016845703125
 21
-27.699990844726528
 31
0.0
  0
LINE
  5
626
100
AcDbEntity
  8
0
  6
CONTINUOUS
 62
               4
100
AcDbLine
 10
15.261383056640625
 20
5.3000244140625341
 30
0.0
 11
15.5
 21
5.3000244140625341
 31
0.0
  0
LINE
  5
627
100
AcDbEntity
  8
0
  6
CONTINUOUS
 62
               4
100
AcDbLine
 10
15.261383056640625
 20
2.5000213623047216
 30
0.0
 11
15.5
 21
2.5000213623047216
 31
0.0
  0
LINE
  5
628
100
AcDbEntity
  8
0
  6
CONTINUOUS
 62
               4
100
AcDbLine
 10
15.5
 20
5.3000244140625341
 30
0.0
 11
15.5
 21
18.900015258789097
 31
0.0
  0
LINE
  5
629
100
AcDbEntity
  8
0
  6
CONTINUOUS
 62
               4
100
AcDbLine
 10
0.5
 20
18.900015258789097
 30
0.0
 11
15.5
 21
18.900015258789097
 31
0.0
  0
LINE
  5
62A
100
AcDbEntity
  8
0
  6
CONTINUOUS
 62
               4
100
AcDbLine
 10
0.5
 20
-36.099984741210903
 30
0.0
 11
15.5
 21
-36.099984741210903
 31
0.0
  0
LINE
  5
62B
100
AcDbEntity
  8
0
  6
CONTINUOUS
 62
               4
100
AcDbLine
 10
1.5807887984822742
 20
-30.019272859068508
 30
0.0
 11
3.4192600793188035
 21
-28.180801733203509
 31
0.0
  0
LINE
  5
62C
100
AcDbEntity
  8
0
  6
CONTINUOUS
 62
               4
100
AcDbLine
 10
3.4192667942895696
 20
-30.0192049637389
 30
0.0
 11
1.5807958233961017
 21
-28.18073352793084
 31
0.0
  0
LINE
  5
62D
100
AcDbEntity
  8
0
  6
CONTINUOUS
 62
               4
100
AcDbLine
 10
0.5
 20
-36.099984741210903
 30
0.0
 11
0.5
 21
-30.499993896484341
 31
0.0
  0
LINE
  5
62E
100
AcDbEntity
  8
0
  6
CONTINUOUS
 62
               4
100
AcDbLine
 10
0.5
 20
-27.699990844726528
 30
0.0
 11
0.5
 21
18.900015258789097
 31
0.0
  0
LINE
  5
62F
100
AcDbEntity
  8
0
  6
CONTINUOUS
 62
               4
100
AcDbLine
 10
15.5
 20
-36.099984741210903
 30
0.0
 11
15.5
 21
2.5000213623047216
 31
0.0
  0
LINE
  5
630
100
AcDbEntity
  8
0
  6
CONTINUOUS
 62
               4
100
AcDbLine
 10
12.580775356445713
 20
2.9807469162275879
 30
0.0
 11
14.419246637282242
 21
4.8192180420925865
 31
0.0
  0
LINE
  5
631
100
AcDbEntity
  8
0
  6
CONTINUOUS
 62
               4
100
AcDbLine
 10
14.419291874478745
 20
2.9808428813557839
 30
0.0
 11
12.580820903585277
 21
4.819314317163844
 31
0.0
  0
LINE
  5
632
100
AcDbEntity
  8
0
  6
CONTINUOUS
 62
             200
100
AcDbLine
 10
8.0
 20
-71.912103271484355
 30
0.0
 11
8.0
 21
-39.600015258789043
 31
0.0
  0
ENDBLK
  5
633
100
AcDbEntity
  8
0
100
AcDbBlockEnd
  0
BLOCK
  5
634
100
AcDbEntity
  8
0
100
AcDbBlockBegin
  2
F15MPJ-17
 70
               0
 10
0.0
 20
0.0
 30
0.0
  3
F15MPJ-17
  1

  0
LINE
  5
635
100
AcDbEntity
  8
0
  6
CONTINUOUS
 62
               4
100
AcDbLine
 10
51.209241479773425
 20
1.6499727247295937
 30
0.0
 11
51.009241481631179
 21
1.6499999846734568
 31
0.0
  0
ARC
  5
636
100
AcDbEntity
  8
0
  6
CONTINUOUS
 62
               4
100
AcDbCircle
 10
51.210271258779471
 20
4.6429830602901916
 30
0.0
 40
1.5000122071088615
100
AcDbArc
 50
359.98485023913514
 51
89.983917696094963
  0
ARC
  5
637
100
AcDbEntity
  8
0
  6
CONTINUOUS
 62
               4
100
AcDbCircle
 10
51.209883795126643
 20
3.1429861620162569
 30
0.0
 40
1.4999908448041741
100
AcDbArc
 50
269.98403426169261
 51
359.98473367353773
  0
ARC
  5
638
100
AcDbEntity
  8
0
  6
CONTINUOUS
 62
               4
100
AcDbCircle
 10
51.201277069910731
 20
-28.357015714021429
 30
0.0
 40
1.5000122071088606
100
AcDbArc
 50
359.98485023913508
 51
89.983917696094963
  0
LINE
  5
639
100
AcDbEntity
  8
0
  6
CONTINUOUS
 62
               4
100
AcDbLine
 10
52.701289224583405
 20
-28.357412337056473
 30
0.0
 11
52.700880397816647
 21
-29.857412281343386
 31
0.0
  0
LINE
  5
63A
100
AcDbEntity
  8
0
  6
CONTINUOUS
 62
               4
100
AcDbLine
 10
51.20169810706328
 20
-26.857003566002845
 30
0.0
 11
51.001698114491674
 21
-26.856949055767245
 31
0.0
  0
LINE
  5
63B
100
AcDbEntity
  8
0
  6
CONTINUOUS
 62
               4
100
AcDbLine
 10
52.71028341345216
 20
4.6425864372551473
 30
0.0
 11
52.709874586685387
 21
3.1425864929682348
 31
0.0
  0
LINE
  5
63C
100
AcDbEntity
  8
0
  6
CONTINUOUS
 62
               4
100
AcDbLine
 10
51.21069229593202
 20
6.1429952083087755
 30
0.0
 11
51.010692303360429
 21
6.1430497185443187
 31
0.0
  0
LINE
  5
63D
100
AcDbEntity
  8
0
  6
CONTINUOUS
 62
               4
100
AcDbLine
 10
51.209465815631731
 20
1.6429953754480948
 30
0.0
 11
51.00946582306014
 21
1.643049885683638
 31
0.0
  0
LINE
  5
63E
100
AcDbEntity
  8
0
  6
CONTINUOUS
 62
               4
100
AcDbLine
 10
51.014167330877896
 20
18.893049244982933
 30
0.0
 11
49.014167405162041
 21
18.893594347338592
 31
0.0
  0
LINE
  5
63F
100
AcDbEntity
  8
0
  6
CONTINUOUS
 62
             200
100
AcDbLine
 10
33.724647727945928
 20
-71.202257081200528
 30
0.0
 11
33.731894863764701
 21
-44.612258068808245
 31
0.0
  0
LINE
  5
640
100
AcDbEntity
  8
0
  6
CONTINUOUS
 62
             200
100
AcDbLine
 10
18.22468373530117
 20
-71.068032542772471
 30
0.0
 11
18.23189543946684
 21
-44.608033525551704
 31
0.0
  0
LINE
  5
641
100
AcDbEntity
  8
0
  6
CONTINUOUS
 62
               4
100
AcDbLine
 10
45.323918748488566
 20
-44.612237215315687
 30
0.0
 11
41.685987427610094
 21
-46.711276023640536
 31
0.0
  0
LINE
  5
642
100
AcDbEntity
  8
0
  6
CONTINUOUS
 62
               4
100
AcDbLine
 10
41.78741165418041
 20
-46.652755558985021
 30
0.0
 11
41.787968062544138
 21
-44.611273487755653
 31
0.0
  0
LINE
  5
643
100
AcDbEntity
  8
0
  6
CONTINUOUS
 62
               4
100
AcDbLine
 10
12.187386115077018
 20
-46.70323615077001
 30
0.0
 11
12.187958480797548
 21
-44.603205969980422
 31
0.0
  0
LINE
  5
644
100
AcDbEntity
  8
0
  6
CONTINUOUS
 62
               4
100
AcDbLine
 10
6.6520185502892204
 20
-44.601697142975851
 30
0.0
 11
10.288805139729874
 21
-46.702718684309289
 31
0.0
  0
LINE
  5
645
100
AcDbEntity
  8
0
  6
CONTINUOUS
 62
               4
100
AcDbLine
 10
28.802638893039713
 20
-67.076141663489082
 30
0.0
 11
28.228161130029918
 21
-67.407608110686169
 31
0.0
  0
LINE
  5
646
100
AcDbEntity
  8
0
  6
CONTINUOUS
 62
               4
100
AcDbLine
 10
10.994955118852644
 20
-64.590475659323758
 30
0.0
 11
10.982515313622734
 21
-64.602908685433931
 31
0.0
  0
LINE
  5
647
100
AcDbEntity
  8
0
  6
CONTINUOUS
 62
               4
100
AcDbLine
 10
41.235185191688387
 20
-54.811153463766871
 30
0.0
 11
41.237392856228901
 21
-46.711153764617649
 31
0.0
  0
LINE
  5
648
100
AcDbEntity
  8
0
  6
CONTINUOUS
 62
               4
100
AcDbLine
 10
26.23518574881949
 20
-54.807065196099259
 30
0.0
 11
26.237393413359996
 21
-46.707065496950065
 31
0.0
  0
LINE
  5
649
100
AcDbEntity
  8
0
  6
CONTINUOUS
 62
               4
100
AcDbLine
 10
26.232559433132465
 20
-64.443110838196546
 30
0.0
 11
41.23255887600137
 21
-64.447199105864158
 31
0.0
  0
LINE
  5
64A
100
AcDbEntity
  8
0
  6
CONTINUOUS
 62
               4
100
AcDbLine
 10
27.036022552076297
 20
-64.907283840256326
 30
0.0
 11
40.428843720665775
 21
-64.910934069576015
 31
0.0
  0
LINE
  5
64B
100
AcDbEntity
  8
0
  6
CONTINUOUS
 62
               4
100
AcDbLine
 10
28.031996833564577
 20
-66.50755395365718
 30
0.0
 11
39.431996010144964
 21
-66.510661036975549
 31
0.0
  0
LINE
  5
64C
100
AcDbEntity
  8
0
  6
CONTINUOUS
 62
               4
100
AcDbLine
 10
26.232923572680654
 20
-63.107069887819861
 30
0.0
 11
41.232923015549567
 21
-63.111158155487459
 31
0.0
  0
LINE
  5
64D
100
AcDbEntity
  8
0
  6
CONTINUOUS
 62
               4
100
AcDbLine
 10
26.932978056916767
 20
-62.907260681072771
 30
0.0
 11
26.933196097859039
 21
-62.107260710786406
 31
0.0
  0
LINE
  5
64E
100
AcDbEntity
  8
0
  6
CONTINUOUS
 62
               4
100
AcDbLine
 10
26.235076726985596
 20
-55.20707018124223
 30
0.0
 11
41.235076169854501
 21
-55.211158448909856
 31
0.0
  0
LINE
  5
64F
100
AcDbEntity
  8
0
  6
CONTINUOUS
 62
               4
100
AcDbLine
 10
41.035130687518475
 20
-55.011103946102693
 30
0.0
 11
41.235185190325637
 21
-54.811158463766674
 31
0.0
  0
LINE
  5
650
100
AcDbEntity
  8
0
  6
CONTINUOUS
 62
               4
100
AcDbLine
 10
26.435131229792773
 20
-55.007124698906225
 30
0.0
 11
26.235185747456732
 21
-54.807070196099076
 31
0.0
  0
LINE
  5
651
100
AcDbEntity
  8
0
  6
CONTINUOUS
 62
               4
100
AcDbLine
 10
41.233222821845189
 20
-62.011158196343743
 30
0.0
 11
41.235076169854501
 21
-55.211158448909856
 31
0.0
  0
LINE
  5
652
100
AcDbEntity
  8
0
  6
CONTINUOUS
 62
               4
100
AcDbLine
 10
41.133195570441622
 20
-62.11113093751176
 30
0.0
 11
41.233222821845189
 21
-62.011158196343743
 31
0.0
  0
LINE
  5
653
100
AcDbEntity
  8
0
  6
CONTINUOUS
 62
               4
100
AcDbLine
 10
26.333196120144279
 20
-62.107097180079705
 30
0.0
 11
41.133195570441622
 21
-62.11113093751176
 31
0.0
  0
LINE
  5
654
100
AcDbEntity
  8
0
  6
CONTINUOUS
 62
               4
100
AcDbLine
 10
26.233223378976284
 20
-62.007069928676145
 30
0.0
 11
26.333196120144279
 21
-62.107097180079705
 31
0.0
  0
LINE
  5
655
100
AcDbEntity
  8
0
  6
CONTINUOUS
 62
               4
100
AcDbLine
 10
26.233223378976284
 20
-62.007069928676145
 30
0.0
 11
26.235076726985596
 21
-55.20707018124223
 31
0.0
  0
LINE
  5
656
100
AcDbEntity
  8
0
  6
CONTINUOUS
 62
               4
100
AcDbLine
 10
26.435131229792773
 20
-55.007124698906225
 30
0.0
 11
41.035130687518475
 21
-55.011103946102693
 31
0.0
  0
LINE
  5
657
100
AcDbEntity
  8
0
  6
CONTINUOUS
 62
               4
100
AcDbLine
 10
26.435131229792773
 20
-55.007124698906225
 30
0.0
 11
26.235076726985596
 21
-55.20707018124223
 31
0.0
  0
LINE
  5
658
100
AcDbEntity
  8
0
  6
CONTINUOUS
 62
               4
100
AcDbLine
 10
41.035130687518475
 20
-55.011103946102693
 30
0.0
 11
41.235076169854501
 21
-55.211158448909856
 31
0.0
  0
LINE
  5
659
100
AcDbEntity
  8
0
  6
CONTINUOUS
 62
               4
100
AcDbLine
 10
41.23255887600137
 20
-64.447199105864158
 30
0.0
 11
41.232923015549567
 21
-63.111158155487459
 31
0.0
  0
LINE
  5
65A
100
AcDbEntity
  8
0
  6
CONTINUOUS
 62
               4
100
AcDbLine
 10
26.232559433132465
 20
-64.443110838196546
 30
0.0
 11
26.232923572680654
 21
-63.107069887819861
 31
0.0
  0
LINE
  5
65B
100
AcDbEntity
  8
0
  6
CONTINUOUS
 62
               4
100
AcDbLine
 10
40.532977551784562
 20
-62.910967377091396
 30
0.0
 11
40.533195592726841
 21
-62.110967406805045
 31
0.0
  0
LINE
  5
65C
100
AcDbEntity
  8
0
  6
CONTINUOUS
 62
               4
100
AcDbLine
 10
40.428842854639178
 20
-64.910934069339973
 30
0.0
 11
40.082268936798883
 21
-65.510839632492178
 31
0.0
  0
LINE
  5
65D
100
AcDbEntity
  8
0
  6
CONTINUOUS
 62
               4
100
AcDbLine
 10
27.036022552076297
 20
-64.907283840256326
 30
0.0
 11
27.38226940850322
 21
-65.507378232533611
 31
0.0
  0
LINE
  5
65E
100
AcDbEntity
  8
0
  6
CONTINUOUS
 62
               4
100
AcDbLine
 10
26.432978075487824
 20
-62.907124405483856
 30
0.0
 11
26.232923572680654
 21
-63.107069887819861
 31
0.0
  0
LINE
  5
65F
100
AcDbEntity
  8
0
  6
CONTINUOUS
 62
               4
100
AcDbLine
 10
41.032977533213526
 20
-62.911103652680325
 30
0.0
 11
41.232923015549567
 21
-63.111158155487459
 31
0.0
  0
LINE
  5
660
100
AcDbEntity
  8
0
  6
CONTINUOUS
 62
               4
100
AcDbLine
 10
26.432978075487824
 20
-62.907124405483856
 30
0.0
 11
41.032977533213526
 21
-62.911103652680325
 31
0.0
  0
LINE
  5
661
100
AcDbEntity
  8
0
  6
CONTINUOUS
 62
               4
100
AcDbLine
 10
26.232559433132465
 20
-64.443110838196546
 30
0.0
 11
27.036022552348854
 21
-64.907282840256357
 31
0.0
  0
LINE
  5
662
100
AcDbEntity
  8
0
  6
CONTINUOUS
 62
               4
100
AcDbLine
 10
40.428842854911728
 20
-64.910933069340004
 30
0.0
 11
41.23255887600137
 21
-64.447199105864158
 31
0.0
  0
LINE
  5
663
100
AcDbEntity
  8
0
  6
CONTINUOUS
 62
               4
100
AcDbLine
 10
27.382269008503229
 20
-65.507378232424585
 30
0.0
 11
40.082268936798883
 21
-65.510839632492178
 31
0.0
  0
LINE
  5
664
100
AcDbEntity
  8
0
  6
CONTINUOUS
 62
               4
100
AcDbLine
 10
28.831887782998223
 20
-66.907773379742565
 30
0.0
 11
28.83196954862413
 21
-66.607772390885216
 31
0.0
  0
LINE
  5
665
100
AcDbEntity
  8
0
  6
CONTINUOUS
 62
               4
100
AcDbLine
 10
28.131969974623559
 20
-66.607581605169742
 30
0.0
 11
39.331968758632371
 21
-66.610634178143528
 31
0.0
  0
LINE
  5
666
100
AcDbEntity
  8
0
  6
CONTINUOUS
 62
               4
100
AcDbLine
 10
38.631887419005928
 20
-66.910444381285416
 30
0.0
 11
38.631969184631828
 21
-66.610443392428067
 31
0.0
  0
LINE
  5
667
100
AcDbEntity
  8
0
  6
CONTINUOUS
 62
               4
100
AcDbLine
 10
28.03199723345557
 20
-66.507554353766167
 30
0.0
 11
28.131969974623559
 21
-66.607581605169742
 31
0.0
  0
LINE
  5
668
100
AcDbEntity
  8
0
  6
CONTINUOUS
 62
               4
100
AcDbLine
 10
28.031996833455565
 20
-66.507554353657142
 30
0.0
 11
28.032269384360852
 21
-65.507555390799197
 31
0.0
  0
LINE
  5
669
100
AcDbEntity
  8
0
  6
CONTINUOUS
 62
               4
100
AcDbLine
 10
39.431996010035938
 20
-66.510661436975511
 30
0.0
 11
39.331968758632371
 21
-66.610634178143528
 31
0.0
  0
LINE
  5
66A
100
AcDbEntity
  8
0
  6
CONTINUOUS
 62
               4
100
AcDbLine
 10
39.431996410035936
 20
-66.510661437084522
 30
0.0
 11
39.432268960941222
 21
-65.510662474226578
 31
0.0
  0
LINE
  5
66B
100
AcDbEntity
  8
0
  6
CONTINUOUS
 62
               4
100
AcDbLine
 10
26.831506286451052
 20
-68.307225225388095
 30
0.0
 11
26.831751581693446
 21
-67.407228258815863
 31
0.0
  0
LINE
  5
66C
100
AcDbEntity
  8
0
  6
CONTINUOUS
 62
               4
100
AcDbLine
 10
26.831751581693446
 20
-67.407228258815863
 30
0.0
 11
40.631751069132861
 21
-67.410989465070045
 31
0.0
  0
LINE
  5
66D
100
AcDbEntity
  8
0
  6
CONTINUOUS
 62
               4
100
AcDbLine
 10
40.331422518862119
 20
-68.610907654737375
 30
0.0
 11
27.131424509137432
 21
-68.607309979598696
 31
0.0
  0
LINE
  5
66E
100
AcDbEntity
  8
0
  6
CONTINUOUS
 62
               4
100
AcDbLine
 10
40.631505773890453
 20
-68.310986431642291
 30
0.0
 11
40.631751069132861
 21
-67.410989465070045
 31
0.0
  0
ARC
  5
66F
100
AcDbEntity
  8
0
  6
CONTINUOUS
 62
               4
100
AcDbCircle
 10
27.131507775308378
 20
-68.30730699115027
 30
0.0
 40
0.3
100
AcDbArc
 50
179.984383967615
 51
269.98438396761514
  0
ARC
  5
670
100
AcDbEntity
  8
0
  6
CONTINUOUS
 62
               4
100
AcDbCircle
 10
28.331888201569249
 20
-66.907637104262676
 30
0.0
 40
0.5
100
AcDbArc
 50
269.98438396761424
 51
359.98438396761446
  0
ARC
  5
671
100
AcDbEntity
  8
0
  6
CONTINUOUS
 62
               4
100
AcDbCircle
 10
39.131887000434894
 20
-66.910580656765305
 30
0.0
 40
0.5
100
AcDbArc
 50
179.984383967615
 51
269.98438396761514
  0
ARC
  5
672
100
AcDbEntity
  8
0
  6
CONTINUOUS
 62
               4
100
AcDbCircle
 10
40.33150428503312
 20
-68.310904665880116
 30
0.0
 40
0.3
100
AcDbArc
 50
269.98438396761424
 51
359.98438396761446
  0
LINE
  5
673
100
AcDbEntity
  8
0
  6
CONTINUOUS
 62
               4
100
AcDbLine
 10
10.288805139728247
 20
-46.702718690269748
 30
0.0
 11
41.787395696823602
 21
-46.711303668545256
 31
0.0
  0
LINE
  5
674
100
AcDbEntity
  8
0
  6
CONTINUOUS
 62
               4
100
AcDbLine
 10
25.735185767390526
 20
-54.80692892051033
 30
0.0
 11
25.737393431931039
 21
-46.706929221361136
 31
0.0
  0
LINE
  5
675
100
AcDbEntity
  8
0
  6
CONTINUOUS
 62
               4
100
AcDbLine
 10
10.735186324521621
 20
-54.802840652842733
 30
0.0
 11
10.737393989062127
 21
-46.702840953693524
 31
0.0
  0
LINE
  5
676
100
AcDbEntity
  8
0
  6
CONTINUOUS
 62
               4
100
AcDbLine
 10
10.732560008834596
 20
-64.438886294940019
 30
0.0
 11
25.732559451703501
 21
-64.442974562607617
 31
0.0
  0
LINE
  5
677
100
AcDbEntity
  8
0
  6
CONTINUOUS
 62
               4
100
AcDbLine
 10
11.536023127778428
 20
-64.9030592969998
 30
0.0
 11
24.928844296367906
 21
-64.90670952631946
 31
0.0
  0
LINE
  5
678
100
AcDbEntity
  8
0
  6
CONTINUOUS
 62
               4
100
AcDbLine
 10
12.531997409266715
 20
-66.503329410400653
 30
0.0
 11
23.931996585847095
 21
-66.506436493719008
 31
0.0
  0
LINE
  5
679
100
AcDbEntity
  8
0
  6
CONTINUOUS
 62
               4
100
AcDbLine
 10
10.732924148382786
 20
-63.102845344563335
 30
0.0
 11
25.732923591251691
 21
-63.106933612230918
 31
0.0
  0
LINE
  5
67A
100
AcDbEntity
  8
0
  6
CONTINUOUS
 62
               4
100
AcDbLine
 10
11.432978632618898
 20
-62.903036137816244
 30
0.0
 11
11.43319667356117
 21
-62.103036167529893
 31
0.0
  0
LINE
  5
67B
100
AcDbEntity
  8
0
  6
CONTINUOUS
 62
               4
100
AcDbLine
 10
10.735077302687728
 20
-55.202845637985689
 30
0.0
 11
25.735076745556633
 21
-55.206933905653344
 31
0.0
  0
LINE
  5
67C
100
AcDbEntity
  8
0
  6
CONTINUOUS
 62
               4
100
AcDbLine
 10
25.535131263220592
 20
-55.006879402846167
 30
0.0
 11
25.735185766027769
 21
-54.806933920510161
 31
0.0
  0
LINE
  5
67D
100
AcDbEntity
  8
0
  6
CONTINUOUS
 62
               4
100
AcDbLine
 10
10.935131805494898
 20
-55.002900155649698
 30
0.0
 11
10.735186323158871
 21
-54.802845652842549
 31
0.0
  0
LINE
  5
67E
100
AcDbEntity
  8
0
  6
CONTINUOUS
 62
               4
100
AcDbLine
 10
25.73322339754732
 20
-62.006933653087216
 30
0.0
 11
25.735076745556633
 21
-55.206933905653344
 31
0.0
  0
LINE
  5
67F
100
AcDbEntity
  8
0
  6
CONTINUOUS
 62
               4
100
AcDbLine
 10
25.633196146143746
 20
-62.106906394255233
 30
0.0
 11
25.73322339754732
 21
-62.006933653087216
 31
0.0
  0
LINE
  5
680
100
AcDbEntity
  8
0
  6
CONTINUOUS
 62
               4
100
AcDbLine
 10
10.833196695846418
 20
-62.102872636823193
 30
0.0
 11
25.633196146143746
 21
-62.106906394255233
 31
0.0
  0
LINE
  5
681
100
AcDbEntity
  8
0
  6
CONTINUOUS
 62
               4
100
AcDbLine
 10
10.733223954678415
 20
-62.002845385419619
 30
0.0
 11
10.833196695846418
 21
-62.102872636823193
 31
0.0
  0
LINE
  5
682
100
AcDbEntity
  8
0
  6
CONTINUOUS
 62
               4
100
AcDbLine
 10
10.733223954678415
 20
-62.002845385419619
 30
0.0
 11
10.735077302687728
 21
-55.202845637985689
 31
0.0
  0
LINE
  5
683
100
AcDbEntity
  8
0
  6
CONTINUOUS
 62
               4
100
AcDbLine
 10
10.935131805494898
 20
-55.002900155649698
 30
0.0
 11
25.535131263220592
 21
-55.006879402846167
 31
0.0
  0
LINE
  5
684
100
AcDbEntity
  8
0
  6
CONTINUOUS
 62
               4
100
AcDbLine
 10
10.935131805494898
 20
-55.002900155649698
 30
0.0
 11
10.735077302687728
 21
-55.202845637985689
 31
0.0
  0
LINE
  5
685
100
AcDbEntity
  8
0
  6
CONTINUOUS
 62
               4
100
AcDbLine
 10
25.535131263220592
 20
-55.006879402846167
 30
0.0
 11
25.735076745556633
 21
-55.206933905653344
 31
0.0
  0
LINE
  5
686
100
AcDbEntity
  8
0
  6
CONTINUOUS
 62
               4
100
AcDbLine
 10
25.732559451703501
 20
-64.442974562607617
 30
0.0
 11
25.732923591251691
 21
-63.106933612230918
 31
0.0
  0
LINE
  5
687
100
AcDbEntity
  8
0
  6
CONTINUOUS
 62
               4
100
AcDbLine
 10
10.732560008834596
 20
-64.438886294940019
 30
0.0
 11
10.732924148382786
 21
-63.102845344563335
 31
0.0
  0
LINE
  5
688
100
AcDbEntity
  8
0
  6
CONTINUOUS
 62
               4
100
AcDbLine
 10
25.0329781274867
 20
-62.906742833834869
 30
0.0
 11
25.033196168428965
 21
-62.106742863548519
 31
0.0
  0
LINE
  5
689
100
AcDbEntity
  8
0
  6
CONTINUOUS
 62
               4
100
AcDbLine
 10
24.92884343034131
 20
-64.906709526083432
 30
0.0
 11
24.582269512501014
 21
-65.506615089235652
 31
0.0
  0
LINE
  5
68A
100
AcDbEntity
  8
0
  6
CONTINUOUS
 62
               4
100
AcDbLine
 10
11.536023127778428
 20
-64.9030592969998
 30
0.0
 11
11.882269984205351
 21
-65.503153689277084
 31
0.0
  0
LINE
  5
68B
100
AcDbEntity
  8
0
  6
CONTINUOUS
 62
               4
100
AcDbLine
 10
10.932978651189956
 20
-62.902899862227329
 30
0.0
 11
10.732924148382786
 21
-63.102845344563335
 31
0.0
  0
LINE
  5
68C
100
AcDbEntity
  8
0
  6
CONTINUOUS
 62
               4
100
AcDbLine
 10
25.532978108915657
 20
-62.906879109423784
 30
0.0
 11
25.732923591251691
 21
-63.106933612230918
 31
0.0
  0
LINE
  5
68D
100
AcDbEntity
  8
0
  6
CONTINUOUS
 62
               4
100
AcDbLine
 10
10.932978651189956
 20
-62.902899862227329
 30
0.0
 11
25.532978108915657
 21
-62.906879109423784
 31
0.0
  0
LINE
  5
68E
100
AcDbEntity
  8
0
  6
CONTINUOUS
 62
               4
100
AcDbLine
 10
10.732560008834596
 20
-64.438886294940019
 30
0.0
 11
11.536023128050985
 21
-64.903058296999816
 31
0.0
  0
LINE
  5
68F
100
AcDbEntity
  8
0
  6
CONTINUOUS
 62
               4
100
AcDbLine
 10
24.928843430613867
 20
-64.906708526083463
 30
0.0
 11
25.732559451703501
 21
-64.442974562607617
 31
0.0
  0
LINE
  5
690
100
AcDbEntity
  8
0
  6
CONTINUOUS
 62
               4
100
AcDbLine
 10
11.882269584205361
 20
-65.503153689168073
 30
0.0
 11
24.582269512501014
 21
-65.506615089235652
 31
0.0
  0
LINE
  5
691
100
AcDbEntity
  8
0
  6
CONTINUOUS
 62
               4
100
AcDbLine
 10
13.331888358700354
 20
-66.903548836486038
 30
0.0
 11
13.331970124326261
 21
-66.60354784762869
 31
0.0
  0
LINE
  5
692
100
AcDbEntity
  8
0
  6
CONTINUOUS
 62
               4
100
AcDbLine
 10
12.631970550325683
 20
-66.603357061913229
 30
0.0
 11
23.831969334334502
 21
-66.606409634887001
 31
0.0
  0
LINE
  5
693
100
AcDbEntity
  8
0
  6
CONTINUOUS
 62
               4
100
AcDbLine
 10
23.131887994708052
 20
-66.906219838028889
 30
0.0
 11
23.131969760333959
 21
-66.606218849171526
 31
0.0
  0
LINE
  5
694
100
AcDbEntity
  8
0
  6
CONTINUOUS
 62
               4
100
AcDbLine
 10
12.531997809157708
 20
-66.503329810509641
 30
0.0
 11
12.631970550325683
 21
-66.603357061913229
 31
0.0
  0
LINE
  5
695
100
AcDbEntity
  8
0
  6
CONTINUOUS
 62
               4
100
AcDbLine
 10
12.531997409157697
 20
-66.503329810400629
 30
0.0
 11
12.532269960062976
 21
-65.503330847542685
 31
0.0
  0
LINE
  5
696
100
AcDbEntity
  8
0
  6
CONTINUOUS
 62
               4
100
AcDbLine
 10
23.931996585738077
 20
-66.506436893718984
 30
0.0
 11
23.831969334334502
 21
-66.606409634887001
 31
0.0
  0
LINE
  5
697
100
AcDbEntity
  8
0
  6
CONTINUOUS
 62
               4
100
AcDbLine
 10
23.931996985738067
 20
-66.50643689382801
 30
0.0
 11
23.932269536643361
 21
-65.506437930970066
 31
0.0
  0
LINE
  5
698
100
AcDbEntity
  8
0
  6
CONTINUOUS
 62
               4
100
AcDbLine
 10
11.331506862153184
 20
-68.303000682131568
 30
0.0
 11
11.331752157395584
 21
-67.403003715559322
 31
0.0
  0
LINE
  5
699
100
AcDbEntity
  8
0
  6
CONTINUOUS
 62
               4
100
AcDbLine
 10
11.331752157395584
 20
-67.403003715559322
 30
0.0
 11
25.131751644834978
 21
-67.406764921813519
 31
0.0
  0
LINE
  5
69A
100
AcDbEntity
  8
0
  6
CONTINUOUS
 62
               4
100
AcDbLine
 10
24.831423094564244
 20
-68.606683111480848
 30
0.0
 11
11.631425084839563
 21
-68.60308543634217
 31
0.0
  0
LINE
  5
69B
100
AcDbEntity
  8
0
  6
CONTINUOUS
 62
               4
100
AcDbLine
 10
25.131506349592591
 20
-68.306761888385765
 30
0.0
 11
25.131751644834978
 21
-67.406764921813519
 31
0.0
  0
ARC
  5
69C
100
AcDbEntity
  8
0
  6
CONTINUOUS
 62
               4
100
AcDbCircle
 10
11.63150835101051
 20
-68.303082447893743
 30
0.0
 40
0.3
100
AcDbArc
 50
179.984383967615
 51
269.98438396761514
  0
ARC
  5
69D
100
AcDbEntity
  8
0
  6
CONTINUOUS
 62
               4
100
AcDbCircle
 10
12.831888777271381
 20
-66.903412561006149
 30
0.0
 40
0.5
100
AcDbArc
 50
269.98438396761424
 51
359.98438396761446
  0
ARC
  5
69E
100
AcDbEntity
  8
0
  6
CONTINUOUS
 62
               4
100
AcDbCircle
 10
23.631887576137025
 20
-66.906356113508778
 30
0.0
 40
0.5
100
AcDbArc
 50
179.984383967615
 51
269.98438396761514
  0
ARC
  5
69F
100
AcDbEntity
  8
0
  6
CONTINUOUS
 62
               4
100
AcDbCircle
 10
24.831504860735251
 20
-68.30668012262359
 30
0.0
 40
0.3
100
AcDbArc
 50
269.98438396761424
 51
359.98438396761446
  0
LINE
  5
6A0
100
AcDbEntity
  8
0
  6
CONTINUOUS
 62
               4
100
AcDbLine
 10
11.016492217863224
 20
-64.602917945879554
 30
0.0
 11
10.982515313622734
 21
-64.602908685433931
 31
0.0
  0
LINE
  5
6A1
100
AcDbEntity
  8
0
  6
CONTINUOUS
 62
               4
100
AcDbLine
 10
51.200471626763004
 20
-31.357003398863526
 30
0.0
 11
51.000471634191413
 21
-31.356948888627926
 31
0.0
  0
LINE
  5
6A2
100
AcDbEntity
  8
0
  6
CONTINUOUS
 62
               4
100
AcDbLine
 10
50.999177016096681
 20
-36.106948712203064
 30
0.0
 11
48.999177090380826
 21
-36.106403609847405
 31
0.0
  0
LINE
  5
6A3
100
AcDbEntity
  8
0
  6
CONTINUOUS
 62
               4
100
AcDbLine
 10
50.999177016096681
 20
-36.106948712203064
 30
0.0
 11
51.014167330877896
 21
18.893049244982933
 31
0.0
  0
ARC
  5
6A4
100
AcDbEntity
  8
0
  6
CONTINUOUS
 62
               4
100
AcDbCircle
 10
51.200889606257917
 20
-29.857012612295307
 30
0.0
 40
1.4999908448041746
100
AcDbArc
 50
269.98403426169261
 51
359.98473367353773
  0
ENDBLK
  5
6A5
100
AcDbEntity
  8
0
100
AcDbBlockEnd
  0
BLOCK
  5
6A6
100
AcDbEntity
  8
0
100
AcDbBlockBegin
  2
F15MPJ-18
 70
               0
 10
0.0
 20
0.0
 30
0.0
  3
F15MPJ-18
  1

  0
LINE
  5
6A7
100
AcDbEntity
  8
0
  6
CONTINUOUS
 62
               7
100
AcDbLine
 10
0.0
 20
49.0
 30
0.0
 11
0.0
 21
3.0
 31
0.0
  0
LINE
  5
6A8
100
AcDbEntity
  8
0
  6
CONTINUOUS
 62
               2
100
AcDbLine
 10
8.0
 20
0.70770263671875
 30
0.0
 11
8.0
 21
48.999999046325684
 31
0.0
  0
LINE
  5
6A9
100
AcDbEntity
  8
0
  6
CONTINUOUS
 62
               4
100
AcDbLine
 10
13.5
 20
45.200008392333984
 30
0.0
 11
15.20001220703125
 21
45.200008392333984
 31
0.0
  0
LINE
  5
6AA
100
AcDbEntity
  8
0
  6
CONTINUOUS
 62
               4
100
AcDbLine
 10
2.5
 20
6.800018310546875
 30
0.0
 11
0.79998779296875
 21
6.800018310546875
 31
0.0
  0
LINE
  5
6AB
100
AcDbEntity
  8
0
  6
CONTINUOUS
 62
               4
100
AcDbLine
 10
2.5
 20
12.20001220703125
 30
0.0
 11
0.79998779296875
 21
12.20001220703125
 31
0.0
  0
LINE
  5
6AC
100
AcDbEntity
  8
0
  6
CONTINUOUS
 62
               4
100
AcDbLine
 10
13.499984741210937
 20
39.800014495849609
 30
0.0
 11
15.20001220703125
 21
39.800014495849609
 31
0.0
  0
LINE
  5
6AD
100
AcDbEntity
  8
0
  6
CONTINUOUS
 62
               4
100
AcDbLine
 10
15.20001220703125
 20
48.799999237060547
 30
0.0
 11
0.79998779296875
 21
48.799999237060547
 31
0.0
  0
LINE
  5
6AE
100
AcDbEntity
  8
0
  6
CONTINUOUS
 62
               4
100
AcDbLine
 10
15.20001220703125
 20
3.20001220703125
 30
0.0
 11
0.79998779296875
 21
3.20001220703125
 31
0.0
  0
LINE
  5
6AF
100
AcDbEntity
  8
0
  6
CONTINUOUS
 62
               4
100
AcDbLine
 10
13.5
 20
10.20001220703125
 30
0.0
 11
15.5
 21
10.20001220703125
 31
0.0
  0
LINE
  5
6B0
100
AcDbEntity
  8
0
  6
CONTINUOUS
 62
               4
100
AcDbLine
 10
10.800003051757813
 20
7.5000152587890625
 30
0.0
 11
10.800003051757813
 21
3.20001220703125
 31
0.0
  0
LINE
  5
6B1
100
AcDbEntity
  8
0
  6
CONTINUOUS
 62
               4
100
AcDbLine
 10
5.20001220703125
 20
48.799999237060547
 30
0.0
 11
5.20001220703125
 21
44.5
 31
0.0
  0
LINE
  5
6B2
100
AcDbEntity
  8
0
  6
CONTINUOUS
 62
               4
100
AcDbLine
 10
3.4192699582363844
 20
43.580769083498581
 30
0.0
 11
1.5807881977507918
 21
45.419251308901494
 31
0.0
  0
LINE
  5
6B3
100
AcDbEntity
  8
0
  6
CONTINUOUS
 62
               4
100
AcDbLine
 10
1.5807709481196071
 20
43.580761894626818
 30
0.0
 11
3.4192422289561364
 21
45.419233020491816
 31
0.0
  0
LINE
  5
6B4
100
AcDbEntity
  8
0
  6
CONTINUOUS
 62
               4
100
AcDbLine
 10
15.5
 20
8.530792236328125
 30
0.0
 11
15.5
 21
39.500011444091797
 31
0.0
  0
LINE
  5
6B5
100
AcDbEntity
  8
0
  6
CONTINUOUS
 62
               4
100
AcDbLine
 10
12.580780336044882
 20
6.580750109188557
 30
0.0
 11
14.419262406475355
 21
8.4192320246465897
 31
0.0
  0
LINE
  5
6B6
100
AcDbEntity
  8
0
  6
CONTINUOUS
 62
               4
100
AcDbLine
 10
14.419248343046092
 20
6.5807813957653707
 30
0.0
 11
12.580777372152625
 21
8.4192528315734307
 31
0.0
  0
LINE
  5
6B7
100
AcDbEntity
  8
0
  6
CONTINUOUS
 62
               4
100
AcDbLine
 10
0.5
 20
12.5
 30
0.0
 11
0.5
 21
43.469242095947266
 31
0.0
  0
LINE
  5
6B8
100
AcDbEntity
  8
0
  6
CONTINUOUS
 62
               4
100
AcDbLine
 10
15.5
 20
3.5000152587890625
 30
0.0
 11
15.5
 21
6.46923828125
 31
0.0
  0
LINE
  5
6B9
100
AcDbEntity
  8
0
  6
CONTINUOUS
 62
               4
100
AcDbLine
 10
0.5
 20
3.5000152587890625
 30
0.0
 11
0.5
 21
6.5000152587890625
 31
0.0
  0
LINE
  5
6BA
100
AcDbEntity
  8
0
  6
CONTINUOUS
 62
               4
100
AcDbLine
 10
0.5
 20
45.530757904052734
 30
0.0
 11
0.5
 21
48.500019073486328
 31
0.0
  0
LINE
  5
6BB
100
AcDbEntity
  8
0
  6
CONTINUOUS
 62
               4
100
AcDbLine
 10
15.5
 20
45.499996185302734
 30
0.0
 11
15.5
 21
48.500011444091797
 31
0.0
  0
LINE
  5
6BC
100
AcDbEntity
  8
0
  6
CONTINUOUS
 62
             200
100
AcDbLine
 10
-1.037139892578125
 20
18.25
 30
0.0
 11
16.957107543945313
 21
18.25
 31
0.0
  0
LINE
  5
6BD
100
AcDbEntity
  8
0
  6
CONTINUOUS
 62
             200
100
AcDbLine
 10
-1.037139892578125
 20
33.75
 30
0.0
 11
16.957107543945313
 21
33.75
 31
0.0
  0
ARC
  5
6BE
100
AcDbEntity
  8
0
  6
CONTINUOUS
 62
               4
100
AcDbCircle
 10
13.499984741210937
 20
42.500011444091797
 30
0.0
 40
2.6999998092651367
100
AcDbArc
 50
89.999982013910653
 51
270.00000068324533
  0
ARC
  5
6BF
100
AcDbEntity
  8
0
  6
CONTINUOUS
 62
               4
100
AcDbCircle
 10
2.5
 20
9.5000152587890625
 30
0.0
 40
2.6999998092651367
100
AcDbArc
 50
270.00001798608935
 51
89.999982013910653
  0
ARC
  5
6C0
100
AcDbEntity
  8
0
  6
CONTINUOUS
 62
               4
100
AcDbCircle
 10
2.5
 20
44.500015258789063
 30
0.0
 40
2.6999998092651367
100
AcDbArc
 50
270.00001798608935
 51
0.0
  0
ARC
  5
6C1
100
AcDbEntity
  8
0
  6
CONTINUOUS
 62
               4
100
AcDbCircle
 10
15.20001220703125
 20
45.499996185302734
 30
0.0
 40
0.300000011920929
100
AcDbArc
 50
270.00001798608935
 51
0.0
  0
ARC
  5
6C2
100
AcDbEntity
  8
0
  6
CONTINUOUS
 62
               4
100
AcDbCircle
 10
0.8000030517578125
 20
12.5
 30
0.0
 40
0.300000011920929
100
AcDbArc
 50
179.99996402782131
 51
270.00000068324533
  0
ARC
  5
6C3
100
AcDbEntity
  8
0
  6
CONTINUOUS
 62
               4
100
AcDbCircle
 10
15.20001220703125
 20
39.500011444091797
 30
0.0
 40
0.300000011920929
100
AcDbArc
 50
0.0
 51
89.999982013910653
  0
ARC
  5
6C4
100
AcDbEntity
  8
0
  6
CONTINUOUS
 62
               4
100
AcDbCircle
 10
0.8000030517578125
 20
6.5000152587890625
 30
0.0
 40
0.300000011920929
100
AcDbArc
 50
89.999982013910653
 51
179.99996402782131
  0
ARC
  5
6C5
100
AcDbEntity
  8
0
  6
CONTINUOUS
 62
               4
100
AcDbCircle
 10
0.79998779296875
 20
48.500019073486328
 30
0.0
 40
0.300000011920929
100
AcDbArc
 50
89.999982013910653
 51
179.99996402782131
  0
ARC
  5
6C6
100
AcDbEntity
  8
0
  6
CONTINUOUS
 62
               4
100
AcDbCircle
 10
15.20001220703125
 20
48.500011444091797
 30
0.0
 40
0.300000011920929
100
AcDbArc
 50
0.0
 51
89.999982013910653
  0
ARC
  5
6C7
100
AcDbEntity
  8
0
  6
CONTINUOUS
 62
               4
100
AcDbCircle
 10
15.20001220703125
 20
3.5000152587890625
 30
0.0
 40
0.300000011920929
100
AcDbArc
 50
270.00001798608935
 51
0.0
  0
ARC
  5
6C8
100
AcDbEntity
  8
0
  6
CONTINUOUS
 62
               4
100
AcDbCircle
 10
0.8000030517578125
 20
3.5000152587890625
 30
0.0
 40
0.300000011920929
100
AcDbArc
 50
179.99996402782131
 51
270.00000068324533
  0
ARC
  5
6C9
100
AcDbEntity
  8
0
  6
CONTINUOUS
 62
               4
100
AcDbCircle
 10
13.5
 20
7.5000152587890625
 30
0.0
 40
2.6999998092651367
100
AcDbArc
 50
89.999982013910653
 51
179.99996402782131
  0
CIRCLE
  5
6CA
100
AcDbEntity
  8
0
  6
CONTINUOUS
 62
               4
100
AcDbCircle
 10
2.5
 20
44.5
 30
0.0
 40
2.25
  0
CIRCLE
  5
6CB
100
AcDbEntity
  8
0
  6
CONTINUOUS
 62
               4
100
AcDbCircle
 10
13.5
 20
7.5000152587890625
 30
0.0
 40
2.25
  0
LINE
  5
6CC
100
AcDbEntity
  8
0
  6
CONTINUOUS
 62
               4
100
AcDbLine
 10
10.892319037918952
 20
41.799996185302732
 30
0.0
 11
0.4999999940395696
 21
41.799996185302732
 31
0.0
  0
LINE
  5
6CD
100
AcDbEntity
  8
0
  6
CONTINUOUS
 62
               4
100
AcDbLine
 10
5.078322088718437
 20
10.301404489514681
 30
0.0
 11
15.500000005960487
 21
10.301404489514681
 31
0.0
  0
CIRCLE
  5
6CE
100
AcDbEntity
  8
0
  6
CONTINUOUS
 62
               4
100
AcDbCircle
 10
8.0
 20
33.75
 30
0.0
 40
7.4500000000000002
  0
ARC
  5
6CF
100
AcDbEntity
  8
0
  6
CONTINUOUS
 62
               4
100
AcDbCircle
 10
8.0
 20
33.75
 30
0.0
 40
6.9000000000000004
100
AcDbArc
 50
8.6933494299441296
 51
171.30665057005587
  0
CIRCLE
  5
6D0
100
AcDbEntity
  8
0
  6
CONTINUOUS
 62
               4
100
AcDbCircle
 10
8.0
 20
33.75
 30
0.0
 40
4.0499999999999998
  0
CIRCLE
  5
6D1
100
AcDbEntity
  8
0
  6
CONTINUOUS
 62
               4
100
AcDbCircle
 10
8.0
 20
33.75
 30
0.0
 40
3.0499999999999998
  0
ARC
  5
6D2
100
AcDbEntity
  8
0
  6
CONTINUOUS
 62
               4
100
AcDbCircle
 10
8.0
 20
33.75
 30
0.0
 40
6.9000000000000004
100
AcDbArc
 50
188.69334942994413
 51
351.30665057005587
  0
CIRCLE
  5
6D3
100
AcDbEntity
  8
0
  6
CONTINUOUS
 62
               4
100
AcDbCircle
 10
8.0
 20
18.25
 30
0.0
 40
7.4500000000000002
  0
ARC
  5
6D4
100
AcDbEntity
  8
0
  6
CONTINUOUS
 62
               4
100
AcDbCircle
 10
8.0
 20
18.25
 30
0.0
 40
6.9000000000000004
100
AcDbArc
 50
8.6933494299441296
 51
171.30665057005587
  0
CIRCLE
  5
6D5
100
AcDbEntity
  8
0
  6
CONTINUOUS
 62
               4
100
AcDbCircle
 10
8.0
 20
18.25
 30
0.0
 40
4.0499999999999998
  0
CIRCLE
  5
6D6
100
AcDbEntity
  8
0
  6
CONTINUOUS
 62
               4
100
AcDbCircle
 10
8.0
 20
18.25
 30
0.0
 40
3.0499999999999998
  0
ARC
  5
6D7
100
AcDbEntity
  8
0
  6
CONTINUOUS
 62
               4
100
AcDbCircle
 10
8.0
 20
18.25
 30
0.0
 40
6.9000000000000004
100
AcDbArc
 50
188.69334942994413
 51
351.30665057005587
  0
LINE
  5
6D8
100
AcDbEntity
  8
0
  6
CONTINUOUS
 62
               4
100
AcDbLine
 10
7.25
 20
25.928541528180986
 30
0.0
 11
7.25
 21
26.071458471819014
 31
0.0
  0
LINE
  5
6D9
100
AcDbEntity
  8
0
  6
CONTINUOUS
 62
               4
100
AcDbLine
 10
8.75
 20
25.928541528180986
 30
0.0
 11
8.75
 21
26.071458471819014
 31
0.0
  0
ARC
  5
6DA
100
AcDbEntity
  8
0
  6
CONTINUOUS
 62
               4
100
AcDbCircle
 10
6.9500000000000171
 20
25.928541528180986
 30
0.0
 40
0.3
100
AcDbArc
 50
277.78660072413862
 51
0.0
  0
ARC
  5
6DB
100
AcDbEntity
  8
0
  6
CONTINUOUS
 62
               4
100
AcDbCircle
 10
6.9500000000000171
 20
26.071458471819014
 30
0.0
 40
0.3
100
AcDbArc
 50
0.0
 51
82.213399275864049
  0
ARC
  5
6DC
100
AcDbEntity
  8
0
  6
CONTINUOUS
 62
               4
100
AcDbCircle
 10
9.0500000000000114
 20
25.928541528180986
 30
0.0
 40
0.3
100
AcDbArc
 50
180.0
 51
262.21339927586268
  0
ARC
  5
6DD
100
AcDbEntity
  8
0
  6
CONTINUOUS
 62
               4
100
AcDbCircle
 10
9.0500000000000114
 20
26.071458471819014
 30
0.0
 40
0.3
100
AcDbArc
 50
97.786600724137301
 51
180.0
  0
LINE
  5
6DE
100
AcDbEntity
  8
0
  6
CONTINUOUS
 62
               4
100
AcDbLine
 10
14.400000000000034
 20
32.949999999999989
 30
0.0
 11
14.820728919785722
 21
32.707092044905863
 31
0.0
  0
LINE
  5
6DF
100
AcDbEntity
  8
0
  6
CONTINUOUS
 62
               4
100
AcDbLine
 10
14.400000000000034
 20
34.550000000000011
 30
0.0
 11
14.820728919785722
 21
34.792907955094137
 31
0.0
  0
LINE
  5
6E0
100
AcDbEntity
  8
0
  6
CONTINUOUS
 62
               4
100
AcDbLine
 10
14.400000000000034
 20
32.949999999999989
 30
0.0
 11
14.400000000000034
 21
34.549999994039524
 31
0.0
  0
LINE
  5
6E1
100
AcDbEntity
  8
0
  6
CONTINUOUS
 62
               4
100
AcDbLine
 10
14.400000000000034
 20
17.450000000000003
 30
0.0
 11
14.820728919785722
 21
17.207092044905863
 31
0.0
  0
LINE
  5
6E2
100
AcDbEntity
  8
0
  6
CONTINUOUS
 62
               4
100
AcDbLine
 10
14.400000000000034
 20
19.049999999999997
 30
0.0
 11
14.820728919785722
 21
19.292907955094137
 31
0.0
  0
LINE
  5
6E3
100
AcDbEntity
  8
0
  6
CONTINUOUS
 62
               4
100
AcDbLine
 10
14.400000000000034
 20
17.450000000000003
 30
0.0
 11
14.400000000000034
 21
19.049999994039538
 31
0.0
  0
LINE
  5
6E4
100
AcDbEntity
  8
0
  6
CONTINUOUS
 62
               4
100
AcDbLine
 10
1.6000000000000227
 20
17.450000000000003
 30
0.0
 11
1.6000000000000227
 21
19.049999994039538
 31
0.0
  0
LINE
  5
6E5
100
AcDbEntity
  8
0
  6
CONTINUOUS
 62
               4
100
AcDbLine
 10
1.6000000000000227
 20
19.049999999999997
 30
0.0
 11
1.1792710802142778
 21
19.292907955094137
 31
0.0
  0
LINE
  5
6E6
100
AcDbEntity
  8
0
  6
CONTINUOUS
 62
               4
100
AcDbLine
 10
1.6000000000000227
 20
17.450000000000003
 30
0.0
 11
1.1792710802142778
 21
17.207092044905863
 31
0.0
  0
LINE
  5
6E7
100
AcDbEntity
  8
0
  6
CONTINUOUS
 62
               4
100
AcDbLine
 10
1.6000000000000227
 20
32.949999999999989
 30
0.0
 11
1.6000000000000227
 21
34.549999994039524
 31
0.0
  0
LINE
  5
6E8
100
AcDbEntity
  8
0
  6
CONTINUOUS
 62
               4
100
AcDbLine
 10
1.6000000000000227
 20
32.949999999999989
 30
0.0
 11
1.1792710802142778
 21
32.707092044905863
 31
0.0
  0
LINE
  5
6E9
100
AcDbEntity
  8
0
  6
CONTINUOUS
 62
               4
100
AcDbLine
 10
1.6000000000000227
 20
34.550000000000011
 30
0.0
 11
1.1792710802142778
 21
34.792907955094137
 31
0.0
  0
LINE
  5
6EA
100
AcDbEntity
  8
0
  6
CONTINUOUS
 62
               7
100
AcDbLine
 10
0.0
 20
49.0
 30
0.0
 11
16.0
 21
49.0
 31
0.0
  0
LINE
  5
6EB
100
AcDbEntity
  8
0
  6
CONTINUOUS
 62
               7
100
AcDbLine
 10
0.0
 20
3.0
 30
0.0
 11
16.0
 21
3.0
 31
0.0
  0
ARC
  5
6EC
100
AcDbEntity
  8
0
  6
CONTINUOUS
 62
               7
100
AcDbCircle
 10
13.5
 20
42.5
 30
0.0
 40
2.5999994277954102
100
AcDbArc
 50
89.999982013910653
 51
270.00000068324533
  0
ARC
  5
6ED
100
AcDbEntity
  8
0
  6
CONTINUOUS
 62
               7
100
AcDbCircle
 10
2.5
 20
9.5000152587890625
 30
0.0
 40
2.5999994277954102
100
AcDbArc
 50
270.00001798608935
 51
89.999982013910653
  0
ARC
  5
6EE
100
AcDbEntity
  8
0
  6
CONTINUOUS
 62
               7
100
AcDbCircle
 10
14.25
 20
51.199996948242188
 30
0.0
 40
1.5
100
AcDbArc
 50
0.0
 51
89.999982013910653
  0
ARC
  5
6EF
100
AcDbEntity
  8
0
  6
CONTINUOUS
 62
               7
100
AcDbCircle
 10
12.75
 20
51.199996948242188
 30
0.0
 40
1.5
100
AcDbArc
 50
89.999982013910653
 51
179.99996402782131
  0
ARC
  5
6F0
100
AcDbEntity
  8
0
  6
CONTINUOUS
 62
               7
100
AcDbCircle
 10
1.75
 20
51.199996948242188
 30
0.0
 40
1.5
100
AcDbArc
 50
89.999982013910653
 51
179.99996402782131
  0
ARC
  5
6F1
100
AcDbEntity
  8
0
  6
CONTINUOUS
 62
               7
100
AcDbCircle
 10
3.25
 20
51.199996948242188
 30
0.0
 40
1.5
100
AcDbArc
 50
0.0
 51
89.999982013910653
  0
LINE
  5
6F2
100
AcDbEntity
  8
0
  6
CONTINUOUS
 62
               7
100
AcDbLine
 10
0.0
 20
0.0
 30
0.0
 11
16.0
 21
0.0
 31
0.0
  0
LINE
  5
6F3
100
AcDbEntity
  8
0
  6
CONTINUOUS
 62
               7
100
AcDbLine
 10
15.499984741210938
 20
39.899993896484375
 30
0.0
 11
15.499984741210938
 21
45.100006103515625
 31
0.0
  0
LINE
  5
6F4
100
AcDbEntity
  8
0
  6
CONTINUOUS
 62
               7
100
AcDbLine
 10
15.5
 20
39.899978637695312
 30
0.0
 11
13.5
 21
39.899978637695312
 31
0.0
  0
LINE
  5
6F5
100
AcDbEntity
  8
0
  6
CONTINUOUS
 62
               7
100
AcDbLine
 10
15.5
 20
45.099990844726563
 30
0.0
 11
13.5
 21
45.099990844726563
 31
0.0
  0
LINE
  5
6F6
100
AcDbEntity
  8
0
  6
CONTINUOUS
 62
               7
100
AcDbLine
 10
0.5
 20
12.100021362304688
 30
0.0
 11
0.5
 21
6.899993896484375
 31
0.0
  0
LINE
  5
6F7
100
AcDbEntity
  8
0
  6
CONTINUOUS
 62
               7
100
AcDbLine
 10
0.5
 20
6.899993896484375
 30
0.0
 11
2.5
 21
6.899993896484375
 31
0.0
  0
LINE
  5
6F8
100
AcDbEntity
  8
0
  6
CONTINUOUS
 62
               7
100
AcDbLine
 10
0.5
 20
12.100021362304688
 30
0.0
 11
2.5
 21
12.100021362304688
 31
0.0
  0
LINE
  5
6F9
100
AcDbEntity
  8
0
  6
CONTINUOUS
 62
               7
100
AcDbLine
 10
16.0
 20
49.0
 30
0.0
 11
16.0
 21
3.0
 31
0.0
  0
LINE
  5
6FA
100
AcDbEntity
  8
0
  6
CONTINUOUS
 62
               7
100
AcDbLine
 10
15.75
 20
51.199996948242188
 30
0.0
 11
15.75
 21
51.0
 31
0.0
  0
LINE
  5
6FB
100
AcDbEntity
  8
0
  6
CONTINUOUS
 62
               7
100
AcDbLine
 10
14.25
 20
52.699996948242188
 30
0.0
 11
12.75
 21
52.699996948242188
 31
0.0
  0
LINE
  5
6FC
100
AcDbEntity
  8
0
  6
CONTINUOUS
 62
               7
100
AcDbLine
 10
11.25
 20
51.199996948242188
 30
0.0
 11
11.25
 21
51.0
 31
0.0
  0
LINE
  5
6FD
100
AcDbEntity
  8
0
  6
CONTINUOUS
 62
               2
100
AcDbLine
 10
8.0
 20
53.462860107421875
 30
0.0
 11
8.0
 21
49.0
 31
0.0
  0
LINE
  5
6FE
100
AcDbEntity
  8
0
  6
CONTINUOUS
 62
               7
100
AcDbLine
 10
1.75
 20
52.699996948242188
 30
0.0
 11
3.25
 21
52.699996948242188
 31
0.0
  0
LINE
  5
6FF
100
AcDbEntity
  8
0
  6
CONTINUOUS
 62
               7
100
AcDbLine
 10
0.25
 20
51.199996948242188
 30
0.0
 11
0.25
 21
51.0
 31
0.0
  0
LINE
  5
700
100
AcDbEntity
  8
0
  6
CONTINUOUS
 62
               7
100
AcDbLine
 10
4.75
 20
51.199996948242188
 30
0.0
 11
4.75
 21
51.0
 31
0.0
  0
LINE
  5
701
100
AcDbEntity
  8
0
  6
CONTINUOUS
 62
               7
100
AcDbLine
 10
15.5
 20
51.0
 30
0.0
 11
15.5
 21
49.0
 31
0.0
  0
LINE
  5
702
100
AcDbEntity
  8
0
  6
CONTINUOUS
 62
               7
100
AcDbLine
 10
0.5
 20
51.0
 30
0.0
 11
0.5
 21
49.0
 31
0.0
  0
LINE
  5
703
100
AcDbEntity
  8
0
  6
CONTINUOUS
 62
               7
100
AcDbLine
 10
0.25
 20
51.0
 30
0.0
 11
15.75
 21
51.0
 31
0.0
  0
ENDBLK
  5
704
100
AcDbEntity
  8
0
100
AcDbBlockEnd
  0
BLOCK
  5
705
100
AcDbEntity
  8
0
100
AcDbBlockBegin
  2
F15MPJ-19
 70
               0
 10
0.0
 20
0.0
 30
0.0
  3
F15MPJ-19
  1

  0
LINE
  5
706
100
AcDbEntity
  8
0
  6
CONTINUOUS
 62
               2
100
AcDbLine
 10
8.0
 20
-39.600000000000001
 30
0.0
 11
8.0
 21
63.549999999999997
 31
0.0
  0
LINE
  5
707
100
AcDbEntity
  8
0
  6
CONTINUOUS
 62
               7
100
AcDbLine
 10
0.0
 20
-39.600000000000001
 30
0.0
 11
16.0
 21
-39.600000000000001
 31
0.0
  0
LINE
  5
708
100
AcDbEntity
  8
0
  6
CONTINUOUS
 62
               7
100
AcDbLine
 10
2.7999999999999998
 20
48.0
 30
0.0
 11
3.2000000000000002
 21
48.0
 31
0.0
  0
LINE
  5
709
100
AcDbEntity
  8
0
  6
CONTINUOUS
 62
               7
100
AcDbLine
 10
13.199999999999999
 20
48.0
 30
0.0
 11
13.199999999999999
 21
57.899999999999999
 31
0.0
  0
LINE
  5
70A
100
AcDbEntity
  8
0
  6
CONTINUOUS
 62
               7
100
AcDbLine
 10
2.7999999999999998
 20
48.0
 30
0.0
 11
2.7999999999999998
 21
57.899999999999999
 31
0.0
  0
LINE
  5
70B
100
AcDbEntity
  8
0
  6
CONTINUOUS
 62
               7
100
AcDbLine
 10
4.1500000000000004
 20
57.399999999999999
 30
0.0
 11
4.1500000000000004
 21
57.899999999999999
 31
0.0
  0
LINE
  5
70C
100
AcDbEntity
  8
0
  6
CONTINUOUS
 62
               7
100
AcDbLine
 10
11.85
 20
57.399999999999999
 30
0.0
 11
11.85
 21
57.899999999999999
 31
0.0
  0
LINE
  5
70D
100
AcDbEntity
  8
0
  6
CONTINUOUS
 62
               7
100
AcDbLine
 10
14.5
 20
20.399999999999999
 30
0.0
 11
1.5
 21
20.399999999999999
 31
0.0
  0
LINE
  5
70E
100
AcDbEntity
  8
0
  6
CONTINUOUS
 62
               7
100
AcDbLine
 10
1.5
 20
20.399999999999999
 30
0.0
 11
0.0
 21
18.899999999999999
 31
0.0
  0
LINE
  5
70F
100
AcDbEntity
  8
0
  6
CONTINUOUS
 62
               7
100
AcDbLine
 10
14.5
 20
20.399999999999999
 30
0.0
 11
16.0
 21
18.899999999999999
 31
0.0
  0
LINE
  5
710
100
AcDbEntity
  8
0
  6
CONTINUOUS
 62
               7
100
AcDbLine
 10
3.5
 20
57.399999999999999
 30
0.0
 11
12.5
 21
57.399999999999999
 31
0.0
  0
LINE
  5
711
100
AcDbEntity
  8
0
  6
CONTINUOUS
 62
               7
100
AcDbLine
 10
3.5
 20
47.899999999999999
 30
0.0
 11
12.5
 21
47.899999999999999
 31
0.0
  0
LINE
  5
712
100
AcDbEntity
  8
0
  6
CONTINUOUS
 62
               7
100
AcDbLine
 10
3.0
 20
48.399999999999999
 30
0.0
 11
3.0
 21
56.899999999999999
 31
0.0
  0
LINE
  5
713
100
AcDbEntity
  8
0
  6
CONTINUOUS
 62
               7
100
AcDbLine
 10
13.0
 20
48.399999999999999
 30
0.0
 11
13.0
 21
56.899999999999999
 31
0.0
  0
LINE
  5
714
100
AcDbEntity
  8
0
  6
CONTINUOUS
 62
               7
100
AcDbLine
 10
12.800000000000001
 20
48.0
 30
0.0
 11
13.199999999999999
 21
48.0
 31
0.0
  0
LINE
  5
715
100
AcDbEntity
  8
0
  6
CONTINUOUS
 62
               4
100
AcDbLine
 10
14.41
 20
2.98
 30
0.0
 11
12.58
 21
4.8099999999999996
 31
0.0
  0
LINE
  5
716
100
AcDbEntity
  8
0
  6
CONTINUOUS
 62
               4
100
AcDbLine
 10
12.58
 20
2.98
 30
0.0
 11
14.41
 21
4.8099999999999996
 31
0.0
  0
LINE
  5
717
100
AcDbEntity
  8
0
  6
CONTINUOUS
 62
               4
100
AcDbLine
 10
15.5
 20
-36.100000000000001
 30
0.0
 11
15.5
 21
2.5
 31
0.0
  0
LINE
  5
718
100
AcDbEntity
  8
0
  6
CONTINUOUS
 62
               4
100
AcDbLine
 10
0.5
 20
-27.699999999999999
 30
0.0
 11
0.5
 21
18.899999999999999
 31
0.0
  0
LINE
  5
719
100
AcDbEntity
  8
0
  6
CONTINUOUS
 62
               4
100
AcDbLine
 10
0.5
 20
-36.100000000000001
 30
0.0
 11
0.5
 21
-30.5
 31
0.0
  0
LINE
  5
71A
100
AcDbEntity
  8
0
  6
CONTINUOUS
 62
               4
100
AcDbLine
 10
3.4100000000000001
 20
-30.010000000000002
 30
0.0
 11
1.5800000000000001
 21
-28.18
 31
0.0
  0
LINE
  5
71B
100
AcDbEntity
  8
0
  6
CONTINUOUS
 62
               4
100
AcDbLine
 10
1.5800000000000001
 20
-30.010000000000002
 30
0.0
 11
3.4100000000000001
 21
-28.18
 31
0.0
  0
LINE
  5
71C
100
AcDbEntity
  8
0
  6
CONTINUOUS
 62
               4
100
AcDbLine
 10
0.5
 20
-36.100000000000001
 30
0.0
 11
15.5
 21
-36.100000000000001
 31
0.0
  0
LINE
  5
71D
100
AcDbEntity
  8
0
  6
CONTINUOUS
 62
               4
100
AcDbLine
 10
0.5
 20
18.899999999999999
 30
0.0
 11
15.5
 21
18.899999999999999
 31
0.0
  0
LINE
  5
71E
100
AcDbEntity
  8
0
  6
CONTINUOUS
 62
               4
100
AcDbLine
 10
15.5
 20
5.2999999999999998
 30
0.0
 11
15.5
 21
18.899999999999999
 31
0.0
  0
LINE
  5
71F
100
AcDbEntity
  8
0
  6
CONTINUOUS
 62
               4
100
AcDbLine
 10
15.26
 20
2.5
 30
0.0
 11
15.5
 21
2.5
 31
0.0
  0
LINE
  5
720
100
AcDbEntity
  8
0
  6
CONTINUOUS
 62
               4
100
AcDbLine
 10
15.26
 20
5.2999999999999998
 30
0.0
 11
15.5
 21
5.2999999999999998
 31
0.0
  0
LINE
  5
721
100
AcDbEntity
  8
0
  6
CONTINUOUS
 62
               4
100
AcDbLine
 10
0.5
 20
-27.699999999999999
 30
0.0
 11
0.73
 21
-27.699999999999999
 31
0.0
  0
LINE
  5
722
100
AcDbEntity
  8
0
  6
CONTINUOUS
 62
               4
100
AcDbLine
 10
0.5
 20
-30.5
 30
0.0
 11
0.73
 21
-30.5
 31
0.0
  0
LINE
  5
723
100
AcDbEntity
  8
0
  6
CONTINUOUS
 62
               7
100
AcDbLine
 10
16.0
 20
60.399999999999999
 30
0.0
 11
0.0
 21
60.399999999999999
 31
0.0
  0
LINE
  5
724
100
AcDbEntity
  8
0
  6
CONTINUOUS
 62
               7
100
AcDbLine
 10
0.0
 20
57.899999999999999
 30
0.0
 11
16.0
 21
57.899999999999999
 31
0.0
  0
LINE
  5
725
100
AcDbEntity
  8
0
  6
CONTINUOUS
 62
               7
100
AcDbLine
 10
16.0
 20
-39.600000000000001
 30
0.0
 11
16.0
 21
60.399999999999999
 31
0.0
  0
LINE
  5
726
100
AcDbEntity
  8
0
  6
CONTINUOUS
 62
               7
100
AcDbLine
 10
0.0
 20
-39.600000000000001
 30
0.0
 11
0.0
 21
60.399999999999999
 31
0.0
  0
LINE
  5
727
100
AcDbEntity
  8
0
  6
CONTINUOUS
 62
               4
100
AcDbLine
 10
4.75
 20
-42.799999999999997
 30
0.0
 11
4.75
 21
-42.600000000000001
 31
0.0
  0
LINE
  5
728
100
AcDbEntity
  8
0
  6
CONTINUOUS
 62
               4
100
AcDbLine
 10
3.25
 20
-44.299999999999997
 30
0.0
 11
1.75
 21
-44.299999999999997
 31
0.0
  0
LINE
  5
729
100
AcDbEntity
  8
0
  6
CONTINUOUS
 62
               4
100
AcDbLine
 10
0.25
 20
-42.799999999999997
 30
0.0
 11
0.25
 21
-42.600000000000001
 31
0.0
  0
LINE
  5
72A
100
AcDbEntity
  8
0
  6
CONTINUOUS
 62
             200
100
AcDbLine
 10
8.0
 20
-39.600000000000001
 30
0.0
 11
8.0
 21
-52.170000000000002
 31
0.0
  0
LINE
  5
72B
100
AcDbEntity
  8
0
  6
CONTINUOUS
 62
               4
100
AcDbLine
 10
15.5
 20
-39.600000000000001
 30
0.0
 11
15.5
 21
-49.100000000000001
 31
0.0
  0
LINE
  5
72C
100
AcDbEntity
  8
0
  6
CONTINUOUS
 62
               4
100
AcDbLine
 10
0.5
 20
-39.600000000000001
 30
0.0
 11
0.5
 21
-42.600000000000001
 31
0.0
  0
LINE
  5
72D
100
AcDbEntity
  8
0
  6
CONTINUOUS
 62
               4
100
AcDbLine
 10
15.0
 20
-49.600000000000001
 30
0.0
 11
1.0
 21
-49.600000000000001
 31
0.0
  0
LINE
  5
72E
100
AcDbEntity
  8
0
  6
CONTINUOUS
 62
               4
100
AcDbLine
 10
15.5
 20
-46.600000000000001
 30
0.0
 11
0.5
 21
-46.600000000000001
 31
0.0
  0
LINE
  5
72F
100
AcDbEntity
  8
0
  6
CONTINUOUS
 62
               4
100
AcDbLine
 10
5.2000000000000002
 20
-42.600000000000001
 30
0.0
 11
5.2000000000000002
 21
-46.600000000000001
 31
0.0
  0
LINE
  5
730
100
AcDbEntity
  8
0
  6
CONTINUOUS
 62
               4
100
AcDbLine
 10
0.25
 20
-42.600000000000001
 30
0.0
 11
15.5
 21
-42.600000000000001
 31
0.0
  0
LINE
  5
731
100
AcDbEntity
  8
0
  6
CONTINUOUS
 62
               4
100
AcDbLine
 10
0.5
 20
-43.619999999999997
 30
0.0
 11
0.5
 21
-49.100000000000001
 31
0.0
  0
ARC
  5
732
100
AcDbEntity
  8
0
  6
CONTINUOUS
 62
               7
100
AcDbCircle
 10
3.5000045776576743
 20
48.400004577657675
 30
0.0
 40
0.5000045776786289
100
AcDbArc
 50
180.00052455612737
 51
269.99947544387288
  0
ARC
  5
733
100
AcDbEntity
  8
0
  6
CONTINUOUS
 62
               7
100
AcDbCircle
 10
12.499995422342327
 20
48.400004577657675
 30
0.0
 40
0.5000045776786289
100
AcDbArc
 50
270.000524556127
 51
359.9994754438726
  0
ARC
  5
734
100
AcDbEntity
  8
0
  6
CONTINUOUS
 62
               7
100
AcDbCircle
 10
12.500004577615766
 20
56.900004577615761
 30
0.0
 40
0.49999542240519
100
AcDbArc
 50
359.99947543907075
 51
90.000524560929676
  0
ARC
  5
735
100
AcDbEntity
  8
0
  6
CONTINUOUS
 62
               7
100
AcDbCircle
 10
3.4999954223842353
 20
56.900004577615761
 30
0.0
 40
0.49999542240519
100
AcDbArc
 50
89.999475439070437
 51
180.00052456092925
  0
CIRCLE
  5
736
100
AcDbEntity
  8
0
  6
CONTINUOUS
 62
               4
100
AcDbCircle
 10
13.5
 20
3.9000244140625
 30
0.0
 40
2.25
  0
CIRCLE
  5
737
100
AcDbEntity
  8
0
  6
CONTINUOUS
 62
               4
100
AcDbCircle
 10
2.5
 20
-29.0999755859375
 30
0.0
 40
2.25
  0
ARC
  5
738
100
AcDbEntity
  8
0
  6
CONTINUOUS
 62
               4
100
AcDbCircle
 10
3.2499786375431974
 20
-42.799978637543198
 30
0.0
 40
1.5000213626089183
100
AcDbArc
 50
270.00081597412236
 51
359.99918402587781
  0
ARC
  5
739
100
AcDbEntity
  8
0
  6
CONTINUOUS
 62
               4
100
AcDbCircle
 10
1.7500213624568024
 20
-42.799978637543198
 30
0.0
 40
1.5000213626089183
100
AcDbArc
 50
180.00081597412222
 51
269.99918402587764
  0
ARC
  5
73A
100
AcDbEntity
  8
0
  6
CONTINUOUS
 62
               4
100
AcDbCircle
 10
15.000003051748498
 20
-49.100003051748502
 30
0.0
 40
0.4999969482608146
100
AcDbArc
 50
269.99965029324738
 51
0.0003497067528174
  0
ARC
  5
73B
100
AcDbEntity
  8
0
  6
CONTINUOUS
 62
               4
100
AcDbCircle
 10
0.9999969482515014
 20
-49.100003051748502
 30
0.0
 40
0.4999969482608146
100
AcDbArc
 50
179.99965029324719
 51
270.00034970675267
  0
ENDBLK
  5
73C
100
AcDbEntity
  8
0
100
AcDbBlockEnd
  0
BLOCK
  5
73D
100
AcDbEntity
  8
0
100
AcDbBlockBegin
  2
F15MPJ-20
 70
               0
 10
0.0
 20
0.0
 30
0.0
  3
F15MPJ-20
  1

  0
LINE
  5
73E
100
AcDbEntity
  8
0
  6
CONTINUOUS
 62
               4
100
AcDbLine
 10
18.25
 20
-44.600000000000001
 30
0.0
 11
18.25
 21
-46.600000000000001
 31
0.0
  0
LINE
  5
73F
100
AcDbEntity
  8
0
  6
CONTINUOUS
 62
               4
100
AcDbLine
 10
33.750015258789062
 20
-44.600000000000001
 30
0.0
 11
33.750015258789062
 21
-46.600000000000001
 31
0.0
  0
LINE
  5
740
100
AcDbEntity
  8
0
  6
CONTINUOUS
 62
               4
100
AcDbLine
 10
18.25
 20
-46.600000000000001
 30
0.0
 11
5.3242950439453196
 21
-46.600000000000001
 31
0.0
  0
LINE
  5
741
100
AcDbEntity
  8
0
  6
CONTINUOUS
 62
               4
100
AcDbLine
 10
27.000015258789063
 20
-49.600000000000001
 30
0.0
 11
40.500015258789063
 21
-49.600000000000001
 31
0.0
  0
ARC
  5
742
100
AcDbEntity
  8
0
  6
CONTINUOUS
 62
               4
100
AcDbCircle
 10
48.500030517578125
 20
-44.475747680664064
 30
0.0
 40
0.300000011920929
100
AcDbArc
 50
314.99993636544195
 51
359.99992737239728
  0
ARC
  5
743
100
AcDbEntity
  8
0
  6
CONTINUOUS
 62
               4
100
AcDbCircle
 10
46.675765991210938
 20
-46.300012207031251
 30
0.0
 40
0.300000011920929
100
AcDbArc
 50
269.99997267924334
 51
314.99993636544195
  0
ARC
  5
744
100
AcDbEntity
  8
0
  6
CONTINUOUS
 62
               4
100
AcDbCircle
 10
3.5000305175781321
 20
-44.475747680664064
 30
0.0
 40
0.300000011920929
100
AcDbArc
 50
179.99996334457597
 51
224.9999543515313
  0
ARC
  5
745
100
AcDbEntity
  8
0
  6
CONTINUOUS
 62
               4
100
AcDbCircle
 10
5.3242950439453196
 20
-46.299996948242189
 30
0.0
 40
0.300000011920929
100
AcDbArc
 50
225.00000899304467
 51
269.99997267924334
  0
LINE
  5
746
100
AcDbEntity
  8
0
  6
CONTINUOUS
 62
             200
100
AcDbLine
 10
18.25
 20
-43.420968627929689
 30
0.0
 11
18.25
 21
-51.178445434570314
 31
0.0
  0
LINE
  5
747
100
AcDbEntity
  8
0
  6
CONTINUOUS
 62
               4
100
AcDbLine
 10
11.5
 20
-49.600000000000001
 30
0.0
 11
25.0
 21
-49.600000000000001
 31
0.0
  0
LINE
  5
748
100
AcDbEntity
  8
0
  6
CONTINUOUS
 62
             200
100
AcDbLine
 10
33.750015258789062
 20
-43.420968627929689
 30
0.0
 11
33.750015258789062
 21
-51.178445434570314
 31
0.0
  0
LINE
  5
749
100
AcDbEntity
  8
0
  6
CONTINUOUS
 62
               4
100
AcDbLine
 10
12.20001220703125
 20
-46.600000000000001
 30
0.0
 11
12.20001220703125
 21
-44.606952514648441
 31
0.0
  0
LINE
  5
74A
100
AcDbEntity
  8
0
  6
CONTINUOUS
 62
               4
100
AcDbLine
 10
6.8000030517578125
 20
-46.600000000000001
 30
0.0
 11
6.8000030517578125
 21
-44.606952514648441
 31
0.0
  0
LINE
  5
74B
100
AcDbEntity
  8
0
  6
CONTINUOUS
 62
               4
100
AcDbLine
 10
41.800018310546875
 20
-46.600000000000001
 30
0.0
 11
41.800018310546875
 21
-44.606952514648441
 31
0.0
  0
LINE
  5
74C
100
AcDbEntity
  8
0
  6
CONTINUOUS
 62
               4
100
AcDbLine
 10
5.1121319611910465
 20
-46.512139771697925
 30
0.0
 11
3.2878727284104414
 21
-44.687876387026712
 31
0.0
  0
LINE
  5
74D
100
AcDbEntity
  8
0
  6
CONTINUOUS
 62
               4
100
AcDbLine
 10
46.887909688824038
 20
-46.512121545365154
 30
0.0
 11
48.712169229152096
 21
-44.687858468241394
 31
0.0
  0
LINE
  5
74E
100
AcDbEntity
  8
0
  6
CONTINUOUS
 62
               4
100
AcDbLine
 10
46.675765991210938
 20
-46.600000000000001
 30
0.0
 11
33.750015258789062
 21
-46.600000000000001
 31
0.0
  0
LINE
  5
74F
100
AcDbEntity
  8
0
  6
CONTINUOUS
 62
               4
100
AcDbLine
 10
3.2000274658203196
 20
-44.475747488736708
 30
0.0
 11
3.2000274658203196
 21
-43.308508300781263
 31
0.0
  0
LINE
  5
750
100
AcDbEntity
  8
0
  6
CONTINUOUS
 62
               4
100
AcDbLine
 10
48.800018310546875
 20
-44.478455303661434
 30
0.0
 11
48.800018310546875
 21
-43.305405883789064
 31
0.0
  0
LINE
  5
751
100
AcDbEntity
  8
0
  6
CONTINUOUS
 62
               4
100
AcDbLine
 10
41.000015258789063
 20
-46.600000000000001
 30
0.0
 11
41.000015258789063
 21
-49.100000000000001
 31
0.0
  0
LINE
  5
752
100
AcDbEntity
  8
0
  6
CONTINUOUS
 62
               4
100
AcDbLine
 10
26.500015258789063
 20
-44.600000000000001
 30
0.0
 11
26.500015258789063
 21
-49.100000000000001
 31
0.0
  0
LINE
  5
753
100
AcDbEntity
  8
0
  6
CONTINUOUS
 62
               4
100
AcDbLine
 10
25.5
 20
-44.600000000000001
 30
0.0
 11
25.5
 21
-49.100000000000001
 31
0.0
  0
LINE
  5
754
100
AcDbEntity
  8
0
  6
CONTINUOUS
 62
               4
100
AcDbLine
 10
11.0
 20
-46.600000000000001
 30
0.0
 11
11.0
 21
-49.100000000000001
 31
0.0
  0
ARC
  5
755
100
AcDbEntity
  8
0
  6
CONTINUOUS
 62
               4
100
AcDbCircle
 10
40.500015258789063
 20
-49.100000000000001
 30
0.0
 40
0.5
100
AcDbArc
 50
270.0
 51
0.0
  0
ARC
  5
756
100
AcDbEntity
  8
0
  6
CONTINUOUS
 62
               4
100
AcDbCircle
 10
27.000015258789063
 20
-49.100000000000001
 30
0.0
 40
0.5
100
AcDbArc
 50
180.0
 51
270.0
  0
ARC
  5
757
100
AcDbEntity
  8
0
  6
CONTINUOUS
 62
               4
100
AcDbCircle
 10
25.0
 20
-49.100000000000001
 30
0.0
 40
0.5
100
AcDbArc
 50
270.0
 51
0.0
  0
ARC
  5
758
100
AcDbEntity
  8
0
  6
CONTINUOUS
 62
               4
100
AcDbCircle
 10
11.5
 20
-49.100000000000001
 30
0.0
 40
0.5
100
AcDbArc
 50
180.0
 51
270.0
  0
ARC
  5
759
100
AcDbEntity
  8
0
  6
CONTINUOUS
 62
               4
100
AcDbCircle
 10
51.209003906222065
 20
4.6569403075892524
 30
0.0
 40
1.5000122071088615
100
AcDbArc
 50
0.0004662715200618
 51
89.999533728479875
  0
ARC
  5
75A
100
AcDbEntity
  8
0
  6
CONTINUOUS
 62
               4
100
AcDbCircle
 10
51.209025268505016
 20
3.1569433594246732
 30
0.0
 40
1.4999908448041741
100
AcDbArc
 50
269.99965029407741
 51
0.0003497059225654
  0
ARC
  5
75B
100
AcDbEntity
  8
0
  6
CONTINUOUS
 62
               4
100
AcDbCircle
 10
51.209025268505016
 20
-29.843056640575327
 30
0.0
 40
1.4999908448041746
100
AcDbArc
 50
269.99965029407741
 51
0.0003497059225654
  0
ARC
  5
75C
100
AcDbEntity
  8
0
  6
CONTINUOUS
 62
               4
100
AcDbCircle
 10
51.209003906222065
 20
-28.343059692410748
 30
0.0
 40
1.5000122071088606
100
AcDbArc
 50
0.000466271519994
 51
89.999533728479875
  0
LINE
  5
75D
100
AcDbEntity
  8
0
  6
CONTINUOUS
 62
               4
100
AcDbLine
 10
52.709016113281251
 20
-28.343047485351548
 30
0.0
 11
52.709016113281251
 21
-29.843047485351548
 31
0.0
  0
LINE
  5
75E
100
AcDbEntity
  8
0
  6
CONTINUOUS
 62
               4
100
AcDbLine
 10
51.209016113281251
 20
-26.843047485351548
 30
0.0
 11
51.009016113281248
 21
-26.843047485351548
 31
0.0
  0
LINE
  5
75F
100
AcDbEntity
  8
0
  6
CONTINUOUS
 62
               4
100
AcDbLine
 10
51.209016113281251
 20
-31.343047485351548
 30
0.0
 11
51.009016113281248
 21
-31.343047485351548
 31
0.0
  0
LINE
  5
760
100
AcDbEntity
  8
0
  6
CONTINUOUS
 62
               4
100
AcDbLine
 10
52.709016113281251
 20
4.6569525146484523
 30
0.0
 11
52.709016113281251
 21
3.1569525146484523
 31
0.0
  0
LINE
  5
761
100
AcDbEntity
  8
0
  6
CONTINUOUS
 62
               4
100
AcDbLine
 10
51.209016113281251
 20
6.1569525146484523
 30
0.0
 11
51.009016113281248
 21
6.1569525146484523
 31
0.0
  0
LINE
  5
762
100
AcDbEntity
  8
0
  6
CONTINUOUS
 62
               4
100
AcDbLine
 10
51.209016113281251
 20
1.6569525146484523
 30
0.0
 11
51.009016113281248
 21
1.6569525146484523
 31
0.0
  0
LINE
  5
763
100
AcDbEntity
  8
0
  6
CONTINUOUS
 62
               4
100
AcDbLine
 10
51.009016113281248
 20
-36.093047485351548
 30
0.0
 11
51.009016113281248
 21
18.906952514648452
 31
0.0
  0
LINE
  5
764
100
AcDbEntity
  8
0
  6
CONTINUOUS
 62
               4
100
AcDbLine
 10
51.009016113281248
 20
-36.093047485351548
 30
0.0
 11
49.009016113281248
 21
-36.093047485351548
 31
0.0
  0
LINE
  5
765
100
AcDbEntity
  8
0
  6
CONTINUOUS
 62
               4
100
AcDbLine
 10
51.009016113281248
 20
18.906952514648452
 30
0.0
 11
49.009016113281248
 21
18.906952514648452
 31
0.0
  0
ENDBLK
  5
766
100
AcDbEntity
  8
0
100
AcDbBlockEnd
  0
BLOCK
  5
767
100
AcDbEntity
  8
0
100
AcDbBlockBegin
  2
F15MPJ-21
 70
               0
 10
0.0
 20
0.0
 30
0.0
  3
F15MPJ-21
  1

  0
LINE
  5
768
100
AcDbEntity
  8
0
  6
CONTINUOUS
 62
               7
100
AcDbLine
 10
0.25
 20
51.0
 30
0.0
 11
15.75
 21
51.0
 31
0.0
  0
LINE
  5
769
100
AcDbEntity
  8
0
  6
CONTINUOUS
 62
               7
100
AcDbLine
 10
0.5
 20
51.0
 30
0.0
 11
0.5
 21
49.0
 31
0.0
  0
LINE
  5
76A
100
AcDbEntity
  8
0
  6
CONTINUOUS
 62
               7
100
AcDbLine
 10
15.5
 20
51.0
 30
0.0
 11
15.5
 21
49.0
 31
0.0
  0
LINE
  5
76B
100
AcDbEntity
  8
0
  6
CONTINUOUS
 62
               7
100
AcDbLine
 10
4.75
 20
51.200000000000003
 30
0.0
 11
4.75
 21
51.0
 31
0.0
  0
LINE
  5
76C
100
AcDbEntity
  8
0
  6
CONTINUOUS
 62
               7
100
AcDbLine
 10
0.25
 20
51.200000000000003
 30
0.0
 11
0.25
 21
51.0
 31
0.0
  0
LINE
  5
76D
100
AcDbEntity
  8
0
  6
CONTINUOUS
 62
               7
100
AcDbLine
 10
1.75
 20
52.700000000000003
 30
0.0
 11
3.25
 21
52.700000000000003
 31
0.0
  0
LINE
  5
76E
100
AcDbEntity
  8
0
  6
CONTINUOUS
 62
               2
100
AcDbLine
 10
8.0
 20
53.460000000000001
 30
0.0
 11
8.0
 21
0.7
 31
0.0
  0
LINE
  5
76F
100
AcDbEntity
  8
0
  6
CONTINUOUS
 62
               7
100
AcDbLine
 10
11.25
 20
51.200000000000003
 30
0.0
 11
11.25
 21
51.0
 31
0.0
  0
LINE
  5
770
100
AcDbEntity
  8
0
  6
CONTINUOUS
 62
               7
100
AcDbLine
 10
14.25
 20
52.700000000000003
 30
0.0
 11
12.75
 21
52.700000000000003
 31
0.0
  0
LINE
  5
771
100
AcDbEntity
  8
0
  6
CONTINUOUS
 62
               7
100
AcDbLine
 10
15.75
 20
51.200000000000003
 30
0.0
 11
15.75
 21
51.0
 31
0.0
  0
LINE
  5
772
100
AcDbEntity
  8
0
  6
CONTINUOUS
 62
               7
100
AcDbLine
 10
0.5
 20
12.1
 30
0.0
 11
0.5
 21
6.9000000000000004
 31
0.0
  0
LINE
  5
773
100
AcDbEntity
  8
0
  6
CONTINUOUS
 62
               7
100
AcDbLine
 10
0.5
 20
12.1
 30
0.0
 11
2.5
 21
12.1
 31
0.0
  0
LINE
  5
774
100
AcDbEntity
  8
0
  6
CONTINUOUS
 62
               7
100
AcDbLine
 10
0.5
 20
6.9000000000000004
 30
0.0
 11
2.5
 21
6.9000000000000004
 31
0.0
  0
LINE
  5
775
100
AcDbEntity
  8
0
  6
CONTINUOUS
 62
               7
100
AcDbLine
 10
15.5
 20
45.100000000000001
 30
0.0
 11
13.5
 21
45.100000000000001
 31
0.0
  0
LINE
  5
776
100
AcDbEntity
  8
0
  6
CONTINUOUS
 62
               7
100
AcDbLine
 10
15.5
 20
39.899999999999999
 30
0.0
 11
13.5
 21
39.899999999999999
 31
0.0
  0
LINE
  5
777
100
AcDbEntity
  8
0
  6
CONTINUOUS
 62
               7
100
AcDbLine
 10
15.5
 20
39.899999999999999
 30
0.0
 11
15.5
 21
45.100000000000001
 31
0.0
  0
LINE
  5
778
100
AcDbEntity
  8
0
  6
CONTINUOUS
 62
               7
100
AcDbLine
 10
0.0
 20
3.0
 30
0.0
 11
16.0
 21
3.0
 31
0.0
  0
LINE
  5
779
100
AcDbEntity
  8
0
  6
CONTINUOUS
 62
               7
100
AcDbLine
 10
0.0
 20
49.0
 30
0.0
 11
16.0
 21
49.0
 31
0.0
  0
LINE
  5
77A
100
AcDbEntity
  8
0
  6
CONTINUOUS
 62
               7
100
AcDbLine
 10
0.0
 20
0.0
 30
0.0
 11
16.0
 21
0.0
 31
0.0
  0
LINE
  5
77B
100
AcDbEntity
  8
0
  6
CONTINUOUS
 62
               7
100
AcDbLine
 10
16.0
 20
49.0
 30
0.0
 11
16.0
 21
3.0
 31
0.0
  0
LINE
  5
77C
100
AcDbEntity
  8
0
  6
CONTINUOUS
 62
               7
100
AcDbLine
 10
0.0
 20
49.0
 30
0.0
 11
0.0
 21
3.0
 31
0.0
  0
LINE
  5
77D
100
AcDbEntity
  8
0
  6
CONTINUOUS
 62
               4
100
AcDbLine
 10
13.5
 20
45.200000000000003
 30
0.0
 11
15.5
 21
45.200000000000003
 31
0.0
  0
LINE
  5
77E
100
AcDbEntity
  8
0
  6
CONTINUOUS
 62
               4
100
AcDbLine
 10
2.5
 20
6.7999999999999998
 30
0.0
 11
0.5
 21
6.7999999999999998
 31
0.0
  0
LINE
  5
77F
100
AcDbEntity
  8
0
  6
CONTINUOUS
 62
               4
100
AcDbLine
 10
2.5
 20
12.199999999999999
 30
0.0
 11
0.5
 21
12.199999999999999
 31
0.0
  0
LINE
  5
780
100
AcDbEntity
  8
0
  6
CONTINUOUS
 62
               4
100
AcDbLine
 10
13.5
 20
39.799999999999997
 30
0.0
 11
15.5
 21
39.799999999999997
 31
0.0
  0
LINE
  5
781
100
AcDbEntity
  8
0
  6
CONTINUOUS
 62
               4
100
AcDbLine
 10
15.5
 20
48.799999999999997
 30
0.0
 11
0.5
 21
48.799999999999997
 31
0.0
  0
LINE
  5
782
100
AcDbEntity
  8
0
  6
CONTINUOUS
 62
               4
100
AcDbLine
 10
15.5
 20
3.2000000000000002
 30
0.0
 11
0.5
 21
3.2000000000000002
 31
0.0
  0
LINE
  5
783
100
AcDbEntity
  8
0
  6
CONTINUOUS
 62
               4
100
AcDbLine
 10
2.5
 20
41.799999999999997
 30
0.0
 11
0.5
 21
41.799999999999997
 31
0.0
  0
LINE
  5
784
100
AcDbEntity
  8
0
  6
CONTINUOUS
 62
               4
100
AcDbLine
 10
13.5
 20
10.199999999999999
 30
0.0
 11
15.5
 21
10.199999999999999
 31
0.0
  0
LINE
  5
785
100
AcDbEntity
  8
0
  6
CONTINUOUS
 62
               4
100
AcDbLine
 10
10.800000000000001
 20
7.5
 30
0.0
 11
10.800000000000001
 21
3.2000000000000002
 31
0.0
  0
LINE
  5
786
100
AcDbEntity
  8
0
  6
CONTINUOUS
 62
               4
100
AcDbLine
 10
5.2000000000000002
 20
48.799999999999997
 30
0.0
 11
5.2000000000000002
 21
44.5
 31
0.0
  0
LINE
  5
787
100
AcDbEntity
  8
0
  6
CONTINUOUS
 62
               4
100
AcDbLine
 10
10.800000000000001
 20
5.2000000000000002
 30
0.0
 11
0.5
 21
5.2000000000000002
 31
0.0
  0
LINE
  5
788
100
AcDbEntity
  8
0
  6
CONTINUOUS
 62
               4
100
AcDbLine
 10
15.5
 20
46.799999999999997
 30
0.0
 11
5.2000000000000002
 21
46.799999999999997
 31
0.0
  0
LINE
  5
789
100
AcDbEntity
  8
0
  6
CONTINUOUS
 62
               4
100
AcDbLine
 10
3.4100000000000001
 20
43.579999999999998
 30
0.0
 11
1.5800000000000001
 21
45.409999999999997
 31
0.0
  0
LINE
  5
78A
100
AcDbEntity
  8
0
  6
CONTINUOUS
 62
               4
100
AcDbLine
 10
1.5800000000000001
 20
43.579999999999998
 30
0.0
 11
3.4100000000000001
 21
45.409999999999997
 31
0.0
  0
LINE
  5
78B
100
AcDbEntity
  8
0
  6
CONTINUOUS
 62
               4
100
AcDbLine
 10
15.5
 20
8.5299999999999994
 30
0.0
 11
15.5
 21
39.799999999999997
 31
0.0
  0
LINE
  5
78C
100
AcDbEntity
  8
0
  6
CONTINUOUS
 62
               4
100
AcDbLine
 10
12.58
 20
6.5800000000000001
 30
0.0
 11
14.41
 21
8.4100000000000001
 31
0.0
  0
LINE
  5
78D
100
AcDbEntity
  8
0
  6
CONTINUOUS
 62
               4
100
AcDbLine
 10
14.41
 20
6.5800000000000001
 30
0.0
 11
12.58
 21
8.4100000000000001
 31
0.0
  0
LINE
  5
78E
100
AcDbEntity
  8
0
  6
CONTINUOUS
 62
               4
100
AcDbLine
 10
0.5
 20
12.199999999999999
 30
0.0
 11
0.5
 21
43.460000000000001
 31
0.0
  0
LINE
  5
78F
100
AcDbEntity
  8
0
  6
CONTINUOUS
 62
               4
100
AcDbLine
 10
15.5
 20
3.2000000000000002
 30
0.0
 11
15.5
 21
6.46
 31
0.0
  0
LINE
  5
790
100
AcDbEntity
  8
0
  6
CONTINUOUS
 62
               4
100
AcDbLine
 10
0.5
 20
3.2000000000000002
 30
0.0
 11
0.5
 21
6.7999999999999998
 31
0.0
  0
LINE
  5
791
100
AcDbEntity
  8
0
  6
CONTINUOUS
 62
               4
100
AcDbLine
 10
0.5
 20
45.530000000000001
 30
0.0
 11
0.5
 21
48.799999999999997
 31
0.0
  0
LINE
  5
792
100
AcDbEntity
  8
0
  6
CONTINUOUS
 62
               4
100
AcDbLine
 10
15.5
 20
45.200000000000003
 30
0.0
 11
15.5
 21
48.799999999999997
 31
0.0
  0
LINE
  5
793
100
AcDbEntity
  8
0
  6
CONTINUOUS
 62
             200
100
AcDbLine
 10
-1.03
 20
18.25
 30
0.0
 11
16.949999999999999
 21
18.25
 31
0.0
  0
LINE
  5
794
100
AcDbEntity
  8
0
  6
CONTINUOUS
 62
             200
100
AcDbLine
 10
-1.03
 20
33.75
 30
0.0
 11
16.949999999999999
 21
33.75
 31
0.0
  0
ARC
  5
795
100
AcDbEntity
  8
0
  6
CONTINUOUS
 62
               7
100
AcDbCircle
 10
3.2499908446986217
 20
51.199990844698625
 30
0.0
 40
1.5000091553293182
100
AcDbArc
 50
0.0003497046182941
 51
89.999650295381684
  0
ARC
  5
796
100
AcDbEntity
  8
0
  6
CONTINUOUS
 62
               7
100
AcDbCircle
 10
1.7500091553013786
 20
51.199990844698625
 30
0.0
 40
1.5000091553293182
100
AcDbArc
 50
90.000349704618344
 51
179.99965029538171
  0
ARC
  5
797
100
AcDbEntity
  8
0
  6
CONTINUOUS
 62
               7
100
AcDbCircle
 10
12.750009155301379
 20
51.199990844698625
 30
0.0
 40
1.5000091553293182
100
AcDbArc
 50
90.000349704618372
 51
179.99965029538171
  0
ARC
  5
798
100
AcDbEntity
  8
0
  6
CONTINUOUS
 62
               7
100
AcDbCircle
 10
14.249990844698621
 20
51.199990844698625
 30
0.0
 40
1.5000091553293182
100
AcDbArc
 50
0.0003497046182941
 51
89.999650295381642
  0
ARC
  5
799
100
AcDbEntity
  8
0
  6
CONTINUOUS
 62
               7
100
AcDbCircle
 10
2.5
 20
9.5
 30
0.0
 40
2.5999999999999996
100
AcDbArc
 50
270.0
 51
90.0
  0
ARC
  5
79A
100
AcDbEntity
  8
0
  6
CONTINUOUS
 62
               7
100
AcDbCircle
 10
13.5
 20
42.5
 30
0.0
 40
2.6000000000000014
100
AcDbArc
 50
90.0
 51
270.0
  0
ARC
  5
79B
100
AcDbEntity
  8
0
  6
CONTINUOUS
 62
               4
100
AcDbCircle
 10
13.5
 20
42.5
 30
0.0
 40
2.7000000000000028
100
AcDbArc
 50
90.0
 51
270.0
  0
ARC
  5
79C
100
AcDbEntity
  8
0
  6
CONTINUOUS
 62
               4
100
AcDbCircle
 10
2.5
 20
9.5
 30
0.0
 40
2.6999999999999997
100
AcDbArc
 50
270.0
 51
90.0
  0
ARC
  5
79D
100
AcDbEntity
  8
0
  6
CONTINUOUS
 62
               4
100
AcDbCircle
 10
2.500007629383751
 20
44.499992370616248
 30
0.0
 40
2.6999923706270286
100
AcDbArc
 50
269.99983809899095
 51
0.0001619010090566
  0
ARC
  5
79E
100
AcDbEntity
  8
0
  6
CONTINUOUS
 62
               4
100
AcDbCircle
 10
13.50000762940531
 20
7.4999923705946898
 30
0.0
 40
2.7000076294160893
100
AcDbArc
 50
90.000161900551589
 51
179.99983809944843
  0
CIRCLE
  5
79F
100
AcDbEntity
  8
0
  6
CONTINUOUS
 62
               4
100
AcDbCircle
 10
2.5
 20
44.499969482421875
 30
0.0
 40
2.25
  0
CIRCLE
  5
7A0
100
AcDbEntity
  8
0
  6
CONTINUOUS
 62
               4
100
AcDbCircle
 10
13.5
 20
7.4999847412109375
 30
0.0
 40
2.25
  0
CIRCLE
  5
7A1
100
AcDbEntity
  8
0
  6
CONTINUOUS
 62
             200
100
AcDbCircle
 10
8.0
 20
18.249984741210938
 30
0.0
 40
5.0
  0
CIRCLE
  5
7A2
100
AcDbEntity
  8
0
  6
CONTINUOUS
 62
               4
100
AcDbCircle
 10
8.0
 20
18.249984741210938
 30
0.0
 40
4.25
  0
CIRCLE
  5
7A3
100
AcDbEntity
  8
0
  6
CONTINUOUS
 62
             200
100
AcDbCircle
 10
8.0
 20
33.749984741210937
 30
0.0
 40
5.0
  0
CIRCLE
  5
7A4
100
AcDbEntity
  8
0
  6
CONTINUOUS
 62
               4
100
AcDbCircle
 10
8.0
 20
33.749984741210937
 30
0.0
 40
4.25
  0
CIRCLE
  5
7A5
100
AcDbEntity
  8
0
  6
CONTINUOUS
 62
               4
100
AcDbCircle
 10
7.9950000000000001
 20
33.749986101293722
 30
0.0
 40
7.4997636549446209
  0
CIRCLE
  5
7A6
100
AcDbEntity
  8
0
  6
CONTINUOUS
 62
               4
100
AcDbCircle
 10
7.9950000000000001
 20
18.249983380393861
 30
0.0
 40
7.4916305362626652
  0
ENDBLK
  5
7A7
100
AcDbEntity
  8
0
100
AcDbBlockEnd
  0
ENDSEC
  0
SECTION
  2
ENTITIES
  0
INSERT
  5
7A8
100
AcDbEntity
  8
0
  6
ByBlock
100
AcDbBlockReference
  2
F15MPJ-1
 10
-243.54226684570312
 20
143.95845031738281
 30
0.0
  0
INSERT
  5
7A9
100
AcDbEntity
  8
0
  6
ByBlock
100
AcDbBlockReference
  2
F15MPJ-12
 10
-349.792236328125
 20
143.95845031738281
 30
0.0
  0
INSERT
  5
7AA
100
AcDbEntity
  8
0
  6
ByBlock
100
AcDbBlockReference
  2
F15MPJ-15
 10
-243.54226684570312
 20
28.358428955078125
 30
0.0
  0
INSERT
  5
7AB
100
AcDbEntity
  8
0
  6
ByBlock
100
AcDbBlockReference
  2
F15MPJ-19
 10
337.41650390625
 20
165.51690673828125
 30
0.0
  0
INSERT
  5
7AC
100
AcDbEntity
  8
0
  6
ByBlock
100
AcDbBlockReference
  2
F15MPJ-20
 10
221.9415283203125
 20
165.51695251464844
 30
0.0
  0
INSERT
  5
7AD
100
AcDbEntity
  8
0
  6
ByBlock
100
AcDbBlockReference
  2
F15MPJ-21
 10
337.41650390625
 20
19.91693115234375
 30
0.0
  0
INSERT
  5
7AE
100
AcDbEntity
  8
0
  6
ByBlock
100
AcDbBlockReference
  2
F15MPJ-5
 10
-62.583480834960938
 20
-92.983062744140625
 30
0.0
  0
INSERT
  5
7AF
100
AcDbEntity
  8
0
  6
ByBlock
100
AcDbBlockReference
  2
F15MPJ-6
 10
-187.58348083496094
 20
-92.983062744140625
 30
0.0
  0
INSERT
  5
7B0
100
AcDbEntity
  8
0
  6
ByBlock
100
AcDbBlockReference
  2
F15MPJ-7
 10
-62.583480834960938
 20
-260.0830078125
 30
0.0
  0
INSERT
  5
7B1
100
AcDbEntity
  8
0
  6
ByBlock
100
AcDbBlockReference
  2
F15MPJ-11
 10
336.65380859375
 20
-85.983062744140625
 30
0.0
  0
INSERT
  5
7B2
100
AcDbEntity
  8
0
  6
ByBlock
100
AcDbBlockReference
  2
F15MPJ-13
 10
214.9415283203125
 20
-85.983047485351563
 30
0.0
  0
INSERT
  5
7B3
100
AcDbEntity
  8
0
  6
ByBlock
100
AcDbBlockReference
  2
F15MPJ-14
 10
336.654052734375
 20
-231.58306884765625
 30
0.0
  0
INSERT
  5
7B4
100
AcDbEntity
  8
0
  6
ByBlock
100
AcDbBlockReference
  2
F15MPJ-16
 10
137.66008596729336
 20
165.51751967273782
 30
0.0
  0
INSERT
  5
7B5
100
AcDbEntity
  8
0
  6
ByBlock
100
AcDbBlockReference
  2
F15MPJ-17
 10
22.176079009285552
 20
165.51061293445659
 30
0.0
 50
359.99219797095725
  0
INSERT
  5
7B6
100
AcDbEntity
  8
0
  6
ByBlock
100
AcDbBlockReference
  2
F15MPJ-18
 10
137.66010122608242
 20
24.917528828011271
 30
0.0
  0
INSERT
  5
7B7
100
AcDbEntity
  8
0
  6
ByBlock
100
AcDbBlockReference
  2
F15MPJ-8
 10
136.89151000976562
 20
-85.983078002929688
 30
0.0
  0
INSERT
  5
7B8
100
AcDbEntity
  8
0
  6
ByBlock
100
AcDbBlockReference
  2
F15MPJ-9
 10
15.170000000000009
 20
-85.980000000000004
 30
0.0
 50
0.0026187865908363
  0
INSERT
  5
7B9
100
AcDbEntity
  8
0
  6
ByBlock
100
AcDbBlockReference
  2
F15MPJ-10
 10
138.39154052734375
 20
-231.33306884765625
 30
0.0
  0
INSERT
  5
7BA
100
AcDbEntity
  8
0
  6
ByBlock
100
AcDbBlockReference
  2
F15MPJ-2
 10
-260.345947265625
 20
-92.983078002929688
 30
0.0
 50
0.0314190685852124
  0
INSERT
  5
7BB
100
AcDbEntity
  8
0
  6
ByBlock
100
AcDbBlockReference
  2
F15MPJ-3
 10
-387.33999999999997
 20
-92.980000000000004
 30
0.0
 50
0.0021666073863188
  0
INSERT
  5
7BC
100
AcDbEntity
  8
0
  6
ByBlock
100
AcDbBlockReference
  2
F15MPJ-4
 10
-260.345947265625
 20
-260.0830078125
 30
0.0
  0
LINE
  5
7BD
100
AcDbEntity
  8
0
  6
CONTINUOUS
 62
               7
100
AcDbLine
 10
399.80000000000001
 20
276.25
 30
0.0
 11
399.80000000000001
 21
-276.75
 31
0.0
  0
LINE
  5
7BE
100
AcDbEntity
  8
0
  6
CONTINUOUS
 62
               7
100
AcDbLine
 10
-399.25
 20
276.25
 30
0.0
 11
-399.25
 21
-276.75
 31
0.0
  0
LINE
  5
7BF
100
AcDbEntity
  8
0
  6
CONTINUOUS
 62
               7
100
AcDbLine
 10
-399.25
 20
276.25
 30
0.0
 11
399.80000000000001
 21
276.25
 31
0.0
  0
LINE
  5
7C0
100
AcDbEntity
  8
0
  6
CONTINUOUS
 62
               7
100
AcDbLine
 10
-399.25
 20
-276.75
 30
0.0
 11
399.80000000000001
 21
-276.75
 31
0.0
  0
LINE
  5
7C1
100
AcDbEntity
  8
0
  6
CONTINUOUS
 62
               7
100
AcDbLine
 10
239.80000000000001
 20
-251.75
 30
0.0
 11
399.80000000000001
 21
-251.75
 31
0.0
  0
LINE
  5
7C2
100
AcDbEntity
  8
0
  6
CONTINUOUS
 62
               7
100
AcDbLine
 10
239.80000000000001
 20
251.25
 30
0.0
 11
399.80000000000001
 21
251.25
 31
0.0
  0
LINE
  5
7C3
100
AcDbEntity
  8
0
  6
CONTINUOUS
 62
               7
100
AcDbLine
 10
-399.25
 20
251.25
 30
0.0
 11
-239.25
 21
251.25
 31
0.0
  0
LINE
  5
7C4
100
AcDbEntity
  8
0
  6
CONTINUOUS
 62
               7
100
AcDbLine
 10
239.80000000000001
 20
-251.75
 30
0.0
 11
239.80000000000001
 21
-276.75
 31
0.0
  0
LINE
  5
7C5
100
AcDbEntity
  8
0
  6
CONTINUOUS
 62
               7
100
AcDbLine
 10
239.80000000000001
 20
251.25
 30
0.0
 11
239.80000000000001
 21
276.25
 31
0.0
  0
LINE
  5
7C6
100
AcDbEntity
  8
0
  6
CONTINUOUS
 62
               7
100
AcDbLine
 10
-239.25
 20
276.25
 30
0.0
 11
-239.25
 21
251.25
 31
0.0
  0
LINE
  5
7C7
100
AcDbEntity
  8
0
  6
CONTINUOUS
 62
               7
100
AcDbLine
 10
-199.47999999999999
 20
-0.25
 30
0.0
 11
-199.47999999999999
 21
-276.75
 31
0.0
  0
LINE
  5
7C8
100
AcDbEntity
  8
0
  6
CONTINUOUS
 62
               7
100
AcDbLine
 10
0.27
 20
276.25
 30
0.0
 11
0.27
 21
-276.75
 31
0.0
  0
LINE
  5
7C9
100
AcDbEntity
  8
0
  6
CONTINUOUS
 62
               7
100
AcDbLine
 10
200.03
 20
276.25
 30
0.0
 11
200.03
 21
-276.75
 31
0.0
  0
LINE
  5
7CA
100
AcDbEntity
  8
0
  6
CONTINUOUS
 62
               7
100
AcDbLine
 10
-399.25
 20
-0.25
 30
0.0
 11
399.80000000000001
 21
-0.25
 31
0.0
  0
LINE
  5
7CB
100
AcDbEntity
  8
0
  6
DASHED
 62
               2
100
AcDbLine
 10
224.94
 20
225.91
 30
0.0
 11
270.94
 21
225.91
 31
0.0
  0
LINE
  5
7CC
100
AcDbEntity
  8
0
  6
DASHED
 62
               2
100
AcDbLine
 10
224.94
 20
185.00999999999999
 30
0.0
 11
224.94
 21
225.91
 31
0.0
  0
LINE
  5
7CD
100
AcDbEntity
  8
0
  6
DASHED
 62
               2
100
AcDbLine
 10
225.44
 20
185.00999999999999
 30
0.0
 11
224.94
 21
185.00999999999999
 31
0.0
  0
LINE
  5
7CE
100
AcDbEntity
  8
0
  6
DASHED
 62
               2
100
AcDbLine
 10
225.44
 20
184.75999999999999
 30
0.0
 11
225.44
 21
185.00999999999999
 31
0.0
  0
LINE
  5
7CF
100
AcDbEntity
  8
0
  6
DASHED
 62
               2
100
AcDbLine
 10
225.63999999999999
 20
183.00999999999999
 30
0.0
 11
225.63999999999999
 21
184.00999999999999
 31
0.0
  0
LINE
  5
7D0
100
AcDbEntity
  8
0
  6
DASHED
 62
               2
100
AcDbLine
 10
228.44
 20
181.50999999999999
 30
0.0
 11
227.13999999999999
 21
181.50999999999999
 31
0.0
  0
LINE
  5
7D1
100
AcDbEntity
  8
0
  6
DASHED
 62
               2
100
AcDbLine
 10
228.44
 20
180.00999999999999
 30
0.0
 11
228.44
 21
181.50999999999999
 31
0.0
  0
LINE
  5
7D2
100
AcDbEntity
  8
0
  6
DASHED
 62
               2
100
AcDbLine
 10
221.94
 20
180.00999999999999
 30
0.0
 11
228.44
 21
180.00999999999999
 31
0.0
  0
LINE
  5
7D3
100
AcDbEntity
  8
0
  6
DASHED
 62
               2
100
AcDbLine
 10
221.94
 20
151.00999999999999
 30
0.0
 11
221.94
 21
180.00999999999999
 31
0.0
  0
LINE
  5
7D4
100
AcDbEntity
  8
0
  6
DASHED
 62
               2
100
AcDbLine
 10
221.94
 20
151.00999999999999
 30
0.0
 11
228.44
 21
151.00999999999999
 31
0.0
  0
LINE
  5
7D5
100
AcDbEntity
  8
0
  6
DASHED
 62
               2
100
AcDbLine
 10
228.44
 20
149.50999999999999
 30
0.0
 11
228.44
 21
151.00999999999999
 31
0.0
  0
LINE
  5
7D6
100
AcDbEntity
  8
0
  6
DASHED
 62
               2
100
AcDbLine
 10
228.44
 20
149.50999999999999
 30
0.0
 11
227.13999999999999
 21
149.50999999999999
 31
0.0
  0
LINE
  5
7D7
100
AcDbEntity
  8
0
  6
DASHED
 62
               2
100
AcDbLine
 10
225.63999999999999
 20
147.00999999999999
 30
0.0
 11
225.63999999999999
 21
148.00999999999999
 31
0.0
  0
LINE
  5
7D8
100
AcDbEntity
  8
0
  6
DASHED
 62
               2
100
AcDbLine
 10
225.44
 20
146.00999999999999
 30
0.0
 11
224.94
 21
146.00999999999999
 31
0.0
  0
LINE
  5
7D9
100
AcDbEntity
  8
0
  6
DASHED
 62
               2
100
AcDbLine
 10
225.44
 20
146.00999999999999
 30
0.0
 11
225.44
 21
146.25999999999999
 31
0.0
  0
LINE
  5
7DA
100
AcDbEntity
  8
0
  6
DASHED
 62
               2
100
AcDbLine
 10
224.94
 20
122.41
 30
0.0
 11
224.94
 21
146.00999999999999
 31
0.0
  0
LINE
  5
7DB
100
AcDbEntity
  8
0
  6
DASHED
 62
               2
100
AcDbLine
 10
224.94
 20
122.41
 30
0.0
 11
226.44
 21
120.91
 31
0.0
  0
LINE
  5
7DC
100
AcDbEntity
  8
0
  6
DASHED
 62
               2
100
AcDbLine
 10
226.44
 20
120.91
 30
0.0
 11
269.44
 21
120.91
 31
0.0
  0
LINE
  5
7DD
100
AcDbEntity
  8
0
  6
DASHED
 62
               2
100
AcDbLine
 10
269.44
 20
120.91
 30
0.0
 11
270.94
 21
122.41
 31
0.0
  0
LINE
  5
7DE
100
AcDbEntity
  8
0
  6
DASHED
 62
               2
100
AcDbLine
 10
270.94
 20
122.41
 30
0.0
 11
270.94
 21
225.91
 31
0.0
  0
LINE
  5
7DF
100
AcDbEntity
  8
0
  6
DASHED
 62
               2
100
AcDbLine
 10
217.94
 20
-25.579999999999998
 30
0.0
 11
263.94
 21
-25.579999999999998
 31
0.0
  0
LINE
  5
7E0
100
AcDbEntity
  8
0
  6
DASHED
 62
               2
100
AcDbLine
 10
217.94
 20
-66.480000000000004
 30
0.0
 11
217.94
 21
-25.579999999999998
 31
0.0
  0
LINE
  5
7E1
100
AcDbEntity
  8
0
  6
DASHED
 62
               2
100
AcDbLine
 10
218.44
 20
-66.480000000000004
 30
0.0
 11
217.94
 21
-66.480000000000004
 31
0.0
  0
LINE
  5
7E2
100
AcDbEntity
  8
0
  6
DASHED
 62
               2
100
AcDbLine
 10
218.44
 20
-66.730000000000004
 30
0.0
 11
218.44
 21
-66.480000000000004
 31
0.0
  0
LINE
  5
7E3
100
AcDbEntity
  8
0
  6
DASHED
 62
               2
100
AcDbLine
 10
218.63999999999999
 20
-68.480000000000004
 30
0.0
 11
218.63999999999999
 21
-67.480000000000004
 31
0.0
  0
LINE
  5
7E4
100
AcDbEntity
  8
0
  6
DASHED
 62
               2
100
AcDbLine
 10
221.44
 20
-69.980000000000004
 30
0.0
 11
220.13999999999999
 21
-69.980000000000004
 31
0.0
  0
LINE
  5
7E5
100
AcDbEntity
  8
0
  6
DASHED
 62
               2
100
AcDbLine
 10
221.44
 20
-71.480000000000004
 30
0.0
 11
221.44
 21
-69.980000000000004
 31
0.0
  0
LINE
  5
7E6
100
AcDbEntity
  8
0
  6
DASHED
 62
               2
100
AcDbLine
 10
214.94
 20
-71.480000000000004
 30
0.0
 11
221.44
 21
-71.480000000000004
 31
0.0
  0
LINE
  5
7E7
100
AcDbEntity
  8
0
  6
DASHED
 62
               2
100
AcDbLine
 10
214.94
 20
-100.48
 30
0.0
 11
214.94
 21
-71.480000000000004
 31
0.0
  0
LINE
  5
7E8
100
AcDbEntity
  8
0
  6
DASHED
 62
               2
100
AcDbLine
 10
214.94
 20
-100.48
 30
0.0
 11
221.44
 21
-100.48
 31
0.0
  0
LINE
  5
7E9
100
AcDbEntity
  8
0
  6
DASHED
 62
               2
100
AcDbLine
 10
221.44
 20
-101.98
 30
0.0
 11
221.44
 21
-100.48
 31
0.0
  0
LINE
  5
7EA
100
AcDbEntity
  8
0
  6
DASHED
 62
               2
100
AcDbLine
 10
221.44
 20
-101.98
 30
0.0
 11
220.13999999999999
 21
-101.98
 31
0.0
  0
LINE
  5
7EB
100
AcDbEntity
  8
0
  6
DASHED
 62
               2
100
AcDbLine
 10
218.63999999999999
 20
-104.48
 30
0.0
 11
218.63999999999999
 21
-103.48
 31
0.0
  0
LINE
  5
7EC
100
AcDbEntity
  8
0
  6
DASHED
 62
               2
100
AcDbLine
 10
218.44
 20
-105.48
 30
0.0
 11
217.94
 21
-105.48
 31
0.0
  0
LINE
  5
7ED
100
AcDbEntity
  8
0
  6
DASHED
 62
               2
100
AcDbLine
 10
218.44
 20
-105.48
 30
0.0
 11
218.44
 21
-105.23
 31
0.0
  0
LINE
  5
7EE
100
AcDbEntity
  8
0
  6
DASHED
 62
               2
100
AcDbLine
 10
217.94
 20
-129.08000000000001
 30
0.0
 11
217.94
 21
-105.48
 31
0.0
  0
LINE
  5
7EF
100
AcDbEntity
  8
0
  6
DASHED
 62
               2
100
AcDbLine
 10
217.94
 20
-129.08000000000001
 30
0.0
 11
219.44
 21
-130.58000000000001
 31
0.0
  0
LINE
  5
7F0
100
AcDbEntity
  8
0
  6
DASHED
 62
               2
100
AcDbLine
 10
219.44
 20
-130.58000000000001
 30
0.0
 11
262.44
 21
-130.58000000000001
 31
0.0
  0
LINE
  5
7F1
100
AcDbEntity
  8
0
  6
DASHED
 62
               2
100
AcDbLine
 10
262.44
 20
-130.58000000000001
 30
0.0
 11
263.94
 21
-129.08000000000001
 31
0.0
  0
LINE
  5
7F2
100
AcDbEntity
  8
0
  6
DASHED
 62
               2
100
AcDbLine
 10
263.94
 20
-129.08000000000001
 30
0.0
 11
263.94
 21
-25.579999999999998
 31
0.0
  0
LINE
  5
7F3
100
AcDbEntity
  8
0
  6
DASHED
 62
               2
100
AcDbLine
 10
-184.58000000000001
 20
-32.579999999999998
 30
0.0
 11
-138.58000000000001
 21
-32.579999999999998
 31
0.0
  0
LINE
  5
7F4
100
AcDbEntity
  8
0
  6
DASHED
 62
               2
100
AcDbLine
 10
-184.58000000000001
 20
-73.480000000000004
 30
0.0
 11
-184.58000000000001
 21
-32.579999999999998
 31
0.0
  0
LINE
  5
7F5
100
AcDbEntity
  8
0
  6
DASHED
 62
               2
100
AcDbLine
 10
-184.08000000000001
 20
-73.480000000000004
 30
0.0
 11
-184.58000000000001
 21
-73.480000000000004
 31
0.0
  0
LINE
  5
7F6
100
AcDbEntity
  8
0
  6
DASHED
 62
               2
100
AcDbLine
 10
-184.08000000000001
 20
-73.730000000000004
 30
0.0
 11
-184.08000000000001
 21
-73.480000000000004
 31
0.0
  0
LINE
  5
7F7
100
AcDbEntity
  8
0
  6
DASHED
 62
               2
100
AcDbLine
 10
-183.88
 20
-75.480000000000004
 30
0.0
 11
-183.88
 21
-74.480000000000004
 31
0.0
  0
LINE
  5
7F8
100
AcDbEntity
  8
0
  6
DASHED
 62
               2
100
AcDbLine
 10
-181.08000000000001
 20
-76.980000000000004
 30
0.0
 11
-182.38
 21
-76.980000000000004
 31
0.0
  0
LINE
  5
7F9
100
AcDbEntity
  8
0
  6
DASHED
 62
               2
100
AcDbLine
 10
-181.08000000000001
 20
-78.480000000000004
 30
0.0
 11
-181.08000000000001
 21
-76.980000000000004
 31
0.0
  0
LINE
  5
7FA
100
AcDbEntity
  8
0
  6
DASHED
 62
               2
100
AcDbLine
 10
-187.58000000000001
 20
-78.480000000000004
 30
0.0
 11
-181.08000000000001
 21
-78.480000000000004
 31
0.0
  0
LINE
  5
7FB
100
AcDbEntity
  8
0
  6
DASHED
 62
               2
100
AcDbLine
 10
-187.58000000000001
 20
-107.48
 30
0.0
 11
-187.58000000000001
 21
-78.480000000000004
 31
0.0
  0
LINE
  5
7FC
100
AcDbEntity
  8
0
  6
DASHED
 62
               2
100
AcDbLine
 10
-187.58000000000001
 20
-107.48
 30
0.0
 11
-181.08000000000001
 21
-107.48
 31
0.0
  0
LINE
  5
7FD
100
AcDbEntity
  8
0
  6
DASHED
 62
               2
100
AcDbLine
 10
-181.08000000000001
 20
-108.98
 30
0.0
 11
-181.08000000000001
 21
-107.48
 31
0.0
  0
LINE
  5
7FE
100
AcDbEntity
  8
0
  6
DASHED
 62
               2
100
AcDbLine
 10
-181.08000000000001
 20
-108.98
 30
0.0
 11
-182.38
 21
-108.98
 31
0.0
  0
LINE
  5
7FF
100
AcDbEntity
  8
0
  6
DASHED
 62
               2
100
AcDbLine
 10
-183.88
 20
-111.48
 30
0.0
 11
-183.88
 21
-110.48
 31
0.0
  0
LINE
  5
800
100
AcDbEntity
  8
0
  6
DASHED
 62
               2
100
AcDbLine
 10
-184.08000000000001
 20
-112.48
 30
0.0
 11
-184.58000000000001
 21
-112.48
 31
0.0
  0
LINE
  5
801
100
AcDbEntity
  8
0
  6
DASHED
 62
               2
100
AcDbLine
 10
-184.08000000000001
 20
-112.48
 30
0.0
 11
-184.08000000000001
 21
-112.23
 31
0.0
  0
LINE
  5
802
100
AcDbEntity
  8
0
  6
DASHED
 62
               2
100
AcDbLine
 10
-184.58000000000001
 20
-136.08000000000001
 30
0.0
 11
-184.58000000000001
 21
-112.48
 31
0.0
  0
LINE
  5
803
100
AcDbEntity
  8
0
  6
DASHED
 62
               2
100
AcDbLine
 10
-184.58000000000001
 20
-136.08000000000001
 30
0.0
 11
-183.08000000000001
 21
-137.58000000000001
 31
0.0
  0
LINE
  5
804
100
AcDbEntity
  8
0
  6
DASHED
 62
               2
100
AcDbLine
 10
-183.08000000000001
 20
-137.58000000000001
 30
0.0
 11
-140.08000000000001
 21
-137.58000000000001
 31
0.0
  0
LINE
  5
805
100
AcDbEntity
  8
0
  6
DASHED
 62
               2
100
AcDbLine
 10
-140.08000000000001
 20
-137.58000000000001
 30
0.0
 11
-138.58000000000001
 21
-136.08000000000001
 31
0.0
  0
LINE
  5
806
100
AcDbEntity
  8
0
  6
DASHED
 62
               2
100
AcDbLine
 10
-138.58000000000001
 20
-136.08000000000001
 30
0.0
 11
-138.58000000000001
 21
-32.579999999999998
 31
0.0
  0
LINE
  5
807
100
AcDbEntity
  8
0
  6
DASHED
 62
               2
100
AcDbLine
 10
-384.33999999999997
 20
-32.579999999999998
 30
0.0
 11
-338.33999999999997
 21
-32.579999999999998
 31
0.0
  0
LINE
  5
808
100
AcDbEntity
  8
0
  6
DASHED
 62
               2
100
AcDbLine
 10
-384.33999999999997
 20
-73.480000000000004
 30
0.0
 11
-384.33999999999997
 21
-32.579999999999998
 31
0.0
  0
LINE
  5
809
100
AcDbEntity
  8
0
  6
DASHED
 62
               2
100
AcDbLine
 10
-383.83999999999997
 20
-73.480000000000004
 30
0.0
 11
-384.33999999999997
 21
-73.480000000000004
 31
0.0
  0
LINE
  5
80A
100
AcDbEntity
  8
0
  6
DASHED
 62
               2
100
AcDbLine
 10
-383.83999999999997
 20
-73.730000000000004
 30
0.0
 11
-383.83999999999997
 21
-73.480000000000004
 31
0.0
  0
LINE
  5
80B
100
AcDbEntity
  8
0
  6
DASHED
 62
               2
100
AcDbLine
 10
-383.63999999999999
 20
-75.480000000000004
 30
0.0
 11
-383.63999999999999
 21
-74.480000000000004
 31
0.0
  0
LINE
  5
80C
100
AcDbEntity
  8
0
  6
DASHED
 62
               2
100
AcDbLine
 10
-380.83999999999997
 20
-76.980000000000004
 30
0.0
 11
-382.13999999999999
 21
-76.980000000000004
 31
0.0
  0
LINE
  5
80D
100
AcDbEntity
  8
0
  6
DASHED
 62
               2
100
AcDbLine
 10
-380.83999999999997
 20
-78.480000000000004
 30
0.0
 11
-380.83999999999997
 21
-76.980000000000004
 31
0.0
  0
LINE
  5
80E
100
AcDbEntity
  8
0
  6
DASHED
 62
               2
100
AcDbLine
 10
-387.33999999999997
 20
-78.480000000000004
 30
0.0
 11
-380.83999999999997
 21
-78.480000000000004
 31
0.0
  0
LINE
  5
80F
100
AcDbEntity
  8
0
  6
DASHED
 62
               2
100
AcDbLine
 10
-387.33999999999997
 20
-107.48
 30
0.0
 11
-387.33999999999997
 21
-78.480000000000004
 31
0.0
  0
LINE
  5
810
100
AcDbEntity
  8
0
  6
DASHED
 62
               2
100
AcDbLine
 10
-387.33999999999997
 20
-107.48
 30
0.0
 11
-380.83999999999997
 21
-107.48
 31
0.0
  0
LINE
  5
811
100
AcDbEntity
  8
0
  6
DASHED
 62
               2
100
AcDbLine
 10
-380.83999999999997
 20
-108.98
 30
0.0
 11
-380.83999999999997
 21
-107.48
 31
0.0
  0
LINE
  5
812
100
AcDbEntity
  8
0
  6
DASHED
 62
               2
100
AcDbLine
 10
-380.83999999999997
 20
-108.98
 30
0.0
 11
-382.13999999999999
 21
-108.98
 31
0.0
  0
LINE
  5
813
100
AcDbEntity
  8
0
  6
DASHED
 62
               2
100
AcDbLine
 10
-383.63999999999999
 20
-111.48
 30
0.0
 11
-383.63999999999999
 21
-110.48
 31
0.0
  0
LINE
  5
814
100
AcDbEntity
  8
0
  6
DASHED
 62
               2
100
AcDbLine
 10
-383.83999999999997
 20
-112.48
 30
0.0
 11
-384.33999999999997
 21
-112.48
 31
0.0
  0
LINE
  5
815
100
AcDbEntity
  8
0
  6
DASHED
 62
               2
100
AcDbLine
 10
-383.83999999999997
 20
-112.48
 30
0.0
 11
-383.83999999999997
 21
-112.23
 31
0.0
  0
LINE
  5
816
100
AcDbEntity
  8
0
  6
DASHED
 62
               2
100
AcDbLine
 10
-384.33999999999997
 20
-136.08000000000001
 30
0.0
 11
-384.33999999999997
 21
-112.48
 31
0.0
  0
LINE
  5
817
100
AcDbEntity
  8
0
  6
DASHED
 62
               2
100
AcDbLine
 10
-384.33999999999997
 20
-136.08000000000001
 30
0.0
 11
-382.83999999999997
 21
-137.58000000000001
 31
0.0
  0
LINE
  5
818
100
AcDbEntity
  8
0
  6
DASHED
 62
               2
100
AcDbLine
 10
-382.83999999999997
 20
-137.58000000000001
 30
0.0
 11
-339.83999999999997
 21
-137.58000000000001
 31
0.0
  0
LINE
  5
819
100
AcDbEntity
  8
0
  6
DASHED
 62
               2
100
AcDbLine
 10
-339.83999999999997
 20
-137.58000000000001
 30
0.0
 11
-338.33999999999997
 21
-136.08000000000001
 31
0.0
  0
LINE
  5
81A
100
AcDbEntity
  8
0
  6
DASHED
 62
               2
100
AcDbLine
 10
-338.33999999999997
 20
-136.08000000000001
 30
0.0
 11
-338.33999999999997
 21
-32.579999999999998
 31
0.0
  0
ARC
  5
81B
100
AcDbEntity
  8
0
  6
DASHED
 62
               2
100
AcDbCircle
 10
226.94359225173181
 20
184.75929126712845
 30
0.0
 40
1.5035924187658778
100
AcDbArc
 50
179.9729930775531
 51
209.88984127871979
  0
ARC
  5
81C
100
AcDbEntity
  8
0
  6
DASHED
 62
               2
100
AcDbCircle
 10
227.14424896176163
 20
183.01424896176164
 30
0.0
 40
1.5042549626433246
100
AcDbArc
 50
180.16183951924859
 51
269.83816048075141
  0
ARC
  5
81D
100
AcDbEntity
  8
0
  6
DASHED
 62
               2
100
AcDbCircle
 10
227.13728471540313
 20
148.01271528459685
 30
0.0
 40
1.4972871774480232
100
AcDbArc
 50
89.896095795654645
 51
180.10390420434535
  0
ARC
  5
81E
100
AcDbEntity
  8
0
  6
DASHED
 62
               2
100
AcDbCircle
 10
226.9401202907207
 20
146.26163458914115
 30
0.0
 40
1.5001211812762432
100
AcDbArc
 50
150.07473396905331
 51
180.06243167467295
  0
ARC
  5
81F
100
AcDbEntity
  8
0
  6
DASHED
 62
               2
100
AcDbCircle
 10
219.94108401111151
 20
-66.731377597036953
 30
0.0
 40
1.5010846432457403
100
AcDbArc
 50
179.94741768392493
 51
209.91541667234853
  0
ARC
  5
820
100
AcDbEntity
  8
0
  6
DASHED
 62
               2
100
AcDbCircle
 10
220.13924827515231
 20
-68.480751724847693
 30
0.0
 40
1.4992484636101642
100
AcDbArc
 50
179.97127183120224
 51
270.02872816879716
  0
ARC
  5
821
100
AcDbEntity
  8
0
  6
DASHED
 62
               2
100
AcDbCircle
 10
220.14227894454365
 20
-103.48227894454365
 30
0.0
 40
1.5022806731125224
100
AcDbArc
 50
90.086917149713727
 51
179.91308285028688
  0
ARC
  5
822
100
AcDbEntity
  8
0
  6
DASHED
 62
               2
100
AcDbCircle
 10
219.94260588123893
 20
-105.22902823499703
 30
0.0
 40
1.5026061954687342
100
AcDbArc
 50
150.10011133275822
 51
180.03705431096844
  0
ARC
  5
823
100
AcDbEntity
  8
0
  6
DASHED
 62
               2
100
AcDbCircle
 10
-182.58359724961966
 20
-73.732625933231873
 30
0.0
 40
1.4964050544125074
100
AcDbArc
 50
179.89945572006414
 51
209.96337863621392
  0
ARC
  5
824
100
AcDbEntity
  8
0
  6
DASHED
 62
               2
100
AcDbCircle
 10
-182.38326567230681
 20
-75.483265672306814
 30
0.0
 40
1.4967378903170663
100
AcDbArc
 50
179.87498853999773
 51
270.12501146000227
  0
ARC
  5
825
100
AcDbEntity
  8
0
  6
DASHED
 62
               2
100
AcDbCircle
 10
-182.3802146124755
 20
-110.47978538752449
 30
0.0
 40
1.4997854028795226
100
AcDbArc
 50
89.991801234299572
 51
180.00819876570097
  0
ARC
  5
826
100
AcDbEntity
  8
0
  6
DASHED
 62
               2
100
AcDbCircle
 10
-182.58206298644387
 20
-112.227783203615
 30
0.0
 40
1.4979386538732924
100
AcDbArc
 50
150.05237370452397
 51
180.08479193919845
  0
ARC
  5
827
100
AcDbEntity
  8
0
  6
DASHED
 62
               2
100
AcDbCircle
 10
-382.34589998706036
 20
-73.733239996549457
 30
0.0
 40
1.4941035259458495
100
AcDbArc
 50
179.87575273721617
 51
209.98708161905753
  0
ARC
  5
828
100
AcDbEntity
  8
0
  6
DASHED
 62
               2
100
AcDbCircle
 10
-382.14440674598927
 20
-75.48440674598929
 30
0.0
 40
1.495599746206369
100
AcDbArc
 50
179.831179222548
 51
270.16882077745197
  0
ARC
  5
829
100
AcDbEntity
  8
0
  6
DASHED
 62
               2
100
AcDbCircle
 10
-382.1414598362411
 20
-110.47854016375889
 30
0.0
 40
1.4985408748246978
100
AcDbArc
 50
89.944184059286826
 51
180.05581594071319
  0
ARC
  5
82A
100
AcDbEntity
  8
0
  6
DASHED
 62
               2
100
AcDbCircle
 10
-382.34436336390212
 20
-112.22716976962609
 30
0.0
 40
1.4956393139531348
100
AcDbArc
 50
150.02874354573621
 51
180.10842209798975
  0
MTEXT
  5
82B
100
AcDbEntity
  8
0
  6
CONTINUOUS
 62
               7
100
AcDbMText
 10
245.88456269755227
 20
-264.25
 30
0.0
 40
12.5
 41
0.0
 71
               4
 72
               1
  1
\W1.121;\A1;KOGANEI CORP.
  0
MTEXT
  5
82C
100
AcDbEntity
  8
0
  6
CONTINUOUS
 62
               7
100
AcDbMText
 10
290.09979829720089
 20
263.75
 30
0.0
 40
9.0
 41
0.0
 71
               4
 72
               1
  1
\W1.200;\A1;Ver.3.0
  0
MTEXT
  5
82D
100
AcDbEntity
  8
0
  6
CONTINUOUS
 62
               7
100
AcDbMText
 10
-362.57090654372104
 20
263.75
 30
0.0
 40
9.0
 41
0.0
 71
               4
 72
               1
  1
\W1.119;\A1;F15 SERIES
  0
MTEXT
  5
82E
100
AcDbEntity
  8
0
  6
CONTINUOUS
 62
               7
100
AcDbMText
 10
-387.11363699564299
 20
236.25
 30
0.0
 40
9.0
 41
0.0
 71
               4
 72
               1
  1
\W1.091;\A1;MODEL:F15Z-E
  0
MTEXT
  5
82F
100
AcDbEntity
  8
0
  6
CONTINUOUS
 62
               7
100
AcDbMText
 10
12.462493282835931
 20
236.25
 30
0.0
 40
9.0
 41
0.0
 71
               4
 72
               1
  1
\W1.125;\A1;MODEL:F15BPP(J)
  0
MTEXT
  5
830
100
AcDbEntity
  8
0
  6
CONTINUOUS
 62
               7
100
AcDbMText
 10
218.16247500831179
 20
-15.25
 30
0.0
 40
9.0
 41
0.0
 71
               4
 72
               1
  1
\W1.083;\A1;MODEL:F15Z-PM
  0
MTEXT
  5
831
100
AcDbEntity
  8
0
  6
CONTINUOUS
 62
               7
100
AcDbMText
 10
24.399993318858659
 20
-15.25
 30
0.0
 40
9.0
 41
0.0
 71
               4
 72
               1
  1
\W1.083;\A1;MODEL:F15Z-PJ
  0
MTEXT
  5
832
100
AcDbEntity
  8
0
  6
CONTINUOUS
 62
               7
100
AcDbMText
 10
-181.24886732633038
 20
-15.25
 30
0.0
 40
9.0
 41
0.0
 71
               4
 72
               1
  1
\W1.159;\A1;MODEL:F15T1-A1(M)
  0
MTEXT
  5
833
100
AcDbEntity
  8
0
  6
CONTINUOUS
 62
               7
100
AcDbMText
 10
-387.0113642745726
 20
-15.25
 30
0.0
 40
9.0
 41
0.0
 71
               4
 72
               1
  1
\W1.159;\A1;MODEL:F15T1-A1(J)
  0
MTEXT
  5
834
100
AcDbEntity
  8
0
  6
CONTINUOUS
 62
               7
100
AcDbMText
 10
212.2249902310781
 20
236.25
 30
0.0
 40
9.0
 41
0.0
 71
               4
 72
               1
  1
\W1.125;\A1;MODEL:F15BPP(M)
  0
ARC
  5
835
100
AcDbEntity
  8
0
  6
DASHED
 62
               2
100
AcDbCircle
 10
27.180573817845222
 20
146.259699002736
 30
0.0
 40
1.5071186740427387
100
AcDbArc
 50
150.13816251225131
 51
179.98338433408335
  0
ARC
  5
836
100
AcDbEntity
  8
0
  6
DASHED
 62
               2
100
AcDbCircle
 10
27.374737418982214
 20
148.00886035082988
 30
0.0
 40
1.5010442083255242
100
AcDbArc
 50
90.032034823659444
 51
179.95234637895012
  0
ARC
  5
837
100
AcDbEntity
  8
0
  6
DASHED
 62
               2
100
AcDbCircle
 10
27.386456071681046
 20
183.01789370068781
 30
0.0
 40
1.5080119477785745
100
AcDbArc
 50
180.295795565497
 51
269.68858563711245
  0
ARC
  5
838
100
AcDbEntity
  8
0
  6
DASHED
 62
               2
100
AcDbCircle
 10
27.189277422830479
 20
184.76108302461506
 30
0.0
 40
1.5105749735000225
100
AcDbArc
 50
180.035931567093
 51
209.81128399179079
  0
LINE
  5
839
100
AcDbEntity
  8
0
  6
DASHED
 62
               2
100
AcDbLine
 10
71.170204036227219
 20
122.40393464855281
 30
0.0
 11
71.184311057186676
 21
225.90393368716133
 31
0.0
  0
LINE
  5
83A
100
AcDbEntity
  8
0
  6
DASHED
 62
               2
100
AcDbLine
 10
69.669999600581306
 20
120.90413911206515
 30
0.0
 11
71.170204036227219
 21
122.40393464855281
 31
0.0
  0
LINE
  5
83B
100
AcDbEntity
  8
0
  6
DASHED
 62
               2
100
AcDbLine
 10
26.670000000000002
 20
120.91
 30
0.0
 11
69.669999600581306
 21
120.90413911206515
 31
0.0
  0
LINE
  5
83C
100
AcDbEntity
  8
0
  6
DASHED
 62
               2
100
AcDbLine
 10
25.170204463512334
 20
122.41020443564591
 30
0.0
 11
26.670000000000002
 21
120.91
 31
0.0
  0
LINE
  5
83D
100
AcDbEntity
  8
0
  6
DASHED
 62
               2
100
AcDbLine
 10
25.170204463512334
 20
122.41020443564591
 30
0.0
 11
25.173421136890529
 21
146.01020421643005
 31
0.0
  0
LINE
  5
83E
100
AcDbEntity
  8
0
  6
DASHED
 62
               2
100
AcDbLine
 10
25.673421132246126
 20
146.01013606657034
 30
0.0
 11
25.67345520717598
 21
146.26013606424817
 31
0.0
  0
LINE
  5
83F
100
AcDbEntity
  8
0
  6
DASHED
 62
               2
100
AcDbLine
 10
25.673421132246126
 20
146.01013606657034
 30
0.0
 11
25.173421136890529
 21
146.01020421643005
 31
0.0
  0
LINE
  5
840
100
AcDbEntity
  8
0
  6
DASHED
 62
               2
100
AcDbLine
 10
25.87355743010778
 20
147.01010879733764
 30
0.0
 11
25.873693729827195
 21
148.01010878804885
 31
0.0
  0
LINE
  5
841
100
AcDbEntity
  8
0
  6
DASHED
 62
               2
100
AcDbLine
 10
28.673898153397658
 20
149.50972713490131
 30
0.0
 11
27.373898165473108
 21
149.50990432453654
 31
0.0
  0
LINE
  5
842
100
AcDbEntity
  8
0
  6
DASHED
 62
               2
100
AcDbLine
 10
28.673898153397658
 20
149.50972713490131
 30
0.0
 11
28.674102602976781
 21
151.00972712096808
 31
0.0
  0
LINE
  5
843
100
AcDbEntity
  8
0
  6
DASHED
 62
               2
100
AcDbLine
 10
22.174102663354027
 20
151.01061306914426
 30
0.0
 11
28.674102602976781
 21
151.00972712096808
 31
0.0
  0
LINE
  5
844
100
AcDbEntity
  8
0
  6
DASHED
 62
               2
100
AcDbLine
 10
22.174102663354027
 20
151.01061306914426
 30
0.0
 11
22.178055355217062
 21
180.01061279976886
 31
0.0
  0
LINE
  5
845
100
AcDbEntity
  8
0
  6
DASHED
 62
               2
100
AcDbLine
 10
22.178055355217062
 20
180.01061279976886
 30
0.0
 11
28.678055294839819
 21
180.00972685159269
 31
0.0
  0
LINE
  5
846
100
AcDbEntity
  8
0
  6
DASHED
 62
               2
100
AcDbLine
 10
28.678055294839819
 20
180.00972685159269
 30
0.0
 11
28.678259744418941
 21
181.50972683765946
 31
0.0
  0
LINE
  5
847
100
AcDbEntity
  8
0
  6
DASHED
 62
               2
100
AcDbLine
 10
28.678259744418941
 20
181.50972683765946
 30
0.0
 11
27.378259756494391
 21
181.50990402729468
 31
0.0
  0
LINE
  5
848
100
AcDbEntity
  8
0
  6
DASHED
 62
               2
100
AcDbLine
 10
25.878464220006723
 20
183.01010846294059
 30
0.0
 11
25.878600519726138
 21
184.01010845365181
 31
0.0
  0
LINE
  5
849
100
AcDbEntity
  8
0
  6
DASHED
 62
               2
100
AcDbLine
 10
25.67870274637346
 20
184.76013570662911
 30
0.0
 11
25.678736821303314
 21
185.01013570430689
 31
0.0
  0
LINE
  5
84A
100
AcDbEntity
  8
0
  6
DASHED
 62
               2
100
AcDbLine
 10
25.678736821303314
 20
185.01013570430689
 30
0.0
 11
25.17873682594772
 21
185.0102038541666
 31
0.0
  0
LINE
  5
84B
100
AcDbEntity
  8
0
  6
DASHED
 62
               2
100
AcDbLine
 10
25.17873682594772
 20
185.0102038541666
 30
0.0
 11
25.184311484471795
 21
225.91020347425439
 31
0.0
  0
LINE
  5
84C
100
AcDbEntity
  8
0
  6
DASHED
 62
               2
100
AcDbLine
 10
25.184311484471795
 20
225.91020347425439
 30
0.0
 11
71.184311057186676
 21
225.90393368716133
 31
0.0
  0
ARC
  5
84D
100
AcDbEntity
  8
0
  6
DASHED
 62
               2
100
AcDbCircle
 10
20.179596540799505
 20
-105.23089241087987
 30
0.0
 40
1.5095968045776336
100
AcDbArc
 50
150.17103652887178
 51
179.96612911485289
  0
ARC
  5
84E
100
AcDbEntity
  8
0
  6
DASHED
 62
               2
100
AcDbCircle
 10
20.376033208759026
 20
-103.48603320875903
 30
0.0
 40
1.5060452933072532
100
AcDbArc
 50
90.229527176192875
 51
179.77047282380727
  0
ARC
  5
84F
100
AcDbEntity
  8
0
  6
DASHED
 62
               2
100
AcDbCircle
 10
20.372994970907712
 20
-68.477005029092297
 30
0.0
 40
1.5029979548970154
100
AcDbArc
 50
180.11417135051914
 51
269.88582864948069
  0
ARC
  5
850
100
AcDbEntity
  8
0
  6
DASHED
 62
               2
100
AcDbCircle
 10
20.178074136149906
 20
-66.729513563693359
 30
0.0
 40
1.5080742146010448
100
AcDbArc
 50
180.01848101876294
 51
209.84435333751239
  0
LINE
  5
851
100
AcDbEntity
  8
0
  6
DASHED
 62
               2
100
AcDbLine
 10
64.170000000000002
 20
-129.08000000000001
 30
0.0
 11
64.170000000000002
 21
-25.579999999999998
 31
0.0
  0
LINE
  5
852
100
AcDbEntity
  8
0
  6
DASHED
 62
               2
100
AcDbLine
 10
62.670000000000002
 20
-130.58000000000001
 30
0.0
 11
64.170000000000002
 21
-129.08000000000001
 31
0.0
  0
LINE
  5
853
100
AcDbEntity
  8
0
  6
DASHED
 62
               2
100
AcDbLine
 10
19.670000000000002
 20
-130.58000000000001
 30
0.0
 11
62.670000000000002
 21
-130.58000000000001
 31
0.0
  0
LINE
  5
854
100
AcDbEntity
  8
0
  6
DASHED
 62
               2
100
AcDbLine
 10
18.170000000000002
 20
-129.08000000000001
 30
0.0
 11
19.670000000000002
 21
-130.58000000000001
 31
0.0
  0
LINE
  5
855
100
AcDbEntity
  8
0
  6
DASHED
 62
               2
100
AcDbLine
 10
18.170000000000002
 20
-129.08000000000001
 30
0.0
 11
18.170000000000002
 21
-105.48
 31
0.0
  0
LINE
  5
856
100
AcDbEntity
  8
0
  6
DASHED
 62
               2
100
AcDbLine
 10
18.670000000000002
 20
-105.48
 30
0.0
 11
18.670000000000002
 21
-105.23
 31
0.0
  0
LINE
  5
857
100
AcDbEntity
  8
0
  6
DASHED
 62
               2
100
AcDbLine
 10
18.670000000000002
 20
-105.48
 30
0.0
 11
18.170000000000002
 21
-105.48
 31
0.0
  0
LINE
  5
858
100
AcDbEntity
  8
0
  6
DASHED
 62
               2
100
AcDbLine
 10
18.870000000000001
 20
-104.48
 30
0.0
 11
18.870000000000001
 21
-103.48
 31
0.0
  0
LINE
  5
859
100
AcDbEntity
  8
0
  6
DASHED
 62
               2
100
AcDbLine
 10
21.670000000000002
 20
-101.98
 30
0.0
 11
20.370000000000001
 21
-101.98
 31
0.0
  0
LINE
  5
85A
100
AcDbEntity
  8
0
  6
DASHED
 62
               2
100
AcDbLine
 10
21.670000000000002
 20
-101.98
 30
0.0
 11
21.670000000000002
 21
-100.48
 31
0.0
  0
LINE
  5
85B
100
AcDbEntity
  8
0
  6
DASHED
 62
               2
100
AcDbLine
 10
15.17
 20
-100.48
 30
0.0
 11
21.670000000000002
 21
-100.48
 31
0.0
  0
LINE
  5
85C
100
AcDbEntity
  8
0
  6
DASHED
 62
               2
100
AcDbLine
 10
15.17
 20
-100.48
 30
0.0
 11
15.17
 21
-71.480000000000004
 31
0.0
  0
LINE
  5
85D
100
AcDbEntity
  8
0
  6
DASHED
 62
               2
100
AcDbLine
 10
15.17
 20
-71.480000000000004
 30
0.0
 11
21.670000000000002
 21
-71.480000000000004
 31
0.0
  0
LINE
  5
85E
100
AcDbEntity
  8
0
  6
DASHED
 62
               2
100
AcDbLine
 10
21.670000000000002
 20
-71.480000000000004
 30
0.0
 11
21.670000000000002
 21
-69.980000000000004
 31
0.0
  0
LINE
  5
85F
100
AcDbEntity
  8
0
  6
DASHED
 62
               2
100
AcDbLine
 10
21.670000000000002
 20
-69.980000000000004
 30
0.0
 11
20.370000000000001
 21
-69.980000000000004
 31
0.0
  0
LINE
  5
860
100
AcDbEntity
  8
0
  6
DASHED
 62
               2
100
AcDbLine
 10
18.870000000000001
 20
-68.480000000000004
 30
0.0
 11
18.870000000000001
 21
-67.480000000000004
 31
0.0
  0
LINE
  5
861
100
AcDbEntity
  8
0
  6
DASHED
 62
               2
100
AcDbLine
 10
18.670000000000002
 20
-66.730000000000004
 30
0.0
 11
18.670000000000002
 21
-66.480000000000004
 31
0.0
  0
LINE
  5
862
100
AcDbEntity
  8
0
  6
DASHED
 62
               2
100
AcDbLine
 10
18.670000000000002
 20
-66.480000000000004
 30
0.0
 11
18.170000000000002
 21
-66.480000000000004
 31
0.0
  0
LINE
  5
863
100
AcDbEntity
  8
0
  6
DASHED
 62
               2
100
AcDbLine
 10
18.170000000000002
 20
-66.480000000000004
 30
0.0
 11
18.170000000000002
 21
-25.579999999999998
 31
0.0
  0
LINE
  5
864
100
AcDbEntity
  8
0
  6
DASHED
 62
               2
100
AcDbLine
 10
18.170000000000002
 20
-25.579999999999998
 30
0.0
 11
64.170000000000002
 21
-25.579999999999998
 31
0.0
  0
ENDSEC
  0
SECTION
  2
OBJECTS
  0
DICTIONARY
  5
19
100
AcDbDictionary
  3
ACAD_GROUP
350
1A
  3
ACAD_MLINESTYLE
350
1B
  0
DICTIONARY
  5
1A
102
{ACAD_REACTORS
330
19
102
}
100
AcDbDictionary
  0
DICTIONARY
  5
1B
102
{ACAD_REACTORS
330
19
102
}
100
AcDbDictionary
  3
STANDARD
350
1C
  0
MLINESTYLE
  5
1C
102
{ACAD_REACTORS
330
1B
102
}
100
AcDbMlineStyle
  2
Standard
 70
               0
  3

 62
               0
 51
90.0
 52
90.0
 71
               2
 49
0.5
 62
             256
  6
ByLayer
 49
-0.5
 62
             256
  6
ByLayer
  0
ENDSEC
  0
EOF
