  0
SECTION
  2
HEADER
  9
$ACADVER
  1
AC1012
  9
$DWGCODEPAGE
  3
dos932
  9
$INSBASE
 10
0.0
 20
0.0
 30
0.0
  9
$EXTMIN
 10
-399.25
 20
-276.75
 30
0.0
  9
$EXTMAX
 10
406.09414987197181
 20
276.25
 30
0.0
  9
$LIMMIN
 10
-399.25
 20
-276.75
  9
$LIMMAX
 10
406.09414987197181
 20
276.25
  9
$ORTHOMODE
 70
               0
  9
$REGENMODE
 70
               1
  9
$FILLMODE
 70
               1
  9
$QTEXTMODE
 70
               0
  9
$MIRRTEXT
 70
               1
  9
$DRAGMODE
 70
               2
  9
$LTSCALE
 40
1.0
  9
$OSMODE
 70
               0
  9
$ATTMODE
 70
               1
  9
$TEXTSIZE
 40
3.2000000476837158
  9
$TRACEWID
 40
0.05
  9
$TEXTSTYLE
  7
MX_NOTE_STANDARD
  9
$CLAYER
  8
0
  9
$CELTYPE
  6
CONTINUOUS
  9
$CECOLOR
 62
             256
  9
$CELTSCALE
 40
1.0
  9
$DELOBJ
 70
               1
  9
$DISPSILH
 70
               0
  9
$DIMSCALE
 40
1.0
  9
$DIMASZ
 40
2.5
  9
$DIMEXO
 40
1.5
  9
$DIMDLI
 40
3.75
  9
$DIMRND
 40
0.0
  9
$DIMDLE
 40
0.0
  9
$DIMEXE
 40
1.5
  9
$DIMTP
 40
0.0
  9
$DIMTM
 40
0.0
  9
$DIMTXT
 40
3.2000000476837158
  9
$DIMCEN
 40
2.5
  9
$DIMTSZ
 40
0.0
  9
$DIMTOL
 70
               0
  9
$DIMLIM
 70
               0
  9
$DIMTIH
 70
               0
  9
$DIMTOH
 70
               0
  9
$DIMSE1
 70
               0
  9
$DIMSE2
 70
               0
  9
$DIMTAD
 70
               1
  9
$DIMZIN
 70
               8
  9
$DIMBLK
  1

  9
$DIMASO
 70
               1
  9
$DIMSHO
 70
               1
  9
$DIMPOST
  1

  9
$DIMAPOST
  1

  9
$DIMALT
 70
               0
  9
$DIMALTD
 70
               4
  9
$DIMALTF
 40
0.03937007874016
  9
$DIMLFAC
 40
1.0
  9
$DIMTOFL
 70
               1
  9
$DIMTVP
 40
0.0
  9
$DIMTIX
 70
               0
  9
$DIMSOXD
 70
               0
  9
$DIMSAH
 70
               0
  9
$DIMBLK1
  1

  9
$DIMBLK2
  1

  9
$DIMSTYLE
  2
MXDIMSTYLE
  9
$DIMCLRD
 70
               0
  9
$DIMCLRE
 70
               0
  9
$DIMCLRT
 70
               0
  9
$DIMTFAC
 40
1.0
  9
$DIMGAP
 40
1.0
  9
$DIMJUST
 70
               0
  9
$DIMSD1
 70
               0
  9
$DIMSD2
 70
               0
  9
$DIMTOLJ
 70
               1
  9
$DIMTZIN
 70
               0
  9
$DIMALTZ
 70
               0
  9
$DIMALTTZ
 70
               0
  9
$DIMFIT
 70
               3
  9
$DIMUPT
 70
               1
  9
$DIMUNIT
 70
               2
  9
$DIMDEC
 70
               4
  9
$DIMTDEC
 70
               4
  9
$DIMALTU
 70
               2
  9
$DIMALTTD
 70
               4
  9
$DIMTXSTY
  7
MX_NOTE_STANDARD
  9
$DIMAUNIT
 70
               0
  9
$LUNITS
 70
               2
  9
$LUPREC
 70
               4
  9
$SKETCHINC
 40
0.1
  9
$FILLETRAD
 40
0.0
  9
$AUNITS
 70
               0
  9
$AUPREC
 70
               0
  9
$MENU
  1
acad
  9
$ELEVATION
 40
0.0
  9
$PELEVATION
 40
0.0
  9
$THICKNESS
 40
0.0
  9
$LIMCHECK
 70
               0
  9
$BLIPMODE
 70
               1
  9
$CHAMFERA
 40
0.0
  9
$CHAMFERB
 40
0.0
  9
$CHAMFERC
 40
0.0
  9
$CHAMFERD
 40
0.0
  9
$SKPOLY
 70
               0
  9
$TDCREATE
 40
2453378.356493055
  9
$TDUPDATE
 40
2453378.356493055
  9
$TDINDWG
 40
0.0000000000
  9
$TDUSRTIMER
 40
0.0000000000
  9
$USRTIMER
 70
               1
  9
$ANGBASE
 50
0.0
  9
$ANGDIR
 70
               0
  9
$PDMODE
 70
               0
  9
$PDSIZE
 40
0.0
  9
$PLINEWID
 40
0.0
  9
$COORDS
 70
               1
  9
$SPLFRAME
 70
               0
  9
$SPLINETYPE
 70
               6
  9
$SPLINESEGS
 70
               8
  9
$ATTDIA
 70
               0
  9
$ATTREQ
 70
               1
  9
$HANDLING
 70
               1
  9
$HANDSEED
  5
7B6
  9
$SURFTAB1
 70
               6
  9
$SURFTAB2
 70
               6
  9
$SURFTYPE
 70
               6
  9
$SURFU
 70
               6
  9
$SURFV
 70
               6
  9
$UCSNAME
  2

  9
$UCSORG
 10
0.0
 20
0.0
 30
0.0
  9
$UCSXDIR
 10
1.0
 20
0.0
 30
0.0
  9
$UCSYDIR
 10
0.0
 20
1.0
 30
0.0
  9
$PUCSNAME
  2

  9
$PUCSORG
 10
0.0
 20
0.0
 30
0.0
  9
$PUCSXDIR
 10
1.0
 20
0.0
 30
0.0
  9
$PUCSYDIR
 10
0.0
 20
1.0
 30
0.0
  9
$USERI1
 70
               0
  9
$USERI2
 70
               0
  9
$USERI3
 70
               0
  9
$USERI4
 70
               0
  9
$USERI5
 70
               0
  9
$USERR1
 40
0.0
  9
$USERR2
 40
0.0
  9
$USERR3
 40
0.0
  9
$USERR4
 40
0.0
  9
$USERR5
 40
0.0
  9
$WORLDVIEW
 70
               1
  9
$SHADEDGE
 70
               3
  9
$SHADEDIF
 70
              70
  9
$TILEMODE
 70
               1
  9
$MAXACTVP
 70
              16
  9
$PINSBASE
 10
0.0
 20
0.0
 30
0.0
  9
$PLIMCHECK
 70
               0
  9
$PEXTMIN
 10
1.0000000000000000E+20
 20
1.0000000000000000E+20
 30
1.0000000000000000E+20
  9
$PEXTMAX
 10
-1.0000000000000000E+20
 20
-1.0000000000000000E+20
 30
-1.0000000000000000E+20
  9
$PLIMMIN
 10
0.0
 20
0.0
  9
$PLIMMAX
 10
12.0
 20
9.0
  9
$UNITMODE
 70
               0
  9
$VISRETAIN
 70
               0
  9
$PLINEGEN
 70
               1
  9
$PSLTSCALE
 70
               0
  9
$TREEDEPTH
 70
            3020
  9
$PICKSTYLE
 70
               1
  9
$CMLSTYLE
  2
Standard
  9
$CMLJUST
 70
               0
  9
$CMLSCALE
 40
1.0
  9
$SAVEIMAGES
 70
               0
  0
ENDSEC
  0
SECTION
  2
CLASSES
  0
CLASS
  1
LWPOLYLINE
  2
AcDbPolyline
  3
"AutoCAD"
 90
        0
280
               0
281
               1
  0
CLASS
  1
IMAGE
  2
AcDbRasterImage
  3
ISM
 90
      127
280
               0
281
               1
  0
CLASS
  1
OLE2FRAME
  2
AcDbOle2Frame
  3
""
 90
        0
280
               0
281
               1
  0
CLASS
  1
HATCH
  2
AcDbHatch
  3
"ACAD_SEDONA"
 90
        0
280
               0
281
               1
  0
CLASS
  1
DICTIONARYVAR
  2
AcDbDictionaryVar
  3
"AutoCAD"
 90
        0
280
               0
281
               0
  0
CLASS
  1
RASTERVARIABLES
  2
AcDbRasterVariables
  3
ISM
 90
        0
280
               0
281
               0
  0
CLASS
  1
IMAGEDEF
  2
AcDbRasterImageDef
  3
ISM
 90
        0
280
               0
281
               0
  0
CLASS
  1
IMAGEDEF_REACTOR
  2
AcDbRasterImageDefReactor
  3
ISM
 90
        1
280
               0
281
               0
  0
CLASS
  1
IDBUFFER
  2
AcDbIdBuffer
  3
"Acad"
 90
        0
280
               0
281
               0
  0
CLASS
  1
SPATIAL_FILTER
  2
AcDbSpatialFilter
  3
"Acad"
 90
        0
280
               0
281
               0
  0
CLASS
  1
XRECORD
  2
AcDbXrecord
  3
"<Built In>"
 90
        0
280
               0
281
               0
  0
CLASS
  1
SORTENTSTABLE
  2
AcDbSortentsTable
  3
"AutoCAD"
 90
        0
280
               0
281
               0
  0
CLASS
  1
LAYER_INDEX
  2
AcDbLayerIndex
  3
"Acad"
 90
        0
280
               0
281
               0
  0
CLASS
  1
SPATIAL_INDEX
  2
AcDbSpatialIndex
  3
"Acad"
 90
        0
280
               0
281
               0
  0
CLASS
  1
OBJECT_PTR
  2
CAseDLPNTableRecord
  3
"ASE-LPNTableRecord"
 90
        1
280
               0
281
               0
  0
CLASS
  1
LAYOUT
  2
AcDbLayout
  3
"AutoCAD 2000"
 90
        1
280
               0
281
               0
  0
CLASS
  1
PLOTSETTINGS
  2
AcDbPlotSettings
  3
"AutoCAD 2000"
 90
        1
280
               0
281
               0
  0
CLASS
  1
ACDBDICTIONARYWDFLT
  2
AcDbDictionaryWithDefault
  3
"AutoCAD 2000"
 90
        1
280
               0
281
               0
  0
CLASS
  1
ACDBPLACEHOLDER
  2
AcDbPlaceHolder
  3
"AutoCAD 2000"
 90
        1
280
               0
281
               0
  0
ENDSEC
  0
SECTION
  2
TABLES
  0
TABLE
  2
VPORT
  5
7
100
AcDbSymbolTable
 70
               1
  0
VPORT
  5
15
100
AcDbSymbolTableRecord
100
AcDbViewportTableRecord
  2
*ACTIVE
 70
               0
 10
0.0
 20
0.0
 11
1.0
 21
1.0
 12
3.4220749359859042
 22
-0.25
 13
0.0
 23
0.0
 14
1.0
 24
1.0
 15
0.0
 25
0.0
 16
0.0
 26
0.0
 36
1.0
 17
0.0
 27
0.0
 37
0.0
 40
558.52999999999997
 41
1.7320508075688772
 42
50.0
 43
0.0
 44
0.0
 50
0.0
 51
0.0
 71
               0
 72
             100
 73
               1
 74
               1
 75
               0
 76
               0
 77
               0
 78
               0
  0
ENDTAB
  0
TABLE
  2
LTYPE
  5
4
100
AcDbSymbolTable
 70
               5
  0
LTYPE
  5
11
100
AcDbSymbolTableRecord
100
AcDbLinetypeTableRecord
  2
BYBLOCK
 70
              64
  3

 72
              65
 73
               0
 40
0.0
  0
LTYPE
  5
12
100
AcDbSymbolTableRecord
100
AcDbLinetypeTableRecord
  2
BYLAYER
 70
              64
  3

 72
              65
 73
               0
 40
0.0
  0
LTYPE
  5
13
100
AcDbSymbolTableRecord
100
AcDbLinetypeTableRecord
  2
CONTINUOUS
 70
              64
  3
Solid line
 72
              65
 73
               0
 40
0.0
  0
LTYPE
  5
31
100
AcDbSymbolTableRecord
100
AcDbLinetypeTableRecord
  2
CENTER
 70
              64
  3
Center ____ _ ____ _ ____ _ ____ _ ____ _ ____
 72
              65
 73
               4
 40
26.0
 49
20.0
 74
               0
 49
-2.0
 74
               0
 49
2.0
 74
               0
 49
-2.0
 74
               0
  0
LTYPE
  5
DD
100
AcDbSymbolTableRecord
100
AcDbLinetypeTableRecord
  2
DASHED
 70
              64
  3
Dashed __ __ __ __ __ __ __ __ __ __ __ __ __ _
 72
              65
 73
               2
 40
4.0
 49
2.0
 74
               0
 49
-2.0
 74
               0
  0
ENDTAB
  0
TABLE
  2
LAYER
  5
2
100
AcDbSymbolTable
 70
               2
  0
LAYER
  5
14
100
AcDbSymbolTableRecord
100
AcDbLayerTableRecord
  2
0
 70
               0
 62
               7
  6
CONTINUOUS
  0
LAYER
  5
1D
100
AcDbSymbolTableRecord
100
AcDbLayerTableRecord
  2
DEFPOINTS
 70
               0
 62
               7
  6
CONTINUOUS
  0
ENDTAB
  0
TABLE
  2
STYLE
  5
3
100
AcDbSymbolTable
 70
               1
  0
STYLE
  5
17
100
AcDbSymbolTableRecord
100
AcDbTextStyleTableRecord
  2
MX_NOTE_STANDARD
 70
               0
 40
0.0
 41
1.0
 50
0.0
 71
               0
 42
3.2000000476837158
  3
txt.shx
  4
extfont.shx
  0
ENDTAB
  0
TABLE
  2
VIEW
  5
5
100
AcDbSymbolTable
 70
               0
  0
ENDTAB
  0
TABLE
  2
UCS
  5
6
100
AcDbSymbolTable
 70
               0
  0
ENDTAB
  0
TABLE
  2
APPID
  5
8
100
AcDbSymbolTable
 70
               1
  0
APPID
  5
16
100
AcDbSymbolTableRecord
100
AcDbRegAppTableRecord
  2
ACAD
 70
               0
  0
ENDTAB
  0
TABLE
  2
DIMSTYLE
  5
9
100
AcDbSymbolTable
 70
               1
  0
DIMSTYLE
105
18
100
AcDbSymbolTableRecord
100
AcDbDimStyleTableRecord
  2
MXDIMSTYLE
 70
               0
  3

  4

  5

  6

  7

 40
1.0
 41
2.5
 42
1.5
 43
3.75
 44
1.5
 45
0.0
 46
0.0
 47
0.0
 48
0.0
 71
               0
 72
               0
 73
               0
 74
               0
 75
               0
 76
               0
 77
               1
 78
               8
140
3.2000000476837158
141
2.5
142
0.0
143
0.03937007874016
144
1.0
145
0.0
146
1.0
147
1.0
170
               0
171
               4
172
               1
173
               0
174
               0
175
               0
176
               0
177
               0
178
               0
270
               2
271
               4
272
               4
273
               2
274
               4
275
               0
280
               0
281
               0
282
               0
283
               1
284
               0
285
               0
286
               0
287
               3
288
               1
340
17
  0
ENDTAB
  0
TABLE
  2
BLOCK_RECORD
  5
1
100
AcDbSymbolTable
 70
              15
  0
BLOCK_RECORD
  5
A
100
AcDbSymbolTableRecord
100
AcDbBlockTableRecord
  2
*MODEL_SPACE
  0
BLOCK_RECORD
  5
B
100
AcDbSymbolTableRecord
100
AcDbBlockTableRecord
  2
*PAPER_SPACE
  0
BLOCK_RECORD
  5
1E
100
AcDbSymbolTableRecord
100
AcDbBlockTableRecord
  2
F15T-1
  0
BLOCK_RECORD
  5
1F
100
AcDbSymbolTableRecord
100
AcDbBlockTableRecord
  2
F15T-2
  0
BLOCK_RECORD
  5
20
100
AcDbSymbolTableRecord
100
AcDbBlockTableRecord
  2
F15T-3
  0
BLOCK_RECORD
  5
21
100
AcDbSymbolTableRecord
100
AcDbBlockTableRecord
  2
F15T-4
  0
BLOCK_RECORD
  5
22
100
AcDbSymbolTableRecord
100
AcDbBlockTableRecord
  2
F15T-5
  0
BLOCK_RECORD
  5
23
100
AcDbSymbolTableRecord
100
AcDbBlockTableRecord
  2
F15T-6
  0
BLOCK_RECORD
  5
24
100
AcDbSymbolTableRecord
100
AcDbBlockTableRecord
  2
F15T-7
  0
BLOCK_RECORD
  5
25
100
AcDbSymbolTableRecord
100
AcDbBlockTableRecord
  2
F15T-8
  0
BLOCK_RECORD
  5
26
100
AcDbSymbolTableRecord
100
AcDbBlockTableRecord
  2
F15T-9
  0
BLOCK_RECORD
  5
27
100
AcDbSymbolTableRecord
100
AcDbBlockTableRecord
  2
F15T-10
  0
BLOCK_RECORD
  5
28
100
AcDbSymbolTableRecord
100
AcDbBlockTableRecord
  2
F15T-11
  0
BLOCK_RECORD
  5
29
100
AcDbSymbolTableRecord
100
AcDbBlockTableRecord
  2
F15T-12
  0
BLOCK_RECORD
  5
2A
100
AcDbSymbolTableRecord
100
AcDbBlockTableRecord
  2
F15T-13
  0
BLOCK_RECORD
  5
2B
100
AcDbSymbolTableRecord
100
AcDbBlockTableRecord
  2
F15T-14
  0
BLOCK_RECORD
  5
2C
100
AcDbSymbolTableRecord
100
AcDbBlockTableRecord
  2
F15T-15
  0
ENDTAB
  0
ENDSEC
  0
SECTION
  2
BLOCKS
  0
BLOCK
  5
D
100
AcDbEntity
  8
0
100
AcDbBlockBegin
  2
*MODEL_SPACE
 70
               0
 10
0.0
 20
0.0
 30
0.0
  3
*MODEL_SPACE
  1

  0
ENDBLK
  5
E
100
AcDbEntity
  8
0
100
AcDbBlockEnd
  0
BLOCK
  5
F
100
AcDbEntity
 67
               1
  8
0
100
AcDbBlockBegin
  2
*PAPER_SPACE
 70
               0
 10
0.0
 20
0.0
 30
0.0
  3
*PAPER_SPACE
  1

  0
ENDBLK
  5
10
100
AcDbEntity
 67
               1
  8
0
100
AcDbBlockEnd
  0
BLOCK
  5
2D
100
AcDbEntity
  8
0
100
AcDbBlockBegin
  2
F15T-1
 70
               0
 10
0.0
 20
0.0
 30
0.0
  3
F15T-1
  1

  0
LINE
  5
2E
100
AcDbEntity
  8
0
  6
CONTINUOUS
 62
               7
100
AcDbLine
 10
6.5
 20
7.9998454172497873
 30
0.0
 11
16.5
 21
7.9998454172497873
 31
0.0
  0
LINE
  5
2F
100
AcDbEntity
  8
0
  6
CONTINUOUS
 62
               7
100
AcDbLine
 10
6.4999847412109375
 20
19.399839313734162
 30
0.0
 11
16.499984741210937
 21
19.399839313734162
 31
0.0
  0
LINE
  5
30
100
AcDbEntity
  8
0
  6
CONTINUOUS
 62
               7
100
AcDbLine
 10
6.4999847412109375
 20
9.9998454172497873
 30
0.0
 11
16.499984741210937
 21
9.9998454172497873
 31
0.0
  0
LINE
  5
32
100
AcDbEntity
  8
0
  6
CENTER
 62
               2
100
AcDbLine
 10
8.9999847412109375
 20
16.199842365491975
 30
0.0
 11
13.999984741210938
 21
16.199842365491975
 31
0.0
  0
LINE
  5
33
100
AcDbEntity
  8
0
  6
CONTINUOUS
 62
               2
100
AcDbLine
 10
11.5
 20
-69.666811076890838
 30
0.0
 11
11.5
 21
65.2549265940076
 31
0.0
  0
LINE
  5
34
100
AcDbEntity
  8
0
  6
CONTINUOUS
 62
               4
100
AcDbLine
 10
6.4999847412109375
 20
43.499845417249787
 30
0.0
 11
16.499984741210937
 21
43.499845417249787
 31
0.0
  0
LINE
  5
35
100
AcDbEntity
  8
0
  6
CONTINUOUS
 62
               7
100
AcDbLine
 10
6.4999847412109375
 20
19.499845417249787
 30
0.0
 11
16.499984741210937
 21
19.499845417249787
 31
0.0
  0
LINE
  5
36
100
AcDbEntity
  8
0
  6
CONTINUOUS
 62
               7
100
AcDbLine
 10
9.5731964111328125
 20
15.899839313734162
 30
0.0
 11
13.426773071289063
 21
15.899839313734162
 31
0.0
  0
LINE
  5
37
100
AcDbEntity
  8
0
  6
CONTINUOUS
 62
               7
100
AcDbLine
 10
9.5731964111328125
 20
16.499845417249787
 30
0.0
 11
13.426773071289063
 21
16.499845417249787
 31
0.0
  0
LINE
  5
38
100
AcDbEntity
  8
0
  6
CONTINUOUS
 62
               4
100
AcDbLine
 10
6.54998779296875
 20
43.49986067603885
 30
0.0
 11
6.54998779296875
 21
56.99986067603885
 31
0.0
  0
LINE
  5
39
100
AcDbEntity
  8
0
  6
CONTINUOUS
 62
               4
100
AcDbLine
 10
16.0
 20
52.499845417249787
 30
0.0
 11
7.0
 21
52.499845417249787
 31
0.0
  0
LINE
  5
3A
100
AcDbEntity
  8
0
  6
CONTINUOUS
 62
               4
100
AcDbLine
 10
16.449981689453125
 20
47.999845417249787
 30
0.0
 11
6.54998779296875
 21
47.999845417249787
 31
0.0
  0
LINE
  5
3B
100
AcDbEntity
  8
0
  6
CONTINUOUS
 62
               4
100
AcDbLine
 10
16.449981689453125
 20
43.499845417249787
 30
0.0
 11
16.449981689453125
 21
56.99986067603885
 31
0.0
  0
LINE
  5
3C
100
AcDbEntity
  8
0
  6
CONTINUOUS
 62
               4
100
AcDbLine
 10
6.54998779296875
 20
56.999845417249787
 30
0.0
 11
8.0
 21
56.999845417249787
 31
0.0
  0
LINE
  5
3D
100
AcDbEntity
  8
0
  6
CONTINUOUS
 62
               4
100
AcDbLine
 10
7.4499969482421875
 20
52.49986067603885
 30
0.0
 11
7.4499969482421875
 21
54.99986067603885
 31
0.0
  0
LINE
  5
3E
100
AcDbEntity
  8
0
  6
CONTINUOUS
 62
               4
100
AcDbLine
 10
15.54998779296875
 20
52.499845417249787
 30
0.0
 11
15.54998779296875
 21
54.99986067603885
 31
0.0
  0
LINE
  5
3F
100
AcDbEntity
  8
0
  6
CONTINUOUS
 62
               4
100
AcDbLine
 10
15.0
 20
52.998304279554475
 30
0.0
 11
15.0
 21
63.499845417249787
 31
0.0
  0
LINE
  5
40
100
AcDbEntity
  8
0
  6
CONTINUOUS
 62
               4
100
AcDbLine
 10
8.0
 20
52.998304279554475
 30
0.0
 11
8.0
 21
63.499845417249787
 31
0.0
  0
LINE
  5
41
100
AcDbEntity
  8
0
  6
CONTINUOUS
 62
               4
100
AcDbLine
 10
8.0
 20
52.998304279554475
 30
0.0
 11
15.0
 21
52.998304279554475
 31
0.0
  0
LINE
  5
42
100
AcDbEntity
  8
0
  6
CONTINUOUS
 62
               4
100
AcDbLine
 10
8.0
 20
56.555997760999787
 30
0.0
 11
15.0
 21
56.555997760999787
 31
0.0
  0
LINE
  5
43
100
AcDbEntity
  8
0
  6
CONTINUOUS
 62
               4
100
AcDbLine
 10
8.0
 20
61.999845417249787
 30
0.0
 11
15.0
 21
61.999845417249787
 31
0.0
  0
LINE
  5
44
100
AcDbEntity
  8
0
  6
CONTINUOUS
 62
               4
100
AcDbLine
 10
6.5999908447265625
 20
63.499845417249787
 30
0.0
 11
16.399993896484375
 21
63.499845417249787
 31
0.0
  0
LINE
  5
45
100
AcDbEntity
  8
0
  6
CONTINUOUS
 62
               4
100
AcDbLine
 10
15.0
 20
56.999845417249787
 30
0.0
 11
16.449996948242188
 21
56.999845417249787
 31
0.0
  0
LINE
  5
46
100
AcDbEntity
  8
0
  6
CONTINUOUS
 62
               4
100
AcDbLine
 10
15.0
 20
55.999845417249787
 30
0.0
 11
15.550003051757813
 21
55.999845417249787
 31
0.0
  0
LINE
  5
47
100
AcDbEntity
  8
0
  6
CONTINUOUS
 62
               4
100
AcDbLine
 10
15.0
 20
54.999845417249787
 30
0.0
 11
15.550003051757813
 21
54.999845417249787
 31
0.0
  0
LINE
  5
48
100
AcDbEntity
  8
0
  6
CONTINUOUS
 62
               4
100
AcDbLine
 10
7.4499969482421875
 20
55.999845417249787
 30
0.0
 11
8.0
 21
55.999845417249787
 31
0.0
  0
LINE
  5
49
100
AcDbEntity
  8
0
  6
CONTINUOUS
 62
               4
100
AcDbLine
 10
7.4499969482421875
 20
54.999845417249787
 30
0.0
 11
8.0
 21
54.999845417249787
 31
0.0
  0
LINE
  5
4A
100
AcDbEntity
  8
0
  6
CONTINUOUS
 62
               4
100
AcDbLine
 10
7.4499969482421875
 20
55.99986067603885
 30
0.0
 11
7.4499969482421875
 21
56.99986067603885
 31
0.0
  0
LINE
  5
4B
100
AcDbEntity
  8
0
  6
CONTINUOUS
 62
               4
100
AcDbLine
 10
15.54998779296875
 20
55.99986067603885
 30
0.0
 11
15.54998779296875
 21
56.99986067603885
 31
0.0
  0
LINE
  5
4C
100
AcDbEntity
  8
0
  6
CONTINUOUS
 62
               4
100
AcDbLine
 10
10.214996337890625
 20
67.673170002210725
 30
0.0
 11
10.214996337890625
 21
71.499845417249787
 31
0.0
  0
LINE
  5
4D
100
AcDbEntity
  8
0
  6
CONTINUOUS
 62
               4
100
AcDbLine
 10
8.7849884033203125
 20
67.290006550062287
 30
0.0
 11
8.7849884033203125
 21
71.499845417249787
 31
0.0
  0
LINE
  5
4E
100
AcDbEntity
  8
0
  6
CONTINUOUS
 62
               4
100
AcDbLine
 10
8.7849884033203125
 20
71.499845417249787
 30
0.0
 11
10.214996337890625
 21
71.499845417249787
 31
0.0
  0
LINE
  5
4F
100
AcDbEntity
  8
0
  6
CONTINUOUS
 62
               4
100
AcDbLine
 10
9.899993896484375
 20
71.499845417249787
 30
0.0
 11
9.899993896484375
 21
76.499845417249787
 31
0.0
  0
LINE
  5
50
100
AcDbEntity
  8
0
  6
CONTINUOUS
 62
               4
100
AcDbLine
 10
9.0999908447265625
 20
71.499845417249787
 30
0.0
 11
9.0999908447265625
 21
76.499845417249787
 31
0.0
  0
LINE
  5
51
100
AcDbEntity
  8
0
  6
CONTINUOUS
 62
               4
100
AcDbLine
 10
9.0999908447265625
 20
76.499845417249787
 30
0.0
 11
9.899993896484375
 21
76.499845417249787
 31
0.0
  0
LINE
  5
52
100
AcDbEntity
  8
0
  6
CONTINUOUS
 62
               4
100
AcDbLine
 10
10.214996337890625
 20
63.499845417249787
 30
0.0
 11
10.214996337890625
 21
66.637891681898225
 31
0.0
  0
LINE
  5
53
100
AcDbEntity
  8
0
  6
CONTINUOUS
 62
               4
100
AcDbLine
 10
8.7849884033203125
 20
63.499845417249787
 30
0.0
 11
8.7849884033203125
 21
66.254728229749787
 31
0.0
  0
LINE
  5
54
100
AcDbEntity
  8
0
  6
CONTINUOUS
 62
               7
100
AcDbLine
 10
16.5
 20
7.9998454172497873
 30
0.0
 11
16.5
 21
19.499845417249787
 31
0.0
  0
LINE
  5
55
100
AcDbEntity
  8
0
  6
CONTINUOUS
 62
               7
100
AcDbLine
 10
6.5
 20
7.9998454172497873
 30
0.0
 11
6.5
 21
19.499845417249787
 31
0.0
  0
LINE
  5
56
100
AcDbEntity
  8
0
  6
CONTINUOUS
 62
               7
100
AcDbLine
 10
19.0
 20
-66.500154582750213
 30
0.0
 11
19.0
 21
-44.530931560289275
 31
0.0
  0
LINE
  5
57
100
AcDbEntity
  8
0
  6
CONTINUOUS
 62
               7
100
AcDbLine
 10
4.0
 20
-66.500154582750213
 30
0.0
 11
4.0
 21
-43.00013932396115
 31
0.0
  0
LINE
  5
58
100
AcDbEntity
  8
0
  6
CONTINUOUS
 62
               7
100
AcDbLine
 10
3.9999847412109375
 20
-2.0001545827502127
 30
0.0
 11
18.999984741210937
 21
-2.0001545827502127
 31
0.0
  0
LINE
  5
59
100
AcDbEntity
  8
0
  6
CONTINUOUS
 62
               7
100
AcDbLine
 10
5.9999984398021411
 20
8.4998433145079844
 30
0.0
 11
3.9999953050976842
 21
6.4998422028544383
 31
0.0
  0
LINE
  5
5A
100
AcDbEntity
  8
0
  6
CONTINUOUS
 62
               7
100
AcDbLine
 10
16.999989676056884
 20
8.4998387204920505
 30
0.0
 11
18.999983538454217
 21
6.4998445209209308
 31
0.0
  0
LINE
  5
5B
100
AcDbEntity
  8
0
  6
CONTINUOUS
 62
               7
100
AcDbLine
 10
16.999984741210937
 20
-5.8001576345080252
 30
0.0
 11
18.699996948242188
 21
-5.8001576345080252
 31
0.0
  0
LINE
  5
5C
100
AcDbEntity
  8
0
  6
CONTINUOUS
 62
               7
100
AcDbLine
 10
5.9999847412109375
 20
-44.200136272203338
 30
0.0
 11
4.29998779296875
 21
-44.200136272203338
 31
0.0
  0
LINE
  5
5D
100
AcDbEntity
  8
0
  6
CONTINUOUS
 62
               7
100
AcDbLine
 10
5.9999847412109375
 20
-38.800142375718963
 30
0.0
 11
4.29998779296875
 21
-38.800142375718963
 31
0.0
  0
LINE
  5
5E
100
AcDbEntity
  8
0
  6
CONTINUOUS
 62
               7
100
AcDbLine
 10
16.999984741210937
 20
-11.200136272203338
 30
0.0
 11
18.699996948242188
 21
-11.200136272203338
 31
0.0
  0
LINE
  5
5F
100
AcDbEntity
  8
0
  6
CONTINUOUS
 62
               7
100
AcDbLine
 10
18.699996948242188
 20
-2.2001667897814627
 30
0.0
 11
4.29998779296875
 21
-2.2001667897814627
 31
0.0
  0
LINE
  5
60
100
AcDbEntity
  8
0
  6
CONTINUOUS
 62
               7
100
AcDbLine
 10
18.699996948242188
 20
-47.800142375718963
 30
0.0
 11
4.29998779296875
 21
-47.800142375718963
 31
0.0
  0
LINE
  5
61
100
AcDbEntity
  8
0
  6
CONTINUOUS
 62
               7
100
AcDbLine
 10
5.9999847412109375
 20
-9.2001362722033377
 30
0.0
 11
3.9999847412109375
 21
-9.2001362722033377
 31
0.0
  0
LINE
  5
62
100
AcDbEntity
  8
0
  6
CONTINUOUS
 62
               7
100
AcDbLine
 10
16.999984741210937
 20
-40.800142375718963
 30
0.0
 11
18.999984741210937
 21
-40.800142375718963
 31
0.0
  0
LINE
  5
63
100
AcDbEntity
  8
0
  6
CONTINUOUS
 62
               7
100
AcDbLine
 10
14.300003051757813
 20
-43.500154582750213
 30
0.0
 11
14.300003051757813
 21
-47.800142375718963
 31
0.0
  0
LINE
  5
64
100
AcDbEntity
  8
0
  6
CONTINUOUS
 62
               7
100
AcDbLine
 10
8.70001220703125
 20
-2.2001667897814627
 30
0.0
 11
8.70001220703125
 21
-6.5001545827502127
 31
0.0
  0
LINE
  5
65
100
AcDbEntity
  8
0
  6
CONTINUOUS
 62
               7
100
AcDbLine
 10
14.29998779296875
 20
-45.800142375718963
 30
0.0
 11
3.9999847412109375
 21
-45.800142375718963
 31
0.0
  0
LINE
  5
66
100
AcDbEntity
  8
0
  6
CONTINUOUS
 62
               7
100
AcDbLine
 10
18.999984741210937
 20
-4.2001667897814627
 30
0.0
 11
8.6999969482421875
 21
-4.2001667897814627
 31
0.0
  0
LINE
  5
67
100
AcDbEntity
  8
0
  6
CONTINUOUS
 62
               7
100
AcDbLine
 10
3.9999847412109375
 20
-48.000154582750213
 30
0.0
 11
18.999984741210937
 21
-48.000154582750213
 31
0.0
  0
LINE
  5
68
100
AcDbEntity
  8
0
  6
CONTINUOUS
 62
               7
100
AcDbLine
 10
3.9999847412109375
 20
-58.000154582750213
 30
0.0
 11
18.999984741210937
 21
-58.000154582750213
 31
0.0
  0
LINE
  5
69
100
AcDbEntity
  8
0
  6
CONTINUOUS
 62
               7
100
AcDbLine
 10
4.9999847412109375
 20
-57.000154582750213
 30
0.0
 11
17.999984741210937
 21
-57.000154582750213
 31
0.0
  0
LINE
  5
6A
100
AcDbEntity
  8
0
  6
CONTINUOUS
 62
               7
100
AcDbLine
 10
4.9999847412109375
 20
-49.000154582750213
 30
0.0
 11
17.999984741210937
 21
-49.000154582750213
 31
0.0
  0
LINE
  5
6B
100
AcDbEntity
  8
0
  6
CONTINUOUS
 62
               7
100
AcDbLine
 10
18.0
 20
-57.000154582750213
 30
0.0
 11
18.0
 21
-49.000154582750213
 31
0.0
  0
LINE
  5
6C
100
AcDbEntity
  8
0
  6
CONTINUOUS
 62
               7
100
AcDbLine
 10
5.0
 20
-57.000154582750213
 30
0.0
 11
5.0
 21
-49.000154582750213
 31
0.0
  0
LINE
  5
6D
100
AcDbEntity
  8
0
  6
CONTINUOUS
 62
               7
100
AcDbLine
 10
3.9999596488557927
 20
-48.000172284675443
 30
0.0
 11
4.9999606261515055
 21
-49.000173430558732
 31
0.0
  0
LINE
  5
6E
100
AcDbEntity
  8
0
  6
CONTINUOUS
 62
               7
100
AcDbLine
 10
18.999995128837327
 20
-48.000153992946537
 30
0.0
 11
17.999993982954038
 21
-49.000154970242249
 31
0.0
  0
LINE
  5
6F
100
AcDbEntity
  8
0
  6
CONTINUOUS
 62
               7
100
AcDbLine
 10
17.999960265474101
 20
-57.000174926898069
 30
0.0
 11
18.999961242769814
 21
-58.000176072781358
 31
0.0
  0
LINE
  5
70
100
AcDbEntity
  8
0
  6
CONTINUOUS
 62
               7
100
AcDbLine
 10
4.9999909718837898
 20
-57.00015090319738
 30
0.0
 11
3.9999898260005011
 21
-58.000151880493092
 31
0.0
  0
LINE
  5
71
100
AcDbEntity
  8
0
  6
CONTINUOUS
 62
               7
100
AcDbLine
 10
4.4999847412109375
 20
-67.000154582750213
 30
0.0
 11
18.499984741210938
 21
-67.000154582750213
 31
0.0
  0
LINE
  5
72
100
AcDbEntity
  8
0
  6
CONTINUOUS
 62
               7
100
AcDbLine
 10
17.919229334043848
 20
-9.4193755106892354
 30
0.0
 11
16.08075229400481
 21
-7.5808980057340705
 31
0.0
  0
LINE
  5
73
100
AcDbEntity
  8
0
  6
CONTINUOUS
 62
               7
100
AcDbLine
 10
6.9192329558608208
 20
-7.4194090015985239
 30
0.0
 11
5.0807538927732594
 21
-5.580929473594324
 31
0.0
  0
LINE
  5
74
100
AcDbEntity
  8
0
  6
CONTINUOUS
 62
               7
100
AcDbLine
 10
5.0807630522560885
 20
-7.4193985206496222
 30
0.0
 11
6.9192343330926178
 21
-5.5809273947846236
 31
0.0
  0
LINE
  5
75
100
AcDbEntity
  8
0
  6
CONTINUOUS
 62
               7
100
AcDbLine
 10
16.080750832478316
 20
-9.4193769151518723
 30
0.0
 11
17.919232902908789
 21
-7.5808949996938395
 31
0.0
  0
LINE
  5
76
100
AcDbEntity
  8
0
  6
CONTINUOUS
 62
               7
100
AcDbLine
 10
4.0
 20
-5.4694081227892752
 30
0.0
 11
4.0
 21
6.4998454172497873
 31
0.0
  0
LINE
  5
77
100
AcDbEntity
  8
0
  6
CONTINUOUS
 62
               7
100
AcDbLine
 10
19.0
 20
-42.46937760521115
 30
0.0
 11
19.0
 21
-10.000108806383025
 31
0.0
  0
LINE
  5
78
100
AcDbEntity
  8
0
  6
CONTINUOUS
 62
               4
100
AcDbLine
 10
16.399993896484375
 20
56.99986067603885
 30
0.0
 11
16.399993896484375
 21
63.499845417249787
 31
0.0
  0
LINE
  5
79
100
AcDbEntity
  8
0
  6
CONTINUOUS
 62
               4
100
AcDbLine
 10
6.5999908447265625
 20
56.99986067603885
 30
0.0
 11
6.5999908447265625
 21
63.499845417249787
 31
0.0
  0
LINE
  5
7A
100
AcDbEntity
  8
0
  6
CONTINUOUS
 62
               4
100
AcDbLine
 10
7.5
 20
56.99986067603885
 30
0.0
 11
7.5
 21
63.499845417249787
 31
0.0
  0
LINE
  5
7B
100
AcDbEntity
  8
0
  6
CONTINUOUS
 62
               4
100
AcDbLine
 10
15.5
 20
56.99986067603885
 30
0.0
 11
15.5
 21
63.499845417249787
 31
0.0
  0
LINE
  5
7C
100
AcDbEntity
  8
0
  6
CONTINUOUS
 62
               7
100
AcDbLine
 10
-3.5000152587890625
 20
-56.00013932396115
 30
0.0
 11
3.9999847412109375
 21
-56.00013932396115
 31
0.0
  0
LINE
  5
7D
100
AcDbEntity
  8
0
  6
CONTINUOUS
 62
               7
100
AcDbLine
 10
-3.5
 20
5.9998454172497873
 30
0.0
 11
4.0
 21
5.9998454172497873
 31
0.0
  0
LINE
  5
7E
100
AcDbEntity
  8
0
  6
CONTINUOUS
 62
               7
100
AcDbLine
 10
26.5
 20
-56.00013932396115
 30
0.0
 11
26.5
 21
5.9998454172497873
 31
0.0
  0
LINE
  5
7F
100
AcDbEntity
  8
0
  6
CONTINUOUS
 62
               7
100
AcDbLine
 10
-3.5
 20
-56.00013932396115
 30
0.0
 11
-3.5
 21
5.9998454172497873
 31
0.0
  0
LINE
  5
80
100
AcDbEntity
  8
0
  6
CONTINUOUS
 62
               7
100
AcDbLine
 10
18.999984741210937
 20
-56.00013932396115
 30
0.0
 11
26.499984741210938
 21
-56.00013932396115
 31
0.0
  0
LINE
  5
81
100
AcDbEntity
  8
0
  6
CONTINUOUS
 62
               7
100
AcDbLine
 10
19.0
 20
5.9998454172497873
 30
0.0
 11
26.5
 21
5.9998454172497873
 31
0.0
  0
LINE
  5
82
100
AcDbEntity
  8
0
  6
CONTINUOUS
 62
               2
100
AcDbLine
 10
-2.70001220703125
 20
-50.00013932396115
 30
0.0
 11
2.6999969482421875
 21
-50.00013932396115
 31
0.0
  0
LINE
  5
83
100
AcDbEntity
  8
0
  6
CONTINUOUS
 62
               2
100
AcDbLine
 10
-2.70001220703125
 20
-0.0001545827502127
 30
0.0
 11
2.6999969482421875
 21
-0.0001545827502127
 31
0.0
  0
LINE
  5
84
100
AcDbEntity
  8
0
  6
CONTINUOUS
 62
               2
100
AcDbLine
 10
0.0
 20
-52.700136272203338
 30
0.0
 11
0.0
 21
-47.300142375718963
 31
0.0
  0
LINE
  5
85
100
AcDbEntity
  8
0
  6
CONTINUOUS
 62
               2
100
AcDbLine
 10
0.0
 20
-2.7001515309924002
 30
0.0
 11
0.0
 21
2.6998576242810373
 31
0.0
  0
LINE
  5
86
100
AcDbEntity
  8
0
  6
CONTINUOUS
 62
               7
100
AcDbLine
 10
16.080743962541419
 20
-44.419388571941738
 30
0.0
 11
17.919215243377948
 21
-42.580917446076739
 31
0.0
  0
LINE
  5
87
100
AcDbEntity
  8
0
  6
CONTINUOUS
 62
               7
100
AcDbLine
 10
17.919214119027856
 20
-44.419403351868198
 30
0.0
 11
16.080743148134388
 21
-42.580931916060138
 31
0.0
  0
LINE
  5
88
100
AcDbEntity
  8
0
  6
CONTINUOUS
 62
               7
100
AcDbLine
 10
5.0807534849227522
 20
-42.419364321667047
 30
0.0
 11
6.9192247657592816
 21
-40.580893195802048
 31
0.0
  0
LINE
  5
89
100
AcDbEntity
  8
0
  6
CONTINUOUS
 62
               7
100
AcDbLine
 10
6.9192238099985843
 20
-42.419378174363658
 30
0.0
 11
5.0807528391051164
 21
-40.580906738555598
 31
0.0
  0
LINE
  5
8A
100
AcDbEntity
  8
0
  6
CONTINUOUS
 62
               7
100
AcDbLine
 10
4.0
 20
-40.00013932396115
 30
0.0
 11
4.0
 21
-7.5309163015002127
 31
0.0
  0
LINE
  5
8B
100
AcDbEntity
  8
0
  6
CONTINUOUS
 62
               7
100
AcDbLine
 10
19.0
 20
-7.0001545827502127
 30
0.0
 11
19.0
 21
6.4998454172497873
 31
0.0
  0
CIRCLE
  5
8C
100
AcDbEntity
  8
0
  6
CONTINUOUS
 62
               7
100
AcDbCircle
 10
11.5
 20
16.199842365491975
 30
0.0
 40
2.0
  0
CIRCLE
  5
8D
100
AcDbEntity
  8
0
  6
CONTINUOUS
 62
               7
100
AcDbCircle
 10
11.5
 20
16.199842365491975
 30
0.0
 40
1.9499998092651367
  0
ARC
  5
8E
100
AcDbEntity
  8
0
  6
CONTINUOUS
 62
               4
100
AcDbCircle
 10
15.949996948242188
 20
51.999845417249787
 30
0.0
 40
0.5
100
AcDbArc
 50
359.99995901886416
 51
89.999982013910454
  0
ARC
  5
8F
100
AcDbEntity
  8
0
  6
CONTINUOUS
 62
               4
100
AcDbCircle
 10
7.04998779296875
 20
51.99986067603885
 30
0.0
 40
0.5
100
AcDbArc
 50
89.999982013910454
 51
179.99996402782091
  0
ARC
  5
90
100
AcDbEntity
  8
0
  6
CONTINUOUS
 62
               7
100
AcDbCircle
 10
16.999984741210937
 20
-8.5001393239611502
 30
0.0
 40
2.6999998092651367
100
AcDbArc
 50
89.999982013910454
 51
270.00000068324471
  0
ARC
  5
91
100
AcDbEntity
  8
0
  6
CONTINUOUS
 62
               7
100
AcDbCircle
 10
5.9999847412109375
 20
-41.500154582750213
 30
0.0
 40
2.6999998092651367
100
AcDbArc
 50
270.00001798608872
 51
89.999982013910454
  0
CIRCLE
  5
92
100
AcDbEntity
  8
0
  6
CONTINUOUS
 62
               7
100
AcDbCircle
 10
16.999984741210937
 20
-8.5001240651720877
 30
0.0
 40
2.25
  0
ARC
  5
93
100
AcDbEntity
  8
0
  6
CONTINUOUS
 62
               7
100
AcDbCircle
 10
6.0
 20
-6.5001393239611502
 30
0.0
 40
2.6999998092651367
100
AcDbArc
 50
270.00001798608872
 51
0.0
  0
ARC
  5
94
100
AcDbEntity
  8
0
  6
CONTINUOUS
 62
               7
100
AcDbCircle
 10
18.699996948242188
 20
-5.5001698415392752
 30
0.0
 40
0.300000011920929
100
AcDbArc
 50
270.00001798608872
 51
0.0
  0
ARC
  5
95
100
AcDbEntity
  8
0
  6
CONTINUOUS
 62
               7
100
AcDbCircle
 10
4.29998779296875
 20
-38.500154582750213
 30
0.0
 40
0.300000011920929
100
AcDbArc
 50
179.99996402782091
 51
270.00000068324471
  0
ARC
  5
96
100
AcDbEntity
  8
0
  6
CONTINUOUS
 62
               7
100
AcDbCircle
 10
18.699996948242188
 20
-11.50013932396115
 30
0.0
 40
0.300000011920929
100
AcDbArc
 50
0.0
 51
89.999982013910454
  0
ARC
  5
97
100
AcDbEntity
  8
0
  6
CONTINUOUS
 62
               7
100
AcDbCircle
 10
4.29998779296875
 20
-44.50013932396115
 30
0.0
 40
0.300000011920929
100
AcDbArc
 50
89.999982013910454
 51
179.99996402782091
  0
ARC
  5
98
100
AcDbEntity
  8
0
  6
CONTINUOUS
 62
               7
100
AcDbCircle
 10
4.29998779296875
 20
-2.5001393239611502
 30
0.0
 40
0.300000011920929
100
AcDbArc
 50
89.999982013910454
 51
179.99996402782091
  0
ARC
  5
99
100
AcDbEntity
  8
0
  6
CONTINUOUS
 62
               7
100
AcDbCircle
 10
18.699996948242188
 20
-2.5001545827502127
 30
0.0
 40
0.300000011920929
100
AcDbArc
 50
0.0
 51
89.999982013910454
  0
ARC
  5
9A
100
AcDbEntity
  8
0
  6
CONTINUOUS
 62
               7
100
AcDbCircle
 10
18.699996948242188
 20
-47.50013932396115
 30
0.0
 40
0.300000011920929
100
AcDbArc
 50
270.00001798608872
 51
0.0
  0
ARC
  5
9B
100
AcDbEntity
  8
0
  6
CONTINUOUS
 62
               7
100
AcDbCircle
 10
4.29998779296875
 20
-47.50013932396115
 30
0.0
 40
0.300000011920929
100
AcDbArc
 50
179.99996402782091
 51
270.00000068324471
  0
ARC
  5
9C
100
AcDbEntity
  8
0
  6
CONTINUOUS
 62
               7
100
AcDbCircle
 10
16.999984741210937
 20
-43.500154582750213
 30
0.0
 40
2.6999998092651367
100
AcDbArc
 50
89.999982013910454
 51
179.99996402782091
  0
ARC
  5
9D
100
AcDbEntity
  8
0
  6
CONTINUOUS
 62
               7
100
AcDbCircle
 10
4.4999847412109375
 20
-66.500154582750213
 30
0.0
 40
0.5
100
AcDbArc
 50
179.99996402782091
 51
269.99994604173139
  0
ARC
  5
9E
100
AcDbEntity
  8
0
  6
CONTINUOUS
 62
               7
100
AcDbCircle
 10
18.499984741210938
 20
-66.500154582750213
 30
0.0
 40
0.5
100
AcDbArc
 50
270.00001798608872
 51
0.00001366037834
  0
CIRCLE
  5
9F
100
AcDbEntity
  8
0
  6
CONTINUOUS
 62
               7
100
AcDbCircle
 10
6.0
 20
-6.5001545827502127
 30
0.0
 40
2.25
  0
CIRCLE
  5
A0
100
AcDbEntity
  8
0
  6
CONTINUOUS
 62
               7
100
AcDbCircle
 10
-0.0000152587890625
 20
-50.00013932396115
 30
0.0
 40
1.6999998092651367
  0
CIRCLE
  5
A1
100
AcDbEntity
  8
0
  6
CONTINUOUS
 62
               7
100
AcDbCircle
 10
0.0
 20
-0.0001393239611502
 30
0.0
 40
1.6999998092651367
  0
CIRCLE
  5
A2
100
AcDbEntity
  8
0
  6
CONTINUOUS
 62
               7
100
AcDbCircle
 10
16.999984741210937
 20
-43.500154582750213
 30
0.0
 40
2.25
  0
CIRCLE
  5
A3
100
AcDbEntity
  8
0
  6
CONTINUOUS
 62
               7
100
AcDbCircle
 10
6.0
 20
-41.50013932396115
 30
0.0
 40
2.25
  0
LINE
  5
A4
100
AcDbEntity
  8
0
  6
CONTINUOUS
 62
               7
100
AcDbLine
 10
6.0
 20
8.4998454172497873
 30
0.0
 11
6.5
 21
8.4998454172497873
 31
0.0
  0
LINE
  5
A5
100
AcDbEntity
  8
0
  6
CONTINUOUS
 62
               7
100
AcDbLine
 10
16.5
 20
8.4998454172497873
 30
0.0
 11
17.0
 21
8.4998454172497873
 31
0.0
  0
CIRCLE
  5
A6
100
AcDbEntity
  8
0
  6
CONTINUOUS
 62
               7
100
AcDbCircle
 10
16.999984741210937
 20
-8.5001240651720877
 30
0.0
 40
2.5
  0
CIRCLE
  5
A7
100
AcDbEntity
  8
0
  6
CONTINUOUS
 62
               7
100
AcDbCircle
 10
6.0
 20
-41.50013932396115
 30
0.0
 40
2.5
  0
LINE
  5
A8
100
AcDbEntity
  8
0
  6
CONTINUOUS
 62
             200
100
AcDbLine
 10
7.5000034056329241
 20
65.91041260186438
 30
0.0
 11
11.887141754489935
 21
67.085942789376901
 31
0.0
  0
LINE
  5
A9
100
AcDbEntity
  8
0
  6
CONTINUOUS
 62
             200
100
AcDbLine
 10
7.4999987124510881
 20
66.945687511360745
 30
0.0
 11
11.628322710853615
 21
68.051868602098153
 31
0.0
  0
LINE
  5
AA
100
AcDbEntity
  8
0
  6
CONTINUOUS
 62
               4
100
AcDbLine
 10
6.5
 20
19.499845417249787
 30
0.0
 11
6.5
 21
43.49986067603885
 31
0.0
  0
LINE
  5
AB
100
AcDbEntity
  8
0
  6
CONTINUOUS
 62
               4
100
AcDbLine
 10
16.5
 20
19.499845417249787
 30
0.0
 11
16.5
 21
43.499845417249787
 31
0.0
  0
ENDBLK
  5
AC
100
AcDbEntity
  8
0
100
AcDbBlockEnd
  0
BLOCK
  5
AD
100
AcDbEntity
  8
0
100
AcDbBlockBegin
  2
F15T-2
 70
               0
 10
0.0
 20
0.0
 30
0.0
  3
F15T-2
  1

  0
LINE
  5
AE
100
AcDbEntity
  8
0
  6
CONTINUOUS
 62
               7
100
AcDbLine
 10
2.999969482421875
 20
25.499984741210937
 30
0.0
 11
12.999969482421875
 21
25.499984741210937
 31
0.0
  0
LINE
  5
AF
100
AcDbEntity
  8
0
  6
CONTINUOUS
 62
               7
100
AcDbLine
 10
15.499969482421875
 20
-49.000015258789063
 30
0.0
 11
15.499969482421875
 21
-30.500015258789063
 31
0.0
  0
LINE
  5
B0
100
AcDbEntity
  8
0
  6
CONTINUOUS
 62
               7
100
AcDbLine
 10
0.499969482421875
 20
-49.000015258789063
 30
0.0
 11
0.499969482421875
 21
-30.500015258789063
 31
0.0
  0
LINE
  5
B1
100
AcDbEntity
  8
0
  6
CONTINUOUS
 62
               7
100
AcDbLine
 10
2.4999786760514553
 20
25.999985130493883
 30
0.0
 11
0.4999748669970927
 21
23.999983344491113
 31
0.0
  0
LINE
  5
B2
100
AcDbEntity
  8
0
  6
CONTINUOUS
 62
               7
100
AcDbLine
 10
13.499962663070164
 20
25.999972191404368
 30
0.0
 11
15.49996461766159
 21
23.99996989963779
 31
0.0
  0
LINE
  5
B3
100
AcDbEntity
  8
0
  6
CONTINUOUS
 62
               7
100
AcDbLine
 10
0.4999542236328125
 20
-40.500015258789063
 30
0.0
 11
15.499969482421875
 21
-40.500015258789063
 31
0.0
  0
LINE
  5
B4
100
AcDbEntity
  8
0
  6
CONTINUOUS
 62
               7
100
AcDbLine
 10
0.9999542236328125
 20
-49.500015258789063
 30
0.0
 11
14.999969482421875
 21
-49.500015258789063
 31
0.0
  0
LINE
  5
B5
100
AcDbEntity
  8
0
  6
CONTINUOUS
 62
               7
100
AcDbLine
 10
0.499969482421875
 20
15.499969482421875
 30
0.0
 11
0.499969482421875
 21
23.999984741210937
 31
0.0
  0
LINE
  5
B6
100
AcDbEntity
  8
0
  6
CONTINUOUS
 62
               7
100
AcDbLine
 10
15.499969482421875
 20
15.499969482421875
 30
0.0
 11
15.499969482421875
 21
23.999984741210937
 31
0.0
  0
LINE
  5
B7
100
AcDbEntity
  8
0
  6
CONTINUOUS
 62
               7
100
AcDbLine
 10
6.249969482421875
 20
-47.500015258789063
 30
0.0
 11
6.249969482421875
 21
-47.000015258789063
 31
0.0
  0
LINE
  5
B8
100
AcDbEntity
  8
0
  6
CONTINUOUS
 62
               7
100
AcDbLine
 10
0.7499847412109375
 20
-47.500015258789063
 30
0.0
 11
0.7499847412109375
 21
-47.000015258789063
 31
0.0
  0
LINE
  5
B9
100
AcDbEntity
  8
0
  6
CONTINUOUS
 62
               7
100
AcDbLine
 10
4.749969482421875
 20
-49.000015258789063
 30
0.0
 11
2.249969482421875
 21
-49.000015258789063
 31
0.0
  0
LINE
  5
BA
100
AcDbEntity
  8
0
  6
CONTINUOUS
 62
               7
100
AcDbLine
 10
6.6999664306640625
 20
-49.20001220703125
 30
0.0
 11
6.6999664306640625
 21
-47.300018310546875
 31
0.0
  0
LINE
  5
BB
100
AcDbEntity
  8
0
  6
CONTINUOUS
 62
               7
100
AcDbLine
 10
6.39996337890625
 20
-47.000015258789063
 30
0.0
 11
0.499969482421875
 21
-47.000015258789063
 31
0.0
  0
LINE
  5
BC
100
AcDbEntity
  8
0
  6
CONTINUOUS
 62
               7
100
AcDbLine
 10
2.999969482421875
 20
36.899978637695313
 30
0.0
 11
12.999969482421875
 21
36.899978637695313
 31
0.0
  0
LINE
  5
BD
100
AcDbEntity
  8
0
  6
CONTINUOUS
 62
               7
100
AcDbLine
 10
2.999969482421875
 20
27.499984741210938
 30
0.0
 11
12.999969482421875
 21
27.499984741210938
 31
0.0
  0
LINE
  5
BE
100
AcDbEntity
  8
0
  6
CONTINUOUS
 62
               4
100
AcDbLine
 10
2.9999847412109375
 20
61.0
 30
0.0
 11
12.999984741210938
 21
61.0
 31
0.0
  0
LINE
  5
BF
100
AcDbEntity
  8
0
  6
CONTINUOUS
 62
               7
100
AcDbLine
 10
2.999969482421875
 20
36.999984741210938
 30
0.0
 11
12.999969482421875
 21
36.999984741210938
 31
0.0
  0
LINE
  5
C0
100
AcDbEntity
  8
0
  6
CONTINUOUS
 62
               4
100
AcDbLine
 10
3.0499725341796875
 20
60.999984741210937
 30
0.0
 11
3.0499725341796875
 21
80.999984741210937
 31
0.0
  0
LINE
  5
C1
100
AcDbEntity
  8
0
  6
CONTINUOUS
 62
               4
100
AcDbLine
 10
12.949966430664063
 20
60.999984741210937
 30
0.0
 11
12.949966430664063
 21
80.999984741210937
 31
0.0
  0
LINE
  5
C2
100
AcDbEntity
  8
0
  6
CONTINUOUS
 62
               4
100
AcDbLine
 10
9.2849578857421875
 20
80.999984741210937
 30
0.0
 11
9.2849578857421875
 21
84.82666015625
 31
0.0
  0
LINE
  5
C3
100
AcDbEntity
  8
0
  6
CONTINUOUS
 62
               4
100
AcDbLine
 10
10.714981079101563
 20
80.999984741210937
 30
0.0
 11
10.714981079101563
 21
85.2098388671875
 31
0.0
  0
LINE
  5
C4
100
AcDbEntity
  8
0
  6
CONTINUOUS
 62
               4
100
AcDbLine
 10
9.5999603271484375
 20
88.999984741210938
 30
0.0
 11
9.5999603271484375
 21
93.999984741210937
 31
0.0
  0
LINE
  5
C5
100
AcDbEntity
  8
0
  6
CONTINUOUS
 62
               4
100
AcDbLine
 10
10.399978637695312
 20
88.999984741210938
 30
0.0
 11
10.399978637695312
 21
93.999984741210937
 31
0.0
  0
LINE
  5
C6
100
AcDbEntity
  8
0
  6
CONTINUOUS
 62
               4
100
AcDbLine
 10
9.5999603271484375
 20
93.999984741210937
 30
0.0
 11
10.39996337890625
 21
93.999984741210937
 31
0.0
  0
LINE
  5
C7
100
AcDbEntity
  8
0
  6
CONTINUOUS
 62
               4
100
AcDbLine
 10
9.2849578857421875
 20
88.999984741210938
 30
0.0
 11
10.7149658203125
 21
88.999984741210938
 31
0.0
  0
LINE
  5
C8
100
AcDbEntity
  8
0
  6
CONTINUOUS
 62
               4
100
AcDbLine
 10
9.2849578857421875
 20
85.8619384765625
 30
0.0
 11
9.2849578857421875
 21
88.999984741210938
 31
0.0
  0
LINE
  5
C9
100
AcDbEntity
  8
0
  6
CONTINUOUS
 62
               4
100
AcDbLine
 10
10.714981079101563
 20
86.2451171875
 30
0.0
 11
10.714981079101563
 21
88.999984741210938
 31
0.0
  0
LINE
  5
CA
100
AcDbEntity
  8
0
  6
CONTINUOUS
 62
               4
100
AcDbLine
 10
3.0499725341796875
 20
80.999984741210937
 30
0.0
 11
12.949966430664063
 21
80.999984741210937
 31
0.0
  0
LINE
  5
CB
100
AcDbEntity
  8
0
  6
CONTINUOUS
 62
               7
100
AcDbLine
 10
12.999969482421875
 20
25.499984741210937
 30
0.0
 11
12.999969482421875
 21
36.999984741210938
 31
0.0
  0
LINE
  5
CC
100
AcDbEntity
  8
0
  6
CONTINUOUS
 62
               7
100
AcDbLine
 10
2.999969482421875
 20
25.499984741210937
 30
0.0
 11
2.999969482421875
 21
36.999984741210938
 31
0.0
  0
LINE
  5
CD
100
AcDbEntity
  8
0
  6
CONTINUOUS
 62
               2
100
AcDbLine
 10
7.999969482421875
 20
-52.802886962890625
 30
0.0
 11
7.999969482421875
 21
82.755050659179688
 31
0.0
  0
LINE
  5
CE
100
AcDbEntity
  8
0
  6
CONTINUOUS
 62
               4
100
AcDbLine
 10
7.3999786376953125
 20
71.499984741210938
 30
0.0
 11
8.5999603271484375
 21
71.499984741210938
 31
0.0
  0
LINE
  5
CF
100
AcDbEntity
  8
0
  6
CONTINUOUS
 62
               4
100
AcDbLine
 10
8.5999603271484375
 20
74.499984741210938
 30
0.0
 11
8.5999603271484375
 21
71.499984741210938
 31
0.0
  0
LINE
  5
D0
100
AcDbEntity
  8
0
  6
CONTINUOUS
 62
               4
100
AcDbLine
 10
7.3999786376953125
 20
74.499984741210938
 30
0.0
 11
7.3999786376953125
 21
71.499984741210938
 31
0.0
  0
LINE
  5
D1
100
AcDbEntity
  8
0
  6
CONTINUOUS
 62
               4
100
AcDbLine
 10
9.1000193486997887
 20
74.499938334543913
 30
0.0
 11
8.6000171320292793
 21
73.999939489624921
 31
0.0
  0
LINE
  5
D2
100
AcDbEntity
  8
0
  6
CONTINUOUS
 62
               4
100
AcDbLine
 10
6.8999712593431468
 20
74.499959533563015
 30
0.0
 11
7.3999612112747855
 21
73.999970003091221
 31
0.0
  0
LINE
  5
D3
100
AcDbEntity
  8
0
  6
CONTINUOUS
 62
               4
100
AcDbLine
 10
3.0499725341796875
 20
79.999984741210938
 30
0.0
 11
12.949966430664063
 21
79.999984741210938
 31
0.0
  0
LINE
  5
D4
100
AcDbEntity
  8
0
  6
CONTINUOUS
 62
               4
100
AcDbLine
 10
3.0499725341796875
 20
74.499984741210938
 30
0.0
 11
7.3999786376953125
 21
74.499984741210938
 31
0.0
  0
LINE
  5
D5
100
AcDbEntity
  8
0
  6
CONTINUOUS
 62
               4
100
AcDbLine
 10
8.5999603271484375
 20
74.499984741210938
 30
0.0
 11
12.949966430664063
 21
74.499984741210938
 31
0.0
  0
LINE
  5
D6
100
AcDbEntity
  8
0
  6
CONTINUOUS
 62
               7
100
AcDbLine
 10
-0.000030517578125
 20
15.499969482421875
 30
0.0
 11
15.999969482421875
 21
15.499969482421875
 31
0.0
  0
LINE
  5
D7
100
AcDbEntity
  8
0
  6
CONTINUOUS
 62
               7
100
AcDbLine
 10
-0.000030517578125
 20
-30.500015258789063
 30
0.0
 11
15.999969482421875
 21
-30.500015258789063
 31
0.0
  0
LINE
  5
D8
100
AcDbEntity
  8
0
  6
CONTINUOUS
 62
               2
100
AcDbLine
 10
13.019882202148438
 20
-22.000007629394531
 30
0.0
 11
1.1850738525390625
 21
-22.000007629394531
 31
0.0
  0
LINE
  5
D9
100
AcDbEntity
  8
0
  6
CONTINUOUS
 62
               2
100
AcDbLine
 10
8.999969482421875
 20
12.5582275390625
 30
0.0
 11
8.999969482421875
 21
1.059478759765625
 31
0.0
  0
LINE
  5
DA
100
AcDbEntity
  8
0
  6
CONTINUOUS
 62
               2
100
AcDbLine
 10
6.999969482421875
 20
-27.558277130126953
 30
0.0
 11
6.999969482421875
 21
-16.059508323669434
 31
0.0
  0
LINE
  5
DB
100
AcDbEntity
  8
0
  6
CONTINUOUS
 62
               7
100
AcDbLine
 10
-0.000030517578125
 20
15.499969482421875
 30
0.0
 11
-0.000030517578125
 21
-30.500015258789063
 31
0.0
  0
LINE
  5
DC
100
AcDbEntity
  8
0
  6
CONTINUOUS
 62
               7
100
AcDbLine
 10
15.999969482421875
 20
15.499969482421875
 30
0.0
 11
15.999969482421875
 21
-30.500015258789063
 31
0.0
  0
LINE
  5
DE
100
AcDbEntity
  8
0
  6
DASHED
 62
               4
100
AcDbLine
 10
-2.70001220703125
 20
-1.2500152587890625
 30
0.0
 11
-2.70001220703125
 21
1.2499847412109375
 31
0.0
  0
LINE
  5
DF
100
AcDbEntity
  8
0
  6
DASHED
 62
               4
100
AcDbLine
 10
-1.20001220703125
 20
-2.7500152587890625
 30
0.0
 11
-0.70001220703125
 21
-2.7500152587890625
 31
0.0
  0
LINE
  5
E0
100
AcDbEntity
  8
0
  6
DASHED
 62
               4
100
AcDbLine
 10
-1.20001220703125
 20
2.749969482421875
 30
0.0
 11
-0.70001220703125
 21
2.749969482421875
 31
0.0
  0
LINE
  5
E1
100
AcDbEntity
  8
0
  6
CONTINUOUS
 62
               2
100
AcDbLine
 10
2.980072021484375
 20
6.999969482421875
 30
0.0
 11
14.81488037109375
 21
6.999969482421875
 31
0.0
  0
LINE
  5
E2
100
AcDbEntity
  8
0
  6
CONTINUOUS
 62
               2
100
AcDbLine
 10
-1.03717041015625
 20
-7.5000152587890625
 30
0.0
 11
16.957077026367188
 21
-7.5000152587890625
 31
0.0
  0
LINE
  5
E3
100
AcDbEntity
  8
0
  6
DASHED
 62
               4
100
AcDbLine
 10
17.5999755859375
 20
9.999969482421875
 30
0.0
 11
17.5999755859375
 21
-49.900009155273437
 31
0.0
  0
LINE
  5
E4
100
AcDbEntity
  8
0
  6
DASHED
 62
               4
100
AcDbLine
 10
-0.000030517578125
 20
-49.900009155273437
 30
0.0
 11
-0.000030517578125
 21
-51.500015258789063
 31
0.0
  0
LINE
  5
E5
100
AcDbEntity
  8
0
  6
DASHED
 62
               4
100
AcDbLine
 10
15.999969482421875
 20
-30.500015258789063
 30
0.0
 11
15.999969482421875
 21
-51.500015258789063
 31
0.0
  0
LINE
  5
E6
100
AcDbEntity
  8
0
  6
DASHED
 62
               4
100
AcDbLine
 10
15.999969482421875
 20
-49.900009155273437
 30
0.0
 11
-0.000030517578125
 21
-49.900009155273437
 31
0.0
  0
LINE
  5
E7
100
AcDbEntity
  8
0
  6
DASHED
 62
               4
100
AcDbLine
 10
15.999969482421875
 20
-51.500015258789063
 30
0.0
 11
-0.000030517578125
 21
-51.500015258789063
 31
0.0
  0
LINE
  5
E8
100
AcDbEntity
  8
0
  6
DASHED
 62
               4
100
AcDbLine
 10
17.5999755859375
 20
9.999969482421875
 30
0.0
 11
15.999969482421875
 21
9.999969482421875
 31
0.0
  0
LINE
  5
E9
100
AcDbEntity
  8
0
  6
DASHED
 62
               4
100
AcDbLine
 10
-2.70001220703125
 20
-16.250011444091797
 30
0.0
 11
-2.70001220703125
 21
-13.750019073486328
 31
0.0
  0
LINE
  5
EA
100
AcDbEntity
  8
0
  6
DASHED
 62
               4
100
AcDbLine
 10
-1.20001220703125
 20
-12.250026702880859
 30
0.0
 11
-0.70001220703125
 21
-12.250026702880859
 31
0.0
  0
LINE
  5
EB
100
AcDbEntity
  8
0
  6
DASHED
 62
               4
100
AcDbLine
 10
-1.20001220703125
 20
-17.750019073486328
 30
0.0
 11
-0.70001220703125
 21
-17.750019073486328
 31
0.0
  0
LINE
  5
EC
100
AcDbEntity
  8
0
  6
CONTINUOUS
 62
               2
100
AcDbLine
 10
9.499969482421875
 20
18.999969482421875
 30
0.0
 11
6.499969482421875
 21
18.999969482421875
 31
0.0
  0
ARC
  5
ED
100
AcDbEntity
  8
0
  6
CONTINUOUS
 62
               7
100
AcDbCircle
 10
0.999969482421875
 20
-49.000015258789063
 30
0.0
 40
0.5
100
AcDbArc
 50
179.99996402782091
 51
269.99994604173139
  0
ARC
  5
EE
100
AcDbEntity
  8
0
  6
CONTINUOUS
 62
               7
100
AcDbCircle
 10
14.999969482421875
 20
-49.000015258789063
 30
0.0
 40
0.5
100
AcDbArc
 50
270.00001798608872
 51
0.00001366037834
  0
ARC
  5
EF
100
AcDbEntity
  8
0
  6
CONTINUOUS
 62
               7
100
AcDbCircle
 10
4.749969482421875
 20
-47.500015258789063
 30
0.0
 40
1.5
100
AcDbArc
 50
270.00001798608872
 51
359.99995901886416
  0
ARC
  5
F0
100
AcDbEntity
  8
0
  6
CONTINUOUS
 62
               7
100
AcDbCircle
 10
2.249969482421875
 20
-47.500015258789063
 30
0.0
 40
1.5
100
AcDbArc
 50
179.99990938630756
 51
269.99994604173139
  0
ARC
  5
F1
100
AcDbEntity
  8
0
  6
CONTINUOUS
 62
               7
100
AcDbCircle
 10
6.999969482421875
 20
-49.20001220703125
 30
0.0
 40
0.300000011920929
100
AcDbArc
 50
179.99998133066492
 51
270.00001798608872
  0
ARC
  5
F2
100
AcDbEntity
  8
0
  6
CONTINUOUS
 62
               7
100
AcDbCircle
 10
6.39996337890625
 20
-47.300018310546875
 30
0.0
 40
0.300000011920929
100
AcDbArc
 50
0.0
 51
89.999982013910454
  0
CIRCLE
  5
F3
100
AcDbEntity
  8
0
  6
CONTINUOUS
 62
               2
100
AcDbCircle
 10
8.999969482421875
 20
6.999969482421875
 30
0.0
 40
5.0
  0
CIRCLE
  5
F4
100
AcDbEntity
  8
0
  6
CONTINUOUS
 62
               7
100
AcDbCircle
 10
8.999969482421875
 20
6.999969482421875
 30
0.0
 40
4.25
  0
CIRCLE
  5
F5
100
AcDbEntity
  8
0
  6
CONTINUOUS
 62
               2
100
AcDbCircle
 10
6.999969482421875
 20
-22.000015258789063
 30
0.0
 40
5.0
  0
CIRCLE
  5
F6
100
AcDbEntity
  8
0
  6
CONTINUOUS
 62
               7
100
AcDbCircle
 10
6.999969482421875
 20
-22.000015258789063
 30
0.0
 40
4.25
  0
CIRCLE
  5
F7
100
AcDbEntity
  8
0
  6
CONTINUOUS
 62
               2
100
AcDbCircle
 10
7.999969482421875
 20
-7.5000152587890625
 30
0.0
 40
5.0
  0
CIRCLE
  5
F8
100
AcDbEntity
  8
0
  6
CONTINUOUS
 62
               7
100
AcDbCircle
 10
7.999969482421875
 20
-7.5000152587890625
 30
0.0
 40
4.25
  0
ARC
  5
F9
100
AcDbEntity
  8
0
  6
DASHED
 62
               4
100
AcDbCircle
 10
-1.20001220703125
 20
1.2499847412109375
 30
0.0
 40
1.5
100
AcDbArc
 50
89.999927372397096
 51
179.99990938630756
  0
ARC
  5
FA
100
AcDbEntity
  8
0
  6
DASHED
 62
               4
100
AcDbCircle
 10
-1.20001220703125
 20
-1.2500152587890625
 30
0.0
 40
1.5
100
AcDbArc
 50
179.99998133066492
 51
269.99996334457541
  0
ARC
  5
FB
100
AcDbEntity
  8
0
  6
DASHED
 62
               4
100
AcDbCircle
 10
15.999969482421875
 20
-49.900009155273437
 30
0.0
 40
1.5999994277954102
100
AcDbArc
 50
270.00001798608872
 51
0.0
  0
ARC
  5
FC
100
AcDbEntity
  8
0
  6
DASHED
 62
               4
100
AcDbCircle
 10
-1.20001220703125
 20
-13.750019073486328
 30
0.0
 40
1.5
100
AcDbArc
 50
89.999927372397096
 51
179.99990938630756
  0
ARC
  5
FD
100
AcDbEntity
  8
0
  6
DASHED
 62
               4
100
AcDbCircle
 10
-1.20001220703125
 20
-16.250011444091797
 30
0.0
 40
1.5
100
AcDbArc
 50
179.99998133066492
 51
269.99996334457541
  0
CIRCLE
  5
FE
100
AcDbEntity
  8
0
  6
CONTINUOUS
 62
               7
100
AcDbCircle
 10
7.999969482421875
 20
18.999969482421875
 30
0.0
 40
0.6000000238418579
  0
LINE
  5
FF
100
AcDbEntity
  8
0
  6
CONTINUOUS
 62
               7
100
AcDbLine
 10
2.4999847412109375
 20
25.999984741210937
 30
0.0
 11
2.999969482421875
 21
25.999984741210937
 31
0.0
  0
LINE
  5
100
100
AcDbEntity
  8
0
  6
CONTINUOUS
 62
               7
100
AcDbLine
 10
12.999969482421875
 20
25.999984741210937
 30
0.0
 11
13.499954223632812
 21
25.999984741210937
 31
0.0
  0
LINE
  5
101
100
AcDbEntity
  8
0
  6
DASHED
 62
               4
100
AcDbLine
 10
-0.70001220703125
 20
-12.050023078918457
 30
0.0
 11
-0.70001220703125
 21
-17.95002269744873
 31
0.0
  0
LINE
  5
102
100
AcDbEntity
  8
0
  6
DASHED
 62
               4
100
AcDbLine
 10
-0.0000188054373211
 20
-15.350025235105022
 30
0.0
 11
-0.7000113991807666
 21
-15.537587686878396
 31
0.0
  0
LINE
  5
103
100
AcDbEntity
  8
0
  6
DASHED
 62
               4
100
AcDbLine
 10
-0.700009611108726
 20
-14.650023853275343
 30
0.0
 11
-0.0000169741706486
 21
-14.462461444696601
 31
0.0
  0
LINE
  5
104
100
AcDbEntity
  8
0
  6
DASHED
 62
               4
100
AcDbLine
 10
-0.70001220703125
 20
-12.050023078918457
 30
0.0
 11
-0.0000152587890625
 21
-12.050023078918457
 31
0.0
  0
LINE
  5
105
100
AcDbEntity
  8
0
  6
DASHED
 62
               4
100
AcDbLine
 10
-0.70001220703125
 20
-17.95002269744873
 30
0.0
 11
-0.0000152587890625
 21
-17.95002269744873
 31
0.0
  0
LINE
  5
106
100
AcDbEntity
  8
0
  6
DASHED
 62
               4
100
AcDbLine
 10
-0.7000122070312429
 20
2.9499816894531392
 30
0.0
 11
-0.7000122070312429
 21
-2.9500274658203125
 31
0.0
  0
LINE
  5
107
100
AcDbEntity
  8
0
  6
DASHED
 62
               4
100
AcDbLine
 10
-0.0000082253118308
 20
-0.3500340354412401
 30
0.0
 11
-0.7000155579135026
 21
-0.5376004364798064
 31
0.0
  0
LINE
  5
108
100
AcDbEntity
  8
0
  6
DASHED
 62
               4
100
AcDbLine
 10
-0.7000126748353068
 20
0.3499640293257471
 30
0.0
 11
-0.0000052990380937
 21
0.537530387168772
 31
0.0
  0
LINE
  5
109
100
AcDbEntity
  8
0
  6
DASHED
 62
               4
100
AcDbLine
 10
-0.7000122070312429
 20
2.9499816894531392
 30
0.0
 11
-0.0000152587890554
 21
2.9499816894531392
 31
0.0
  0
LINE
  5
10A
100
AcDbEntity
  8
0
  6
DASHED
 62
               4
100
AcDbLine
 10
-0.7000122070312429
 20
-2.9500274658203125
 30
0.0
 11
-0.0000152587890554
 21
-2.9500274658203125
 31
0.0
  0
LINE
  5
10B
100
AcDbEntity
  8
0
  6
DASHED
 62
               4
100
AcDbLine
 10
19.199966430664063
 20
-2.0000152587890625
 30
0.0
 11
19.199966430664063
 21
1.9999847412109375
 31
0.0
  0
LINE
  5
10C
100
AcDbEntity
  8
0
  6
DASHED
 62
               4
100
AcDbLine
 10
18.0999755859375
 20
-2.0000152587890625
 30
0.0
 11
19.199966430664063
 21
-2.0000152587890625
 31
0.0
  0
LINE
  5
10D
100
AcDbEntity
  8
0
  6
DASHED
 62
               4
100
AcDbLine
 10
18.0999755859375
 20
1.9999847412109375
 30
0.0
 11
19.199966430664063
 21
1.9999847412109375
 31
0.0
  0
ARC
  5
10E
100
AcDbEntity
  8
0
  6
DASHED
 62
               4
100
AcDbCircle
 10
18.0999755859375
 20
2.4999847412109375
 30
0.0
 40
0.5
100
AcDbArc
 50
179.99998133066492
 51
270.00001798608872
  0
ARC
  5
10F
100
AcDbEntity
  8
0
  6
DASHED
 62
               4
100
AcDbCircle
 10
18.0999755859375
 20
-2.5000152587890625
 30
0.0
 40
0.5
100
AcDbArc
 50
89.999982013910454
 51
179.99996402782091
  0
LINE
  5
110
100
AcDbEntity
  8
0
  6
DASHED
 62
               4
100
AcDbLine
 10
19.199966430664063
 20
-17.000022888183594
 30
0.0
 11
19.199966430664063
 21
-13.000022888183594
 31
0.0
  0
LINE
  5
111
100
AcDbEntity
  8
0
  6
DASHED
 62
               4
100
AcDbLine
 10
18.0999755859375
 20
-17.000022888183594
 30
0.0
 11
19.199966430664063
 21
-17.000022888183594
 31
0.0
  0
LINE
  5
112
100
AcDbEntity
  8
0
  6
DASHED
 62
               4
100
AcDbLine
 10
18.0999755859375
 20
-13.000022888183594
 30
0.0
 11
19.199966430664063
 21
-13.000022888183594
 31
0.0
  0
ARC
  5
113
100
AcDbEntity
  8
0
  6
DASHED
 62
               4
100
AcDbCircle
 10
18.0999755859375
 20
-12.500022888183594
 30
0.0
 40
0.5
100
AcDbArc
 50
179.99998133066492
 51
270.00001798608872
  0
ARC
  5
114
100
AcDbEntity
  8
0
  6
DASHED
 62
               4
100
AcDbCircle
 10
18.0999755859375
 20
-17.500022888183594
 30
0.0
 40
0.5
100
AcDbArc
 50
89.999982013910454
 51
179.99996402782091
  0
LINE
  5
115
100
AcDbEntity
  8
0
  6
CONTINUOUS
 62
             200
100
AcDbLine
 10
7.8252933634752537
 20
84.435540335081697
 30
0.0
 11
12.049928387073123
 21
85.567527887458709
 31
0.0
  0
LINE
  5
116
100
AcDbEntity
  8
0
  6
CONTINUOUS
 62
             200
100
AcDbLine
 10
7.724958678826539
 20
85.443931904162568
 30
0.0
 11
12.049938432749514
 21
86.602806746220267
 31
0.0
  0
LINE
  5
117
100
AcDbEntity
  8
0
  6
CONTINUOUS
 62
               4
100
AcDbLine
 10
12.949966430664063
 20
69.999984741210937
 30
0.0
 11
3.0499725341796875
 21
69.999984741210937
 31
0.0
  0
LINE
  5
118
100
AcDbEntity
  8
0
  6
CONTINUOUS
 62
               4
100
AcDbLine
 10
9.1699694824218767
 20
55.699999999999989
 30
0.0
 11
10.829969482421873
 21
55.699999999999989
 31
0.0
  0
LINE
  5
119
100
AcDbEntity
  8
0
  6
CONTINUOUS
 62
               4
100
AcDbLine
 10
5.1699694824218767
 20
55.699999999999989
 30
0.0
 11
6.8299694824218733
 21
55.699999999999989
 31
0.0
  0
LINE
  5
11A
100
AcDbEntity
  8
0
  6
CONTINUOUS
 62
               4
100
AcDbLine
 10
10.829969482421873
 20
55.699999999999989
 30
0.0
 11
10.829969482421873
 21
61.0
 31
0.0
  0
LINE
  5
11B
100
AcDbEntity
  8
0
  6
CONTINUOUS
 62
               4
100
AcDbLine
 10
9.1699694824218767
 20
55.699999999999989
 30
0.0
 11
9.1699694824218767
 21
61.0
 31
0.0
  0
LINE
  5
11C
100
AcDbEntity
  8
0
  6
CONTINUOUS
 62
               4
100
AcDbLine
 10
6.8299694824218733
 20
55.699999999999989
 30
0.0
 11
6.8299694824218733
 21
61.0
 31
0.0
  0
LINE
  5
11D
100
AcDbEntity
  8
0
  6
CONTINUOUS
 62
               4
100
AcDbLine
 10
5.1699694824218767
 20
55.699999999999989
 30
0.0
 11
5.1699694824218767
 21
61.0
 31
0.0
  0
LINE
  5
11E
100
AcDbEntity
  8
0
  6
CONTINUOUS
 62
               4
100
AcDbLine
 10
10.599969482421869
 20
55.699999999999989
 30
0.0
 11
10.599969482421869
 21
61.0
 31
0.0
  0
LINE
  5
11F
100
AcDbEntity
  8
0
  6
CONTINUOUS
 62
               4
100
AcDbLine
 10
9.3999694824218807
 20
55.699999999999989
 30
0.0
 11
9.3999694824218807
 21
61.0
 31
0.0
  0
LINE
  5
120
100
AcDbEntity
  8
0
  6
CONTINUOUS
 62
               4
100
AcDbLine
 10
6.5999694824218693
 20
55.699999999999989
 30
0.0
 11
6.5999694824218693
 21
61.0
 31
0.0
  0
LINE
  5
121
100
AcDbEntity
  8
0
  6
CONTINUOUS
 62
               4
100
AcDbLine
 10
5.3999694824218807
 20
55.699999999999989
 30
0.0
 11
5.3999694824218807
 21
61.0
 31
0.0
  0
LINE
  5
122
100
AcDbEntity
  8
0
  6
CONTINUOUS
 62
               4
100
AcDbLine
 10
12.299969482421872
 20
53.999969482421875
 30
0.0
 11
12.999969482421875
 21
53.999969482421875
 31
0.0
  0
LINE
  5
123
100
AcDbEntity
  8
0
  6
CONTINUOUS
 62
               4
100
AcDbLine
 10
3.6165210589663275
 20
53.999969482421875
 30
0.0
 11
3.6165210589663275
 21
61.0
 31
0.0
  0
LINE
  5
124
100
AcDbEntity
  8
0
  6
CONTINUOUS
 62
               4
100
AcDbLine
 10
12.299969482421872
 20
53.999969482421875
 30
0.0
 11
12.299969482421872
 21
61.0
 31
0.0
  0
LINE
  5
125
100
AcDbEntity
  8
0
  6
CONTINUOUS
 62
               4
100
AcDbLine
 10
2.999969482421875
 20
53.999969482421875
 30
0.0
 11
3.6165210604667664
 21
53.999969482421875
 31
0.0
  0
LINE
  5
126
100
AcDbEntity
  8
0
  6
CONTINUOUS
 62
               4
100
AcDbLine
 10
12.999969482421875
 20
36.999984741210938
 30
0.0
 11
12.999969482421875
 21
60.999984741210937
 31
0.0
  0
LINE
  5
127
100
AcDbEntity
  8
0
  6
CONTINUOUS
 62
               4
100
AcDbLine
 10
2.999969482421875
 20
36.999984741210938
 30
0.0
 11
2.999969482421875
 21
60.999984741210937
 31
0.0
  0
ENDBLK
  5
128
100
AcDbEntity
  8
0
100
AcDbBlockEnd
  0
BLOCK
  5
129
100
AcDbEntity
  8
0
100
AcDbBlockBegin
  2
F15T-3
 70
               0
 10
0.0
 20
0.0
 30
0.0
  3
F15T-3
  1

  0
LINE
  5
12A
100
AcDbEntity
  8
0
  6
CONTINUOUS
 62
               7
100
AcDbLine
 10
-13.0
 20
36.899978637695313
 30
0.0
 11
-3.0
 21
36.899978637695313
 31
0.0
  0
LINE
  5
12B
100
AcDbEntity
  8
0
  6
CONTINUOUS
 62
               7
100
AcDbLine
 10
-13.0
 20
27.499984741210938
 30
0.0
 11
-3.0
 21
27.499984741210938
 31
0.0
  0
LINE
  5
12C
100
AcDbEntity
  8
0
  6
CENTER
 62
               2
100
AcDbLine
 10
-10.5
 20
33.699981689453125
 30
0.0
 11
-5.5
 21
33.699981689453125
 31
0.0
  0
LINE
  5
12D
100
AcDbEntity
  8
0
  6
CONTINUOUS
 62
               2
100
AcDbLine
 10
-8.0
 20
-52.166671752929687
 30
0.0
 11
-8.0
 21
82.75506591796875
 31
0.0
  0
LINE
  5
12E
100
AcDbEntity
  8
0
  6
CONTINUOUS
 62
               4
100
AcDbLine
 10
-13.0
 20
60.999984741210937
 30
0.0
 11
-3.0
 21
60.999984741210937
 31
0.0
  0
LINE
  5
12F
100
AcDbEntity
  8
0
  6
CONTINUOUS
 62
               7
100
AcDbLine
 10
-13.0
 20
36.999984741210938
 30
0.0
 11
-3.0
 21
36.999984741210938
 31
0.0
  0
LINE
  5
130
100
AcDbEntity
  8
0
  6
CONTINUOUS
 62
               7
100
AcDbLine
 10
-9.926788330078125
 20
33.399978637695312
 30
0.0
 11
-6.073211669921875
 21
33.399978637695312
 31
0.0
  0
LINE
  5
131
100
AcDbEntity
  8
0
  6
CONTINUOUS
 62
               7
100
AcDbLine
 10
-9.926788330078125
 20
33.999984741210937
 30
0.0
 11
-6.073211669921875
 21
33.999984741210937
 31
0.0
  0
LINE
  5
132
100
AcDbEntity
  8
0
  6
CONTINUOUS
 62
               4
100
AcDbLine
 10
-12.95001220703125
 20
61.0
 30
0.0
 11
-12.95001220703125
 21
74.5
 31
0.0
  0
LINE
  5
133
100
AcDbEntity
  8
0
  6
CONTINUOUS
 62
               4
100
AcDbLine
 10
-3.5
 20
69.999984741210937
 30
0.0
 11
-12.5
 21
69.999984741210937
 31
0.0
  0
LINE
  5
134
100
AcDbEntity
  8
0
  6
CONTINUOUS
 62
               2
100
AcDbLine
 10
-3.0500030517578125
 20
65.499984741210937
 30
0.0
 11
-12.95001220703125
 21
65.499984741210937
 31
0.0
  0
LINE
  5
135
100
AcDbEntity
  8
0
  6
CONTINUOUS
 62
               4
100
AcDbLine
 10
-3.0500030517578125
 20
60.999984741210937
 30
0.0
 11
-3.0500030517578125
 21
74.5
 31
0.0
  0
LINE
  5
136
100
AcDbEntity
  8
0
  6
CONTINUOUS
 62
               4
100
AcDbLine
 10
-12.949996948242187
 20
74.499984741210938
 30
0.0
 11
-11.5
 21
74.499984741210938
 31
0.0
  0
LINE
  5
137
100
AcDbEntity
  8
0
  6
CONTINUOUS
 62
               4
100
AcDbLine
 10
-12.050003051757813
 20
70.0
 30
0.0
 11
-12.050003051757813
 21
72.5
 31
0.0
  0
LINE
  5
138
100
AcDbEntity
  8
0
  6
CONTINUOUS
 62
               4
100
AcDbLine
 10
-3.9499969482421875
 20
69.999984741210937
 30
0.0
 11
-3.9499969482421875
 21
72.5
 31
0.0
  0
LINE
  5
139
100
AcDbEntity
  8
0
  6
CONTINUOUS
 62
               4
100
AcDbLine
 10
-4.5
 20
70.498443603515625
 30
0.0
 11
-4.5
 21
80.999984741210937
 31
0.0
  0
LINE
  5
13A
100
AcDbEntity
  8
0
  6
CONTINUOUS
 62
               4
100
AcDbLine
 10
-11.5
 20
70.498443603515625
 30
0.0
 11
-11.5
 21
80.999984741210937
 31
0.0
  0
LINE
  5
13B
100
AcDbEntity
  8
0
  6
CONTINUOUS
 62
               4
100
AcDbLine
 10
-11.5
 20
70.498443603515625
 30
0.0
 11
-4.5
 21
70.498443603515625
 31
0.0
  0
LINE
  5
13C
100
AcDbEntity
  8
0
  6
CONTINUOUS
 62
               4
100
AcDbLine
 10
-11.5
 20
74.056137084960938
 30
0.0
 11
-4.5
 21
74.056137084960938
 31
0.0
  0
LINE
  5
13D
100
AcDbEntity
  8
0
  6
CONTINUOUS
 62
               4
100
AcDbLine
 10
-11.5
 20
79.499984741210938
 30
0.0
 11
-4.5
 21
79.499984741210938
 31
0.0
  0
LINE
  5
13E
100
AcDbEntity
  8
0
  6
CONTINUOUS
 62
               4
100
AcDbLine
 10
-12.899993896484375
 20
80.999984741210937
 30
0.0
 11
-3.100006103515625
 21
80.999984741210937
 31
0.0
  0
LINE
  5
13F
100
AcDbEntity
  8
0
  6
CONTINUOUS
 62
               4
100
AcDbLine
 10
-4.5
 20
74.499984741210938
 30
0.0
 11
-3.0500030517578125
 21
74.499984741210938
 31
0.0
  0
LINE
  5
140
100
AcDbEntity
  8
0
  6
CONTINUOUS
 62
               4
100
AcDbLine
 10
-4.5
 20
73.499984741210937
 30
0.0
 11
-3.9499969482421875
 21
73.499984741210937
 31
0.0
  0
LINE
  5
141
100
AcDbEntity
  8
0
  6
CONTINUOUS
 62
               4
100
AcDbLine
 10
-4.5
 20
72.499984741210937
 30
0.0
 11
-3.9499969482421875
 21
72.499984741210937
 31
0.0
  0
LINE
  5
142
100
AcDbEntity
  8
0
  6
CONTINUOUS
 62
               4
100
AcDbLine
 10
-12.050003051757813
 20
73.499984741210937
 30
0.0
 11
-11.5
 21
73.499984741210937
 31
0.0
  0
LINE
  5
143
100
AcDbEntity
  8
0
  6
CONTINUOUS
 62
               4
100
AcDbLine
 10
-12.050003051757813
 20
72.499984741210937
 30
0.0
 11
-11.5
 21
72.499984741210937
 31
0.0
  0
LINE
  5
144
100
AcDbEntity
  8
0
  6
CONTINUOUS
 62
               4
100
AcDbLine
 10
-12.050003051757813
 20
73.5
 30
0.0
 11
-12.050003051757813
 21
74.5
 31
0.0
  0
LINE
  5
145
100
AcDbEntity
  8
0
  6
CONTINUOUS
 62
               4
100
AcDbLine
 10
-3.9499969482421875
 20
73.5
 30
0.0
 11
-3.9499969482421875
 21
74.5
 31
0.0
  0
LINE
  5
146
100
AcDbEntity
  8
0
  6
CONTINUOUS
 62
               4
100
AcDbLine
 10
-9.2849884033203125
 20
85.173309326171875
 30
0.0
 11
-9.2849884033203125
 21
88.999984741210938
 31
0.0
  0
LINE
  5
147
100
AcDbEntity
  8
0
  6
CONTINUOUS
 62
               4
100
AcDbLine
 10
-10.714996337890625
 20
84.790130615234375
 30
0.0
 11
-10.714996337890625
 21
88.999984741210938
 31
0.0
  0
LINE
  5
148
100
AcDbEntity
  8
0
  6
CONTINUOUS
 62
               4
100
AcDbLine
 10
-10.715011596679687
 20
88.999984741210938
 30
0.0
 11
-9.285003662109375
 21
88.999984741210938
 31
0.0
  0
LINE
  5
149
100
AcDbEntity
  8
0
  6
CONTINUOUS
 62
               4
100
AcDbLine
 10
-9.5999908447265625
 20
88.999984741210938
 30
0.0
 11
-9.5999908447265625
 21
93.999984741210937
 31
0.0
  0
LINE
  5
14A
100
AcDbEntity
  8
0
  6
CONTINUOUS
 62
               4
100
AcDbLine
 10
-10.399993896484375
 20
88.999984741210938
 30
0.0
 11
-10.399993896484375
 21
93.999984741210937
 31
0.0
  0
LINE
  5
14B
100
AcDbEntity
  8
0
  6
CONTINUOUS
 62
               4
100
AcDbLine
 10
-10.400009155273437
 20
93.999984741210937
 30
0.0
 11
-9.600006103515625
 21
93.999984741210937
 31
0.0
  0
LINE
  5
14C
100
AcDbEntity
  8
0
  6
CONTINUOUS
 62
               4
100
AcDbLine
 10
-9.2849884033203125
 20
80.999984741210937
 30
0.0
 11
-9.2849884033203125
 21
84.138031005859375
 31
0.0
  0
LINE
  5
14D
100
AcDbEntity
  8
0
  6
CONTINUOUS
 62
               4
100
AcDbLine
 10
-10.714996337890625
 20
80.999984741210937
 30
0.0
 11
-10.714996337890625
 21
83.754867553710938
 31
0.0
  0
LINE
  5
14E
100
AcDbEntity
  8
0
  6
CONTINUOUS
 62
               7
100
AcDbLine
 10
-3.0
 20
25.499984741210937
 30
0.0
 11
-3.0
 21
36.999984741210938
 31
0.0
  0
LINE
  5
14F
100
AcDbEntity
  8
0
  6
CONTINUOUS
 62
               7
100
AcDbLine
 10
-13.0
 20
25.499984741210937
 30
0.0
 11
-13.0
 21
36.999984741210938
 31
0.0
  0
LINE
  5
150
100
AcDbEntity
  8
0
  6
CONTINUOUS
 62
               7
100
AcDbLine
 10
-2.5
 20
11.699981689453125
 30
0.0
 11
-0.79998779296875
 21
11.699981689453125
 31
0.0
  0
LINE
  5
151
100
AcDbEntity
  8
0
  6
CONTINUOUS
 62
               7
100
AcDbLine
 10
-13.5
 20
-26.700008392333984
 30
0.0
 11
-15.20001220703125
 21
-26.700008392333984
 31
0.0
  0
LINE
  5
152
100
AcDbEntity
  8
0
  6
CONTINUOUS
 62
               7
100
AcDbLine
 10
-13.5
 20
-21.300014495849609
 30
0.0
 11
-15.20001220703125
 21
-21.300014495849609
 31
0.0
  0
LINE
  5
153
100
AcDbEntity
  8
0
  6
CONTINUOUS
 62
               7
100
AcDbLine
 10
-2.5000152587890625
 20
6.29998779296875
 30
0.0
 11
-0.79998779296875
 21
6.29998779296875
 31
0.0
  0
LINE
  5
154
100
AcDbEntity
  8
0
  6
CONTINUOUS
 62
               7
100
AcDbLine
 10
-0.79998779296875
 20
15.299972534179688
 30
0.0
 11
-15.20001220703125
 21
15.299972534179688
 31
0.0
  0
LINE
  5
155
100
AcDbEntity
  8
0
  6
CONTINUOUS
 62
               7
100
AcDbLine
 10
-0.79998779296875
 20
-30.300010681152344
 30
0.0
 11
-15.20001220703125
 21
-30.300010681152344
 31
0.0
  0
LINE
  5
156
100
AcDbEntity
  8
0
  6
CONTINUOUS
 62
               7
100
AcDbLine
 10
-13.500015258789063
 20
8.29998779296875
 30
0.0
 11
-15.500015258789063
 21
8.29998779296875
 31
0.0
  0
LINE
  5
157
100
AcDbEntity
  8
0
  6
CONTINUOUS
 62
               7
100
AcDbLine
 10
-2.5
 20
-23.300010681152344
 30
0.0
 11
-0.5
 21
-23.300010681152344
 31
0.0
  0
LINE
  5
158
100
AcDbEntity
  8
0
  6
CONTINUOUS
 62
               7
100
AcDbLine
 10
-5.1999969482421875
 20
-26.000015258789063
 30
0.0
 11
-5.1999969482421875
 21
-30.300010681152344
 31
0.0
  0
LINE
  5
159
100
AcDbEntity
  8
0
  6
CONTINUOUS
 62
               7
100
AcDbLine
 10
-10.79998779296875
 20
15.299972534179688
 30
0.0
 11
-10.79998779296875
 21
10.999969482421875
 31
0.0
  0
LINE
  5
15A
100
AcDbEntity
  8
0
  6
CONTINUOUS
 62
               7
100
AcDbLine
 10
-5.20001220703125
 20
-28.300010681152344
 30
0.0
 11
-15.5
 21
-28.300010681152344
 31
0.0
  0
LINE
  5
15B
100
AcDbEntity
  8
0
  6
CONTINUOUS
 62
               7
100
AcDbLine
 10
-0.5
 20
13.299972534179687
 30
0.0
 11
-10.79998779296875
 21
13.299972534179687
 31
0.0
  0
LINE
  5
15C
100
AcDbEntity
  8
0
  6
CONTINUOUS
 62
               7
100
AcDbLine
 10
-14.5
 20
-39.500015258789063
 30
0.0
 11
-1.5
 21
-39.500015258789063
 31
0.0
  0
LINE
  5
15D
100
AcDbEntity
  8
0
  6
CONTINUOUS
 62
               7
100
AcDbLine
 10
-14.5
 20
-31.500015258789063
 30
0.0
 11
-1.5
 21
-31.500015258789063
 31
0.0
  0
LINE
  5
15E
100
AcDbEntity
  8
0
  6
CONTINUOUS
 62
               7
100
AcDbLine
 10
-1.5
 20
-39.500015258789063
 30
0.0
 11
-1.5
 21
-31.500015258789063
 31
0.0
  0
LINE
  5
15F
100
AcDbEntity
  8
0
  6
CONTINUOUS
 62
               7
100
AcDbLine
 10
-14.5
 20
-39.500015258789063
 30
0.0
 11
-14.5
 21
-31.500015258789063
 31
0.0
  0
LINE
  5
160
100
AcDbEntity
  8
0
  6
CONTINUOUS
 62
               7
100
AcDbLine
 10
-15.500032815816667
 20
-30.500026254003387
 30
0.0
 11
-14.500031838520954
 21
-31.500027399886676
 31
0.0
  0
LINE
  5
161
100
AcDbEntity
  8
0
  6
CONTINUOUS
 62
               7
100
AcDbLine
 10
-0.4999845231977815
 20
-30.500059887192037
 30
0.0
 11
-1.4999856690810702
 21
-31.50006086448775
 31
0.0
  0
LINE
  5
162
100
AcDbEntity
  8
0
  6
CONTINUOUS
 62
               7
100
AcDbLine
 10
-1.5000295017998724
 20
-39.500026198827982
 30
0.0
 11
-0.5000285245041596
 21
-40.50002734471127
 31
0.0
  0
LINE
  5
163
100
AcDbEntity
  8
0
  6
CONTINUOUS
 62
               7
100
AcDbLine
 10
-14.499978564906996
 20
-39.500046682200264
 30
0.0
 11
-15.499979710790285
 21
-40.500047659495976
 31
0.0
  0
LINE
  5
164
100
AcDbEntity
  8
0
  6
CONTINUOUS
 62
               7
100
AcDbLine
 10
-1.580767429604748
 20
8.0807793708227109
 30
0.0
 11
-3.4192384004982159
 21
9.919250806630771
 31
0.0
  0
LINE
  5
165
100
AcDbEntity
  8
0
  6
CONTINUOUS
 62
               7
100
AcDbLine
 10
-12.580757738642205
 20
10.080739810766318
 30
0.0
 11
-14.419239499127798
 21
11.919222036169231
 31
0.0
  0
LINE
  5
166
100
AcDbEntity
  8
0
  6
CONTINUOUS
 62
               7
100
AcDbLine
 10
-14.419220730166671
 20
10.080729724052617
 30
0.0
 11
-12.580749449330142
 21
11.919200849917615
 31
0.0
  0
LINE
  5
167
100
AcDbEntity
  8
0
  6
CONTINUOUS
 62
               7
100
AcDbLine
 10
-3.4192302525461855
 20
8.0807486321518809
 30
0.0
 11
-1.5807589717096562
 21
9.9192197580168795
 31
0.0
  0
LINE
  5
168
100
AcDbEntity
  8
0
  6
CONTINUOUS
 62
               7
100
AcDbLine
 10
-0.5
 20
-24.96923828125
 30
0.0
 11
-0.5
 21
7.5
 31
0.0
  0
LINE
  5
169
100
AcDbEntity
  8
0
  6
CONTINUOUS
 62
               4
100
AcDbLine
 10
-3.100006103515625
 20
74.5
 30
0.0
 11
-3.100006103515625
 21
80.999984741210937
 31
0.0
  0
LINE
  5
16A
100
AcDbEntity
  8
0
  6
CONTINUOUS
 62
               4
100
AcDbLine
 10
-12.899993896484375
 20
74.5
 30
0.0
 11
-12.899993896484375
 21
80.999984741210937
 31
0.0
  0
LINE
  5
16B
100
AcDbEntity
  8
0
  6
CONTINUOUS
 62
               4
100
AcDbLine
 10
-12.0
 20
74.5
 30
0.0
 11
-12.0
 21
80.999984741210937
 31
0.0
  0
LINE
  5
16C
100
AcDbEntity
  8
0
  6
CONTINUOUS
 62
               4
100
AcDbLine
 10
-4.0
 20
74.5
 30
0.0
 11
-4.0
 21
80.999984741210937
 31
0.0
  0
LINE
  5
16D
100
AcDbEntity
  8
0
  6
CONTINUOUS
 62
               7
100
AcDbLine
 10
-3.4192317276874746
 20
-26.919289998621935
 30
0.0
 11
-1.5807496572570017
 21
-25.080808083163902
 31
0.0
  0
LINE
  5
16E
100
AcDbEntity
  8
0
  6
CONTINUOUS
 62
               7
100
AcDbLine
 10
-1.5807610654337623
 20
-26.91924847035898
 30
0.0
 11
-3.4192320363272302
 21
-25.08077703455092
 31
0.0
  0
LINE
  5
16F
100
AcDbEntity
  8
0
  6
CONTINUOUS
 62
               7
100
AcDbLine
 10
-15.5
 20
-22.5
 30
0.0
 11
-15.5
 21
9.9692230224609375
 31
0.0
  0
LINE
  5
170
100
AcDbEntity
  8
0
  6
CONTINUOUS
 62
               7
100
AcDbLine
 10
-0.5
 20
-49.000015258789063
 30
0.0
 11
-0.5
 21
-27.030792236328125
 31
0.0
  0
LINE
  5
171
100
AcDbEntity
  8
0
  6
CONTINUOUS
 62
               7
100
AcDbLine
 10
-15.5
 20
-49.000015258789063
 30
0.0
 11
-15.5
 21
-25.5
 31
0.0
  0
LINE
  5
172
100
AcDbEntity
  8
0
  6
CONTINUOUS
 62
               7
100
AcDbLine
 10
-15.000015258789063
 20
-49.500015258789063
 30
0.0
 11
-1.0
 21
-49.500015258789063
 31
0.0
  0
LINE
  5
173
100
AcDbEntity
  8
0
  6
CONTINUOUS
 62
               7
100
AcDbLine
 10
-15.5
 20
12.030731201171875
 30
0.0
 11
-15.5
 21
23.999984741210937
 31
0.0
  0
LINE
  5
174
100
AcDbEntity
  8
0
  6
CONTINUOUS
 62
               7
100
AcDbLine
 10
-0.5
 20
10.5
 30
0.0
 11
-0.5
 21
23.999984741210937
 31
0.0
  0
LINE
  5
175
100
AcDbEntity
  8
0
  6
CONTINUOUS
 62
               7
100
AcDbLine
 10
-13.500017121321434
 20
25.99997686972165
 30
0.0
 11
-15.5000094664274
 21
23.999986547655681
 31
0.0
  0
LINE
  5
176
100
AcDbEntity
  8
0
  6
CONTINUOUS
 62
               7
100
AcDbLine
 10
-13.0
 20
25.499984741210937
 30
0.0
 11
-3.0
 21
25.499984741210937
 31
0.0
  0
LINE
  5
177
100
AcDbEntity
  8
0
  6
CONTINUOUS
 62
               7
100
AcDbLine
 10
-2.5000250421526289
 20
25.999967892426866
 30
0.0
 11
-0.5000230875612033
 21
23.999965600660289
 31
0.0
  0
LINE
  5
178
100
AcDbEntity
  8
0
  6
CONTINUOUS
 62
               7
100
AcDbLine
 10
-15.500015258789063
 20
-40.500015258789063
 30
0.0
 11
-0.5
 21
-40.500015258789063
 31
0.0
  0
LINE
  5
179
100
AcDbEntity
  8
0
  6
CONTINUOUS
 62
               7
100
AcDbLine
 10
-16.0
 20
15.499984741210938
 30
0.0
 11
0.0
 21
15.499984741210938
 31
0.0
  0
LINE
  5
17A
100
AcDbEntity
  8
0
  6
CONTINUOUS
 62
               7
100
AcDbLine
 10
-16.0
 20
-30.500015258789063
 30
0.0
 11
0.0
 21
-30.500015258789063
 31
0.0
  0
LINE
  5
17B
100
AcDbEntity
  8
0
  6
CONTINUOUS
 62
               7
100
AcDbLine
 10
0.0
 20
15.499969482421875
 30
0.0
 11
0.0
 21
-30.500015258789063
 31
0.0
  0
LINE
  5
17C
100
AcDbEntity
  8
0
  6
CONTINUOUS
 62
               7
100
AcDbLine
 10
-16.0
 20
15.499969482421875
 30
0.0
 11
-16.0
 21
-30.500015258789063
 31
0.0
  0
LINE
  5
17D
100
AcDbEntity
  8
0
  6
CONTINUOUS
 62
               2
100
AcDbLine
 10
-17.037139892578125
 20
-15.250019073486328
 30
0.0
 11
0.9571075439453125
 21
-15.250019073486328
 31
0.0
  0
LINE
  5
17E
100
AcDbEntity
  8
0
  6
CONTINUOUS
 62
               2
100
AcDbLine
 10
-17.037139892578125
 20
0.2499847412109375
 30
0.0
 11
0.9571075439453125
 21
0.2499847412109375
 31
0.0
  0
LINE
  5
17F
100
AcDbEntity
  8
0
  6
CONTINUOUS
 62
               7
100
AcDbLine
 10
-12.58077295365274
 20
-24.919244872038689
 30
0.0
 11
-14.419243924546208
 21
-23.080773436230629
 31
0.0
  0
LINE
  5
180
100
AcDbEntity
  8
0
  6
CONTINUOUS
 62
               7
100
AcDbLine
 10
-14.419222205306141
 20
-24.919265748347243
 30
0.0
 11
-12.580750924469612
 21
-23.080794622482244
 31
0.0
  0
LINE
  5
181
100
AcDbEntity
  8
0
  6
DASHED
 62
               4
100
AcDbLine
 10
-17.600006103515625
 20
9.999969482421875
 30
0.0
 11
-17.600006103515625
 21
-49.900009155273437
 31
0.0
  0
LINE
  5
182
100
AcDbEntity
  8
0
  6
DASHED
 62
               4
100
AcDbLine
 10
-17.600006103515625
 20
9.999969482421875
 30
0.0
 11
-16.0
 21
9.999969482421875
 31
0.0
  0
LINE
  5
183
100
AcDbEntity
  8
0
  6
DASHED
 62
               4
100
AcDbLine
 10
-16.0
 20
-49.900009155273437
 30
0.0
 11
0.0
 21
-49.900009155273437
 31
0.0
  0
LINE
  5
184
100
AcDbEntity
  8
0
  6
DASHED
 62
               4
100
AcDbLine
 10
-16.0
 20
-30.500015258789063
 30
0.0
 11
-16.0
 21
-49.900009155273437
 31
0.0
  0
LINE
  5
185
100
AcDbEntity
  8
0
  6
DASHED
 62
               4
100
AcDbLine
 10
-16.0
 20
-51.500015258789063
 30
0.0
 11
0.0
 21
-51.500015258789063
 31
0.0
  0
LINE
  5
186
100
AcDbEntity
  8
0
  6
DASHED
 62
               4
100
AcDbLine
 10
0.0
 20
-49.900009155273437
 30
0.0
 11
0.0
 21
-51.500015258789063
 31
0.0
  0
LINE
  5
187
100
AcDbEntity
  8
0
  6
DASHED
 62
               4
100
AcDbLine
 10
2.6999969482421875
 20
-1.2500152587890625
 30
0.0
 11
2.6999969482421875
 21
1.2499847412109375
 31
0.0
  0
LINE
  5
188
100
AcDbEntity
  8
0
  6
DASHED
 62
               4
100
AcDbLine
 10
1.1999969482421875
 20
-2.7500152587890625
 30
0.0
 11
0.6999969482421875
 21
-2.7500152587890625
 31
0.0
  0
LINE
  5
189
100
AcDbEntity
  8
0
  6
DASHED
 62
               4
100
AcDbLine
 10
1.1999969482421875
 20
2.749969482421875
 30
0.0
 11
0.6999969482421875
 21
2.749969482421875
 31
0.0
  0
LINE
  5
18A
100
AcDbEntity
  8
0
  6
DASHED
 62
               4
100
AcDbLine
 10
2.6999969482421875
 20
-16.250011444091797
 30
0.0
 11
2.6999969482421875
 21
-13.750019073486328
 31
0.0
  0
LINE
  5
18B
100
AcDbEntity
  8
0
  6
DASHED
 62
               4
100
AcDbLine
 10
1.1999969482421875
 20
-17.750019073486328
 30
0.0
 11
0.6999969482421875
 21
-17.750019073486328
 31
0.0
  0
LINE
  5
18C
100
AcDbEntity
  8
0
  6
DASHED
 62
               4
100
AcDbLine
 10
1.1999969482421875
 20
-12.250026702880859
 30
0.0
 11
0.6999969482421875
 21
-12.250026702880859
 31
0.0
  0
CIRCLE
  5
18D
100
AcDbEntity
  8
0
  6
CONTINUOUS
 62
               7
100
AcDbCircle
 10
-8.0
 20
33.699981689453125
 30
0.0
 40
2.0
  0
CIRCLE
  5
18E
100
AcDbEntity
  8
0
  6
CONTINUOUS
 62
               7
100
AcDbCircle
 10
-8.0
 20
33.699981689453125
 30
0.0
 40
1.9499998092651367
  0
ARC
  5
18F
100
AcDbEntity
  8
0
  6
CONTINUOUS
 62
               4
100
AcDbCircle
 10
-3.5500030517578125
 20
69.499984741210937
 30
0.0
 40
0.5
100
AcDbArc
 50
359.99995901886416
 51
89.999982013910454
  0
ARC
  5
190
100
AcDbEntity
  8
0
  6
CONTINUOUS
 62
               4
100
AcDbCircle
 10
-12.449996948242188
 20
69.5
 30
0.0
 40
0.5
100
AcDbArc
 50
89.999982013910454
 51
179.99996402782091
  0
ARC
  5
191
100
AcDbEntity
  8
0
  6
CONTINUOUS
 62
               7
100
AcDbCircle
 10
-2.5000152587890625
 20
8.9999847412109375
 30
0.0
 40
2.6999998092651367
100
AcDbArc
 50
89.999982013910454
 51
270.00000068324471
  0
ARC
  5
192
100
AcDbEntity
  8
0
  6
CONTINUOUS
 62
               7
100
AcDbCircle
 10
-13.5
 20
-24.000015258789063
 30
0.0
 40
2.6999998092651367
100
AcDbArc
 50
270.00001798608872
 51
89.999982013910454
  0
CIRCLE
  5
193
100
AcDbEntity
  8
0
  6
CONTINUOUS
 62
               7
100
AcDbCircle
 10
-2.5
 20
9.0
 30
0.0
 40
2.25
  0
ARC
  5
194
100
AcDbEntity
  8
0
  6
CONTINUOUS
 62
               7
100
AcDbCircle
 10
-13.5
 20
10.999984741210938
 30
0.0
 40
2.6999998092651367
100
AcDbArc
 50
270.00001798608872
 51
0.0
  0
ARC
  5
195
100
AcDbEntity
  8
0
  6
CONTINUOUS
 62
               7
100
AcDbCircle
 10
-0.79998779296875
 20
11.999969482421875
 30
0.0
 40
0.300000011920929
100
AcDbArc
 50
270.00001798608872
 51
0.0
  0
ARC
  5
196
100
AcDbEntity
  8
0
  6
CONTINUOUS
 62
               7
100
AcDbCircle
 10
-15.199996948242187
 20
-21.000019073486328
 30
0.0
 40
0.300000011920929
100
AcDbArc
 50
179.99996402782091
 51
270.00000068324471
  0
ARC
  5
197
100
AcDbEntity
  8
0
  6
CONTINUOUS
 62
               7
100
AcDbCircle
 10
-0.79998779296875
 20
5.9999847412109375
 30
0.0
 40
0.300000011920929
100
AcDbArc
 50
0.0
 51
89.999982013910454
  0
ARC
  5
198
100
AcDbEntity
  8
0
  6
CONTINUOUS
 62
               7
100
AcDbCircle
 10
-15.199996948242187
 20
-27.000007629394531
 30
0.0
 40
0.300000011920929
100
AcDbArc
 50
89.999982013910454
 51
179.99996402782091
  0
ARC
  5
199
100
AcDbEntity
  8
0
  6
CONTINUOUS
 62
               7
100
AcDbCircle
 10
-15.20001220703125
 20
15.0
 30
0.0
 40
0.300000011920929
100
AcDbArc
 50
89.999982013910454
 51
179.99996402782091
  0
ARC
  5
19A
100
AcDbEntity
  8
0
  6
CONTINUOUS
 62
               7
100
AcDbCircle
 10
-0.79998779296875
 20
14.999984741210938
 30
0.0
 40
0.300000011920929
100
AcDbArc
 50
0.0
 51
89.999982013910454
  0
ARC
  5
19B
100
AcDbEntity
  8
0
  6
CONTINUOUS
 62
               7
100
AcDbCircle
 10
-0.79998779296875
 20
-30.000007629394531
 30
0.0
 40
0.300000011920929
100
AcDbArc
 50
270.00001798608872
 51
0.0
  0
ARC
  5
19C
100
AcDbEntity
  8
0
  6
CONTINUOUS
 62
               7
100
AcDbCircle
 10
-15.199996948242187
 20
-30.000007629394531
 30
0.0
 40
0.300000011920929
100
AcDbArc
 50
179.99996402782091
 51
270.00000068324471
  0
ARC
  5
19D
100
AcDbEntity
  8
0
  6
CONTINUOUS
 62
               7
100
AcDbCircle
 10
-2.5
 20
-26.000015258789063
 30
0.0
 40
2.6999998092651367
100
AcDbArc
 50
89.999982013910454
 51
179.99996402782091
  0
CIRCLE
  5
19E
100
AcDbEntity
  8
0
  6
CONTINUOUS
 62
               7
100
AcDbCircle
 10
-13.5
 20
10.999969482421875
 30
0.0
 40
2.25
  0
CIRCLE
  5
19F
100
AcDbEntity
  8
0
  6
CONTINUOUS
 62
               7
100
AcDbCircle
 10
-2.5
 20
-26.000015258789063
 30
0.0
 40
2.25
  0
ARC
  5
1A0
100
AcDbEntity
  8
0
  6
CONTINUOUS
 62
               7
100
AcDbCircle
 10
-1.0
 20
-49.000015258789063
 30
0.0
 40
0.5
100
AcDbArc
 50
270.00001798608872
 51
0.00001366037834
  0
ARC
  5
1A1
100
AcDbEntity
  8
0
  6
CONTINUOUS
 62
               7
100
AcDbCircle
 10
-15.0
 20
-49.000015258789063
 30
0.0
 40
0.5
100
AcDbArc
 50
179.99996402782091
 51
269.99994604173139
  0
CIRCLE
  5
1A2
100
AcDbEntity
  8
0
  6
CONTINUOUS
 62
               2
100
AcDbCircle
 10
-8.0
 20
-15.250022888183594
 30
0.0
 40
5.0
  0
CIRCLE
  5
1A3
100
AcDbEntity
  8
0
  6
CONTINUOUS
 62
               7
100
AcDbCircle
 10
-8.0
 20
-15.250022888183594
 30
0.0
 40
4.25
  0
CIRCLE
  5
1A4
100
AcDbEntity
  8
0
  6
CONTINUOUS
 62
               2
100
AcDbCircle
 10
-8.0
 20
0.2499847412109375
 30
0.0
 40
5.0
  0
CIRCLE
  5
1A5
100
AcDbEntity
  8
0
  6
CONTINUOUS
 62
               7
100
AcDbCircle
 10
-8.0
 20
0.2499847412109375
 30
0.0
 40
4.25
  0
CIRCLE
  5
1A6
100
AcDbEntity
  8
0
  6
CONTINUOUS
 62
               7
100
AcDbCircle
 10
-8.0
 20
0.2499847412109375
 30
0.0
 40
7.5
  0
CIRCLE
  5
1A7
100
AcDbEntity
  8
0
  6
CONTINUOUS
 62
               7
100
AcDbCircle
 10
-8.0
 20
-15.250022888183594
 30
0.0
 40
7.5
  0
CIRCLE
  5
1A8
100
AcDbEntity
  8
0
  6
CONTINUOUS
 62
               7
100
AcDbCircle
 10
-13.5
 20
-24.0
 30
0.0
 40
2.25
  0
ARC
  5
1A9
100
AcDbEntity
  8
0
  6
DASHED
 62
               4
100
AcDbCircle
 10
-16.0
 20
-49.900009155273437
 30
0.0
 40
1.5999994277954102
100
AcDbArc
 50
179.99996402782091
 51
269.99994604173139
  0
ARC
  5
1AA
100
AcDbEntity
  8
0
  6
DASHED
 62
               4
100
AcDbCircle
 10
1.1999969482421875
 20
-16.250011444091797
 30
0.0
 40
1.5
100
AcDbArc
 50
270.00001798608872
 51
0.0
  0
ARC
  5
1AB
100
AcDbEntity
  8
0
  6
DASHED
 62
               4
100
AcDbCircle
 10
1.1999969482421875
 20
1.2499847412109375
 30
0.0
 40
1.5
100
AcDbArc
 50
0.00001366037834
 51
90.000036655423813
  0
ARC
  5
1AC
100
AcDbEntity
  8
0
  6
DASHED
 62
               4
100
AcDbCircle
 10
1.1999969482421875
 20
-1.2500152587890625
 30
0.0
 40
1.5
100
AcDbArc
 50
270.00001798608872
 51
0.0
  0
ARC
  5
1AD
100
AcDbEntity
  8
0
  6
DASHED
 62
               4
100
AcDbCircle
 10
1.1999969482421875
 20
-13.750019073486328
 30
0.0
 40
1.5
100
AcDbArc
 50
0.00001366037834
 51
90.000036655423813
  0
LINE
  5
1AE
100
AcDbEntity
  8
0
  6
DASHED
 62
               4
100
AcDbLine
 10
0.6999969482421875
 20
-17.95002269744873
 30
0.0
 11
0.6999969482421875
 21
-12.050023078918457
 31
0.0
  0
LINE
  5
1AF
100
AcDbEntity
  8
0
  6
DASHED
 62
               4
100
AcDbLine
 10
0.0000042541760195
 20
-14.650032959622877
 30
0.0
 11
0.7000115867776913
 21
-14.46246655858431
 31
0.0
  0
LINE
  5
1B0
100
AcDbEntity
  8
0
  6
DASHED
 62
               4
100
AcDbLine
 10
0.7000141841926961
 20
-15.350036133616413
 30
0.0
 11
0.0000215472546188
 21
-15.537598542195155
 31
0.0
  0
LINE
  5
1B1
100
AcDbEntity
  8
0
  6
DASHED
 62
               4
100
AcDbLine
 10
0.6999969482421875
 20
-17.95002269744873
 30
0.0
 11
0.0
 21
-17.95002269744873
 31
0.0
  0
LINE
  5
1B2
100
AcDbEntity
  8
0
  6
DASHED
 62
               4
100
AcDbLine
 10
0.6999969482421875
 20
-12.050023078918457
 30
0.0
 11
0.0
 21
-12.050023078918457
 31
0.0
  0
LINE
  5
1B3
100
AcDbEntity
  8
0
  6
DASHED
 62
               4
100
AcDbLine
 10
0.6999969482421875
 20
-2.9500274658203125
 30
0.0
 11
0.6999969482421875
 21
2.949981689453125
 31
0.0
  0
LINE
  5
1B4
100
AcDbEntity
  8
0
  6
DASHED
 62
               4
100
AcDbLine
 10
0.0000108850363176
 20
0.3499729788991317
 30
0.0
 11
0.7000034787797631
 21
0.5375354306725058
 31
0.0
  0
LINE
  5
1B5
100
AcDbEntity
  8
0
  6
DASHED
 62
               4
100
AcDbLine
 10
0.7000179607966857
 20
-0.350014824032769
 30
0.0
 11
0.0000105849994725
 21
-0.5375811818757939
 31
0.0
  0
LINE
  5
1B6
100
AcDbEntity
  8
0
  6
DASHED
 62
               4
100
AcDbLine
 10
0.6999969482421875
 20
-2.9500274658203125
 30
0.0
 11
0.0
 21
-2.9500274658203125
 31
0.0
  0
LINE
  5
1B7
100
AcDbEntity
  8
0
  6
DASHED
 62
               4
100
AcDbLine
 10
0.6999969482421875
 20
2.949981689453125
 30
0.0
 11
0.0
 21
2.949981689453125
 31
0.0
  0
LINE
  5
1B8
100
AcDbEntity
  8
0
  6
CONTINUOUS
 62
               7
100
AcDbLine
 10
-13.5
 20
25.999984741210937
 30
0.0
 11
-13.0
 21
25.999984741210937
 31
0.0
  0
LINE
  5
1B9
100
AcDbEntity
  8
0
  6
CONTINUOUS
 62
               7
100
AcDbLine
 10
-3.0
 20
25.999984741210937
 30
0.0
 11
-2.5000152587890625
 21
25.999984741210937
 31
0.0
  0
CIRCLE
  5
1BA
100
AcDbEntity
  8
0
  6
CONTINUOUS
 62
               7
100
AcDbCircle
 10
-2.5
 20
9.0
 30
0.0
 40
2.5
  0
CIRCLE
  5
1BB
100
AcDbEntity
  8
0
  6
CONTINUOUS
 62
               7
100
AcDbCircle
 10
-13.5
 20
-24.0
 30
0.0
 40
2.5
  0
LINE
  5
1BC
100
AcDbEntity
  8
0
  6
DASHED
 62
               4
100
AcDbLine
 10
-19.199996948242187
 20
1.9999847412109091
 30
0.0
 11
-19.199996948242187
 21
-2.0000152587890909
 31
0.0
  0
LINE
  5
1BD
100
AcDbEntity
  8
0
  6
DASHED
 62
               4
100
AcDbLine
 10
-18.100006103515625
 20
1.9999847412109091
 30
0.0
 11
-19.199996948242187
 21
1.9999847412109091
 31
0.0
  0
LINE
  5
1BE
100
AcDbEntity
  8
0
  6
DASHED
 62
               4
100
AcDbLine
 10
-18.100006103515625
 20
-2.0000152587890909
 30
0.0
 11
-19.199996948242187
 21
-2.0000152587890909
 31
0.0
  0
ARC
  5
1BF
100
AcDbEntity
  8
0
  6
DASHED
 62
               4
100
AcDbCircle
 10
-18.100006103515625
 20
-2.5000152587890625
 30
0.0
 40
0.5
100
AcDbArc
 50
359.9999813306639
 51
90.000036655423813
  0
ARC
  5
1C0
100
AcDbEntity
  8
0
  6
DASHED
 62
               4
100
AcDbCircle
 10
-18.100006103515625
 20
2.4999847412109375
 30
0.0
 40
0.5
100
AcDbArc
 50
269.99996334457541
 51
359.99996402782114
  0
LINE
  5
1C1
100
AcDbEntity
  8
0
  6
DASHED
 62
               4
100
AcDbLine
 10
-19.199996948242187
 20
-13.000022888183622
 30
0.0
 11
-19.199996948242187
 21
-17.000022888183622
 31
0.0
  0
LINE
  5
1C2
100
AcDbEntity
  8
0
  6
DASHED
 62
               4
100
AcDbLine
 10
-18.100006103515625
 20
-13.000022888183622
 30
0.0
 11
-19.199996948242187
 21
-13.000022888183622
 31
0.0
  0
LINE
  5
1C3
100
AcDbEntity
  8
0
  6
DASHED
 62
               4
100
AcDbLine
 10
-18.100006103515625
 20
-17.000022888183622
 30
0.0
 11
-19.199996948242187
 21
-17.000022888183622
 31
0.0
  0
ARC
  5
1C4
100
AcDbEntity
  8
0
  6
DASHED
 62
               4
100
AcDbCircle
 10
-18.100006103515625
 20
-17.500022888183594
 30
0.0
 40
0.5
100
AcDbArc
 50
359.9999813306639
 51
90.000036655423813
  0
ARC
  5
1C5
100
AcDbEntity
  8
0
  6
DASHED
 62
               4
100
AcDbCircle
 10
-18.100006103515625
 20
-12.500022888183594
 30
0.0
 40
0.5
100
AcDbArc
 50
269.99996334457541
 51
359.99996402782114
  0
LINE
  5
1C6
100
AcDbEntity
  8
0
  6
CONTINUOUS
 62
             200
100
AcDbLine
 10
-11.99999822078189
 20
83.41053625380664
 30
0.0
 11
-8.3016666136446702
 21
84.401501229587296
 31
0.0
  0
LINE
  5
1C7
100
AcDbEntity
  8
0
  6
CONTINUOUS
 62
             200
100
AcDbLine
 10
-12.000002913963726
 20
84.445811163303006
 30
0.0
 11
-8.2548759602992732
 21
85.449314914500263
 31
0.0
  0
LINE
  5
1C8
100
AcDbEntity
  8
0
  6
CONTINUOUS
 62
               4
100
AcDbLine
 10
-3.0
 20
36.999984741210938
 30
0.0
 11
-3.0
 21
60.999984741210937
 31
0.0
  0
LINE
  5
1C9
100
AcDbEntity
  8
0
  6
CONTINUOUS
 62
               4
100
AcDbLine
 10
-13.0
 20
36.999984741210938
 30
0.0
 11
-13.0
 21
61.0
 31
0.0
  0
ENDBLK
  5
1CA
100
AcDbEntity
  8
0
100
AcDbBlockEnd
  0
BLOCK
  5
1CB
100
AcDbEntity
  8
0
100
AcDbBlockBegin
  2
F15T-4
 70
               0
 10
0.0
 20
0.0
 30
0.0
  3
F15T-4
  1

  0
LINE
  5
1CC
100
AcDbEntity
  8
0
  6
CONTINUOUS
 62
             200
100
AcDbLine
 10
-9.5289459228515625
 20
-13.000015258789062
 30
0.0
 11
-14.587600708007812
 21
-13.000015258789062
 31
0.0
  0
LINE
  5
1CD
100
AcDbEntity
  8
0
  6
CONTINUOUS
 62
             200
100
AcDbLine
 10
-12.0
 20
-15.529449462890625
 30
0.0
 11
-12.0
 21
-10.669189453125
 31
0.0
  0
LINE
  5
1CE
100
AcDbEntity
  8
0
  6
CONTINUOUS
 62
               2
100
AcDbLine
 10
-17.52337646484375
 20
-8.0000152587890625
 30
0.0
 11
46.431549072265625
 21
-8.0000152587890625
 31
0.0
  0
LINE
  5
1CF
100
AcDbEntity
  8
0
  6
DASHED
 62
               4
100
AcDbLine
 10
-17.0
 20
-0.0000152587890625
 30
0.0
 11
-6.0
 21
-0.0000152587890625
 31
0.0
  0
LINE
  5
1D0
100
AcDbEntity
  8
0
  6
DASHED
 62
               4
100
AcDbLine
 10
-17.0
 20
-16.000015258789063
 30
0.0
 11
-6.0
 21
-16.000015258789063
 31
0.0
  0
LINE
  5
1D1
100
AcDbEntity
  8
0
  6
CONTINUOUS
 62
               7
100
AcDbLine
 10
3.0
 20
-0.5000152587890625
 30
0.0
 11
39.999984741210937
 21
-0.5000152587890625
 31
0.0
  0
LINE
  5
1D2
100
AcDbEntity
  8
0
  6
CONTINUOUS
 62
               7
100
AcDbLine
 10
3.0
 20
-15.500015258789063
 30
0.0
 11
39.999984741210937
 21
-15.500015258789063
 31
0.0
  0
LINE
  5
1D3
100
AcDbEntity
  8
0
  6
DASHED
 62
               4
100
AcDbLine
 10
-7.0
 20
1.5999908447265625
 30
0.0
 11
-7.0
 21
-0.0000152587890625
 31
0.0
  0
LINE
  5
1D4
100
AcDbEntity
  8
0
  6
CONTINUOUS
 62
               7
100
AcDbLine
 10
33.499984741210938
 20
-0.5000152587890625
 30
0.0
 11
33.499984741210938
 21
-15.500015258789063
 31
0.0
  0
LINE
  5
1D5
100
AcDbEntity
  8
0
  6
CONTINUOUS
 62
               7
100
AcDbLine
 10
40.499984741210937
 20
-1.0000152587890625
 30
0.0
 11
40.499984741210937
 21
-15.000015258789063
 31
0.0
  0
LINE
  5
1D6
100
AcDbEntity
  8
0
  6
CONTINUOUS
 62
               7
100
AcDbLine
 10
35.499984741210938
 20
-1.499974213895257
 30
0.0
 11
35.499984741210938
 21
-14.500033288737541
 31
0.0
  0
LINE
  5
1D7
100
AcDbEntity
  8
0
  6
CONTINUOUS
 62
               7
100
AcDbLine
 10
3.0
 20
-0.0000152587890625
 30
0.0
 11
3.0
 21
-16.000015258789063
 31
0.0
  0
LINE
  5
1D8
100
AcDbEntity
  8
0
  6
CONTINUOUS
 62
               7
100
AcDbLine
 10
34.499984741210937
 20
-0.5000152587890625
 30
0.0
 11
34.499984741210937
 21
-15.500015258789063
 31
0.0
  0
LINE
  5
1D9
100
AcDbEntity
  8
0
  6
CONTINUOUS
 62
               7
100
AcDbLine
 10
34.499985474805726
 20
-0.4999749474900455
 30
0.0
 11
35.499986536395227
 21
-1.4999760090795462
 31
0.0
  0
LINE
  5
1DA
100
AcDbEntity
  8
0
  6
CONTINUOUS
 62
               7
100
AcDbLine
 10
35.500018926510677
 20
-14.499999103308141
 30
0.0
 11
34.500019719384511
 21
-15.500002103654765
 31
0.0
  0
LINE
  5
1DB
100
AcDbEntity
  8
0
  6
CONTINUOUS
 62
               7
100
AcDbLine
 10
7.5605994774927012
 20
-13.560731706680087
 30
0.0
 11
5.4392795278657786
 21
-11.439410862983493
 31
0.0
  0
LINE
  5
1DC
100
AcDbEntity
  8
0
  6
CONTINUOUS
 62
               7
100
AcDbLine
 10
7.5606538725108976
 20
-11.439335782875276
 30
0.0
 11
5.4393222392185407
 21
-13.560666522093413
 31
0.0
  0
LINE
  5
1DD
100
AcDbEntity
  8
0
  6
CONTINUOUS
 62
               7
100
AcDbLine
 10
6.499969482421875
 20
-9.5000152587890625
 30
0.0
 11
3.499969482421875
 21
-9.5000152587890625
 31
0.0
  0
LINE
  5
1DE
100
AcDbEntity
  8
0
  6
CONTINUOUS
 62
               7
100
AcDbLine
 10
9.4999542236328125
 20
-12.5
 30
0.0
 11
9.4999542236328125
 21
-15.5
 31
0.0
  0
LINE
  5
1DF
100
AcDbEntity
  8
0
  6
CONTINUOUS
 62
               7
100
AcDbLine
 10
24.500015258789063
 20
-3.5000152587890625
 30
0.0
 11
24.500015258789063
 21
-0.5000152587890625
 31
0.0
  0
LINE
  5
1E0
100
AcDbEntity
  8
0
  6
CONTINUOUS
 62
               7
100
AcDbLine
 10
26.439341786692239
 20
-2.4393928691014253
 30
0.0
 11
28.560661378691293
 21
-4.5607140704258882
 31
0.0
  0
LINE
  5
1E1
100
AcDbEntity
  8
0
  6
CONTINUOUS
 62
               7
100
AcDbLine
 10
26.439351771635302
 20
-4.5606808969868098
 30
0.0
 11
28.560672972959765
 21
-2.4393613049877558
 31
0.0
  0
LINE
  5
1E2
100
AcDbEntity
  8
0
  6
CONTINUOUS
 62
               7
100
AcDbLine
 10
30.499984741210937
 20
-3.5000152587890625
 30
0.0
 11
30.499984741210937
 21
-0.5000152587890625
 31
0.0
  0
LINE
  5
1E3
100
AcDbEntity
  8
0
  6
DASHED
 62
               4
100
AcDbLine
 10
1.25
 20
-18.699996948242188
 30
0.0
 11
-1.25
 21
-18.699996948242188
 31
0.0
  0
LINE
  5
1E4
100
AcDbEntity
  8
0
  6
DASHED
 62
               4
100
AcDbLine
 10
2.75
 20
-17.20001220703125
 30
0.0
 11
2.75
 21
-16.70001220703125
 31
0.0
  0
LINE
  5
1E5
100
AcDbEntity
  8
0
  6
DASHED
 62
               4
100
AcDbLine
 10
-2.7499847412109375
 20
-17.20001220703125
 30
0.0
 11
-2.7499847412109375
 21
-16.70001220703125
 31
0.0
  0
LINE
  5
1E6
100
AcDbEntity
  8
0
  6
DASHED
 62
               4
100
AcDbLine
 10
-7.0
 20
1.5999908447265625
 30
0.0
 11
18.0
 21
1.5999908447265625
 31
0.0
  0
LINE
  5
1E7
100
AcDbEntity
  8
0
  6
DASHED
 62
               4
100
AcDbLine
 10
3.0
 20
-16.000015258789063
 30
0.0
 11
18.0
 21
-16.000015258789063
 31
0.0
  0
LINE
  5
1E8
100
AcDbEntity
  8
0
  6
DASHED
 62
               4
100
AcDbLine
 10
3.0
 20
-0.0000152587890625
 30
0.0
 11
18.0
 21
-0.0000152587890625
 31
0.0
  0
LINE
  5
1E9
100
AcDbEntity
  8
0
  6
CONTINUOUS
 62
               7
100
AcDbLine
 10
-6.0
 20
-0.0000152587890625
 30
0.0
 11
3.0
 21
-0.0000152587890625
 31
0.0
  0
LINE
  5
1EA
100
AcDbEntity
  8
0
  6
CONTINUOUS
 62
               7
100
AcDbLine
 10
-6.0
 20
-16.000015258789063
 30
0.0
 11
3.0
 21
-16.000015258789063
 31
0.0
  0
LINE
  5
1EB
100
AcDbEntity
  8
0
  6
CONTINUOUS
 62
               7
100
AcDbLine
 10
-6.0
 20
-0.0000152587890625
 30
0.0
 11
-6.0
 21
-16.000015258789063
 31
0.0
  0
LINE
  5
1EC
100
AcDbEntity
  8
0
  6
DASHED
 62
               4
100
AcDbLine
 10
18.0
 20
1.5999908447265625
 30
0.0
 11
18.0
 21
-16.000015258789063
 31
0.0
  0
LINE
  5
1ED
100
AcDbEntity
  8
0
  6
DASHED
 62
               4
100
AcDbLine
 10
-17.0
 20
-0.0000152587890625
 30
0.0
 11
-17.0
 21
-16.000015258789063
 31
0.0
  0
LINE
  5
1EE
100
AcDbEntity
  8
0
  6
CONTINUOUS
 62
             200
100
AcDbLine
 10
-12.0
 20
-5.529449462890625
 30
0.0
 11
-12.0
 21
-0.669189453125
 31
0.0
  0
LINE
  5
1EF
100
AcDbEntity
  8
0
  6
CONTINUOUS
 62
             200
100
AcDbLine
 10
-9.5289459228515625
 20
-3.0000152587890625
 30
0.0
 11
-14.587600708007812
 21
-3.0000152587890625
 31
0.0
  0
CIRCLE
  5
1F0
100
AcDbEntity
  8
0
  6
DASHED
 62
               4
100
AcDbCircle
 10
-12.0
 20
-13.000015258789062
 30
0.0
 40
1.6999998092651367
  0
ARC
  5
1F1
100
AcDbEntity
  8
0
  6
CONTINUOUS
 62
               7
100
AcDbCircle
 10
39.999984741210937
 20
-1.0000152587890625
 30
0.0
 40
0.5
100
AcDbArc
 50
0.0
 51
89.999982013910454
  0
ARC
  5
1F2
100
AcDbEntity
  8
0
  6
CONTINUOUS
 62
               7
100
AcDbCircle
 10
39.999984741210937
 20
-15.000015258789063
 30
0.0
 40
0.5
100
AcDbArc
 50
270.00001798608872
 51
0.0
  0
CIRCLE
  5
1F3
100
AcDbEntity
  8
0
  6
CONTINUOUS
 62
               7
100
AcDbCircle
 10
6.499969482421875
 20
-12.5
 30
0.0
 40
2.7999992370605469
  0
ARC
  5
1F4
100
AcDbEntity
  8
0
  6
CONTINUOUS
 62
               7
100
AcDbCircle
 10
6.499969482421875
 20
-12.5
 30
0.0
 40
3.0
100
AcDbArc
 50
0.0
 51
89.999982013910454
  0
CIRCLE
  5
1F5
100
AcDbEntity
  8
0
  6
CONTINUOUS
 62
               7
100
AcDbCircle
 10
27.5
 20
-3.5000152587890625
 30
0.0
 40
2.7999992370605469
  0
ARC
  5
1F6
100
AcDbEntity
  8
0
  6
CONTINUOUS
 62
               7
100
AcDbCircle
 10
27.500015258789062
 20
-3.5000152587890625
 30
0.0
 40
3.0
100
AcDbArc
 50
179.99996402782091
 51
0.0000919801827092
  0
ARC
  5
1F7
100
AcDbEntity
  8
0
  6
DASHED
 62
               4
100
AcDbCircle
 10
-1.25
 20
-17.199996948242187
 30
0.0
 40
1.5
100
AcDbArc
 50
179.99990938630756
 51
269.99994604173139
  0
ARC
  5
1F8
100
AcDbEntity
  8
0
  6
DASHED
 62
               4
100
AcDbCircle
 10
1.2499847412109375
 20
-17.199996948242187
 30
0.0
 40
1.5
100
AcDbArc
 50
270.00001798608872
 51
359.99995901886416
  0
CIRCLE
  5
1F9
100
AcDbEntity
  8
0
  6
DASHED
 62
               4
100
AcDbCircle
 10
-12.0
 20
-3.0000152587890625
 30
0.0
 40
1.6999998092651367
  0
LINE
  5
1FA
100
AcDbEntity
  8
0
  6
DASHED
 62
               4
100
AcDbLine
 10
-2.9499969482421875
 20
-16.70001220703125
 30
0.0
 11
2.9499969482421875
 21
-16.70001220703125
 31
0.0
  0
LINE
  5
1FB
100
AcDbEntity
  8
0
  6
DASHED
 62
               4
100
AcDbLine
 10
0.3499890614093602
 20
-16.000026300037462
 30
0.0
 11
0.5375554624479264
 21
-16.700033632639133
 31
0.0
  0
LINE
  5
1FC
100
AcDbEntity
  8
0
  6
DASHED
 62
               4
100
AcDbLine
 10
-0.3499957857829941
 20
-16.700017278351879
 30
0.0
 11
-0.5375581943617362
 21
-16.000024641413802
 31
0.0
  0
LINE
  5
1FD
100
AcDbEntity
  8
0
  6
DASHED
 62
               4
100
AcDbLine
 10
-2.9499969482421875
 20
-16.70001220703125
 30
0.0
 11
-2.9499969482421875
 21
-16.000015258789063
 31
0.0
  0
LINE
  5
1FE
100
AcDbEntity
  8
0
  6
DASHED
 62
               4
100
AcDbLine
 10
2.9499969482421875
 20
-16.70001220703125
 30
0.0
 11
2.9499969482421875
 21
-16.000015258789063
 31
0.0
  0
LINE
  5
1FF
100
AcDbEntity
  8
0
  6
DASHED
 62
               4
100
AcDbLine
 10
2.0
 20
3.199981689453125
 30
0.0
 11
-2.0
 21
3.199981689453125
 31
0.0
  0
LINE
  5
200
100
AcDbEntity
  8
0
  6
DASHED
 62
               4
100
AcDbLine
 10
2.0
 20
2.0999908447265625
 30
0.0
 11
2.0
 21
3.199981689453125
 31
0.0
  0
LINE
  5
201
100
AcDbEntity
  8
0
  6
DASHED
 62
               4
100
AcDbLine
 10
-2.0
 20
2.0999908447265625
 30
0.0
 11
-2.0
 21
3.199981689453125
 31
0.0
  0
ARC
  5
202
100
AcDbEntity
  8
0
  6
DASHED
 62
               4
100
AcDbCircle
 10
-2.5
 20
2.0999908447265625
 30
0.0
 40
0.5
100
AcDbArc
 50
269.99996334457541
 51
0.0000179860890374
  0
ARC
  5
203
100
AcDbEntity
  8
0
  6
DASHED
 62
               4
100
AcDbCircle
 10
2.5
 20
2.0999908447265625
 30
0.0
 40
0.5
100
AcDbArc
 50
179.99996402782091
 51
269.99994604173139
  0
ARC
  5
204
100
AcDbEntity
  8
0
  6
CONTINUOUS
 62
               7
100
AcDbCircle
 10
36.999984741210938
 20
-1.0000152587890625
 30
0.0
 40
0.5
100
AcDbArc
 50
0.0
 51
89.999982013910454
  0
LINE
  5
205
100
AcDbEntity
  8
0
  6
CONTINUOUS
 62
               7
100
AcDbLine
 10
37.499984741210938
 20
-1.0000152587890625
 30
0.0
 11
37.499984741210938
 21
-15.000015258789063
 31
0.0
  0
ARC
  5
206
100
AcDbEntity
  8
0
  6
CONTINUOUS
 62
               7
100
AcDbCircle
 10
36.999984741210938
 20
-15.000015258789063
 30
0.0
 40
0.5
100
AcDbArc
 50
270.00001798608872
 51
0.0
  0
LINE
  5
207
100
AcDbEntity
  8
0
  6
CONTINUOUS
 62
               7
100
AcDbLine
 10
3.5
 20
-0.5000152587890625
 30
0.0
 11
3.5
 21
-15.500015258789063
 31
0.0
  0
ENDBLK
  5
208
100
AcDbEntity
  8
0
100
AcDbBlockEnd
  0
BLOCK
  5
209
100
AcDbEntity
  8
0
100
AcDbBlockBegin
  2
F15T-5
 70
               0
 10
0.0
 20
0.0
 30
0.0
  3
F15T-5
  1

  0
LINE
  5
20A
100
AcDbEntity
  8
0
  6
CONTINUOUS
 62
               4
100
AcDbLine
 10
0.0
 20
24.0
 30
0.0
 11
10.0
 21
24.0
 31
0.0
  0
LINE
  5
20B
100
AcDbEntity
  8
0
  6
CONTINUOUS
 62
               4
100
AcDbLine
 10
0.05
 20
24.0
 30
0.0
 11
0.05
 21
32.5
 31
0.0
  0
LINE
  5
20C
100
AcDbEntity
  8
0
  6
CONTINUOUS
 62
               4
100
AcDbLine
 10
9.5
 20
33.0
 30
0.0
 11
0.5
 21
33.0
 31
0.0
  0
LINE
  5
20D
100
AcDbEntity
  8
0
  6
CONTINUOUS
 62
               4
100
AcDbLine
 10
9.9499999999999993
 20
28.5
 30
0.0
 11
0.05
 21
28.5
 31
0.0
  0
LINE
  5
20E
100
AcDbEntity
  8
0
  6
CONTINUOUS
 62
               4
100
AcDbLine
 10
9.9499999999999993
 20
24.0
 30
0.0
 11
9.9499999999999993
 21
32.5
 31
0.0
  0
LINE
  5
20F
100
AcDbEntity
  8
0
  6
CONTINUOUS
 62
               4
100
AcDbLine
 10
0.0
 20
0.0
 30
0.0
 11
0.0
 21
24.0
 31
0.0
  0
LINE
  5
210
100
AcDbEntity
  8
0
  6
CONTINUOUS
 62
               4
100
AcDbLine
 10
10.0
 20
0.0
 30
0.0
 11
10.0
 21
24.0
 31
0.0
  0
ARC
  5
211
100
AcDbEntity
  8
0
  6
CONTINUOUS
 62
               4
100
AcDbCircle
 10
9.4500061034783727
 20
32.50000610347837
 30
0.0
 40
0.4999938965588804
100
AcDbArc
 50
359.99930058435922
 51
90.000699415639815
  0
ARC
  5
212
100
AcDbEntity
  8
0
  6
CONTINUOUS
 62
               4
100
AcDbCircle
 10
0.549986267092172
 20
32.500013732907831
 30
0.0
 40
0.49998626728077
100
AcDbArc
 50
89.998426281458762
 51
180.00157371854061
  0
LINE
  5
213
100
AcDbEntity
  8
0
  6
CONTINUOUS
 62
               7
100
AcDbLine
 10
0.0001544189453
 20
0.00079345703125
 30
0.0
 11
10.0001544189453
 21
0.00079345703125
 31
0.0
  0
ENDBLK
  5
214
100
AcDbEntity
  8
0
100
AcDbBlockEnd
  0
BLOCK
  5
215
100
AcDbEntity
  8
0
100
AcDbBlockBegin
  2
F15T-6
 70
               0
 10
0.0
 20
0.0
 30
0.0
  3
F15T-6
  1

  0
LINE
  5
216
100
AcDbEntity
  8
0
  6
CONTINUOUS
 62
               4
100
AcDbLine
 10
27.0
 20
23.999999913736957
 30
0.0
 11
27.0
 21
-0.0000000862630429
 31
0.0
  0
LINE
  5
217
100
AcDbEntity
  8
0
  6
CONTINUOUS
 62
               7
100
AcDbLine
 10
27.0
 20
0.0
 30
0.0
 11
0.0000000000000071
 21
0.0
 31
0.0
  0
LINE
  5
218
100
AcDbEntity
  8
0
  6
CONTINUOUS
 62
               4
100
AcDbLine
 10
-0.0000000000000036
 20
16.999999913736957
 30
0.0
 11
0.0000000000000071
 21
0.0000049999999874
 31
0.0
  0
LINE
  5
219
100
AcDbEntity
  8
0
  6
CONTINUOUS
 62
               4
100
AcDbLine
 10
1.3999999999999915
 20
16.999999913736957
 30
0.0
 11
1.3999999999999915
 21
25.499999909445421
 31
0.0
  0
LINE
  5
21A
100
AcDbEntity
  8
0
  6
CONTINUOUS
 62
               4
100
AcDbLine
 10
-10.000000000000014
 20
25.499999913736957
 30
0.0
 11
-10.000000000000014
 21
16.999999913736957
 31
0.0
  0
LINE
  5
21B
100
AcDbEntity
  8
0
  6
CONTINUOUS
 62
               4
100
AcDbLine
 10
-10.000000000000014
 20
25.499999913736957
 30
0.0
 11
1.3999999999999915
 21
25.499999913736957
 31
0.0
  0
LINE
  5
21C
100
AcDbEntity
  8
0
  6
CONTINUOUS
 62
               4
100
AcDbLine
 10
-10.000000000000014
 20
16.999999913736957
 30
0.0
 11
1.3999999999999915
 21
16.999999913736957
 31
0.0
  0
LINE
  5
21D
100
AcDbEntity
  8
0
  6
CONTINUOUS
 62
               4
100
AcDbLine
 10
27.0
 20
23.999999913736957
 30
0.0
 11
1.3999999999999915
 21
23.999999913736957
 31
0.0
  0
LINE
  5
21E
100
AcDbEntity
  8
0
  6
CONTINUOUS
 62
               4
100
AcDbLine
 10
14.295000000000009
 20
23.999999913736957
 30
0.0
 11
12.795000000000009
 21
23.999999913736957
 31
0.0
  0
LINE
  5
21F
100
AcDbEntity
  8
0
  6
CONTINUOUS
 62
               4
100
AcDbLine
 10
1.4999999999999964
 20
25.599999913736951
 30
0.0
 11
-3.0000000000000142
 21
25.599999913736951
 31
0.0
  0
ARC
  5
220
100
AcDbEntity
  8
0
  6
CONTINUOUS
 62
               4
100
AcDbCircle
 10
-2.5015404500182825
 20
32.501540363755225
 30
0.0
 40
0.4984619302958243
100
AcDbArc
 50
89.822932465397898
 51
180.17706753460195
  0
LINE
  5
221
100
AcDbEntity
  8
0
  6
CONTINUOUS
 62
               4
100
AcDbLine
 10
-3.0000000000000142
 20
32.499999913736957
 30
0.0
 11
-3.0000000000000142
 21
25.599999913736951
 31
0.0
  0
LINE
  5
222
100
AcDbEntity
  8
0
  6
CONTINUOUS
 62
               4
100
AcDbLine
 10
1.4999999999999964
 20
25.599999913736951
 30
0.0
 11
1.4999999999999964
 21
23.999999913736957
 31
0.0
  0
ARC
  5
223
100
AcDbEntity
  8
0
  6
CONTINUOUS
 62
               4
100
AcDbCircle
 10
25.501123948313893
 20
28.179394315853983
 30
0.0
 40
1.4988865337462252
100
AcDbArc
 50
0.2142776266259142
 51
24.039904443234629
  0
ARC
  5
224
100
AcDbEntity
  8
0
  6
CONTINUOUS
 62
               4
100
AcDbCircle
 10
24.675687863874504
 20
32.50267102581455
 30
0.0
 40
0.4973293636201366
100
AcDbArc
 50
24.005903588636794
 51
90.079246697133684
  0
LINE
  5
225
100
AcDbEntity
  8
0
  6
CONTINUOUS
 62
               4
100
AcDbLine
 10
25.129999999999999
 20
32.704999913736941
 30
0.0
 11
26.870000000000008
 21
28.789999913736949
 31
0.0
  0
LINE
  5
226
100
AcDbEntity
  8
0
  6
CONTINUOUS
 62
               4
100
AcDbLine
 10
24.674999999999994
 20
32.999999913736957
 30
0.0
 11
-2.503080900033293
 21
32.999999913736957
 31
0.0
  0
LINE
  5
227
100
AcDbEntity
  8
0
  6
CONTINUOUS
 62
               4
100
AcDbLine
 10
27.000000000000004
 20
28.184999913736931
 30
0.0
 11
27.000000000000004
 21
23.999999913736957
 31
0.0
  0
LINE
  5
228
100
AcDbEntity
  8
0
  6
CONTINUOUS
 62
               4
100
AcDbLine
 10
-20.089214565994553
 20
24.164996126888383
 30
0.0
 11
-21.946103769656474
 21
17.234991332879673
 31
0.0
  0
LINE
  5
229
100
AcDbEntity
  8
0
  6
CONTINUOUS
 62
               4
100
AcDbLine
 10
-19.053935707232995
 20
24.165006172564773
 30
0.0
 11
-20.910828860160109
 21
17.234986639697837
 31
0.0
  0
LINE
  5
22A
100
AcDbEntity
  8
0
  6
CONTINUOUS
 62
               4
100
AcDbLine
 10
-20.491119384765625
 20
22.665023717447895
 30
0.0
 11
-24.500015258789063
 21
22.665023717447895
 31
0.0
  0
LINE
  5
22B
100
AcDbEntity
  8
0
  6
CONTINUOUS
 62
               4
100
AcDbLine
 10
-20.874298095703125
 20
21.235015782877582
 30
0.0
 11
-24.500015258789063
 21
21.235015782877582
 31
0.0
  0
LINE
  5
22C
100
AcDbEntity
  8
0
  6
CONTINUOUS
 62
               4
100
AcDbLine
 10
-21.160995483398438
 20
20.165023717447895
 30
0.0
 11
-24.500015258789063
 21
20.165023717447895
 31
0.0
  0
LINE
  5
22D
100
AcDbEntity
  8
0
  6
CONTINUOUS
 62
               4
100
AcDbLine
 10
-21.544174194335937
 20
18.735015782877582
 30
0.0
 11
-24.500015258789063
 21
18.735015782877582
 31
0.0
  0
LINE
  5
22E
100
AcDbEntity
  8
0
  6
CONTINUOUS
 62
               4
100
AcDbLine
 10
-24.5
 20
22.665008458658832
 30
0.0
 11
-24.5
 21
21.23500052408852
 31
0.0
  0
LINE
  5
22F
100
AcDbEntity
  8
0
  6
CONTINUOUS
 62
               4
100
AcDbLine
 10
-24.5
 20
18.73500052408852
 30
0.0
 11
-24.5
 21
20.165008458658832
 31
0.0
  0
LINE
  5
230
100
AcDbEntity
  8
0
  6
CONTINUOUS
 62
               4
100
AcDbLine
 10
-29.5
 20
22.350006017252582
 30
0.0
 11
-29.5
 21
21.55000296549477
 31
0.0
  0
LINE
  5
231
100
AcDbEntity
  8
0
  6
CONTINUOUS
 62
               4
100
AcDbLine
 10
-24.500015258789063
 20
21.55000296549477
 30
0.0
 11
-29.5
 21
21.55000296549477
 31
0.0
  0
LINE
  5
232
100
AcDbEntity
  8
0
  6
CONTINUOUS
 62
               4
100
AcDbLine
 10
-24.500015258789063
 20
22.350006017252582
 30
0.0
 11
-29.5
 21
22.350006017252582
 31
0.0
  0
LINE
  5
233
100
AcDbEntity
  8
0
  6
CONTINUOUS
 62
               4
100
AcDbLine
 10
-16.5
 20
20.165023717447895
 30
0.0
 11
-20.125717163085938
 21
20.165023717447895
 31
0.0
  0
LINE
  5
234
100
AcDbEntity
  8
0
  6
CONTINUOUS
 62
               4
100
AcDbLine
 10
-16.5
 20
18.735015782877582
 30
0.0
 11
-20.508895874023438
 21
18.735015782877582
 31
0.0
  0
LINE
  5
235
100
AcDbEntity
  8
0
  6
CONTINUOUS
 62
               4
100
AcDbLine
 10
-16.5
 20
21.235015782877582
 30
0.0
 11
-19.839019775390625
 21
21.235015782877582
 31
0.0
  0
LINE
  5
236
100
AcDbEntity
  8
0
  6
CONTINUOUS
 62
               4
100
AcDbLine
 10
-16.5
 20
22.665023717447895
 30
0.0
 11
-19.455841064453125
 21
22.665023717447895
 31
0.0
  0
LINE
  5
237
100
AcDbEntity
  8
0
  6
CONTINUOUS
 62
               4
100
AcDbLine
 10
-24.500015258789063
 20
19.05000296549477
 30
0.0
 11
-29.5
 21
19.05000296549477
 31
0.0
  0
LINE
  5
238
100
AcDbEntity
  8
0
  6
CONTINUOUS
 62
               4
100
AcDbLine
 10
-24.500015258789063
 20
19.850006017252582
 30
0.0
 11
-29.5
 21
19.850006017252582
 31
0.0
  0
LINE
  5
239
100
AcDbEntity
  8
0
  6
CONTINUOUS
 62
               4
100
AcDbLine
 10
-29.5
 20
19.05000296549477
 30
0.0
 11
-29.5
 21
19.850006017252582
 31
0.0
  0
LINE
  5
23A
100
AcDbEntity
  8
0
  6
CONTINUOUS
 62
               4
100
AcDbLine
 10
-15.0
 20
27.499999913736957
 30
0.0
 11
-16.5
 21
27.499999913736957
 31
0.0
  0
LINE
  5
23B
100
AcDbEntity
  8
0
  6
CONTINUOUS
 62
               4
100
AcDbLine
 10
-15.499999958178705
 20
25.499978352823547
 30
0.0
 11
-16.499994209762917
 21
26.077324672805645
 31
0.0
  0
LINE
  5
23C
100
AcDbEntity
  8
0
  6
CONTINUOUS
 62
               4
100
AcDbLine
 10
-10.0
 20
25.499999913736957
 30
0.0
 11
-16.5
 21
25.499999913736957
 31
0.0
  0
LINE
  5
23D
100
AcDbEntity
  8
0
  6
CONTINUOUS
 62
               4
100
AcDbLine
 10
-5.998454579468671
 20
26.500071061293767
 30
0.0
 11
-9.5561426631575159
 21
27.000070384309566
 31
0.0
  0
LINE
  5
23E
100
AcDbEntity
  8
0
  6
CONTINUOUS
 62
               4
100
AcDbLine
 10
-9.55615234375
 20
26.999999913736957
 30
0.0
 11
-15.0
 21
26.999999913736957
 31
0.0
  0
LINE
  5
23F
100
AcDbEntity
  8
0
  6
CONTINUOUS
 62
               4
100
AcDbLine
 10
-15.5
 20
16.499999913736957
 30
0.0
 11
-15.5
 21
16.999999913736957
 31
0.0
  0
LINE
  5
240
100
AcDbEntity
  8
0
  6
CONTINUOUS
 62
               4
100
AcDbLine
 10
-15.5
 20
16.499999913736957
 30
0.0
 11
-16.5
 21
16.499999913736957
 31
0.0
  0
LINE
  5
241
100
AcDbEntity
  8
0
  6
CONTINUOUS
 62
               4
100
AcDbLine
 10
-10.0
 20
16.999999913736957
 30
0.0
 11
-15.5
 21
16.999999913736957
 31
0.0
  0
LINE
  5
242
100
AcDbEntity
  8
0
  6
CONTINUOUS
 62
               4
100
AcDbLine
 10
-15.0
 20
26.999999913736957
 30
0.0
 11
-15.0
 21
27.499999913736957
 31
0.0
  0
LINE
  5
243
100
AcDbEntity
  8
0
  6
CONTINUOUS
 62
               4
100
AcDbLine
 10
-5.9984588623046875
 20
25.499999913736957
 30
0.0
 11
-5.9984588623046875
 21
26.499999913736957
 31
0.0
  0
LINE
  5
244
100
AcDbEntity
  8
0
  6
CONTINUOUS
 62
               4
100
AcDbLine
 10
-16.5
 20
26.07734671549477
 30
0.0
 11
-16.5
 21
27.499999913736957
 31
0.0
  0
LINE
  5
245
100
AcDbEntity
  8
0
  6
CONTINUOUS
 62
               4
100
AcDbLine
 10
-10.0
 20
25.449996861979145
 30
0.0
 11
-10.0
 21
25.499999913736957
 31
0.0
  0
LINE
  5
246
100
AcDbEntity
  8
0
  6
CONTINUOUS
 62
               4
100
AcDbLine
 10
-16.5
 20
16.499999913736957
 30
0.0
 11
-16.5
 21
25.499999913736957
 31
0.0
  0
LINE
  5
247
100
AcDbEntity
  8
0
  6
CONTINUOUS
 62
               7
100
AcDbLine
 10
0.0000781250000159
 20
0.0008544921875
 30
0.0
 11
27.000078125000016
 21
0.0008544921875
 31
0.0
  0
ENDBLK
  5
248
100
AcDbEntity
  8
0
100
AcDbBlockEnd
  0
BLOCK
  5
249
100
AcDbEntity
  8
0
100
AcDbBlockBegin
  2
F15T-7
 70
               0
 10
0.0
 20
0.0
 30
0.0
  3
F15T-7
  1

  0
LINE
  5
24A
100
AcDbEntity
  8
0
  6
CONTINUOUS
 62
               4
100
AcDbLine
 10
-26.999999999999993
 20
23.99999491373697
 30
0.0
 11
-26.999999999999993
 21
-0.0000050862630303
 31
0.0
  0
LINE
  5
24B
100
AcDbEntity
  8
0
  6
CONTINUOUS
 62
               4
100
AcDbLine
 10
0.0000000000000107
 20
16.99999491373697
 30
0.0
 11
0.0
 21
0.0
 31
0.0
  0
LINE
  5
24C
100
AcDbEntity
  8
0
  6
CONTINUOUS
 62
               4
100
AcDbLine
 10
-1.3999999999999844
 20
16.99999491373697
 30
0.0
 11
-1.3999999999999844
 21
25.499994909445434
 31
0.0
  0
LINE
  5
24D
100
AcDbEntity
  8
0
  6
CONTINUOUS
 62
               4
100
AcDbLine
 10
10.000000000000021
 20
25.49999491373697
 30
0.0
 11
10.000000000000021
 21
16.99999491373697
 31
0.0
  0
LINE
  5
24E
100
AcDbEntity
  8
0
  6
CONTINUOUS
 62
               4
100
AcDbLine
 10
10.000000000000021
 20
25.49999491373697
 30
0.0
 11
-1.3999999999999844
 21
25.49999491373697
 31
0.0
  0
LINE
  5
24F
100
AcDbEntity
  8
0
  6
CONTINUOUS
 62
               4
100
AcDbLine
 10
10.000000000000021
 20
16.99999491373697
 30
0.0
 11
-1.3999999999999844
 21
16.99999491373697
 31
0.0
  0
LINE
  5
250
100
AcDbEntity
  8
0
  6
CONTINUOUS
 62
               4
100
AcDbLine
 10
-26.999999999999993
 20
23.99999491373697
 30
0.0
 11
-1.3999999999999844
 21
23.99999491373697
 31
0.0
  0
LINE
  5
251
100
AcDbEntity
  8
0
  6
CONTINUOUS
 62
               4
100
AcDbLine
 10
-14.295000000000002
 20
23.99999491373697
 30
0.0
 11
-12.795000000000002
 21
23.99999491373697
 31
0.0
  0
LINE
  5
252
100
AcDbEntity
  8
0
  6
CONTINUOUS
 62
               4
100
AcDbLine
 10
-1.4999999999999893
 20
25.599994913736964
 30
0.0
 11
3.0000000000000213
 21
25.599994913736964
 31
0.0
  0
ARC
  5
253
100
AcDbEntity
  8
0
  6
CONTINUOUS
 62
               4
100
AcDbCircle
 10
2.5015404500182896
 20
32.501535363755238
 30
0.0
 40
0.4984619302958243
100
AcDbArc
 50
359.82293246539683
 51
90.17706753460169
  0
LINE
  5
254
100
AcDbEntity
  8
0
  6
CONTINUOUS
 62
               4
100
AcDbLine
 10
3.0000000000000213
 20
32.49999491373697
 30
0.0
 11
3.0000000000000213
 21
25.599994913736964
 31
0.0
  0
LINE
  5
255
100
AcDbEntity
  8
0
  6
CONTINUOUS
 62
               4
100
AcDbLine
 10
-1.4999999999999893
 20
25.599994913736964
 30
0.0
 11
-1.4999999999999893
 21
23.99999491373697
 31
0.0
  0
ARC
  5
256
100
AcDbEntity
  8
0
  6
CONTINUOUS
 62
               4
100
AcDbCircle
 10
-25.501123948313886
 20
28.179389315853996
 30
0.0
 40
1.4988865337462252
100
AcDbArc
 50
155.96009555676497
 51
179.78572237337372
  0
ARC
  5
257
100
AcDbEntity
  8
0
  6
CONTINUOUS
 62
               4
100
AcDbCircle
 10
-24.675687863874497
 20
32.502666025814563
 30
0.0
 40
0.4973293636201366
100
AcDbArc
 50
89.920753302865904
 51
155.99409641136279
  0
LINE
  5
258
100
AcDbEntity
  8
0
  6
CONTINUOUS
 62
               4
100
AcDbLine
 10
-25.129999999999992
 20
32.704994913736954
 30
0.0
 11
-26.870000000000001
 21
28.789994913736962
 31
0.0
  0
LINE
  5
259
100
AcDbEntity
  8
0
  6
CONTINUOUS
 62
               4
100
AcDbLine
 10
-24.674999999999986
 20
32.99999491373697
 30
0.0
 11
2.5030809000333001
 21
32.99999491373697
 31
0.0
  0
LINE
  5
25A
100
AcDbEntity
  8
0
  6
CONTINUOUS
 62
               4
100
AcDbLine
 10
-26.999999999999996
 20
28.184994913736944
 30
0.0
 11
-26.999999999999996
 21
23.99999491373697
 31
0.0
  0
LINE
  5
25B
100
AcDbEntity
  8
0
  6
CONTINUOUS
 62
               4
100
AcDbLine
 10
20.08921456599456
 20
24.164991126888395
 30
0.0
 11
21.946103769656482
 21
17.234986332879686
 31
0.0
  0
LINE
  5
25C
100
AcDbEntity
  8
0
  6
CONTINUOUS
 62
               4
100
AcDbLine
 10
19.053935707233002
 20
24.165001172564786
 30
0.0
 11
20.910828860160116
 21
17.23498163969785
 31
0.0
  0
LINE
  5
25D
100
AcDbEntity
  8
0
  6
CONTINUOUS
 62
               4
100
AcDbLine
 10
20.491119384765632
 20
22.665018717447907
 30
0.0
 11
24.50001525878907
 21
22.665018717447907
 31
0.0
  0
LINE
  5
25E
100
AcDbEntity
  8
0
  6
CONTINUOUS
 62
               4
100
AcDbLine
 10
20.874298095703132
 20
21.235010782877595
 30
0.0
 11
24.50001525878907
 21
21.235010782877595
 31
0.0
  0
LINE
  5
25F
100
AcDbEntity
  8
0
  6
CONTINUOUS
 62
               4
100
AcDbLine
 10
21.160995483398445
 20
20.165018717447907
 30
0.0
 11
24.50001525878907
 21
20.165018717447907
 31
0.0
  0
LINE
  5
260
100
AcDbEntity
  8
0
  6
CONTINUOUS
 62
               4
100
AcDbLine
 10
21.544174194335945
 20
18.735010782877595
 30
0.0
 11
24.50001525878907
 21
18.735010782877595
 31
0.0
  0
LINE
  5
261
100
AcDbEntity
  8
0
  6
CONTINUOUS
 62
               4
100
AcDbLine
 10
24.500000000000007
 20
22.665003458658845
 30
0.0
 11
24.500000000000007
 21
21.234995524088532
 31
0.0
  0
LINE
  5
262
100
AcDbEntity
  8
0
  6
CONTINUOUS
 62
               4
100
AcDbLine
 10
24.500000000000007
 20
18.734995524088532
 30
0.0
 11
24.500000000000007
 21
20.165003458658845
 31
0.0
  0
LINE
  5
263
100
AcDbEntity
  8
0
  6
CONTINUOUS
 62
               4
100
AcDbLine
 10
29.500000000000007
 20
22.350001017252595
 30
0.0
 11
29.500000000000007
 21
21.549997965494782
 31
0.0
  0
LINE
  5
264
100
AcDbEntity
  8
0
  6
CONTINUOUS
 62
               4
100
AcDbLine
 10
24.50001525878907
 20
21.549997965494782
 30
0.0
 11
29.500000000000007
 21
21.549997965494782
 31
0.0
  0
LINE
  5
265
100
AcDbEntity
  8
0
  6
CONTINUOUS
 62
               4
100
AcDbLine
 10
24.50001525878907
 20
22.350001017252595
 30
0.0
 11
29.500000000000007
 21
22.350001017252595
 31
0.0
  0
LINE
  5
266
100
AcDbEntity
  8
0
  6
CONTINUOUS
 62
               4
100
AcDbLine
 10
16.500000000000007
 20
20.165018717447907
 30
0.0
 11
20.125717163085945
 21
20.165018717447907
 31
0.0
  0
LINE
  5
267
100
AcDbEntity
  8
0
  6
CONTINUOUS
 62
               4
100
AcDbLine
 10
16.500000000000007
 20
18.735010782877595
 30
0.0
 11
20.508895874023445
 21
18.735010782877595
 31
0.0
  0
LINE
  5
268
100
AcDbEntity
  8
0
  6
CONTINUOUS
 62
               4
100
AcDbLine
 10
16.500000000000007
 20
21.235010782877595
 30
0.0
 11
19.839019775390632
 21
21.235010782877595
 31
0.0
  0
LINE
  5
269
100
AcDbEntity
  8
0
  6
CONTINUOUS
 62
               4
100
AcDbLine
 10
16.500000000000007
 20
22.665018717447907
 30
0.0
 11
19.455841064453132
 21
22.665018717447907
 31
0.0
  0
LINE
  5
26A
100
AcDbEntity
  8
0
  6
CONTINUOUS
 62
               4
100
AcDbLine
 10
24.50001525878907
 20
19.049997965494782
 30
0.0
 11
29.500000000000007
 21
19.049997965494782
 31
0.0
  0
LINE
  5
26B
100
AcDbEntity
  8
0
  6
CONTINUOUS
 62
               4
100
AcDbLine
 10
24.50001525878907
 20
19.850001017252595
 30
0.0
 11
29.500000000000007
 21
19.850001017252595
 31
0.0
  0
LINE
  5
26C
100
AcDbEntity
  8
0
  6
CONTINUOUS
 62
               4
100
AcDbLine
 10
29.500000000000007
 20
19.049997965494782
 30
0.0
 11
29.500000000000007
 21
19.850001017252595
 31
0.0
  0
LINE
  5
26D
100
AcDbEntity
  8
0
  6
CONTINUOUS
 62
               4
100
AcDbLine
 10
15.000000000000007
 20
27.49999491373697
 30
0.0
 11
16.500000000000007
 21
27.49999491373697
 31
0.0
  0
LINE
  5
26E
100
AcDbEntity
  8
0
  6
CONTINUOUS
 62
               4
100
AcDbLine
 10
15.499999958178712
 20
25.499973352823559
 30
0.0
 11
16.499994209762924
 21
26.077319672805658
 31
0.0
  0
LINE
  5
26F
100
AcDbEntity
  8
0
  6
CONTINUOUS
 62
               4
100
AcDbLine
 10
10.000000000000007
 20
25.49999491373697
 30
0.0
 11
16.500000000000007
 21
25.49999491373697
 31
0.0
  0
LINE
  5
270
100
AcDbEntity
  8
0
  6
CONTINUOUS
 62
               4
100
AcDbLine
 10
5.9984545794686781
 20
26.500066061293779
 30
0.0
 11
9.556142663157523
 21
27.000065384309579
 31
0.0
  0
LINE
  5
271
100
AcDbEntity
  8
0
  6
CONTINUOUS
 62
               4
100
AcDbLine
 10
9.5561523437500071
 20
26.99999491373697
 30
0.0
 11
15.000000000000007
 21
26.99999491373697
 31
0.0
  0
LINE
  5
272
100
AcDbEntity
  8
0
  6
CONTINUOUS
 62
               4
100
AcDbLine
 10
15.500000000000007
 20
16.49999491373697
 30
0.0
 11
15.500000000000007
 21
16.99999491373697
 31
0.0
  0
LINE
  5
273
100
AcDbEntity
  8
0
  6
CONTINUOUS
 62
               4
100
AcDbLine
 10
15.500000000000007
 20
16.49999491373697
 30
0.0
 11
16.500000000000007
 21
16.49999491373697
 31
0.0
  0
LINE
  5
274
100
AcDbEntity
  8
0
  6
CONTINUOUS
 62
               4
100
AcDbLine
 10
10.000000000000007
 20
16.99999491373697
 30
0.0
 11
15.500000000000007
 21
16.99999491373697
 31
0.0
  0
LINE
  5
275
100
AcDbEntity
  8
0
  6
CONTINUOUS
 62
               4
100
AcDbLine
 10
15.000000000000007
 20
26.99999491373697
 30
0.0
 11
15.000000000000007
 21
27.49999491373697
 31
0.0
  0
LINE
  5
276
100
AcDbEntity
  8
0
  6
CONTINUOUS
 62
               4
100
AcDbLine
 10
5.9984588623046946
 20
25.49999491373697
 30
0.0
 11
5.9984588623046946
 21
26.49999491373697
 31
0.0
  0
LINE
  5
277
100
AcDbEntity
  8
0
  6
CONTINUOUS
 62
               4
100
AcDbLine
 10
16.500000000000007
 20
26.077341715494782
 30
0.0
 11
16.500000000000007
 21
27.49999491373697
 31
0.0
  0
LINE
  5
278
100
AcDbEntity
  8
0
  6
CONTINUOUS
 62
               4
100
AcDbLine
 10
10.000000000000007
 20
25.449991861979157
 30
0.0
 11
10.000000000000007
 21
25.49999491373697
 31
0.0
  0
LINE
  5
279
100
AcDbEntity
  8
0
  6
CONTINUOUS
 62
               4
100
AcDbLine
 10
16.500000000000007
 20
16.49999491373697
 30
0.0
 11
16.500000000000007
 21
25.49999491373697
 31
0.0
  0
LINE
  5
27A
100
AcDbEntity
  8
0
  6
CONTINUOUS
 62
               7
100
AcDbLine
 10
-27.0
 20
0.0
 30
0.0
 11
0.0
 21
0.0
 31
0.0
  0
ENDBLK
  5
27B
100
AcDbEntity
  8
0
100
AcDbBlockEnd
  0
BLOCK
  5
27C
100
AcDbEntity
  8
0
100
AcDbBlockBegin
  2
F15T-8
 70
               0
 10
0.0
 20
0.0
 30
0.0
  3
F15T-8
  1

  0
LINE
  5
27D
100
AcDbEntity
  8
0
  6
CONTINUOUS
 62
               2
100
AcDbLine
 10
54.5
 20
16.199993133544922
 30
0.0
 11
51.800003051757813
 21
16.199993133544922
 31
0.0
  0
LINE
  5
27E
100
AcDbEntity
  8
0
  6
CONTINUOUS
 62
               7
100
AcDbLine
 10
52.5
 20
19.399990081787109
 30
0.0
 11
25.5
 21
19.399990081787109
 31
0.0
  0
LINE
  5
27F
100
AcDbEntity
  8
0
  6
CONTINUOUS
 62
               7
100
AcDbLine
 10
53.5
 20
14.249996185302734
 30
0.0
 11
53.5
 21
15.900005340576172
 31
0.0
  0
LINE
  5
280
100
AcDbEntity
  8
0
  6
CONTINUOUS
 62
               7
100
AcDbLine
 10
53.5
 20
14.249996185302734
 30
0.0
 11
52.5
 21
14.249996185302734
 31
0.0
  0
LINE
  5
281
100
AcDbEntity
  8
0
  6
CONTINUOUS
 62
               7
100
AcDbLine
 10
53.5
 20
18.149990081787109
 30
0.0
 11
52.5
 21
18.149990081787109
 31
0.0
  0
LINE
  5
282
100
AcDbEntity
  8
0
  6
CONTINUOUS
 62
               7
100
AcDbLine
 10
52.900009155273438
 20
15.900005340576172
 30
0.0
 11
52.900009155273438
 21
16.499996185302734
 31
0.0
  0
LINE
  5
283
100
AcDbEntity
  8
0
  6
CONTINUOUS
 62
               7
100
AcDbLine
 10
53.5
 20
15.899990081787109
 30
0.0
 11
52.900009155273438
 21
15.899990081787109
 31
0.0
  0
LINE
  5
284
100
AcDbEntity
  8
0
  6
CONTINUOUS
 62
               7
100
AcDbLine
 10
53.5
 20
16.499996185302734
 30
0.0
 11
52.900009155273438
 21
16.499996185302734
 31
0.0
  0
LINE
  5
285
100
AcDbEntity
  8
0
  6
CONTINUOUS
 62
               7
100
AcDbLine
 10
53.5
 20
16.499996185302734
 30
0.0
 11
53.5
 21
18.150005340576172
 31
0.0
  0
LINE
  5
286
100
AcDbEntity
  8
0
  6
CONTINUOUS
 62
               7
100
AcDbLine
 10
52.5
 20
-2.0000038146972656
 30
0.0
 11
25.5
 21
-2.0000038146972656
 31
0.0
  0
LINE
  5
287
100
AcDbEntity
  8
0
  6
CONTINUOUS
 62
               7
100
AcDbLine
 10
56.5
 20
-48.000003814697266
 30
0.0
 11
25.5
 21
-48.000003814697266
 31
0.0
  0
LINE
  5
288
100
AcDbEntity
  8
0
  6
CONTINUOUS
 62
               7
100
AcDbLine
 10
52.5
 20
-47.999988555908203
 30
0.0
 11
52.5
 21
19.499996185302734
 31
0.0
  0
LINE
  5
289
100
AcDbEntity
  8
0
  6
CONTINUOUS
 62
               7
100
AcDbLine
 10
55.375747680664063
 20
-2.0000038146972656
 30
0.0
 11
52.500015258789063
 21
-2.0000038146972656
 31
0.0
  0
LINE
  5
28A
100
AcDbEntity
  8
0
  6
CONTINUOUS
 62
               7
100
AcDbLine
 10
57.5
 20
-4.1242561340332031
 30
0.0
 11
57.5
 21
-45.875720977783203
 31
0.0
  0
LINE
  5
28B
100
AcDbEntity
  8
0
  6
CONTINUOUS
 62
               7
100
AcDbLine
 10
57.412130089468064
 20
-3.9121372327138602
 30
0.0
 11
55.587867012344304
 21
-2.0878776923858027
 31
0.0
  0
LINE
  5
28C
100
AcDbEntity
  8
0
  6
CONTINUOUS
 62
               7
100
AcDbLine
 10
57.412137239613571
 20
-46.087869596661164
 30
0.0
 11
55.587873854942359
 21
-47.91212882944177
 31
0.0
  0
LINE
  5
28D
100
AcDbEntity
  8
0
  6
CONTINUOUS
 62
               7
100
AcDbLine
 10
55.5
 20
-56.099994659423828
 30
0.0
 11
55.5
 21
-49.899997711181641
 31
0.0
  0
LINE
  5
28E
100
AcDbEntity
  8
0
  6
CONTINUOUS
 62
               7
100
AcDbLine
 10
57.5
 20
-56.999988555908203
 30
0.0
 11
57.5
 21
-48.999988555908203
 31
0.0
  0
LINE
  5
28F
100
AcDbEntity
  8
0
  6
CONTINUOUS
 62
               7
100
AcDbLine
 10
56.499965971188431
 20
-48.000014815626741
 30
0.0
 11
57.499973270524833
 21
-49.000014612797685
 31
0.0
  0
LINE
  5
290
100
AcDbEntity
  8
0
  6
CONTINUOUS
 62
               7
100
AcDbLine
 10
56.500012417229527
 20
-58.000020457845039
 30
0.0
 11
57.500013563112816
 21
-57.000019480549327
 31
0.0
  0
LINE
  5
291
100
AcDbEntity
  8
0
  6
CONTINUOUS
 62
               7
100
AcDbLine
 10
56.300003051757813
 20
-56.099994659423828
 30
0.0
 11
56.300003051757813
 21
-49.899997711181641
 31
0.0
  0
LINE
  5
292
100
AcDbEntity
  8
0
  6
CONTINUOUS
 62
               7
100
AcDbLine
 10
56.5
 20
-58.000003814697266
 30
0.0
 11
25.500015258789062
 21
-58.000003814697266
 31
0.0
  0
LINE
  5
293
100
AcDbEntity
  8
0
  6
CONTINUOUS
 62
               7
100
AcDbLine
 10
55.0
 20
-67.000003814697266
 30
0.0
 11
26.000015258789063
 21
-67.000003814697266
 31
0.0
  0
LINE
  5
294
100
AcDbEntity
  8
0
  6
CONTINUOUS
 62
               7
100
AcDbLine
 10
25.500015258789062
 20
-66.499988555908203
 30
0.0
 11
25.500015258789062
 21
19.499996185302734
 31
0.0
  0
LINE
  5
295
100
AcDbEntity
  8
0
  6
CONTINUOUS
 62
               7
100
AcDbLine
 10
55.5
 20
-66.499988555908203
 30
0.0
 11
55.5
 21
-57.999988555908203
 31
0.0
  0
LINE
  5
296
100
AcDbEntity
  8
0
  6
CONTINUOUS
 62
               7
100
AcDbLine
 10
52.250015258789062
 20
-64.999988555908203
 30
0.0
 11
52.250015258789062
 21
-64.499988555908203
 31
0.0
  0
LINE
  5
297
100
AcDbEntity
  8
0
  6
CONTINUOUS
 62
               7
100
AcDbLine
 10
46.750030517578125
 20
-64.999988555908203
 30
0.0
 11
46.750030517578125
 21
-64.499988555908203
 31
0.0
  0
LINE
  5
298
100
AcDbEntity
  8
0
  6
CONTINUOUS
 62
               7
100
AcDbLine
 10
50.750015258789063
 20
-66.500003814697266
 30
0.0
 11
48.250015258789063
 21
-66.500003814697266
 31
0.0
  0
LINE
  5
299
100
AcDbEntity
  8
0
  6
CONTINUOUS
 62
               7
100
AcDbLine
 10
55.5
 20
-56.000003814697266
 30
0.0
 11
53.5
 21
-56.000003814697266
 31
0.0
  0
LINE
  5
29A
100
AcDbEntity
  8
0
  6
CONTINUOUS
 62
               7
100
AcDbLine
 10
55.5
 20
-50.000003814697266
 30
0.0
 11
53.5
 21
-50.000003814697266
 31
0.0
  0
LINE
  5
29B
100
AcDbEntity
  8
0
  6
CONTINUOUS
 62
               7
100
AcDbLine
 10
54.5
 20
-56.099994659423828
 30
0.0
 11
54.5
 21
-55.999988555908203
 31
0.0
  0
LINE
  5
29C
100
AcDbEntity
  8
0
  6
CONTINUOUS
 62
               7
100
AcDbLine
 10
53.5
 20
-57.999988555908203
 30
0.0
 11
53.5
 21
-55.999988555908203
 31
0.0
  0
LINE
  5
29D
100
AcDbEntity
  8
0
  6
CONTINUOUS
 62
               7
100
AcDbLine
 10
54.5
 20
-49.999988555908203
 30
0.0
 11
54.5
 21
-49.899997711181641
 31
0.0
  0
LINE
  5
29E
100
AcDbEntity
  8
0
  6
CONTINUOUS
 62
               7
100
AcDbLine
 10
53.5
 20
-49.999988555908203
 30
0.0
 11
53.5
 21
-47.999988555908203
 31
0.0
  0
LINE
  5
29F
100
AcDbEntity
  8
0
  6
CONTINUOUS
 62
               7
100
AcDbLine
 10
53.600006103515625
 20
-57.999988555908203
 30
0.0
 11
53.600006103515625
 21
-56.099994659423828
 31
0.0
  0
LINE
  5
2A0
100
AcDbEntity
  8
0
  6
CONTINUOUS
 62
               7
100
AcDbLine
 10
56.300003051757813
 20
-49.899997711181641
 30
0.0
 11
53.599990844726563
 21
-49.899997711181641
 31
0.0
  0
LINE
  5
2A1
100
AcDbEntity
  8
0
  6
CONTINUOUS
 62
               7
100
AcDbLine
 10
56.300003051757813
 20
-56.099994659423828
 30
0.0
 11
53.599990844726563
 21
-56.099994659423828
 31
0.0
  0
LINE
  5
2A2
100
AcDbEntity
  8
0
  6
CONTINUOUS
 62
               7
100
AcDbLine
 10
53.600006103515625
 20
-49.899997711181641
 30
0.0
 11
53.600006103515625
 21
-47.999988555908203
 31
0.0
  0
LINE
  5
2A3
100
AcDbEntity
  8
0
  6
CONTINUOUS
 62
               7
100
AcDbLine
 10
56.5
 20
-57.999988555908203
 30
0.0
 11
56.5
 21
-47.999988555908203
 31
0.0
  0
LINE
  5
2A4
100
AcDbEntity
  8
0
  6
CONTINUOUS
 62
               7
100
AcDbLine
 10
57.5
 20
-9.2000007629394531
 30
0.0
 11
55.5
 21
-9.2000007629394531
 31
0.0
  0
LINE
  5
2A5
100
AcDbEntity
  8
0
  6
CONTINUOUS
 62
               7
100
AcDbLine
 10
57.5
 20
-44.200000762939453
 30
0.0
 11
52.5
 21
-44.200000762939453
 31
0.0
  0
LINE
  5
2A6
100
AcDbEntity
  8
0
  6
CONTINUOUS
 62
               7
100
AcDbLine
 10
57.5
 20
-38.800006866455078
 30
0.0
 11
52.5
 21
-38.800006866455078
 31
0.0
  0
LINE
  5
2A7
100
AcDbEntity
  8
0
  6
CONTINUOUS
 62
               7
100
AcDbLine
 10
53.300003051757812
 20
-43.750003814697266
 30
0.0
 11
53.100006103515625
 21
-43.750003814697266
 31
0.0
  0
LINE
  5
2A8
100
AcDbEntity
  8
0
  6
CONTINUOUS
 62
               7
100
AcDbLine
 10
53.300003051757812
 20
-39.250003814697266
 30
0.0
 11
53.100006103515625
 21
-39.250003814697266
 31
0.0
  0
LINE
  5
2A9
100
AcDbEntity
  8
0
  6
CONTINUOUS
 62
               7
100
AcDbLine
 10
54.800003051757813
 20
-40.750003814697266
 30
0.0
 11
54.800003051757813
 21
-42.250003814697266
 31
0.0
  0
LINE
  5
2AA
100
AcDbEntity
  8
0
  6
CONTINUOUS
 62
               7
100
AcDbLine
 10
55.699996948242188
 20
-4.2500190734863281
 30
0.0
 11
55.5
 21
-4.2500190734863281
 31
0.0
  0
LINE
  5
2AB
100
AcDbEntity
  8
0
  6
CONTINUOUS
 62
               7
100
AcDbLine
 10
57.199996948242188
 20
-5.7500190734863281
 30
0.0
 11
57.199996948242188
 21
-7.2500190734863281
 31
0.0
  0
LINE
  5
2AC
100
AcDbEntity
  8
0
  6
CONTINUOUS
 62
               7
100
AcDbLine
 10
55.699996948242188
 20
-8.7500038146972656
 30
0.0
 11
55.5
 21
-8.7500038146972656
 31
0.0
  0
LINE
  5
2AD
100
AcDbEntity
  8
0
  6
CONTINUOUS
 62
               7
100
AcDbLine
 10
25.0
 20
-55.999988555908203
 30
0.0
 11
25.0
 21
6.0000114440917969
 31
0.0
  0
LINE
  5
2AE
100
AcDbEntity
  8
0
  6
CONTINUOUS
 62
               7
100
AcDbLine
 10
25.0
 20
-55.999988555908203
 30
0.0
 11
0.0
 21
-55.999988555908203
 31
0.0
  0
LINE
  5
2AF
100
AcDbEntity
  8
0
  6
CONTINUOUS
 62
               7
100
AcDbLine
 10
25.0
 20
5.9999961853027344
 30
0.0
 11
0.0
 21
5.9999961853027344
 31
0.0
  0
LINE
  5
2B0
100
AcDbEntity
  8
0
  6
CONTINUOUS
 62
               7
100
AcDbLine
 10
0.0
 20
-55.999988555908203
 30
0.0
 11
0.0
 21
6.0000114440917969
 31
0.0
  0
LINE
  5
2B1
100
AcDbEntity
  8
0
  6
CONTINUOUS
 62
               2
100
AcDbLine
 10
22.863998413085938
 20
-17.5
 30
0.0
 11
11.136001586914063
 21
-17.5
 31
0.0
  0
LINE
  5
2B2
100
AcDbEntity
  8
0
  6
CONTINUOUS
 62
               2
100
AcDbLine
 10
14.924514770507813
 20
-32.5
 30
0.0
 11
3.1970367431640625
 21
-32.5
 31
0.0
  0
LINE
  5
2B3
100
AcDbEntity
  8
0
  6
CONTINUOUS
 62
               2
100
AcDbLine
 10
9.0
 20
-38.313755035400391
 30
0.0
 11
9.0
 21
-26.586521148681641
 31
0.0
  0
LINE
  5
2B4
100
AcDbEntity
  8
0
  6
CONTINUOUS
 62
               2
100
AcDbLine
 10
17.0
 20
-23.363990783691406
 30
0.0
 11
17.0
 21
-11.635990142822266
 31
0.0
  0
LINE
  5
2B5
100
AcDbEntity
  8
0
  6
CONTINUOUS
 62
               7
100
AcDbLine
 10
52.5
 20
6.4999961853027344
 30
0.0
 11
25.5
 21
6.4999961853027344
 31
0.0
  0
LINE
  5
2B6
100
AcDbEntity
  8
0
  6
CONTINUOUS
 62
               7
100
AcDbLine
 10
46.300018310546875
 20
-66.700000762939453
 30
0.0
 11
46.300018310546875
 21
-64.800006866455078
 31
0.0
  0
LINE
  5
2B7
100
AcDbEntity
  8
0
  6
CONTINUOUS
 62
               7
100
AcDbLine
 10
52.70001220703125
 20
-66.700000762939453
 30
0.0
 11
52.70001220703125
 21
-64.800006866455078
 31
0.0
  0
LINE
  5
2B8
100
AcDbEntity
  8
0
  6
CONTINUOUS
 62
               7
100
AcDbLine
 10
52.400009155273438
 20
-64.500003814697266
 30
0.0
 11
46.600021362304688
 21
-64.500003814697266
 31
0.0
  0
LINE
  5
2B9
100
AcDbEntity
  8
0
  6
CONTINUOUS
 62
               7
100
AcDbLine
 10
55.5
 20
-9.2000007629394531
 30
0.0
 11
55.5
 21
-2.0000190734863281
 31
0.0
  0
LINE
  5
2BA
100
AcDbEntity
  8
0
  6
CONTINUOUS
 62
               7
100
AcDbLine
 10
26.5
 20
9.9999809265136719
 30
0.0
 11
25.5
 21
9.9999809265136719
 31
0.0
  0
LINE
  5
2BB
100
AcDbEntity
  8
0
  6
CONTINUOUS
 62
               7
100
AcDbLine
 10
26.5
 20
8.4999961853027344
 30
0.0
 11
26.5
 21
9.9999809265136719
 31
0.0
  0
LINE
  5
2BC
100
AcDbEntity
  8
0
  6
CONTINUOUS
 62
               7
100
AcDbLine
 10
48.20001220703125
 20
9.9999809265136719
 30
0.0
 11
29.0
 21
9.9999809265136719
 31
0.0
  0
LINE
  5
2BD
100
AcDbEntity
  8
0
  6
CONTINUOUS
 62
               7
100
AcDbLine
 10
29.0
 20
8.4999961853027344
 30
0.0
 11
29.0
 21
9.9999809265136719
 31
0.0
  0
LINE
  5
2BE
100
AcDbEntity
  8
0
  6
CONTINUOUS
 62
               7
100
AcDbLine
 10
48.20001220703125
 20
8.4999961853027344
 30
0.0
 11
48.20001220703125
 21
9.9999809265136719
 31
0.0
  0
LINE
  5
2BF
100
AcDbEntity
  8
0
  6
CONTINUOUS
 62
               7
100
AcDbLine
 10
51.20001220703125
 20
8.4999961853027344
 30
0.0
 11
51.20001220703125
 21
9.9999809265136719
 31
0.0
  0
LINE
  5
2C0
100
AcDbEntity
  8
0
  6
CONTINUOUS
 62
               7
100
AcDbLine
 10
52.5
 20
9.9999809265136719
 30
0.0
 11
51.20001220703125
 21
9.9999809265136719
 31
0.0
  0
ARC
  5
2C1
100
AcDbEntity
  8
0
  6
CONTINUOUS
 62
               7
100
AcDbCircle
 10
57.199996948242188
 20
-45.875720977783203
 30
0.0
 40
0.300000011920929
100
AcDbArc
 50
315.00000899304399
 51
359.99997267924249
  0
ARC
  5
2C2
100
AcDbEntity
  8
0
  6
CONTINUOUS
 62
               7
100
AcDbCircle
 10
55.375747680664063
 20
-47.699985504150391
 30
0.0
 40
0.300000011920929
100
AcDbArc
 50
269.99996334457541
 51
314.99995435153068
  0
ARC
  5
2C3
100
AcDbEntity
  8
0
  6
CONTINUOUS
 62
               7
100
AcDbCircle
 10
57.20001220703125
 20
-4.1242561340332031
 30
0.0
 40
0.300000011920929
100
AcDbArc
 50
359.99997267924249
 51
44.999936365441869
  0
ARC
  5
2C4
100
AcDbEntity
  8
0
  6
CONTINUOUS
 62
               7
100
AcDbCircle
 10
55.375747680664063
 20
-2.2999916076660156
 30
0.0
 40
0.300000011920929
100
AcDbArc
 50
44.999936365441869
 51
89.999927372397096
  0
ARC
  5
2C5
100
AcDbEntity
  8
0
  6
CONTINUOUS
 62
               7
100
AcDbCircle
 10
55.0
 20
-66.499988555908203
 30
0.0
 40
0.5
100
AcDbArc
 50
270.00001798608872
 51
359.99995901886416
  0
ARC
  5
2C6
100
AcDbEntity
  8
0
  6
CONTINUOUS
 62
               7
100
AcDbCircle
 10
26.000015258789063
 20
-66.499988555908203
 30
0.0
 40
0.5
100
AcDbArc
 50
179.99996402782091
 51
269.99994604173139
  0
ARC
  5
2C7
100
AcDbEntity
  8
0
  6
CONTINUOUS
 62
               7
100
AcDbCircle
 10
50.750015258789063
 20
-64.999988555908203
 30
0.0
 40
1.5
100
AcDbArc
 50
270.00001798608872
 51
359.99995901886416
  0
ARC
  5
2C8
100
AcDbEntity
  8
0
  6
CONTINUOUS
 62
               7
100
AcDbCircle
 10
48.250015258789063
 20
-64.999988555908203
 30
0.0
 40
1.5
100
AcDbArc
 50
179.99990938630756
 51
269.99994604173139
  0
ARC
  5
2C9
100
AcDbEntity
  8
0
  6
CONTINUOUS
 62
               7
100
AcDbCircle
 10
53.300003051757812
 20
-42.250003814697266
 30
0.0
 40
1.5
100
AcDbArc
 50
270.00007262760209
 51
0.0000409811350201
  0
ARC
  5
2CA
100
AcDbEntity
  8
0
  6
CONTINUOUS
 62
               7
100
AcDbCircle
 10
53.300003051757812
 20
-40.750003814697266
 30
0.0
 40
1.5
100
AcDbArc
 50
0.0000409811350201
 51
89.999982013910454
  0
ARC
  5
2CB
100
AcDbEntity
  8
0
  6
CONTINUOUS
 62
               7
100
AcDbCircle
 10
55.699996948242188
 20
-5.7500190734863281
 30
0.0
 40
1.5
100
AcDbArc
 50
0.0000409811350201
 51
89.999982013910454
  0
ARC
  5
2CC
100
AcDbEntity
  8
0
  6
CONTINUOUS
 62
               7
100
AcDbCircle
 10
55.699996948242188
 20
-7.2500190734863281
 30
0.0
 40
1.5
100
AcDbArc
 50
270.00007262760209
 51
0.0000409811350201
  0
CIRCLE
  5
2CD
100
AcDbEntity
  8
0
  6
CONTINUOUS
 62
               2
100
AcDbCircle
 10
9.0607757568359375
 20
-32.450141906738281
 30
0.0
 40
4.8639993667602539
  0
CIRCLE
  5
2CE
100
AcDbEntity
  8
0
  6
CONTINUOUS
 62
               2
100
AcDbCircle
 10
17.0
 20
-17.499992370605469
 30
0.0
 40
4.8639993667602539
  0
CIRCLE
  5
2CF
100
AcDbEntity
  8
0
  6
CONTINUOUS
 62
               7
100
AcDbCircle
 10
9.0607757568359375
 20
-32.450141906738281
 30
0.0
 40
4.2829999923706055
  0
CIRCLE
  5
2D0
100
AcDbEntity
  8
0
  6
CONTINUOUS
 62
               7
100
AcDbCircle
 10
17.0
 20
-17.499992370605469
 30
0.0
 40
4.2829999923706055
  0
ARC
  5
2D1
100
AcDbEntity
  8
0
  6
CONTINUOUS
 62
               7
100
AcDbCircle
 10
28.5
 20
9.4999961853027344
 30
0.0
 40
2.4999990463256836
100
AcDbArc
 50
203.5781768361424
 51
336.42181132471086
  0
ARC
  5
2D2
100
AcDbEntity
  8
0
  6
CONTINUOUS
 62
               7
100
AcDbCircle
 10
53.000015258789063
 20
-66.700000762939453
 30
0.0
 40
0.300000011920929
100
AcDbArc
 50
179.99998133066492
 51
270.00001798608872
  0
ARC
  5
2D3
100
AcDbEntity
  8
0
  6
CONTINUOUS
 62
               7
100
AcDbCircle
 10
46.000015258789063
 20
-66.700000762939453
 30
0.0
 40
0.300000011920929
100
AcDbArc
 50
270.00001798608872
 51
0.0
  0
ARC
  5
2D4
100
AcDbEntity
  8
0
  6
CONTINUOUS
 62
               7
100
AcDbCircle
 10
46.600021362304688
 20
-64.800006866455078
 30
0.0
 40
0.300000011920929
100
AcDbArc
 50
89.999982013910454
 51
179.99996402782091
  0
ARC
  5
2D5
100
AcDbEntity
  8
0
  6
CONTINUOUS
 62
               7
100
AcDbCircle
 10
52.400009155273438
 20
-64.800006866455078
 30
0.0
 40
0.300000011920929
100
AcDbArc
 50
0.0
 51
89.999982013910454
  0
LINE
  5
2D6
100
AcDbEntity
  8
0
  6
CONTINUOUS
 62
               7
100
AcDbLine
 10
52.5
 20
8.4999961853027344
 30
0.0
 11
25.5
 21
8.4999961853027344
 31
0.0
  0
LINE
  5
2D7
100
AcDbEntity
  8
0
  6
CONTINUOUS
 62
               7
100
AcDbLine
 10
53.100006103515625
 20
-44.000003814697266
 30
0.0
 11
53.100006103515625
 21
-39.000003814697266
 31
0.0
  0
LINE
  5
2D8
100
AcDbEntity
  8
0
  6
CONTINUOUS
 62
               7
100
AcDbLine
 10
52.5
 20
-39.000003814697266
 30
0.0
 11
53.100006103515625
 21
-39.000003814697266
 31
0.0
  0
LINE
  5
2D9
100
AcDbEntity
  8
0
  6
CONTINUOUS
 62
               7
100
AcDbLine
 10
52.5
 20
-44.000003814697266
 30
0.0
 11
53.100006103515625
 21
-44.000003814697266
 31
0.0
  0
LINE
  5
2DA
100
AcDbEntity
  8
0
  6
CONTINUOUS
 62
               7
100
AcDbLine
 10
52.499994208754288
 20
-41.095864200139658
 30
0.0
 11
53.100011737722525
 21
-40.749443912053721
 31
0.0
  0
LINE
  5
2DB
100
AcDbEntity
  8
0
  6
CONTINUOUS
 62
               7
100
AcDbLine
 10
52.499997220612386
 20
-42.250562989259379
 30
0.0
 11
53.100001535081901
 21
-41.904150330567973
 31
0.0
  0
LINE
  5
2DC
100
AcDbEntity
  8
0
  6
CONTINUOUS
 62
               4
100
AcDbLine
 10
36.600000000000023
 20
52.499996185302734
 30
0.0
 11
50.174999999999955
 21
52.499996185302734
 31
0.0
  0
LINE
  5
2DD
100
AcDbEntity
  8
0
  6
CONTINUOUS
 62
               4
100
AcDbLine
 10
52.5
 20
19.499996185302734
 30
0.0
 11
52.5
 21
43.499996185302734
 31
0.0
  0
LINE
  5
2DE
100
AcDbEntity
  8
0
  6
CONTINUOUS
 62
               4
100
AcDbLine
 10
25.5
 20
19.499996185302734
 30
0.0
 11
25.5
 21
43.499996185302734
 31
0.0
  0
LINE
  5
2DF
100
AcDbEntity
  8
0
  6
CONTINUOUS
 62
               4
100
AcDbLine
 10
25.5
 20
51.999996185302734
 30
0.0
 11
25.5
 21
43.499996185302734
 31
0.0
  0
LINE
  5
2E0
100
AcDbEntity
  8
0
  6
CONTINUOUS
 62
               4
100
AcDbLine
 10
45.5
 20
45.89999618530274
 30
0.0
 11
45.5
 21
44.949996185302751
 31
0.0
  0
LINE
  5
2E1
100
AcDbEntity
  8
0
  6
CONTINUOUS
 62
               4
100
AcDbLine
 10
32.600000000000023
 20
45.89999618530274
 30
0.0
 11
32.600000000000023
 21
44.949996185302751
 31
0.0
  0
LINE
  5
2E2
100
AcDbEntity
  8
0
  6
CONTINUOUS
 62
               4
100
AcDbLine
 10
47.600000000000023
 20
45.89999618530274
 30
0.0
 11
45.5
 21
45.89999618530274
 31
0.0
  0
LINE
  5
2E3
100
AcDbEntity
  8
0
  6
CONTINUOUS
 62
               4
100
AcDbLine
 10
32.600000000000023
 20
45.89999618530274
 30
0.0
 11
30.5
 21
45.89999618530274
 31
0.0
  0
LINE
  5
2E4
100
AcDbEntity
  8
0
  6
CONTINUOUS
 62
               4
100
AcDbLine
 10
52.5
 20
47.679996185302741
 30
0.0
 11
52.5
 21
43.499996185302734
 31
0.0
  0
LINE
  5
2E5
100
AcDbEntity
  8
0
  6
CONTINUOUS
 62
               4
100
AcDbLine
 10
50.629999999999995
 20
52.204996185302747
 30
0.0
 11
52.370000000000005
 21
48.289996185302726
 31
0.0
  0
ARC
  5
2E6
100
AcDbEntity
  8
0
  6
CONTINUOUS
 62
               4
100
AcDbCircle
 10
50.174020838564047
 20
52.000096122749
 30
0.0
 40
0.4999010215015999
100
AcDbArc
 50
24.197376208904771
 51
89.887774076864815
  0
ARC
  5
2E7
100
AcDbEntity
  8
0
  6
CONTINUOUS
 62
               4
100
AcDbCircle
 10
51.002020395360546
 20
47.679607089232036
 30
0.0
 40
1.4979796551727449
100
AcDbArc
 50
0.0148824203654679
 51
24.046309772710686
  0
LINE
  5
2E8
100
AcDbEntity
  8
0
  6
CONTINUOUS
 62
               4
100
AcDbLine
 10
47.600000000000023
 20
45.89999618530274
 30
0.0
 11
47.600000000000023
 21
44.949996185302751
 31
0.0
  0
LINE
  5
2E9
100
AcDbEntity
  8
0
  6
CONTINUOUS
 62
               4
100
AcDbLine
 10
30.5
 20
45.89999618530274
 30
0.0
 11
30.5
 21
44.949996185302751
 31
0.0
  0
LINE
  5
2EA
100
AcDbEntity
  8
0
  6
CONTINUOUS
 62
               4
100
AcDbLine
 10
32.600000000000023
 20
44.949996185302751
 30
0.0
 11
30.5
 21
44.949996185302751
 31
0.0
  0
LINE
  5
2EB
100
AcDbEntity
  8
0
  6
CONTINUOUS
 62
               4
100
AcDbLine
 10
47.600000000000023
 20
44.949996185302751
 30
0.0
 11
45.5
 21
44.949996185302751
 31
0.0
  0
LINE
  5
2EC
100
AcDbEntity
  8
0
  6
CONTINUOUS
 62
               4
100
AcDbLine
 10
28.0
 20
56.999996185302734
 30
0.0
 11
28.0
 21
52.499996185302734
 31
0.0
  0
LINE
  5
2ED
100
AcDbEntity
  8
0
  6
CONTINUOUS
 62
               4
100
AcDbLine
 10
28.0
 20
52.499996185302734
 30
0.0
 11
26.0
 21
52.499996185302734
 31
0.0
  0
ARC
  5
2EE
100
AcDbEntity
  8
0
  6
CONTINUOUS
 62
               4
100
AcDbCircle
 10
26.0
 20
51.999996185302734
 30
0.0
 40
0.5
100
AcDbArc
 50
89.999999999999815
 51
179.99999999999963
  0
LINE
  5
2EF
100
AcDbEntity
  8
0
  6
CONTINUOUS
 62
               4
100
AcDbLine
 10
40.25
 20
43.999996185302734
 30
0.0
 11
40.25
 21
43.499996185302734
 31
0.0
  0
LINE
  5
2F0
100
AcDbEntity
  8
0
  6
CONTINUOUS
 62
               4
100
AcDbLine
 10
37.75
 20
43.999996185302734
 30
0.0
 11
37.75
 21
43.499996185302734
 31
0.0
  0
LINE
  5
2F1
100
AcDbEntity
  8
0
  6
CONTINUOUS
 62
               4
100
AcDbLine
 10
37.75
 20
43.999996185302734
 30
0.0
 11
40.25
 21
43.999996185302734
 31
0.0
  0
LINE
  5
2F2
100
AcDbEntity
  8
0
  6
CONTINUOUS
 62
             200
100
AcDbLine
 10
35.314994343097737
 20
68.964461000381561
 30
0.0
 11
28.384984189578631
 21
64.963409095866155
 31
0.0
  0
LINE
  5
2F3
100
AcDbEntity
  8
0
  6
CONTINUOUS
 62
             200
100
AcDbLine
 10
35.31501889147205
 20
70.119101995237543
 30
0.0
 11
28.384989799908567
 21
66.118053431456246
 31
0.0
  0
LINE
  5
2F4
100
AcDbEntity
  8
0
  6
CONTINUOUS
 62
               4
100
AcDbLine
 10
29.885003662109398
 20
63.499996185302734
 30
0.0
 11
29.885003662109398
 21
65.829418182373047
 31
0.0
  0
LINE
  5
2F5
100
AcDbEntity
  8
0
  6
CONTINUOUS
 62
               4
100
AcDbLine
 10
31.31501159667971
 20
63.499996185302734
 30
0.0
 11
31.31501159667971
 21
66.655025482177734
 31
0.0
  0
LINE
  5
2F6
100
AcDbEntity
  8
0
  6
CONTINUOUS
 62
               4
100
AcDbLine
 10
30.200006103515648
 20
76.499996185302734
 30
0.0
 11
31.00000915527346
 21
76.499996185302734
 31
0.0
  0
LINE
  5
2F7
100
AcDbEntity
  8
0
  6
CONTINUOUS
 62
               4
100
AcDbLine
 10
30.200006103515648
 20
71.499996185302734
 30
0.0
 11
30.200006103515648
 21
76.499980926513672
 31
0.0
  0
LINE
  5
2F8
100
AcDbEntity
  8
0
  6
CONTINUOUS
 62
               4
100
AcDbLine
 10
31.00000915527346
 20
71.499996185302734
 30
0.0
 11
31.00000915527346
 21
76.499996185302734
 31
0.0
  0
LINE
  5
2F9
100
AcDbEntity
  8
0
  6
CONTINUOUS
 62
               4
100
AcDbLine
 10
29.885003662109398
 20
71.499996185302734
 30
0.0
 11
31.31501159667971
 21
71.499996185302734
 31
0.0
  0
LINE
  5
2FA
100
AcDbEntity
  8
0
  6
CONTINUOUS
 62
               4
100
AcDbLine
 10
29.885003662109398
 20
66.984111785888672
 30
0.0
 11
29.885003662109398
 21
71.499996185302734
 31
0.0
  0
LINE
  5
2FB
100
AcDbEntity
  8
0
  6
CONTINUOUS
 62
               4
100
AcDbLine
 10
31.31501159667971
 20
67.809734344482422
 30
0.0
 11
31.31501159667971
 21
71.499996185302734
 31
0.0
  0
LINE
  5
2FC
100
AcDbEntity
  8
0
  6
CONTINUOUS
 62
               7
100
AcDbLine
 10
25.5
 20
19.499996185302734
 30
0.0
 11
52.5
 21
19.499996185302734
 31
0.0
  0
LINE
  5
2FD
100
AcDbEntity
  8
0
  6
CONTINUOUS
 62
               4
100
AcDbLine
 10
33.81501159667971
 20
69.253108978271484
 30
0.0
 11
33.81501159667971
 21
71.499996185302734
 31
0.0
  0
LINE
  5
2FE
100
AcDbEntity
  8
0
  6
CONTINUOUS
 62
               4
100
AcDbLine
 10
32.385003662109398
 20
68.427486419677734
 30
0.0
 11
32.385003662109398
 21
71.499996185302734
 31
0.0
  0
LINE
  5
2FF
100
AcDbEntity
  8
0
  6
CONTINUOUS
 62
               4
100
AcDbLine
 10
33.81501159667971
 20
71.499996185302734
 30
0.0
 11
32.385003662109398
 21
71.499996185302734
 31
0.0
  0
LINE
  5
300
100
AcDbEntity
  8
0
  6
CONTINUOUS
 62
               4
100
AcDbLine
 10
32.385003662109398
 20
63.499996185302734
 30
0.0
 11
32.385003662109398
 21
67.272792816162109
 31
0.0
  0
LINE
  5
301
100
AcDbEntity
  8
0
  6
CONTINUOUS
 62
               4
100
AcDbLine
 10
33.81501159667971
 20
63.499996185302734
 30
0.0
 11
33.81501159667971
 21
68.098400115966797
 31
0.0
  0
LINE
  5
302
100
AcDbEntity
  8
0
  6
CONTINUOUS
 62
               4
100
AcDbLine
 10
33.50000915527346
 20
71.499996185302734
 30
0.0
 11
33.50000915527346
 21
76.499996185302734
 31
0.0
  0
LINE
  5
303
100
AcDbEntity
  8
0
  6
CONTINUOUS
 62
               4
100
AcDbLine
 10
32.700006103515648
 20
71.499996185302734
 30
0.0
 11
32.700006103515648
 21
76.499996185302734
 31
0.0
  0
LINE
  5
304
100
AcDbEntity
  8
0
  6
CONTINUOUS
 62
               4
100
AcDbLine
 10
33.50000915527346
 20
76.499996185302734
 30
0.0
 11
32.700006103515648
 21
76.499996185302734
 31
0.0
  0
LINE
  5
305
100
AcDbEntity
  8
0
  6
CONTINUOUS
 62
               4
100
AcDbLine
 10
38.650003051757835
 20
61.999996185302734
 30
0.0
 11
38.650003051757835
 21
63.499996185302734
 31
0.0
  0
LINE
  5
306
100
AcDbEntity
  8
0
  6
CONTINUOUS
 62
               4
100
AcDbLine
 10
36.650044511604051
 20
62.499955128204419
 30
0.0
 11
37.227396327367956
 21
63.4999638331592
 31
0.0
  0
LINE
  5
307
100
AcDbEntity
  8
0
  6
CONTINUOUS
 62
               4
100
AcDbLine
 10
36.650003051757835
 20
56.999996185302734
 30
0.0
 11
36.650003051757835
 21
63.499996185302734
 31
0.0
  0
LINE
  5
308
100
AcDbEntity
  8
0
  6
CONTINUOUS
 62
               4
100
AcDbLine
 10
37.650001302236547
 20
52.998446927062105
 30
0.0
 11
38.150000411113638
 21
56.55613501075095
 31
0.0
  0
LINE
  5
309
100
AcDbEntity
  8
0
  6
CONTINUOUS
 62
               4
100
AcDbLine
 10
38.150003051757835
 20
56.556148529052734
 30
0.0
 11
38.150003051757835
 21
61.999996185302734
 31
0.0
  0
LINE
  5
30A
100
AcDbEntity
  8
0
  6
CONTINUOUS
 62
               4
100
AcDbLine
 10
27.649987792968773
 20
62.499996185302734
 30
0.0
 11
28.149987792968773
 21
62.499996185302734
 31
0.0
  0
LINE
  5
30B
100
AcDbEntity
  8
0
  6
CONTINUOUS
 62
               4
100
AcDbLine
 10
27.650003051757835
 20
62.499996185302734
 30
0.0
 11
27.650003051757835
 21
63.499996185302734
 31
0.0
  0
LINE
  5
30C
100
AcDbEntity
  8
0
  6
CONTINUOUS
 62
               4
100
AcDbLine
 10
28.150003051757835
 20
56.999996185302734
 30
0.0
 11
28.150003051757835
 21
62.499996185302734
 31
0.0
  0
LINE
  5
30D
100
AcDbEntity
  8
0
  6
CONTINUOUS
 62
               4
100
AcDbLine
 10
36.650000209407722
 20
52.998470337172876
 30
0.0
 11
36.599979656101482
 21
53.048490890479115
 31
0.0
  0
LINE
  5
30E
100
AcDbEntity
  8
0
  6
CONTINUOUS
 62
               4
100
AcDbLine
 10
38.149995422363304
 20
61.999996185302734
 30
0.0
 11
38.649995422363304
 21
61.999996185302734
 31
0.0
  0
LINE
  5
30F
100
AcDbEntity
  8
0
  6
CONTINUOUS
 62
               4
100
AcDbLine
 10
36.650003051757835
 20
54.498455047607422
 30
0.0
 11
36.650003051757835
 21
56.999996185302734
 31
0.0
  0
LINE
  5
310
100
AcDbEntity
  8
0
  6
CONTINUOUS
 62
               4
100
AcDbLine
 10
36.650003051757835
 20
52.998455047607422
 30
0.0
 11
37.649995422363304
 21
52.998455047607422
 31
0.0
  0
LINE
  5
311
100
AcDbEntity
  8
0
  6
CONTINUOUS
 62
               4
100
AcDbLine
 10
36.600000000000023
 20
54.498455047607422
 30
0.0
 11
36.650003051757835
 21
54.498455047607422
 31
0.0
  0
LINE
  5
312
100
AcDbEntity
  8
0
  6
CONTINUOUS
 62
               4
100
AcDbLine
 10
37.227349853515648
 20
63.499996185302734
 30
0.0
 11
38.649995422363304
 21
63.499996185302734
 31
0.0
  0
LINE
  5
313
100
AcDbEntity
  8
0
  6
CONTINUOUS
 62
               4
100
AcDbLine
 10
28.0
 20
56.999996185302734
 30
0.0
 11
36.650003051757835
 21
56.999996185302734
 31
0.0
  0
LINE
  5
314
100
AcDbEntity
  8
0
  6
CONTINUOUS
 62
               4
100
AcDbLine
 10
27.649987792968773
 20
63.499996185302734
 30
0.0
 11
36.649987792968773
 21
63.499996185302734
 31
0.0
  0
LINE
  5
315
100
AcDbEntity
  8
0
  6
CONTINUOUS
 62
               4
100
AcDbLine
 10
36.600000000000023
 20
56.999996185302734
 30
0.0
 11
36.600000000000023
 21
52.499996185302734
 31
0.0
  0
LINE
  5
316
100
AcDbEntity
  8
0
  6
CONTINUOUS
 62
               4
100
AcDbLine
 10
25.5
 20
43.499996185302734
 30
0.0
 11
52.499992370605469
 21
43.499996185302734
 31
0.0
  0
LINE
  5
317
100
AcDbEntity
  8
0
  6
CONTINUOUS
 62
               4
100
AcDbLine
 10
25.5
 20
36.499996185302734
 30
0.0
 11
27.100000000000023
 21
36.499996185302734
 31
0.0
  0
LINE
  5
318
100
AcDbEntity
  8
0
  6
CONTINUOUS
 62
               4
100
AcDbLine
 10
26.199999999999989
 20
36.499996185302734
 30
0.0
 11
26.199999999999989
 21
43.499996185302734
 31
0.0
  0
LINE
  5
319
100
AcDbEntity
  8
0
  6
CONTINUOUS
 62
               4
100
AcDbLine
 10
27.100000000000023
 20
36.499996185302734
 30
0.0
 11
27.100000000000023
 21
43.499996185302734
 31
0.0
  0
LINE
  5
31A
100
AcDbEntity
  8
0
  6
CONTINUOUS
 62
               2
100
AcDbLine
 10
-3.0
 20
0.0
 30
0.0
 11
3.0
 21
0.0
 31
0.0
  0
LINE
  5
31B
100
AcDbEntity
  8
0
  6
CONTINUOUS
 62
               2
100
AcDbLine
 10
-3.0
 20
-50.0
 30
0.0
 11
3.0
 21
-50.0
 31
0.0
  0
LINE
  5
31C
100
AcDbEntity
  8
0
  6
CONTINUOUS
 62
               7
100
AcDbLine
 10
25.500013522338648
 20
-47.999977111816335
 30
0.0
 11
25.000007800292749
 21
-47.999977074066962
 31
0.0
  0
LINE
  5
31D
100
AcDbEntity
  8
0
  6
CONTINUOUS
 62
               7
100
AcDbLine
 10
25.500017523725891
 20
5.000007629394446
 30
0.0
 11
25.000011801679992
 21
5.0000076671438265
 31
0.0
  0
ENDBLK
  5
31E
100
AcDbEntity
  8
0
100
AcDbBlockEnd
  0
BLOCK
  5
31F
100
AcDbEntity
  8
0
100
AcDbBlockBegin
  2
F15T-9
 70
               0
 10
0.0
 20
0.0
 30
0.0
  3
F15T-9
  1

  0
LINE
  5
320
100
AcDbEntity
  8
0
  6
CONTINUOUS
 62
               2
100
AcDbLine
 10
-54.500015258789062
 20
16.199996948242187
 30
0.0
 11
-51.800018310546875
 21
16.199996948242187
 31
0.0
  0
LINE
  5
321
100
AcDbEntity
  8
0
  6
CONTINUOUS
 62
               7
100
AcDbLine
 10
-52.500015258789063
 20
19.399993896484375
 30
0.0
 11
-25.500015258789062
 21
19.399993896484375
 31
0.0
  0
LINE
  5
322
100
AcDbEntity
  8
0
  6
CONTINUOUS
 62
               7
100
AcDbLine
 10
-53.500015258789063
 20
14.25
 30
0.0
 11
-53.500015258789063
 21
15.899993896484375
 31
0.0
  0
LINE
  5
323
100
AcDbEntity
  8
0
  6
CONTINUOUS
 62
               7
100
AcDbLine
 10
-53.500015258789063
 20
14.25
 30
0.0
 11
-52.500015258789063
 21
14.25
 31
0.0
  0
LINE
  5
324
100
AcDbEntity
  8
0
  6
CONTINUOUS
 62
               7
100
AcDbLine
 10
-53.500015258789063
 20
18.149993896484375
 30
0.0
 11
-52.500015258789063
 21
18.149993896484375
 31
0.0
  0
LINE
  5
325
100
AcDbEntity
  8
0
  6
CONTINUOUS
 62
               7
100
AcDbLine
 10
-52.900009155273438
 20
15.899993896484375
 30
0.0
 11
-52.900009155273438
 21
16.5
 31
0.0
  0
LINE
  5
326
100
AcDbEntity
  8
0
  6
CONTINUOUS
 62
               7
100
AcDbLine
 10
-53.500015258789063
 20
15.899993896484375
 30
0.0
 11
-52.900009155273438
 21
15.899993896484375
 31
0.0
  0
LINE
  5
327
100
AcDbEntity
  8
0
  6
CONTINUOUS
 62
               7
100
AcDbLine
 10
-53.500015258789063
 20
16.5
 30
0.0
 11
-52.900009155273438
 21
16.5
 31
0.0
  0
LINE
  5
328
100
AcDbEntity
  8
0
  6
CONTINUOUS
 62
               7
100
AcDbLine
 10
-53.500015258789063
 20
16.5
 30
0.0
 11
-53.500015258789063
 21
18.149993896484375
 31
0.0
  0
LINE
  5
329
100
AcDbEntity
  8
0
  6
CONTINUOUS
 62
               7
100
AcDbLine
 10
-52.500015258789063
 20
-2.0
 30
0.0
 11
-25.500015258789062
 21
-2.0
 31
0.0
  0
LINE
  5
32A
100
AcDbEntity
  8
0
  6
CONTINUOUS
 62
               7
100
AcDbLine
 10
-56.500015258789063
 20
-48.0
 30
0.0
 11
-25.500015258789062
 21
-48.0
 31
0.0
  0
LINE
  5
32B
100
AcDbEntity
  8
0
  6
CONTINUOUS
 62
               4
100
AcDbLine
 10
-52.500015258789063
 20
43.5
 30
0.0
 11
-52.500015258789063
 21
19.399993896484375
 31
0.0
  0
LINE
  5
32C
100
AcDbEntity
  8
0
  6
CONTINUOUS
 62
               2
100
AcDbLine
 10
-22.864013671875
 20
-24.999996185302734
 30
0.0
 11
-11.136016845703125
 21
-24.999996185302734
 31
0.0
  0
LINE
  5
32D
100
AcDbEntity
  8
0
  6
CONTINUOUS
 62
               7
100
AcDbLine
 10
-55.375747680664063
 20
-2.0
 30
0.0
 11
-52.500015258789063
 21
-2.0
 31
0.0
  0
LINE
  5
32E
100
AcDbEntity
  8
0
  6
CONTINUOUS
 62
               7
100
AcDbLine
 10
-57.500015258789063
 20
-4.124267578125
 30
0.0
 11
-57.500015258789063
 21
-45.875732421875
 31
0.0
  0
LINE
  5
32F
100
AcDbEntity
  8
0
  6
CONTINUOUS
 62
               7
100
AcDbLine
 10
-57.412146318635678
 20
-3.9120949852249396
 30
0.0
 11
-55.587884164154275
 21
-2.0878346760282511
 31
0.0
  0
LINE
  5
330
100
AcDbEntity
  8
0
  6
CONTINUOUS
 62
               7
100
AcDbLine
 10
-57.412170190897996
 20
-46.087863203042616
 30
0.0
 11
-55.587909266606403
 21
-47.91212489620284
 31
0.0
  0
LINE
  5
331
100
AcDbEntity
  8
0
  6
CONTINUOUS
 62
               7
100
AcDbLine
 10
-55.500015258789063
 20
-56.099990844726562
 30
0.0
 11
-55.500015258789063
 21
-49.899993896484375
 31
0.0
  0
LINE
  5
332
100
AcDbEntity
  8
0
  6
CONTINUOUS
 62
               7
100
AcDbLine
 10
-57.500015258789063
 20
-57.0
 30
0.0
 11
-57.500015258789063
 21
-49.0
 31
0.0
  0
LINE
  5
333
100
AcDbEntity
  8
0
  6
CONTINUOUS
 62
               7
100
AcDbLine
 10
-56.499988098872564
 20
-48.000057614995967
 30
0.0
 11
-57.499989244755852
 21
-49.00005859229168
 31
0.0
  0
LINE
  5
334
100
AcDbEntity
  8
0
  6
CONTINUOUS
 62
               7
100
AcDbLine
 10
-56.500042889772885
 20
-58.000035862107325
 30
0.0
 11
-57.500043867068598
 21
-57.000034716224036
 31
0.0
  0
LINE
  5
335
100
AcDbEntity
  8
0
  6
CONTINUOUS
 62
               7
100
AcDbLine
 10
-56.300003051757813
 20
-56.099990844726562
 30
0.0
 11
-56.300003051757813
 21
-49.899993896484375
 31
0.0
  0
LINE
  5
336
100
AcDbEntity
  8
0
  6
CONTINUOUS
 62
               7
100
AcDbLine
 10
-56.500015258789063
 20
-58.0
 30
0.0
 11
-25.500015258789062
 21
-58.0
 31
0.0
  0
LINE
  5
337
100
AcDbEntity
  8
0
  6
CONTINUOUS
 62
               7
100
AcDbLine
 10
-55.000015258789063
 20
-67.0
 30
0.0
 11
-26.000015258789063
 21
-67.0
 31
0.0
  0
LINE
  5
338
100
AcDbEntity
  8
0
  6
CONTINUOUS
 62
               7
100
AcDbLine
 10
-25.500015258789062
 20
-66.5
 30
0.0
 11
-25.500015258789062
 21
19.399993896484375
 31
0.0
  0
LINE
  5
339
100
AcDbEntity
  8
0
  6
CONTINUOUS
 62
               7
100
AcDbLine
 10
-55.500015258789063
 20
-66.5
 30
0.0
 11
-55.500015258789063
 21
-58.0
 31
0.0
  0
LINE
  5
33A
100
AcDbEntity
  8
0
  6
CONTINUOUS
 62
               7
100
AcDbLine
 10
-31.4000244140625
 20
-64.5
 30
0.0
 11
-25.800018310546875
 21
-64.5
 31
0.0
  0
LINE
  5
33B
100
AcDbEntity
  8
0
  6
CONTINUOUS
 62
               7
100
AcDbLine
 10
-31.70001220703125
 20
-66.699996948242187
 30
0.0
 11
-31.70001220703125
 21
-64.800003051757812
 31
0.0
  0
LINE
  5
33C
100
AcDbEntity
  8
0
  6
CONTINUOUS
 62
               7
100
AcDbLine
 10
-31.250015258789063
 20
-65.0
 30
0.0
 11
-31.250015258789063
 21
-64.5
 31
0.0
  0
LINE
  5
33D
100
AcDbEntity
  8
0
  6
CONTINUOUS
 62
               7
100
AcDbLine
 10
-25.750015258789063
 20
-65.0
 30
0.0
 11
-25.750015258789063
 21
-64.5
 31
0.0
  0
LINE
  5
33E
100
AcDbEntity
  8
0
  6
CONTINUOUS
 62
               7
100
AcDbLine
 10
-29.750015258789062
 20
-66.5
 30
0.0
 11
-27.250015258789063
 21
-66.5
 31
0.0
  0
LINE
  5
33F
100
AcDbEntity
  8
0
  6
CONTINUOUS
 62
               7
100
AcDbLine
 10
-55.500015258789063
 20
-56.0
 30
0.0
 11
-53.500015258789063
 21
-56.0
 31
0.0
  0
LINE
  5
340
100
AcDbEntity
  8
0
  6
CONTINUOUS
 62
               7
100
AcDbLine
 10
-55.500015258789063
 20
-50.0
 30
0.0
 11
-53.500015258789063
 21
-50.0
 31
0.0
  0
LINE
  5
341
100
AcDbEntity
  8
0
  6
CONTINUOUS
 62
               7
100
AcDbLine
 10
-54.500015258789062
 20
-56.099990844726562
 30
0.0
 11
-54.500015258789062
 21
-56.0
 31
0.0
  0
LINE
  5
342
100
AcDbEntity
  8
0
  6
CONTINUOUS
 62
               7
100
AcDbLine
 10
-53.500015258789063
 20
-58.0
 30
0.0
 11
-53.500015258789063
 21
-56.0
 31
0.0
  0
LINE
  5
343
100
AcDbEntity
  8
0
  6
CONTINUOUS
 62
               7
100
AcDbLine
 10
-54.500015258789062
 20
-50.0
 30
0.0
 11
-54.500015258789062
 21
-49.899993896484375
 31
0.0
  0
LINE
  5
344
100
AcDbEntity
  8
0
  6
CONTINUOUS
 62
               7
100
AcDbLine
 10
-53.500015258789063
 20
-50.0
 30
0.0
 11
-53.500015258789063
 21
-48.0
 31
0.0
  0
LINE
  5
345
100
AcDbEntity
  8
0
  6
CONTINUOUS
 62
               7
100
AcDbLine
 10
-53.600006103515625
 20
-58.0
 30
0.0
 11
-53.600006103515625
 21
-56.099990844726562
 31
0.0
  0
LINE
  5
346
100
AcDbEntity
  8
0
  6
CONTINUOUS
 62
               7
100
AcDbLine
 10
-56.300018310546875
 20
-49.899993896484375
 30
0.0
 11
-53.600006103515625
 21
-49.899993896484375
 31
0.0
  0
LINE
  5
347
100
AcDbEntity
  8
0
  6
CONTINUOUS
 62
               7
100
AcDbLine
 10
-56.300018310546875
 20
-56.099990844726562
 30
0.0
 11
-53.600021362304688
 21
-56.099990844726562
 31
0.0
  0
LINE
  5
348
100
AcDbEntity
  8
0
  6
CONTINUOUS
 62
               7
100
AcDbLine
 10
-53.600006103515625
 20
-49.899993896484375
 30
0.0
 11
-53.600006103515625
 21
-48.0
 31
0.0
  0
LINE
  5
349
100
AcDbEntity
  8
0
  6
CONTINUOUS
 62
               7
100
AcDbLine
 10
-56.500015258789063
 20
-58.0
 30
0.0
 11
-56.500015258789063
 21
-48.0
 31
0.0
  0
LINE
  5
34A
100
AcDbEntity
  8
0
  6
CONTINUOUS
 62
               7
100
AcDbLine
 10
-57.500015258789063
 20
-40.79998779296875
 30
0.0
 11
-55.500015258789063
 21
-40.79998779296875
 31
0.0
  0
LINE
  5
34B
100
AcDbEntity
  8
0
  6
CONTINUOUS
 62
               7
100
AcDbLine
 10
-57.500015258789063
 20
-5.8000030517578125
 30
0.0
 11
-52.500015258789063
 21
-5.8000030517578125
 31
0.0
  0
LINE
  5
34C
100
AcDbEntity
  8
0
  6
CONTINUOUS
 62
               7
100
AcDbLine
 10
-57.500015258789063
 20
-11.199996948242188
 30
0.0
 11
-52.500015258789063
 21
-11.199996948242188
 31
0.0
  0
LINE
  5
34D
100
AcDbEntity
  8
0
  6
CONTINUOUS
 62
               7
100
AcDbLine
 10
-53.300018310546875
 20
-6.25
 30
0.0
 11
-53.100021362304687
 21
-6.25
 31
0.0
  0
LINE
  5
34E
100
AcDbEntity
  8
0
  6
CONTINUOUS
 62
               7
100
AcDbLine
 10
-53.300018310546875
 20
-10.75
 30
0.0
 11
-53.100021362304687
 21
-10.75
 31
0.0
  0
LINE
  5
34F
100
AcDbEntity
  8
0
  6
CONTINUOUS
 62
               7
100
AcDbLine
 10
-54.800018310546875
 20
-9.25
 30
0.0
 11
-54.800018310546875
 21
-7.75
 31
0.0
  0
LINE
  5
350
100
AcDbEntity
  8
0
  6
CONTINUOUS
 62
               7
100
AcDbLine
 10
-55.70001220703125
 20
-45.749984741210938
 30
0.0
 11
-55.500015258789063
 21
-45.749984741210938
 31
0.0
  0
LINE
  5
351
100
AcDbEntity
  8
0
  6
CONTINUOUS
 62
               7
100
AcDbLine
 10
-57.20001220703125
 20
-44.249984741210937
 30
0.0
 11
-57.20001220703125
 21
-42.749984741210937
 31
0.0
  0
LINE
  5
352
100
AcDbEntity
  8
0
  6
CONTINUOUS
 62
               7
100
AcDbLine
 10
-55.70001220703125
 20
-41.249984741210938
 30
0.0
 11
-55.500015258789063
 21
-41.249984741210938
 31
0.0
  0
LINE
  5
353
100
AcDbEntity
  8
0
  6
CONTINUOUS
 62
               7
100
AcDbLine
 10
-25.000015258789063
 20
-55.999984741210937
 30
0.0
 11
-25.000015258789063
 21
6.0
 31
0.0
  0
LINE
  5
354
100
AcDbEntity
  8
0
  6
CONTINUOUS
 62
               7
100
AcDbLine
 10
-25.000015258789063
 20
-55.999984741210937
 30
0.0
 11
-0.0000152587890625
 21
-55.999984741210937
 31
0.0
  0
LINE
  5
355
100
AcDbEntity
  8
0
  6
CONTINUOUS
 62
               7
100
AcDbLine
 10
-25.000015258789063
 20
6.0
 30
0.0
 11
0.0
 21
6.0
 31
0.0
  0
LINE
  5
356
100
AcDbEntity
  8
0
  6
CONTINUOUS
 62
               7
100
AcDbLine
 10
0.0
 20
-56.0
 30
0.0
 11
0.0
 21
6.0
 31
0.0
  0
LINE
  5
357
100
AcDbEntity
  8
0
  6
CONTINUOUS
 62
               2
100
AcDbLine
 10
-14.864013671875
 20
-10.0
 30
0.0
 11
-3.136016845703125
 21
-10.0
 31
0.0
  0
LINE
  5
358
100
AcDbEntity
  8
0
  6
CONTINUOUS
 62
               2
100
AcDbLine
 10
-14.924530029296875
 20
-39.999984741210937
 30
0.0
 11
-3.1970367431640625
 21
-39.999984741210937
 31
0.0
  0
LINE
  5
359
100
AcDbEntity
  8
0
  6
CONTINUOUS
 62
               2
100
AcDbLine
 10
-23.500015258789063
 20
1.0
 30
0.0
 11
-16.5
 21
1.0
 31
0.0
  0
LINE
  5
35A
100
AcDbEntity
  8
0
  6
CONTINUOUS
 62
               2
100
AcDbLine
 10
-20.0
 20
-2.5
 30
0.0
 11
-20.0
 21
4.5
 31
0.0
  0
LINE
  5
35B
100
AcDbEntity
  8
0
  6
CONTINUOUS
 62
               2
100
AcDbLine
 10
-17.0
 20
-30.863998413085938
 30
0.0
 11
-17.0
 21
-19.136001586914062
 31
0.0
  0
LINE
  5
35C
100
AcDbEntity
  8
0
  6
CONTINUOUS
 62
               2
100
AcDbLine
 10
-9.0
 20
-45.813766479492188
 30
0.0
 11
-9.0
 21
-4.1360015869140625
 31
0.0
  0
LINE
  5
35D
100
AcDbEntity
  8
0
  6
CONTINUOUS
 62
               7
100
AcDbLine
 10
-52.500015258789063
 20
6.5
 30
0.0
 11
-25.500015258789062
 21
6.5
 31
0.0
  0
LINE
  5
35E
100
AcDbEntity
  8
0
  6
CONTINUOUS
 62
               7
100
AcDbLine
 10
-55.500015258789063
 20
-47.973052978515625
 30
0.0
 11
-55.500015258789063
 21
-40.79998779296875
 31
0.0
  0
LINE
  5
35F
100
AcDbEntity
  8
0
  6
CONTINUOUS
 62
               7
100
AcDbLine
 10
-51.500015258789063
 20
8.5
 30
0.0
 11
-51.500015258789063
 21
9.9999847412109375
 31
0.0
  0
LINE
  5
360
100
AcDbEntity
  8
0
  6
CONTINUOUS
 62
               7
100
AcDbLine
 10
-52.500015258789063
 20
9.9999847412109375
 30
0.0
 11
-51.500015258789063
 21
9.9999847412109375
 31
0.0
  0
LINE
  5
361
100
AcDbEntity
  8
0
  6
CONTINUOUS
 62
               7
100
AcDbLine
 10
-49.500015258789063
 20
9.9999847412109375
 30
0.0
 11
-29.800018310546875
 21
9.9999847412109375
 31
0.0
  0
LINE
  5
362
100
AcDbEntity
  8
0
  6
CONTINUOUS
 62
               7
100
AcDbLine
 10
-49.500015258789063
 20
8.5
 30
0.0
 11
-49.500015258789063
 21
9.9999847412109375
 31
0.0
  0
LINE
  5
363
100
AcDbEntity
  8
0
  6
CONTINUOUS
 62
               7
100
AcDbLine
 10
-29.800018310546875
 20
8.5
 30
0.0
 11
-29.800018310546875
 21
9.9999847412109375
 31
0.0
  0
LINE
  5
364
100
AcDbEntity
  8
0
  6
CONTINUOUS
 62
               7
100
AcDbLine
 10
-26.800018310546875
 20
8.5
 30
0.0
 11
-26.800018310546875
 21
9.9999847412109375
 31
0.0
  0
LINE
  5
365
100
AcDbEntity
  8
0
  6
CONTINUOUS
 62
               7
100
AcDbLine
 10
-26.800018310546875
 20
9.9999847412109375
 30
0.0
 11
-25.500015258789062
 21
9.9999847412109375
 31
0.0
  0
ARC
  5
366
100
AcDbEntity
  8
0
  6
CONTINUOUS
 62
               7
100
AcDbCircle
 10
-57.20001220703125
 20
-45.875717163085938
 30
0.0
 40
0.300000011920929
100
AcDbArc
 50
179.99996402782091
 51
224.99992771401949
  0
ARC
  5
367
100
AcDbEntity
  8
0
  6
CONTINUOUS
 62
               7
100
AcDbCircle
 10
-55.375762939453125
 20
-47.699996948242188
 30
0.0
 40
0.300000011920929
100
AcDbArc
 50
224.99999965837682
 51
270.00001798608872
  0
ARC
  5
368
100
AcDbEntity
  8
0
  6
CONTINUOUS
 62
               7
100
AcDbCircle
 10
-57.20001220703125
 20
-4.124267578125
 30
0.0
 40
0.300000011920929
100
AcDbArc
 50
135.00000034162235
 51
179.99996402782091
  0
ARC
  5
369
100
AcDbEntity
  8
0
  6
CONTINUOUS
 62
               7
100
AcDbCircle
 10
-55.375747680664063
 20
-2.3000030517578125
 30
0.0
 40
0.300000011920929
100
AcDbArc
 50
89.999982013910454
 51
135.00000034162235
  0
ARC
  5
36A
100
AcDbEntity
  8
0
  6
CONTINUOUS
 62
               7
100
AcDbCircle
 10
-55.000015258789063
 20
-66.5
 30
0.0
 40
0.5
100
AcDbArc
 50
179.99996402782091
 51
269.99994604173139
  0
ARC
  5
36B
100
AcDbEntity
  8
0
  6
CONTINUOUS
 62
               7
100
AcDbCircle
 10
-26.000015258789063
 20
-66.5
 30
0.0
 40
0.5
100
AcDbArc
 50
269.99996334457541
 51
359.99994535848583
  0
ARC
  5
36C
100
AcDbEntity
  8
0
  6
CONTINUOUS
 62
               7
100
AcDbCircle
 10
-31.4000244140625
 20
-64.800003051757812
 30
0.0
 40
0.300000011920929
100
AcDbArc
 50
89.999982013910454
 51
179.99996402782091
  0
ARC
  5
36D
100
AcDbEntity
  8
0
  6
CONTINUOUS
 62
               7
100
AcDbCircle
 10
-32.000015258789063
 20
-66.699996948242187
 30
0.0
 40
0.300000011920929
100
AcDbArc
 50
270.00001798608872
 51
0.00001366037834
  0
ARC
  5
36E
100
AcDbEntity
  8
0
  6
CONTINUOUS
 62
               7
100
AcDbCircle
 10
-25.800018310546875
 20
-64.199996948242188
 30
0.0
 40
0.300000011920929
100
AcDbArc
 50
270.00001798608872
 51
0.00001366037834
  0
ARC
  5
36F
100
AcDbEntity
  8
0
  6
CONTINUOUS
 62
               7
100
AcDbCircle
 10
-29.750015258789062
 20
-65.0
 30
0.0
 40
1.5
100
AcDbArc
 50
179.99996402782091
 51
269.99994604173139
  0
ARC
  5
370
100
AcDbEntity
  8
0
  6
CONTINUOUS
 62
               7
100
AcDbCircle
 10
-27.250015258789063
 20
-65.0
 30
0.0
 40
1.5
100
AcDbArc
 50
270.00001798608872
 51
0.00001366037834
  0
ARC
  5
371
100
AcDbEntity
  8
0
  6
CONTINUOUS
 62
               7
100
AcDbCircle
 10
-53.300018310546875
 20
-7.75
 30
0.0
 40
1.5
100
AcDbArc
 50
89.999982013910454
 51
179.99996402782091
  0
ARC
  5
372
100
AcDbEntity
  8
0
  6
CONTINUOUS
 62
               7
100
AcDbCircle
 10
-53.300018310546875
 20
-9.25
 30
0.0
 40
1.5
100
AcDbArc
 50
179.99996402782091
 51
269.99994604173139
  0
ARC
  5
373
100
AcDbEntity
  8
0
  6
CONTINUOUS
 62
               7
100
AcDbCircle
 10
-55.70001220703125
 20
-44.249984741210937
 30
0.0
 40
1.5
100
AcDbArc
 50
179.99996402782091
 51
269.99994604173139
  0
ARC
  5
374
100
AcDbEntity
  8
0
  6
CONTINUOUS
 62
               7
100
AcDbCircle
 10
-55.70001220703125
 20
-42.749984741210937
 30
0.0
 40
1.5
100
AcDbArc
 50
89.999982013910454
 51
179.99996402782091
  0
CIRCLE
  5
375
100
AcDbEntity
  8
0
  6
CONTINUOUS
 62
               2
100
AcDbCircle
 10
-9.0607757568359375
 20
-39.950149536132812
 30
0.0
 40
4.8639993667602539
  0
CIRCLE
  5
376
100
AcDbEntity
  8
0
  6
CONTINUOUS
 62
               2
100
AcDbCircle
 10
-9.0000152587890625
 20
-10.0
 30
0.0
 40
4.8639993667602539
  0
CIRCLE
  5
377
100
AcDbEntity
  8
0
  6
CONTINUOUS
 62
               2
100
AcDbCircle
 10
-17.000015258789063
 20
-25.0
 30
0.0
 40
4.8639993667602539
  0
CIRCLE
  5
378
100
AcDbEntity
  8
0
  6
CONTINUOUS
 62
               2
100
AcDbCircle
 10
-20.0
 20
1.0
 30
0.0
 40
2.5
  0
CIRCLE
  5
379
100
AcDbEntity
  8
0
  6
CONTINUOUS
 62
               7
100
AcDbCircle
 10
-9.0607757568359375
 20
-39.950149536132812
 30
0.0
 40
4.2829999923706055
  0
CIRCLE
  5
37A
100
AcDbEntity
  8
0
  6
CONTINUOUS
 62
               7
100
AcDbCircle
 10
-17.000015258789063
 20
-25.0
 30
0.0
 40
4.2829999923706055
  0
CIRCLE
  5
37B
100
AcDbEntity
  8
0
  6
CONTINUOUS
 62
               7
100
AcDbCircle
 10
-9.0000152587890625
 20
-10.0
 30
0.0
 40
4.2829999923706055
  0
CIRCLE
  5
37C
100
AcDbEntity
  8
0
  6
CONTINUOUS
 62
               7
100
AcDbCircle
 10
-20.0
 20
1.0
 30
0.0
 40
2.0669994354248047
  0
ARC
  5
37D
100
AcDbEntity
  8
0
  6
CONTINUOUS
 62
               7
100
AcDbCircle
 10
-49.500015258789063
 20
9.5
 30
0.0
 40
2.4999990463256836
100
AcDbArc
 50
203.5781768361424
 51
336.42181132471086
  0
LINE
  5
37E
100
AcDbEntity
  8
0
  6
CONTINUOUS
 62
               7
100
AcDbLine
 10
-52.500015258789063
 20
8.5
 30
0.0
 11
-25.500015258789062
 21
8.5
 31
0.0
  0
LINE
  5
37F
100
AcDbEntity
  8
0
  6
CONTINUOUS
 62
               7
100
AcDbLine
 10
-53.100021362304687
 20
-11.0
 30
0.0
 11
-53.100021362304687
 21
-6.0
 31
0.0
  0
LINE
  5
380
100
AcDbEntity
  8
0
  6
CONTINUOUS
 62
               7
100
AcDbLine
 10
-53.100021362304687
 20
-11.0
 30
0.0
 11
-52.500015258789063
 21
-11.0
 31
0.0
  0
LINE
  5
381
100
AcDbEntity
  8
0
  6
CONTINUOUS
 62
               7
100
AcDbLine
 10
-53.100021362304687
 20
-6.0
 30
0.0
 11
-52.500015258789063
 21
-6.0
 31
0.0
  0
LINE
  5
382
100
AcDbEntity
  8
0
  6
CONTINUOUS
 62
               7
100
AcDbLine
 10
-53.100015643726692
 20
-8.0958653056659386
 30
0.0
 11
-52.500011329257177
 21
-7.7494526469745324
 31
0.0
  0
LINE
  5
383
100
AcDbEntity
  8
0
  6
CONTINUOUS
 62
               7
100
AcDbLine
 10
-53.100025846367316
 20
-9.2505717241801904
 30
0.0
 11
-52.500021531897801
 21
-8.9041590654887841
 31
0.0
  0
LINE
  5
384
100
AcDbEntity
  8
0
  6
CONTINUOUS
 62
               4
100
AcDbLine
 10
-36.600015258789057
 20
52.5
 30
0.0
 11
-50.175015258789045
 21
52.5
 31
0.0
  0
LINE
  5
385
100
AcDbEntity
  8
0
  6
CONTINUOUS
 62
               4
100
AcDbLine
 10
-25.500015258789062
 20
43.5
 30
0.0
 11
-52.500007629394531
 21
43.5
 31
0.0
  0
LINE
  5
386
100
AcDbEntity
  8
0
  6
CONTINUOUS
 62
               4
100
AcDbLine
 10
-27.650003051757807
 20
63.5
 30
0.0
 11
-36.650003051757807
 21
63.5
 31
0.0
  0
LINE
  5
387
100
AcDbEntity
  8
0
  6
CONTINUOUS
 62
               4
100
AcDbLine
 10
-28.000015258789063
 20
57.0
 30
0.0
 11
-36.650018310546869
 21
57.0
 31
0.0
  0
LINE
  5
388
100
AcDbEntity
  8
0
  6
CONTINUOUS
 62
               4
100
AcDbLine
 10
-37.227365112304682
 20
63.5
 30
0.0
 11
-38.650010681152338
 21
63.5
 31
0.0
  0
LINE
  5
389
100
AcDbEntity
  8
0
  6
CONTINUOUS
 62
               4
100
AcDbLine
 10
-36.600015258789057
 20
54.498458862304688
 30
0.0
 11
-36.650018310546869
 21
54.498458862304688
 31
0.0
  0
LINE
  5
38A
100
AcDbEntity
  8
0
  6
CONTINUOUS
 62
               4
100
AcDbLine
 10
-36.650018310546869
 20
52.998458862304687
 30
0.0
 11
-37.650010681152338
 21
52.998458862304687
 31
0.0
  0
LINE
  5
38B
100
AcDbEntity
  8
0
  6
CONTINUOUS
 62
               4
100
AcDbLine
 10
-36.650018310546869
 20
54.498458862304688
 30
0.0
 11
-36.650018310546869
 21
57.0
 31
0.0
  0
LINE
  5
38C
100
AcDbEntity
  8
0
  6
CONTINUOUS
 62
               4
100
AcDbLine
 10
-38.150010681152338
 20
62.0
 30
0.0
 11
-38.650010681152338
 21
62.0
 31
0.0
  0
LINE
  5
38D
100
AcDbEntity
  8
0
  6
CONTINUOUS
 62
               4
100
AcDbLine
 10
-36.650015468196756
 20
52.998474151870141
 30
0.0
 11
-36.599994914890516
 21
53.048494705176381
 31
0.0
  0
LINE
  5
38E
100
AcDbEntity
  8
0
  6
CONTINUOUS
 62
               4
100
AcDbLine
 10
-28.150018310546869
 20
57.0
 30
0.0
 11
-28.150018310546869
 21
62.5
 31
0.0
  0
LINE
  5
38F
100
AcDbEntity
  8
0
  6
CONTINUOUS
 62
               4
100
AcDbLine
 10
-27.650018310546869
 20
62.5
 30
0.0
 11
-27.650018310546869
 21
63.5
 31
0.0
  0
LINE
  5
390
100
AcDbEntity
  8
0
  6
CONTINUOUS
 62
               4
100
AcDbLine
 10
-27.650003051757807
 20
62.5
 30
0.0
 11
-28.150003051757807
 21
62.5
 31
0.0
  0
LINE
  5
391
100
AcDbEntity
  8
0
  6
CONTINUOUS
 62
               4
100
AcDbLine
 10
-38.150018310546869
 20
56.55615234375
 30
0.0
 11
-38.150018310546869
 21
62.0
 31
0.0
  0
LINE
  5
392
100
AcDbEntity
  8
0
  6
CONTINUOUS
 62
               4
100
AcDbLine
 10
-37.650016561025581
 20
52.99845074175937
 30
0.0
 11
-38.150015669902672
 21
56.556138825448215
 31
0.0
  0
LINE
  5
393
100
AcDbEntity
  8
0
  6
CONTINUOUS
 62
               4
100
AcDbLine
 10
-36.650018310546869
 20
57.0
 30
0.0
 11
-36.650018310546869
 21
63.5
 31
0.0
  0
LINE
  5
394
100
AcDbEntity
  8
0
  6
CONTINUOUS
 62
               4
100
AcDbLine
 10
-36.650059770393085
 20
62.499958942901685
 30
0.0
 11
-37.22741158615699
 21
63.499967647856465
 31
0.0
  0
LINE
  5
395
100
AcDbEntity
  8
0
  6
CONTINUOUS
 62
               4
100
AcDbLine
 10
-38.650018310546869
 20
62.0
 30
0.0
 11
-38.650018310546869
 21
63.5
 31
0.0
  0
LINE
  5
396
100
AcDbEntity
  8
0
  6
CONTINUOUS
 62
               4
100
AcDbLine
 10
-33.500024414062494
 20
76.5
 30
0.0
 11
-32.700021362304682
 21
76.5
 31
0.0
  0
LINE
  5
397
100
AcDbEntity
  8
0
  6
CONTINUOUS
 62
               4
100
AcDbLine
 10
-32.700021362304682
 20
71.5
 30
0.0
 11
-32.700021362304682
 21
76.5
 31
0.0
  0
LINE
  5
398
100
AcDbEntity
  8
0
  6
CONTINUOUS
 62
               4
100
AcDbLine
 10
-33.500024414062494
 20
71.5
 30
0.0
 11
-33.500024414062494
 21
76.5
 31
0.0
  0
LINE
  5
399
100
AcDbEntity
  8
0
  6
CONTINUOUS
 62
               4
100
AcDbLine
 10
-33.815026855468744
 20
63.5
 30
0.0
 11
-33.815026855468744
 21
68.098403930664063
 31
0.0
  0
LINE
  5
39A
100
AcDbEntity
  8
0
  6
CONTINUOUS
 62
               4
100
AcDbLine
 10
-32.385018920898432
 20
63.5
 30
0.0
 11
-32.385018920898432
 21
67.272796630859375
 31
0.0
  0
LINE
  5
39B
100
AcDbEntity
  8
0
  6
CONTINUOUS
 62
               4
100
AcDbLine
 10
-33.815026855468744
 20
71.5
 30
0.0
 11
-32.385018920898432
 21
71.5
 31
0.0
  0
LINE
  5
39C
100
AcDbEntity
  8
0
  6
CONTINUOUS
 62
               4
100
AcDbLine
 10
-32.385018920898432
 20
68.427490234375
 30
0.0
 11
-32.385018920898432
 21
71.5
 31
0.0
  0
LINE
  5
39D
100
AcDbEntity
  8
0
  6
CONTINUOUS
 62
               4
100
AcDbLine
 10
-33.815026855468744
 20
69.25311279296875
 30
0.0
 11
-33.815026855468744
 21
71.5
 31
0.0
  0
LINE
  5
39E
100
AcDbEntity
  8
0
  6
CONTINUOUS
 62
               4
100
AcDbLine
 10
-31.315026855468744
 20
67.809738159179688
 30
0.0
 11
-31.315026855468744
 21
71.5
 31
0.0
  0
LINE
  5
39F
100
AcDbEntity
  8
0
  6
CONTINUOUS
 62
               4
100
AcDbLine
 10
-29.885018920898432
 20
66.984115600585937
 30
0.0
 11
-29.885018920898432
 21
71.5
 31
0.0
  0
LINE
  5
3A0
100
AcDbEntity
  8
0
  6
CONTINUOUS
 62
               4
100
AcDbLine
 10
-29.885018920898432
 20
71.5
 30
0.0
 11
-31.315026855468744
 21
71.5
 31
0.0
  0
LINE
  5
3A1
100
AcDbEntity
  8
0
  6
CONTINUOUS
 62
               4
100
AcDbLine
 10
-31.000024414062494
 20
71.5
 30
0.0
 11
-31.000024414062494
 21
76.5
 31
0.0
  0
LINE
  5
3A2
100
AcDbEntity
  8
0
  6
CONTINUOUS
 62
               4
100
AcDbLine
 10
-30.200021362304682
 20
71.5
 30
0.0
 11
-30.200021362304682
 21
76.499984741210937
 31
0.0
  0
LINE
  5
3A3
100
AcDbEntity
  8
0
  6
CONTINUOUS
 62
               4
100
AcDbLine
 10
-30.200021362304682
 20
76.5
 30
0.0
 11
-31.000024414062494
 21
76.5
 31
0.0
  0
LINE
  5
3A4
100
AcDbEntity
  8
0
  6
CONTINUOUS
 62
               4
100
AcDbLine
 10
-31.315026855468744
 20
63.5
 30
0.0
 11
-31.315026855468744
 21
66.655029296875
 31
0.0
  0
LINE
  5
3A5
100
AcDbEntity
  8
0
  6
CONTINUOUS
 62
               4
100
AcDbLine
 10
-29.885018920898432
 20
63.5
 30
0.0
 11
-29.885018920898432
 21
65.829421997070313
 31
0.0
  0
LINE
  5
3A6
100
AcDbEntity
  8
0
  6
CONTINUOUS
 62
             200
100
AcDbLine
 10
-35.315034150261084
 20
70.119105809934808
 30
0.0
 11
-28.385005058697601
 21
66.118057246153512
 31
0.0
  0
LINE
  5
3A7
100
AcDbEntity
  8
0
  6
CONTINUOUS
 62
             200
100
AcDbLine
 10
-35.315009601886771
 20
68.964464815078827
 30
0.0
 11
-28.384999448367665
 21
64.96341291056342
 31
0.0
  0
ARC
  5
3A8
100
AcDbEntity
  8
0
  6
CONTINUOUS
 62
               4
100
AcDbCircle
 10
-26.000015258789063
 20
52.0
 30
0.0
 40
0.5
100
AcDbArc
 50
0.0
 51
89.999999999999815
  0
LINE
  5
3A9
100
AcDbEntity
  8
0
  6
CONTINUOUS
 62
               4
100
AcDbLine
 10
-28.000015258789063
 20
52.5
 30
0.0
 11
-26.000015258789063
 21
52.5
 31
0.0
  0
LINE
  5
3AA
100
AcDbEntity
  8
0
  6
CONTINUOUS
 62
               4
100
AcDbLine
 10
-28.000015258789063
 20
57.0
 30
0.0
 11
-28.000015258789063
 21
52.5
 31
0.0
  0
LINE
  5
3AB
100
AcDbEntity
  8
0
  6
CONTINUOUS
 62
               4
100
AcDbLine
 10
-36.600015258789057
 20
57.0
 30
0.0
 11
-36.600015258789057
 21
52.5
 31
0.0
  0
LINE
  5
3AC
100
AcDbEntity
  8
0
  6
CONTINUOUS
 62
               4
100
AcDbLine
 10
-47.600015258789057
 20
44.950000000000017
 30
0.0
 11
-45.500015258789063
 21
44.950000000000017
 31
0.0
  0
LINE
  5
3AD
100
AcDbEntity
  8
0
  6
CONTINUOUS
 62
               4
100
AcDbLine
 10
-32.600015258789057
 20
44.950000000000017
 30
0.0
 11
-30.500015258789063
 21
44.950000000000017
 31
0.0
  0
LINE
  5
3AE
100
AcDbEntity
  8
0
  6
CONTINUOUS
 62
               4
100
AcDbLine
 10
-30.500015258789063
 20
45.900000000000006
 30
0.0
 11
-30.500015258789063
 21
44.950000000000017
 31
0.0
  0
LINE
  5
3AF
100
AcDbEntity
  8
0
  6
CONTINUOUS
 62
               4
100
AcDbLine
 10
-47.600015258789057
 20
45.900000000000006
 30
0.0
 11
-47.600015258789057
 21
44.950000000000017
 31
0.0
  0
LINE
  5
3B0
100
AcDbEntity
  8
0
  6
CONTINUOUS
 62
               4
100
AcDbLine
 10
-32.600015258789057
 20
45.900000000000006
 30
0.0
 11
-30.500015258789063
 21
45.900000000000006
 31
0.0
  0
LINE
  5
3B1
100
AcDbEntity
  8
0
  6
CONTINUOUS
 62
               4
100
AcDbLine
 10
-47.600015258789057
 20
45.900000000000006
 30
0.0
 11
-45.500015258789063
 21
45.900000000000006
 31
0.0
  0
LINE
  5
3B2
100
AcDbEntity
  8
0
  6
CONTINUOUS
 62
               4
100
AcDbLine
 10
-40.250015258789063
 20
44.0
 30
0.0
 11
-37.750015258789063
 21
44.0
 31
0.0
  0
LINE
  5
3B3
100
AcDbEntity
  8
0
  6
CONTINUOUS
 62
               4
100
AcDbLine
 10
-32.600015258789057
 20
45.900000000000006
 30
0.0
 11
-32.600015258789057
 21
44.950000000000017
 31
0.0
  0
LINE
  5
3B4
100
AcDbEntity
  8
0
  6
CONTINUOUS
 62
               4
100
AcDbLine
 10
-45.500015258789063
 20
45.900000000000006
 30
0.0
 11
-45.500015258789063
 21
44.950000000000017
 31
0.0
  0
LINE
  5
3B5
100
AcDbEntity
  8
0
  6
CONTINUOUS
 62
               4
100
AcDbLine
 10
-40.250015258789063
 20
44.0
 30
0.0
 11
-40.250015258789063
 21
43.5
 31
0.0
  0
LINE
  5
3B6
100
AcDbEntity
  8
0
  6
CONTINUOUS
 62
               4
100
AcDbLine
 10
-37.750015258789063
 20
44.0
 30
0.0
 11
-37.750015258789063
 21
43.5
 31
0.0
  0
LINE
  5
3B7
100
AcDbEntity
  8
0
  6
CONTINUOUS
 62
               4
100
AcDbLine
 10
-25.500015258789062
 20
52.0
 30
0.0
 11
-25.500015258789062
 21
43.5
 31
0.0
  0
ARC
  5
3B8
100
AcDbEntity
  8
0
  6
CONTINUOUS
 62
               4
100
AcDbCircle
 10
-51.002035654149637
 20
47.679610903929301
 30
0.0
 40
1.4979796551727449
100
AcDbArc
 50
155.95369022728892
 51
179.98511757963411
  0
ARC
  5
3B9
100
AcDbEntity
  8
0
  6
CONTINUOUS
 62
               4
100
AcDbCircle
 10
-50.17403609735311
 20
52.000099937446265
 30
0.0
 40
0.4999010215015999
100
AcDbArc
 50
90.112225923134773
 51
155.80262379109485
  0
LINE
  5
3BA
100
AcDbEntity
  8
0
  6
CONTINUOUS
 62
               4
100
AcDbLine
 10
-50.630015258789058
 20
52.205000000000013
 30
0.0
 11
-52.370015258789067
 21
48.289999999999992
 31
0.0
  0
LINE
  5
3BB
100
AcDbEntity
  8
0
  6
CONTINUOUS
 62
               4
100
AcDbLine
 10
-52.500015258789063
 20
47.680000000000007
 30
0.0
 11
-52.500015258789063
 21
43.5
 31
0.0
  0
LINE
  5
3BC
100
AcDbEntity
  8
0
  6
CONTINUOUS
 62
               4
100
AcDbLine
 10
-27.100015258789057
 20
36.5
 30
0.0
 11
-27.100015258789057
 21
43.5
 31
0.0
  0
LINE
  5
3BD
100
AcDbEntity
  8
0
  6
CONTINUOUS
 62
               4
100
AcDbLine
 10
-26.200015258789051
 20
36.5
 30
0.0
 11
-26.200015258789051
 21
43.5
 31
0.0
  0
LINE
  5
3BE
100
AcDbEntity
  8
0
  6
CONTINUOUS
 62
               4
100
AcDbLine
 10
-25.500015258789062
 20
36.5
 30
0.0
 11
-27.100015258789057
 21
36.5
 31
0.0
  0
LINE
  5
3BF
100
AcDbEntity
  8
0
  6
CONTINUOUS
 62
               4
100
AcDbLine
 10
-25.500015258789062
 20
19.399993896484375
 30
0.0
 11
-25.500015258789062
 21
43.5
 31
0.0
  0
LINE
  5
3C0
100
AcDbEntity
  8
0
  6
CONTINUOUS
 62
               7
100
AcDbLine
 10
-52.500015258789063
 20
19.399993896484375
 30
0.0
 11
-52.500015258789063
 21
-2.0
 31
0.0
  0
LINE
  5
3C1
100
AcDbEntity
  8
0
  6
CONTINUOUS
 62
               2
100
AcDbLine
 10
-3.0
 20
0.0
 30
0.0
 11
3.0
 21
0.0
 31
0.0
  0
LINE
  5
3C2
100
AcDbEntity
  8
0
  6
CONTINUOUS
 62
               2
100
AcDbLine
 10
-3.0
 20
-50.0
 30
0.0
 11
3.0
 21
-50.0
 31
0.0
  0
LINE
  5
3C3
100
AcDbEntity
  8
0
  6
CONTINUOUS
 62
               7
100
AcDbLine
 10
-52.500015258789063
 20
-2.0
 30
0.0
 11
-52.500015258789063
 21
-48.0
 31
0.0
  0
LINE
  5
3C4
100
AcDbEntity
  8
0
  6
CONTINUOUS
 62
               7
100
AcDbLine
 10
-25.500016995239477
 20
-47.999984741210866
 30
0.0
 11
-25.000011273193582
 21
-47.999984778960254
 31
0.0
  0
LINE
  5
3C5
100
AcDbEntity
  8
0
  6
CONTINUOUS
 62
               7
100
AcDbLine
 10
-25.500012993852234
 20
4.9999999999999147
 30
0.0
 11
-25.000007271806339
 21
4.9999999622505342
 31
0.0
  0
ENDBLK
  5
3C6
100
AcDbEntity
  8
0
100
AcDbBlockEnd
  0
BLOCK
  5
3C7
100
AcDbEntity
  8
0
100
AcDbBlockBegin
  2
F15T-10
 70
               0
 10
0.0
 20
0.0
 30
0.0
  3
F15T-10
  1

  0
LINE
  5
3C8
100
AcDbEntity
  8
0
  6
CONTINUOUS
 62
               7
100
AcDbLine
 10
-3.5
 20
0.0
 30
0.0
 11
26.5
 21
0.0
 31
0.0
  0
LINE
  5
3C9
100
AcDbEntity
  8
0
  6
CONTINUOUS
 62
               7
100
AcDbLine
 10
-3.5
 20
25.0
 30
0.0
 11
-3.5
 21
0.0
 31
0.0
  0
LINE
  5
3CA
100
AcDbEntity
  8
0
  6
CONTINUOUS
 62
               7
100
AcDbLine
 10
26.5
 20
25.0
 30
0.0
 11
26.5
 21
0.0
 31
0.0
  0
LINE
  5
3CB
100
AcDbEntity
  8
0
  6
CONTINUOUS
 62
               2
100
AcDbLine
 10
0.0
 20
3.0
 30
0.0
 11
0.0
 21
-3.0
 31
0.0
  0
LINE
  5
3CC
100
AcDbEntity
  8
0
  6
CONTINUOUS
 62
               7
100
AcDbLine
 10
-3.5
 20
25.0
 30
0.0
 11
26.5
 21
25.0
 31
0.0
  0
LINE
  5
3CD
100
AcDbEntity
  8
0
  6
CONTINUOUS
 62
               2
100
AcDbLine
 10
11.5
 20
-7.5300000000000002
 30
0.0
 11
11.5
 21
62.920000000000002
 31
0.0
  0
LINE
  5
3CE
100
AcDbEntity
  8
0
  6
CONTINUOUS
 62
               7
100
AcDbLine
 10
4.0
 20
25.5
 30
0.0
 11
4.0
 21
57.0
 31
0.0
  0
LINE
  5
3CF
100
AcDbEntity
  8
0
  6
CONTINUOUS
 62
               7
100
AcDbLine
 10
19.0
 20
25.5
 30
0.0
 11
19.0
 21
57.0
 31
0.0
  0
LINE
  5
3D0
100
AcDbEntity
  8
0
  6
CONTINUOUS
 62
               7
100
AcDbLine
 10
4.0
 20
55.5
 30
0.0
 11
19.0
 21
55.5
 31
0.0
  0
LINE
  5
3D1
100
AcDbEntity
  8
0
  6
CONTINUOUS
 62
               7
100
AcDbLine
 10
4.5
 20
57.5
 30
0.0
 11
18.5
 21
57.5
 31
0.0
  0
LINE
  5
3D2
100
AcDbEntity
  8
0
  6
CONTINUOUS
 62
               7
100
AcDbLine
 10
4.0
 20
56.5
 30
0.0
 11
19.0
 21
56.5
 31
0.0
  0
LINE
  5
3D3
100
AcDbEntity
  8
0
  6
CONTINUOUS
 62
               7
100
AcDbLine
 10
4.0
 20
56.5
 30
0.0
 11
5.0
 21
57.5
 31
0.0
  0
LINE
  5
3D4
100
AcDbEntity
  8
0
  6
CONTINUOUS
 62
               7
100
AcDbLine
 10
18.0
 20
57.5
 30
0.0
 11
19.0
 21
56.5
 31
0.0
  0
LINE
  5
3D5
100
AcDbEntity
  8
0
  6
CONTINUOUS
 62
               7
100
AcDbLine
 10
17.059999999999999
 20
29.559999999999999
 30
0.0
 11
14.93
 21
27.43
 31
0.0
  0
LINE
  5
3D6
100
AcDbEntity
  8
0
  6
CONTINUOUS
 62
               7
100
AcDbLine
 10
14.93
 20
29.559999999999999
 30
0.0
 11
17.059999999999999
 21
27.43
 31
0.0
  0
LINE
  5
3D7
100
AcDbEntity
  8
0
  6
CONTINUOUS
 62
               7
100
AcDbLine
 10
13.0
 20
28.5
 30
0.0
 11
13.0
 21
25.5
 31
0.0
  0
LINE
  5
3D8
100
AcDbEntity
  8
0
  6
CONTINUOUS
 62
               7
100
AcDbLine
 10
16.0
 20
31.5
 30
0.0
 11
19.0
 21
31.5
 31
0.0
  0
LINE
  5
3D9
100
AcDbEntity
  8
0
  6
CONTINUOUS
 62
               7
100
AcDbLine
 10
7.0
 20
46.5
 30
0.0
 11
4.0
 21
46.5
 31
0.0
  0
LINE
  5
3DA
100
AcDbEntity
  8
0
  6
CONTINUOUS
 62
               7
100
AcDbLine
 10
5.9299999999999997
 20
48.43
 30
0.0
 11
8.0600000000000005
 21
50.560000000000002
 31
0.0
  0
LINE
  5
3DB
100
AcDbEntity
  8
0
  6
CONTINUOUS
 62
               7
100
AcDbLine
 10
8.0600000000000005
 20
48.43
 30
0.0
 11
5.9299999999999997
 21
50.560000000000002
 31
0.0
  0
LINE
  5
3DC
100
AcDbEntity
  8
0
  6
CONTINUOUS
 62
               7
100
AcDbLine
 10
7.0
 20
52.5
 30
0.0
 11
4.0
 21
52.5
 31
0.0
  0
LINE
  5
3DD
100
AcDbEntity
  8
0
  6
CONTINUOUS
 62
               7
100
AcDbLine
 10
4.0
 20
25.5
 30
0.0
 11
19.0
 21
25.5
 31
0.0
  0
LINE
  5
3DE
100
AcDbEntity
  8
0
  6
CONTINUOUS
 62
               7
100
AcDbLine
 10
4.0
 20
25.0
 30
0.0
 11
4.0
 21
25.5
 31
0.0
  0
LINE
  5
3DF
100
AcDbEntity
  8
0
  6
CONTINUOUS
 62
               7
100
AcDbLine
 10
19.0
 20
25.0
 30
0.0
 11
19.0
 21
25.5
 31
0.0
  0
ARC
  5
3E0
100
AcDbEntity
  8
0
  6
CONTINUOUS
 62
               7
100
AcDbCircle
 10
4.5
 20
57.0
 30
0.0
 40
0.5
100
AcDbArc
 50
89.999999999999815
 51
179.99999999999963
  0
ARC
  5
3E1
100
AcDbEntity
  8
0
  6
CONTINUOUS
 62
               7
100
AcDbCircle
 10
18.5
 20
57.0
 30
0.0
 40
0.5
100
AcDbArc
 50
0.0
 51
89.999999999999815
  0
CIRCLE
  5
3E2
100
AcDbEntity
  8
0
  6
CONTINUOUS
 62
               7
100
AcDbCircle
 10
16.0
 20
28.5
 30
0.0
 40
2.7999992370605469
  0
ARC
  5
3E3
100
AcDbEntity
  8
0
  6
CONTINUOUS
 62
               7
100
AcDbCircle
 10
16.0
 20
28.5
 30
0.0
 40
3.0
100
AcDbArc
 50
89.999999999999815
 51
179.99999999999963
  0
CIRCLE
  5
3E4
100
AcDbEntity
  8
0
  6
CONTINUOUS
 62
               7
100
AcDbCircle
 10
7.0
 20
49.5
 30
0.0
 40
2.7999992370605469
  0
ARC
  5
3E5
100
AcDbEntity
  8
0
  6
CONTINUOUS
 62
               7
100
AcDbCircle
 10
7.0
 20
49.5
 30
0.0
 40
3.0
100
AcDbArc
 50
269.99999999999937
 51
89.999999999999801
  0
ENDBLK
  5
3E6
100
AcDbEntity
  8
0
100
AcDbBlockEnd
  0
BLOCK
  5
3E7
100
AcDbEntity
  8
0
100
AcDbBlockBegin
  2
F15T-11
 70
               0
 10
0.0
 20
0.0
 30
0.0
  3
F15T-11
  1

  0
LINE
  5
3E8
100
AcDbEntity
  8
0
  6
CENTER
 62
               2
100
AcDbLine
 10
32.5
 20
33.699996948242187
 30
0.0
 11
29.800003051757813
 21
33.699996948242187
 31
0.0
  0
LINE
  5
3E9
100
AcDbEntity
  8
0
  6
CONTINUOUS
 62
               7
100
AcDbLine
 10
30.5
 20
36.899993896484375
 30
0.0
 11
3.4999847412109375
 21
36.899993896484375
 31
0.0
  0
LINE
  5
3EA
100
AcDbEntity
  8
0
  6
CONTINUOUS
 62
               7
100
AcDbLine
 10
31.5
 20
31.75
 30
0.0
 11
31.5
 21
33.400009155273438
 31
0.0
  0
LINE
  5
3EB
100
AcDbEntity
  8
0
  6
CONTINUOUS
 62
               7
100
AcDbLine
 10
31.5
 20
31.75
 30
0.0
 11
30.5
 21
31.75
 31
0.0
  0
LINE
  5
3EC
100
AcDbEntity
  8
0
  6
CONTINUOUS
 62
               7
100
AcDbLine
 10
31.5
 20
35.649993896484375
 30
0.0
 11
30.5
 21
35.649993896484375
 31
0.0
  0
LINE
  5
3ED
100
AcDbEntity
  8
0
  6
CONTINUOUS
 62
               7
100
AcDbLine
 10
30.899993896484375
 20
33.400009155273438
 30
0.0
 11
30.899993896484375
 21
34.0
 31
0.0
  0
LINE
  5
3EE
100
AcDbEntity
  8
0
  6
CONTINUOUS
 62
               7
100
AcDbLine
 10
31.5
 20
33.399993896484375
 30
0.0
 11
30.900009155273437
 21
33.399993896484375
 31
0.0
  0
LINE
  5
3EF
100
AcDbEntity
  8
0
  6
CONTINUOUS
 62
               7
100
AcDbLine
 10
31.5
 20
34.0
 30
0.0
 11
30.900009155273437
 21
34.0
 31
0.0
  0
LINE
  5
3F0
100
AcDbEntity
  8
0
  6
CONTINUOUS
 62
               7
100
AcDbLine
 10
31.5
 20
34.0
 30
0.0
 11
31.5
 21
35.650009155273438
 31
0.0
  0
LINE
  5
3F1
100
AcDbEntity
  8
0
  6
CONTINUOUS
 62
               7
100
AcDbLine
 10
30.5
 20
15.5
 30
0.0
 11
3.4999847412109375
 21
15.5
 31
0.0
  0
LINE
  5
3F2
100
AcDbEntity
  8
0
  6
CONTINUOUS
 62
               7
100
AcDbLine
 10
34.499984741210937
 20
-30.5
 30
0.0
 11
3.4999847412109375
 21
-30.5
 31
0.0
  0
LINE
  5
3F3
100
AcDbEntity
  8
0
  6
CONTINUOUS
 62
               7
100
AcDbLine
 10
30.5
 20
-30.499992370605469
 30
0.0
 11
30.5
 21
37.0
 31
0.0
  0
LINE
  5
3F4
100
AcDbEntity
  8
0
  6
CONTINUOUS
 62
               7
100
AcDbLine
 10
33.5
 20
-38.599990844726563
 30
0.0
 11
33.5
 21
-32.399993896484375
 31
0.0
  0
LINE
  5
3F5
100
AcDbEntity
  8
0
  6
CONTINUOUS
 62
               7
100
AcDbLine
 10
35.5
 20
-39.499984741210938
 30
0.0
 11
35.5
 21
-31.499984741210938
 31
0.0
  0
LINE
  5
3F6
100
AcDbEntity
  8
0
  6
CONTINUOUS
 62
               7
100
AcDbLine
 10
34.499955136865537
 20
-30.500010700511666
 30
0.0
 11
35.499959991675496
 21
-31.500008053174497
 31
0.0
  0
LINE
  5
3F7
100
AcDbEntity
  8
0
  6
CONTINUOUS
 62
               7
100
AcDbLine
 10
34.499988431825841
 20
-40.500005721749403
 30
0.0
 11
35.499978788115186
 21
-39.500015534045815
 31
0.0
  0
LINE
  5
3F8
100
AcDbEntity
  8
0
  6
CONTINUOUS
 62
               7
100
AcDbLine
 10
34.300003051757812
 20
-38.599990844726563
 30
0.0
 11
34.300003051757812
 21
-32.399993896484375
 31
0.0
  0
LINE
  5
3F9
100
AcDbEntity
  8
0
  6
CONTINUOUS
 62
               7
100
AcDbLine
 10
34.499984741210937
 20
-40.5
 30
0.0
 11
3.5
 21
-40.5
 31
0.0
  0
LINE
  5
3FA
100
AcDbEntity
  8
0
  6
CONTINUOUS
 62
               7
100
AcDbLine
 10
32.999984741210938
 20
-49.5
 30
0.0
 11
4.0
 21
-49.5
 31
0.0
  0
LINE
  5
3FB
100
AcDbEntity
  8
0
  6
CONTINUOUS
 62
               7
100
AcDbLine
 10
3.5
 20
-48.999984741210937
 30
0.0
 11
3.5
 21
37.0
 31
0.0
  0
LINE
  5
3FC
100
AcDbEntity
  8
0
  6
CONTINUOUS
 62
               7
100
AcDbLine
 10
33.5
 20
-48.999984741210937
 30
0.0
 11
33.5
 21
-40.499984741210937
 31
0.0
  0
LINE
  5
3FD
100
AcDbEntity
  8
0
  6
CONTINUOUS
 62
               7
100
AcDbLine
 10
33.499984741210938
 20
-38.5
 30
0.0
 11
31.499984741210938
 21
-38.5
 31
0.0
  0
LINE
  5
3FE
100
AcDbEntity
  8
0
  6
CONTINUOUS
 62
               7
100
AcDbLine
 10
33.499984741210938
 20
-32.5
 30
0.0
 11
31.499984741210938
 21
-32.5
 31
0.0
  0
LINE
  5
3FF
100
AcDbEntity
  8
0
  6
CONTINUOUS
 62
               7
100
AcDbLine
 10
32.5
 20
-38.599990844726563
 30
0.0
 11
32.5
 21
-38.499984741210937
 31
0.0
  0
LINE
  5
400
100
AcDbEntity
  8
0
  6
CONTINUOUS
 62
               7
100
AcDbLine
 10
31.5
 20
-40.499984741210937
 30
0.0
 11
31.5
 21
-38.499984741210937
 31
0.0
  0
LINE
  5
401
100
AcDbEntity
  8
0
  6
CONTINUOUS
 62
               7
100
AcDbLine
 10
32.5
 20
-32.499984741210937
 30
0.0
 11
32.5
 21
-32.399993896484375
 31
0.0
  0
LINE
  5
402
100
AcDbEntity
  8
0
  6
CONTINUOUS
 62
               7
100
AcDbLine
 10
31.5
 20
-32.499984741210937
 30
0.0
 11
31.5
 21
-30.499992370605469
 31
0.0
  0
LINE
  5
403
100
AcDbEntity
  8
0
  6
CONTINUOUS
 62
               7
100
AcDbLine
 10
31.599990844726563
 20
-40.499984741210937
 30
0.0
 11
31.599990844726563
 21
-38.599990844726563
 31
0.0
  0
LINE
  5
404
100
AcDbEntity
  8
0
  6
CONTINUOUS
 62
               7
100
AcDbLine
 10
34.29998779296875
 20
-32.399993896484375
 30
0.0
 11
31.599990844726563
 21
-32.399993896484375
 31
0.0
  0
LINE
  5
405
100
AcDbEntity
  8
0
  6
CONTINUOUS
 62
               7
100
AcDbLine
 10
34.29998779296875
 20
-38.599990844726563
 30
0.0
 11
31.599990844726563
 21
-38.599990844726563
 31
0.0
  0
LINE
  5
406
100
AcDbEntity
  8
0
  6
CONTINUOUS
 62
               7
100
AcDbLine
 10
31.599990844726563
 20
-32.399993896484375
 30
0.0
 11
31.599990844726563
 21
-30.499992370605469
 31
0.0
  0
LINE
  5
407
100
AcDbEntity
  8
0
  6
CONTINUOUS
 62
               7
100
AcDbLine
 10
34.5
 20
-40.499984741210937
 30
0.0
 11
34.5
 21
-30.499992370605469
 31
0.0
  0
LINE
  5
408
100
AcDbEntity
  8
0
  6
CONTINUOUS
 62
               7
100
AcDbLine
 10
30.5
 20
24.0
 30
0.0
 11
3.4999847412109375
 21
24.0
 31
0.0
  0
LINE
  5
409
100
AcDbEntity
  8
0
  6
CONTINUOUS
 62
               7
100
AcDbLine
 10
24.300018310546875
 20
-49.199996948242188
 30
0.0
 11
24.300018310546875
 21
-47.300003051757813
 31
0.0
  0
LINE
  5
40A
100
AcDbEntity
  8
0
  6
CONTINUOUS
 62
               7
100
AcDbLine
 10
4.5
 20
27.499984741210938
 30
0.0
 11
3.5
 21
27.499984741210938
 31
0.0
  0
LINE
  5
40B
100
AcDbEntity
  8
0
  6
CONTINUOUS
 62
               7
100
AcDbLine
 10
4.5
 20
26.0
 30
0.0
 11
4.5
 21
27.499984741210938
 31
0.0
  0
LINE
  5
40C
100
AcDbEntity
  8
0
  6
CONTINUOUS
 62
               7
100
AcDbLine
 10
26.199996948242188
 20
27.499984741210938
 30
0.0
 11
7.0
 21
27.499984741210938
 31
0.0
  0
LINE
  5
40D
100
AcDbEntity
  8
0
  6
CONTINUOUS
 62
               7
100
AcDbLine
 10
7.0
 20
26.0
 30
0.0
 11
7.0
 21
27.499984741210938
 31
0.0
  0
LINE
  5
40E
100
AcDbEntity
  8
0
  6
CONTINUOUS
 62
               7
100
AcDbLine
 10
26.199996948242188
 20
26.0
 30
0.0
 11
26.199996948242188
 21
27.499984741210938
 31
0.0
  0
LINE
  5
40F
100
AcDbEntity
  8
0
  6
CONTINUOUS
 62
               7
100
AcDbLine
 10
29.199996948242188
 20
26.0
 30
0.0
 11
29.199996948242188
 21
27.499984741210938
 31
0.0
  0
LINE
  5
410
100
AcDbEntity
  8
0
  6
CONTINUOUS
 62
               7
100
AcDbLine
 10
30.5
 20
27.499984741210938
 30
0.0
 11
29.199996948242188
 21
27.499984741210938
 31
0.0
  0
LINE
  5
411
100
AcDbEntity
  8
0
  6
CENTER
 62
               2
100
AcDbLine
 10
2.4710540771484375
 20
0.0
 30
0.0
 11
-2.58758544921875
 21
0.0
 31
0.0
  0
LINE
  5
412
100
AcDbEntity
  8
0
  6
CENTER
 62
               2
100
AcDbLine
 10
0.0
 20
2.5294189453125
 30
0.0
 11
0.0
 21
-2.3308258056640625
 31
0.0
  0
LINE
  5
413
100
AcDbEntity
  8
0
  6
CONTINUOUS
 62
               7
100
AcDbLine
 10
-6.0
 20
15.499984741210938
 30
0.0
 11
-6.0
 21
-30.5
 31
0.0
  0
LINE
  5
414
100
AcDbEntity
  8
0
  6
CONTINUOUS
 62
               7
100
AcDbLine
 10
3.0
 20
15.499984741210938
 30
0.0
 11
-6.0
 21
15.499984741210938
 31
0.0
  0
LINE
  5
415
100
AcDbEntity
  8
0
  6
CONTINUOUS
 62
               7
100
AcDbLine
 10
3.0
 20
-30.5
 30
0.0
 11
-6.0
 21
-30.5
 31
0.0
  0
LINE
  5
416
100
AcDbEntity
  8
0
  6
CONTINUOUS
 62
               7
100
AcDbLine
 10
30.400009155273438
 20
-47.0
 30
0.0
 11
24.600021362304688
 21
-47.0
 31
0.0
  0
LINE
  5
417
100
AcDbEntity
  8
0
  6
CONTINUOUS
 62
               7
100
AcDbLine
 10
30.70001220703125
 20
-49.199996948242188
 30
0.0
 11
30.70001220703125
 21
-47.300003051757813
 31
0.0
  0
LINE
  5
418
100
AcDbEntity
  8
0
  6
DASHED
 62
               4
100
AcDbLine
 10
-7.0
 20
-49.899993896484375
 30
0.0
 11
-17.0
 21
-49.899993896484375
 31
0.0
  0
LINE
  5
419
100
AcDbEntity
  8
0
  6
DASHED
 62
               4
100
AcDbLine
 10
-7.0
 20
9.9999847412109375
 30
0.0
 11
-7.0
 21
-51.5
 31
0.0
  0
LINE
  5
41A
100
AcDbEntity
  8
0
  6
DASHED
 62
               4
100
AcDbLine
 10
-17.0
 20
-49.899993896484375
 30
0.0
 11
-17.0
 21
-51.5
 31
0.0
  0
LINE
  5
41B
100
AcDbEntity
  8
0
  6
DASHED
 62
               4
100
AcDbLine
 10
18.000015258789063
 20
9.9999847412109375
 30
0.0
 11
18.000015258789063
 21
-51.5
 31
0.0
  0
LINE
  5
41C
100
AcDbEntity
  8
0
  6
DASHED
 62
               4
100
AcDbLine
 10
18.000015258789063
 20
9.9999847412109375
 30
0.0
 11
-7.0
 21
9.9999847412109375
 31
0.0
  0
LINE
  5
41D
100
AcDbEntity
  8
0
  6
CONTINUOUS
 62
               7
100
AcDbLine
 10
30.250015258789063
 20
-47.499984741210938
 30
0.0
 11
30.250015258789063
 21
-46.999984741210937
 31
0.0
  0
LINE
  5
41E
100
AcDbEntity
  8
0
  6
CONTINUOUS
 62
               7
100
AcDbLine
 10
28.75
 20
-49.0
 30
0.0
 11
26.250015258789063
 21
-49.0
 31
0.0
  0
LINE
  5
41F
100
AcDbEntity
  8
0
  6
CONTINUOUS
 62
               7
100
AcDbLine
 10
24.750015258789063
 20
-47.499984741210938
 30
0.0
 11
24.750015258789063
 21
-46.999984741210937
 31
0.0
  0
LINE
  5
420
100
AcDbEntity
  8
0
  6
CENTER
 62
               2
100
AcDbLine
 10
0.0
 20
-17.529436111450195
 30
0.0
 11
0.0
 21
-12.66917610168457
 31
0.0
  0
LINE
  5
421
100
AcDbEntity
  8
0
  6
CENTER
 62
               2
100
AcDbLine
 10
2.4710540771484375
 20
-15.000003814697266
 30
0.0
 11
-2.58758544921875
 21
-15.000003814697266
 31
0.0
  0
ARC
  5
422
100
AcDbEntity
  8
0
  6
CONTINUOUS
 62
               7
100
AcDbCircle
 10
32.999984741210938
 20
-48.999984741210937
 30
0.0
 40
0.5
100
AcDbArc
 50
270.00001798608872
 51
359.99995901886416
  0
ARC
  5
423
100
AcDbEntity
  8
0
  6
CONTINUOUS
 62
               7
100
AcDbCircle
 10
4.0
 20
-48.999984741210937
 30
0.0
 40
0.5
100
AcDbArc
 50
179.99996402782091
 51
269.99994604173139
  0
ARC
  5
424
100
AcDbEntity
  8
0
  6
CONTINUOUS
 62
               7
100
AcDbCircle
 10
6.5
 20
27.0
 30
0.0
 40
2.4999990463256836
100
AcDbArc
 50
203.5781768361424
 51
336.42181132471086
  0
ARC
  5
425
100
AcDbEntity
  8
0
  6
CONTINUOUS
 62
               7
100
AcDbCircle
 10
24.000015258789063
 20
-49.199996948242188
 30
0.0
 40
0.300000011920929
100
AcDbArc
 50
270.00001798608872
 51
0.0
  0
ARC
  5
426
100
AcDbEntity
  8
0
  6
CONTINUOUS
 62
               7
100
AcDbCircle
 10
24.600021362304688
 20
-47.300003051757813
 30
0.0
 40
0.300000011920929
100
AcDbArc
 50
89.999982013910454
 51
179.99996402782091
  0
CIRCLE
  5
427
100
AcDbEntity
  8
0
  6
CONTINUOUS
 62
               7
100
AcDbCircle
 10
0.0
 20
0.0
 30
0.0
 40
1.6999998092651367
  0
ARC
  5
428
100
AcDbEntity
  8
0
  6
CONTINUOUS
 62
               7
100
AcDbCircle
 10
30.400009155273438
 20
-47.300003051757813
 30
0.0
 40
0.300000011920929
100
AcDbArc
 50
0.0
 51
89.999982013910454
  0
ARC
  5
429
100
AcDbEntity
  8
0
  6
CONTINUOUS
 62
               7
100
AcDbCircle
 10
31.000015258789063
 20
-49.199996948242188
 30
0.0
 40
0.300000011920929
100
AcDbArc
 50
179.99998133066492
 51
270.00001798608872
  0
ARC
  5
42A
100
AcDbEntity
  8
0
  6
CONTINUOUS
 62
               7
100
AcDbCircle
 10
28.75
 20
-47.499984741210938
 30
0.0
 40
1.5
100
AcDbArc
 50
270.00001798608872
 51
359.99995901886416
  0
ARC
  5
42B
100
AcDbEntity
  8
0
  6
CONTINUOUS
 62
               7
100
AcDbCircle
 10
26.250015258789063
 20
-47.499984741210938
 30
0.0
 40
1.5
100
AcDbArc
 50
179.99990938630756
 51
269.99994604173139
  0
CIRCLE
  5
42C
100
AcDbEntity
  8
0
  6
CONTINUOUS
 62
               7
100
AcDbCircle
 10
0.0
 20
-15.000003814697266
 30
0.0
 40
1.6999998092651367
  0
LINE
  5
42D
100
AcDbEntity
  8
0
  6
CONTINUOUS
 62
               7
100
AcDbLine
 10
30.5
 20
26.0
 30
0.0
 11
3.4999847412109375
 21
26.0
 31
0.0
  0
LINE
  5
42E
100
AcDbEntity
  8
0
  6
DASHED
 62
               4
100
AcDbLine
 10
18.000015258789063
 20
-51.5
 30
0.0
 11
-17.0
 21
-51.5
 31
0.0
  0
LINE
  5
42F
100
AcDbEntity
  8
0
  6
CONTINUOUS
 62
               4
100
AcDbLine
 10
14.599999999999994
 20
70.0
 30
0.0
 11
28.174999999999983
 21
70.0
 31
0.0
  0
LINE
  5
430
100
AcDbEntity
  8
0
  6
CONTINUOUS
 62
               4
100
AcDbLine
 10
30.5
 20
37.0
 30
0.0
 11
30.5
 21
61.0
 31
0.0
  0
LINE
  5
431
100
AcDbEntity
  8
0
  6
CONTINUOUS
 62
               4
100
AcDbLine
 10
3.5
 20
37.0
 30
0.0
 11
3.5
 21
61.0
 31
0.0
  0
LINE
  5
432
100
AcDbEntity
  8
0
  6
CONTINUOUS
 62
               4
100
AcDbLine
 10
3.5
 20
69.5
 30
0.0
 11
3.5
 21
61.0
 31
0.0
  0
LINE
  5
433
100
AcDbEntity
  8
0
  6
CONTINUOUS
 62
               4
100
AcDbLine
 10
23.5
 20
63.400000000000006
 30
0.0
 11
23.5
 21
62.450000000000017
 31
0.0
  0
LINE
  5
434
100
AcDbEntity
  8
0
  6
CONTINUOUS
 62
               4
100
AcDbLine
 10
10.599999999999994
 20
63.400000000000006
 30
0.0
 11
10.599999999999994
 21
62.450000000000017
 31
0.0
  0
LINE
  5
435
100
AcDbEntity
  8
0
  6
CONTINUOUS
 62
               4
100
AcDbLine
 10
25.599999999999994
 20
63.400000000000006
 30
0.0
 11
23.5
 21
63.400000000000006
 31
0.0
  0
LINE
  5
436
100
AcDbEntity
  8
0
  6
CONTINUOUS
 62
               4
100
AcDbLine
 10
10.599999999999994
 20
63.400000000000006
 30
0.0
 11
8.5
 21
63.400000000000006
 31
0.0
  0
LINE
  5
437
100
AcDbEntity
  8
0
  6
CONTINUOUS
 62
               4
100
AcDbLine
 10
30.5
 20
65.180000000000007
 30
0.0
 11
30.5
 21
61.0
 31
0.0
  0
LINE
  5
438
100
AcDbEntity
  8
0
  6
CONTINUOUS
 62
               4
100
AcDbLine
 10
28.629999999999995
 20
69.705000000000013
 30
0.0
 11
30.370000000000005
 21
65.789999999999992
 31
0.0
  0
ARC
  5
439
100
AcDbEntity
  8
0
  6
CONTINUOUS
 62
               4
100
AcDbCircle
 10
28.174020838564047
 20
69.500099937446265
 30
0.0
 40
0.4999010215015999
100
AcDbArc
 50
24.197376208904771
 51
89.887774076864815
  0
ARC
  5
43A
100
AcDbEntity
  8
0
  6
CONTINUOUS
 62
               4
100
AcDbCircle
 10
29.002020395360574
 20
65.179610903929301
 30
0.0
 40
1.4979796551727449
100
AcDbArc
 50
0.0148824203654679
 51
24.046309772710686
  0
LINE
  5
43B
100
AcDbEntity
  8
0
  6
CONTINUOUS
 62
               4
100
AcDbLine
 10
25.599999999999994
 20
63.400000000000006
 30
0.0
 11
25.599999999999994
 21
62.450000000000017
 31
0.0
  0
LINE
  5
43C
100
AcDbEntity
  8
0
  6
CONTINUOUS
 62
               4
100
AcDbLine
 10
8.5
 20
63.400000000000006
 30
0.0
 11
8.5
 21
62.450000000000017
 31
0.0
  0
LINE
  5
43D
100
AcDbEntity
  8
0
  6
CONTINUOUS
 62
               4
100
AcDbLine
 10
10.599999999999994
 20
62.450000000000017
 30
0.0
 11
8.5
 21
62.450000000000017
 31
0.0
  0
LINE
  5
43E
100
AcDbEntity
  8
0
  6
CONTINUOUS
 62
               4
100
AcDbLine
 10
25.599999999999994
 20
62.450000000000017
 30
0.0
 11
23.5
 21
62.450000000000017
 31
0.0
  0
LINE
  5
43F
100
AcDbEntity
  8
0
  6
CONTINUOUS
 62
               4
100
AcDbLine
 10
6.0
 20
74.5
 30
0.0
 11
6.0
 21
70.0
 31
0.0
  0
LINE
  5
440
100
AcDbEntity
  8
0
  6
CONTINUOUS
 62
               4
100
AcDbLine
 10
6.0
 20
70.0
 30
0.0
 11
4.0
 21
70.0
 31
0.0
  0
ARC
  5
441
100
AcDbEntity
  8
0
  6
CONTINUOUS
 62
               4
100
AcDbCircle
 10
4.0
 20
69.5
 30
0.0
 40
0.5
100
AcDbArc
 50
89.999999999999815
 51
179.99999999999963
  0
LINE
  5
442
100
AcDbEntity
  8
0
  6
CONTINUOUS
 62
               4
100
AcDbLine
 10
18.25
 20
61.5
 30
0.0
 11
18.25
 21
61.0
 31
0.0
  0
LINE
  5
443
100
AcDbEntity
  8
0
  6
CONTINUOUS
 62
               4
100
AcDbLine
 10
15.75
 20
61.5
 30
0.0
 11
15.75
 21
61.0
 31
0.0
  0
LINE
  5
444
100
AcDbEntity
  8
0
  6
CONTINUOUS
 62
               4
100
AcDbLine
 10
15.75
 20
61.5
 30
0.0
 11
18.25
 21
61.5
 31
0.0
  0
LINE
  5
445
100
AcDbEntity
  8
0
  6
CONTINUOUS
 62
             200
100
AcDbLine
 10
13.314994343097709
 20
86.464464815078827
 30
0.0
 11
6.3849841895786028
 21
82.46341291056342
 31
0.0
  0
LINE
  5
446
100
AcDbEntity
  8
0
  6
CONTINUOUS
 62
             200
100
AcDbLine
 10
13.315018891472022
 20
87.619105809934808
 30
0.0
 11
6.3849897999085385
 21
83.618057246153512
 31
0.0
  0
LINE
  5
447
100
AcDbEntity
  8
0
  6
CONTINUOUS
 62
               4
100
AcDbLine
 10
7.8850036621093693
 20
81.0
 30
0.0
 11
7.8850036621093693
 21
83.329421997070312
 31
0.0
  0
LINE
  5
448
100
AcDbEntity
  8
0
  6
CONTINUOUS
 62
               4
100
AcDbLine
 10
9.3150115966796818
 20
81.0
 30
0.0
 11
9.3150115966796818
 21
84.155029296875
 31
0.0
  0
LINE
  5
449
100
AcDbEntity
  8
0
  6
CONTINUOUS
 62
               4
100
AcDbLine
 10
8.2000061035156193
 20
94.0
 30
0.0
 11
9.0000091552734318
 21
94.0
 31
0.0
  0
LINE
  5
44A
100
AcDbEntity
  8
0
  6
CONTINUOUS
 62
               4
100
AcDbLine
 10
8.2000061035156193
 20
89.0
 30
0.0
 11
8.2000061035156193
 21
93.999984741210937
 31
0.0
  0
LINE
  5
44B
100
AcDbEntity
  8
0
  6
CONTINUOUS
 62
               4
100
AcDbLine
 10
9.0000091552734318
 20
89.0
 30
0.0
 11
9.0000091552734318
 21
94.0
 31
0.0
  0
LINE
  5
44C
100
AcDbEntity
  8
0
  6
CONTINUOUS
 62
               4
100
AcDbLine
 10
7.8850036621093693
 20
89.0
 30
0.0
 11
9.3150115966796818
 21
89.0
 31
0.0
  0
LINE
  5
44D
100
AcDbEntity
  8
0
  6
CONTINUOUS
 62
               4
100
AcDbLine
 10
7.8850036621093693
 20
84.484115600585937
 30
0.0
 11
7.8850036621093693
 21
89.0
 31
0.0
  0
LINE
  5
44E
100
AcDbEntity
  8
0
  6
CONTINUOUS
 62
               4
100
AcDbLine
 10
9.3150115966796818
 20
85.309738159179688
 30
0.0
 11
9.3150115966796818
 21
89.0
 31
0.0
  0
LINE
  5
44F
100
AcDbEntity
  8
0
  6
CONTINUOUS
 62
               7
100
AcDbLine
 10
3.5
 20
37.0
 30
0.0
 11
30.5
 21
37.0
 31
0.0
  0
LINE
  5
450
100
AcDbEntity
  8
0
  6
CONTINUOUS
 62
               4
100
AcDbLine
 10
11.815011596679682
 20
86.75311279296875
 30
0.0
 11
11.815011596679682
 21
89.0
 31
0.0
  0
LINE
  5
451
100
AcDbEntity
  8
0
  6
CONTINUOUS
 62
               4
100
AcDbLine
 10
10.385003662109369
 20
85.927490234375
 30
0.0
 11
10.385003662109369
 21
89.0
 31
0.0
  0
LINE
  5
452
100
AcDbEntity
  8
0
  6
CONTINUOUS
 62
               4
100
AcDbLine
 10
11.815011596679682
 20
89.0
 30
0.0
 11
10.385003662109369
 21
89.0
 31
0.0
  0
LINE
  5
453
100
AcDbEntity
  8
0
  6
CONTINUOUS
 62
               4
100
AcDbLine
 10
10.385003662109369
 20
81.0
 30
0.0
 11
10.385003662109369
 21
84.772796630859375
 31
0.0
  0
LINE
  5
454
100
AcDbEntity
  8
0
  6
CONTINUOUS
 62
               4
100
AcDbLine
 10
11.815011596679682
 20
81.0
 30
0.0
 11
11.815011596679682
 21
85.598403930664063
 31
0.0
  0
LINE
  5
455
100
AcDbEntity
  8
0
  6
CONTINUOUS
 62
               4
100
AcDbLine
 10
11.500009155273432
 20
89.0
 30
0.0
 11
11.500009155273432
 21
94.0
 31
0.0
  0
LINE
  5
456
100
AcDbEntity
  8
0
  6
CONTINUOUS
 62
               4
100
AcDbLine
 10
10.700006103515619
 20
89.0
 30
0.0
 11
10.700006103515619
 21
94.0
 31
0.0
  0
LINE
  5
457
100
AcDbEntity
  8
0
  6
CONTINUOUS
 62
               4
100
AcDbLine
 10
11.500009155273432
 20
94.0
 30
0.0
 11
10.700006103515619
 21
94.0
 31
0.0
  0
LINE
  5
458
100
AcDbEntity
  8
0
  6
CONTINUOUS
 62
               4
100
AcDbLine
 10
16.650003051757807
 20
79.5
 30
0.0
 11
16.650003051757807
 21
81.0
 31
0.0
  0
LINE
  5
459
100
AcDbEntity
  8
0
  6
CONTINUOUS
 62
               4
100
AcDbLine
 10
14.650044511604023
 20
79.999958942901685
 30
0.0
 11
15.227396327367927
 21
80.999967647856465
 31
0.0
  0
LINE
  5
45A
100
AcDbEntity
  8
0
  6
CONTINUOUS
 62
               4
100
AcDbLine
 10
14.650003051757807
 20
74.5
 30
0.0
 11
14.650003051757807
 21
81.0
 31
0.0
  0
LINE
  5
45B
100
AcDbEntity
  8
0
  6
CONTINUOUS
 62
               4
100
AcDbLine
 10
15.650001302236518
 20
70.49845074175937
 30
0.0
 11
16.150000411113609
 21
74.056138825448215
 31
0.0
  0
LINE
  5
45C
100
AcDbEntity
  8
0
  6
CONTINUOUS
 62
               4
100
AcDbLine
 10
16.150003051757807
 20
74.05615234375
 30
0.0
 11
16.150003051757807
 21
79.5
 31
0.0
  0
LINE
  5
45D
100
AcDbEntity
  8
0
  6
CONTINUOUS
 62
               4
100
AcDbLine
 10
5.6499877929687443
 20
80.0
 30
0.0
 11
6.1499877929687443
 21
80.0
 31
0.0
  0
LINE
  5
45E
100
AcDbEntity
  8
0
  6
CONTINUOUS
 62
               4
100
AcDbLine
 10
5.6500030517578068
 20
80.0
 30
0.0
 11
5.6500030517578068
 21
81.0
 31
0.0
  0
LINE
  5
45F
100
AcDbEntity
  8
0
  6
CONTINUOUS
 62
               4
100
AcDbLine
 10
6.1500030517578068
 20
74.5
 30
0.0
 11
6.1500030517578068
 21
80.0
 31
0.0
  0
LINE
  5
460
100
AcDbEntity
  8
0
  6
CONTINUOUS
 62
               4
100
AcDbLine
 10
14.650000209407693
 20
70.498474151870141
 30
0.0
 11
14.599979656101453
 21
70.548494705176381
 31
0.0
  0
LINE
  5
461
100
AcDbEntity
  8
0
  6
CONTINUOUS
 62
               4
100
AcDbLine
 10
16.149995422363276
 20
79.5
 30
0.0
 11
16.649995422363276
 21
79.5
 31
0.0
  0
LINE
  5
462
100
AcDbEntity
  8
0
  6
CONTINUOUS
 62
               4
100
AcDbLine
 10
14.650003051757807
 20
71.998458862304688
 30
0.0
 11
14.650003051757807
 21
74.5
 31
0.0
  0
LINE
  5
463
100
AcDbEntity
  8
0
  6
CONTINUOUS
 62
               4
100
AcDbLine
 10
14.650003051757807
 20
70.498458862304688
 30
0.0
 11
15.649995422363276
 21
70.498458862304688
 31
0.0
  0
LINE
  5
464
100
AcDbEntity
  8
0
  6
CONTINUOUS
 62
               4
100
AcDbLine
 10
14.599999999999994
 20
71.998458862304688
 30
0.0
 11
14.650003051757807
 21
71.998458862304688
 31
0.0
  0
LINE
  5
465
100
AcDbEntity
  8
0
  6
CONTINUOUS
 62
               4
100
AcDbLine
 10
15.227349853515619
 20
81.0
 30
0.0
 11
16.649995422363276
 21
81.0
 31
0.0
  0
LINE
  5
466
100
AcDbEntity
  8
0
  6
CONTINUOUS
 62
               4
100
AcDbLine
 10
6.0
 20
74.5
 30
0.0
 11
14.650003051757807
 21
74.5
 31
0.0
  0
LINE
  5
467
100
AcDbEntity
  8
0
  6
CONTINUOUS
 62
               4
100
AcDbLine
 10
5.6499877929687443
 20
81.0
 30
0.0
 11
14.649987792968744
 21
81.0
 31
0.0
  0
LINE
  5
468
100
AcDbEntity
  8
0
  6
CONTINUOUS
 62
               4
100
AcDbLine
 10
14.599999999999994
 20
74.5
 30
0.0
 11
14.599999999999994
 21
70.0
 31
0.0
  0
LINE
  5
469
100
AcDbEntity
  8
0
  6
CONTINUOUS
 62
               4
100
AcDbLine
 10
3.5
 20
61.0
 30
0.0
 11
30.499992370605469
 21
61.0
 31
0.0
  0
LINE
  5
46A
100
AcDbEntity
  8
0
  6
CONTINUOUS
 62
               4
100
AcDbLine
 10
3.5
 20
54.0
 30
0.0
 11
5.1000137329101562
 21
54.0
 31
0.0
  0
LINE
  5
46B
100
AcDbEntity
  8
0
  6
CONTINUOUS
 62
               4
100
AcDbLine
 10
4.200013732910179
 20
54.0
 30
0.0
 11
4.200013732910179
 21
61.0
 31
0.0
  0
LINE
  5
46C
100
AcDbEntity
  8
0
  6
CONTINUOUS
 62
               4
100
AcDbLine
 10
5.1000137329101562
 20
54.0
 30
0.0
 11
5.1000137329101562
 21
61.0
 31
0.0
  0
LINE
  5
46D
100
AcDbEntity
  8
0
  6
CONTINUOUS
 62
               7
100
AcDbLine
 10
35.5
 20
-26.700004577636719
 30
0.0
 11
30.5
 21
-26.700004577636719
 31
0.0
  0
LINE
  5
46E
100
AcDbEntity
  8
0
  6
CONTINUOUS
 62
               7
100
AcDbLine
 10
37.599992370605463
 20
-21.300003051757813
 30
0.0
 11
30.5
 21
-21.300003051757813
 31
0.0
  0
ARC
  5
46F
100
AcDbEntity
  8
0
  6
CONTINUOUS
 62
               7
100
AcDbCircle
 10
31.300003051757813
 20
-24.750007629394531
 30
0.0
 40
1.5
100
AcDbArc
 50
270.00007262760209
 51
0.0000409811350201
  0
ARC
  5
470
100
AcDbEntity
  8
0
  6
CONTINUOUS
 62
               7
100
AcDbCircle
 10
31.300003051757813
 20
-23.250007629394531
 30
0.0
 40
1.5
100
AcDbArc
 50
0.0000409811350201
 51
89.999982013910454
  0
LINE
  5
471
100
AcDbEntity
  8
0
  6
CONTINUOUS
 62
               2
100
AcDbLine
 10
60.499992370605469
 20
0.2500076293945313
 30
0.0
 11
29.499992370605469
 21
0.2500076293945313
 31
0.0
  0
LINE
  5
472
100
AcDbEntity
  8
0
  6
CONTINUOUS
 62
               7
100
AcDbLine
 10
33.499992370605469
 20
15.300007629394543
 30
0.0
 11
30.499992370605469
 21
15.300007629394543
 31
0.0
  0
LINE
  5
473
100
AcDbEntity
  8
0
  6
CENTER
 62
               2
100
AcDbLine
 10
60.499992370605469
 20
-15.249992370605469
 30
0.0
 11
29.499992370605469
 21
-15.249992370605469
 31
0.0
  0
LINE
  5
474
100
AcDbEntity
  8
0
  6
CONTINUOUS
 62
               7
100
AcDbLine
 10
33.499992415308952
 20
-30.299992311000821
 30
0.0
 11
37.599992364645004
 21
-23.198584097623822
 31
0.0
  0
LINE
  5
475
100
AcDbEntity
  8
0
  6
CONTINUOUS
 62
               7
100
AcDbLine
 10
33.499992415308952
 20
15.300007569789898
 30
0.0
 11
37.599992364645004
 21
8.1985993564128989
 31
0.0
  0
LINE
  5
476
100
AcDbEntity
  8
0
  6
CONTINUOUS
 62
               7
100
AcDbLine
 10
55.336038370605479
 20
-7.2499923706054687
 30
0.0
 11
55.336038370605479
 21
7.7500076293945312
 31
0.0
  0
LINE
  5
477
100
AcDbEntity
  8
0
  6
CONTINUOUS
 62
               7
100
AcDbLine
 10
55.79999237060548
 20
-6.4464027706054594
 30
0.0
 11
55.79999237060548
 21
6.9464188954211181
 31
0.0
  0
LINE
  5
478
100
AcDbEntity
  8
0
  6
CONTINUOUS
 62
               7
100
AcDbLine
 10
53.999997370605456
 20
-7.2499923706054687
 30
0.0
 11
53.999997370605456
 21
7.7500076293945312
 31
0.0
  0
LINE
  5
479
100
AcDbEntity
  8
0
  6
CONTINUOUS
 62
               7
100
AcDbLine
 10
53.799997370605467
 20
-6.5499923706054801
 30
0.0
 11
52.999997370605456
 21
-6.5499923706054801
 31
0.0
  0
LINE
  5
47A
100
AcDbEntity
  8
0
  6
CONTINUOUS
 62
               7
100
AcDbLine
 10
45.899997370605462
 20
7.5500076293945142
 30
0.0
 11
45.699997370605473
 21
7.7500076293945312
 31
0.0
  0
LINE
  5
47B
100
AcDbEntity
  8
0
  6
CONTINUOUS
 62
               7
100
AcDbLine
 10
45.699997370605473
 20
-7.2499923706054687
 30
0.0
 11
37.59999737060545
 21
-7.2499923706054687
 31
0.0
  0
LINE
  5
47C
100
AcDbEntity
  8
0
  6
CONTINUOUS
 62
               7
100
AcDbLine
 10
45.899997370605462
 20
-7.0499923706054801
 30
0.0
 11
45.699997370605473
 21
-7.2499923706054687
 31
0.0
  0
LINE
  5
47D
100
AcDbEntity
  8
0
  6
CONTINUOUS
 62
               7
100
AcDbLine
 10
52.899997370605462
 20
7.7500076293945312
 30
0.0
 11
46.099997370605479
 21
7.7500076293945312
 31
0.0
  0
LINE
  5
47E
100
AcDbEntity
  8
0
  6
CONTINUOUS
 62
               7
100
AcDbLine
 10
52.999997370605456
 20
7.6500076293945085
 30
0.0
 11
52.899997370605462
 21
7.7500076293945312
 31
0.0
  0
LINE
  5
47F
100
AcDbEntity
  8
0
  6
CONTINUOUS
 62
               7
100
AcDbLine
 10
52.999997370605456
 20
-7.1499923706054744
 30
0.0
 11
52.999997370605456
 21
7.6500076293945085
 31
0.0
  0
LINE
  5
480
100
AcDbEntity
  8
0
  6
CONTINUOUS
 62
               7
100
AcDbLine
 10
52.899997370605462
 20
-7.2499923706054687
 30
0.0
 11
52.999997370605456
 21
-7.1499923706054744
 31
0.0
  0
LINE
  5
481
100
AcDbEntity
  8
0
  6
CONTINUOUS
 62
               7
100
AcDbLine
 10
52.899997370605462
 20
-7.2499923706054687
 30
0.0
 11
46.09999737060545
 21
-7.2499923706054687
 31
0.0
  0
LINE
  5
482
100
AcDbEntity
  8
0
  6
CONTINUOUS
 62
               7
100
AcDbLine
 10
45.899997370605462
 20
-7.0499923706054801
 30
0.0
 11
46.09999737060545
 21
-7.2499923706054687
 31
0.0
  0
LINE
  5
483
100
AcDbEntity
  8
0
  6
CONTINUOUS
 62
               7
100
AcDbLine
 10
45.899997370605462
 20
7.5500076293945142
 30
0.0
 11
46.099997370605479
 21
7.7500076293945312
 31
0.0
  0
LINE
  5
484
100
AcDbEntity
  8
0
  6
CONTINUOUS
 62
               7
100
AcDbLine
 10
55.336038370605479
 20
7.7500076293945312
 30
0.0
 11
53.999997370605456
 21
7.7500076293945312
 31
0.0
  0
LINE
  5
485
100
AcDbEntity
  8
0
  6
CONTINUOUS
 62
               7
100
AcDbLine
 10
55.336038370605479
 20
-7.2499923706054687
 30
0.0
 11
53.999997370605456
 21
-7.2499923706054687
 31
0.0
  0
LINE
  5
486
100
AcDbEntity
  8
0
  6
CONTINUOUS
 62
               7
100
AcDbLine
 10
53.799997370605467
 20
7.0500076293945142
 30
0.0
 11
52.999997370605456
 21
7.0500076293945142
 31
0.0
  0
LINE
  5
487
100
AcDbEntity
  8
0
  6
CONTINUOUS
 62
               7
100
AcDbLine
 10
55.79999237060548
 20
6.9464180293945219
 30
0.0
 11
56.399992370605474
 21
6.6000076293945256
 31
0.0
  0
LINE
  5
488
100
AcDbEntity
  8
0
  6
CONTINUOUS
 62
               7
100
AcDbLine
 10
55.79999237060548
 20
-6.4464027706054594
 30
0.0
 11
56.399992370605474
 21
-6.0999923706054631
 31
0.0
  0
LINE
  5
489
100
AcDbEntity
  8
0
  6
CONTINUOUS
 62
               7
100
AcDbLine
 10
53.799997370605467
 20
-7.0499923706054801
 30
0.0
 11
53.999997370605456
 21
-7.2499923706054687
 31
0.0
  0
LINE
  5
48A
100
AcDbEntity
  8
0
  6
CONTINUOUS
 62
               7
100
AcDbLine
 10
53.799997370605467
 20
7.5500076293945142
 30
0.0
 11
53.999997370605456
 21
7.7500076293945312
 31
0.0
  0
LINE
  5
48B
100
AcDbEntity
  8
0
  6
CONTINUOUS
 62
               7
100
AcDbLine
 10
53.799997370605467
 20
-7.0499923706054801
 30
0.0
 11
53.799997370605467
 21
7.5500076293945142
 31
0.0
  0
LINE
  5
48C
100
AcDbEntity
  8
0
  6
CONTINUOUS
 62
               7
100
AcDbLine
 10
55.336038370605479
 20
-7.2499923706054687
 30
0.0
 11
55.799991370605483
 21
-6.4464027706054594
 31
0.0
  0
LINE
  5
48D
100
AcDbEntity
  8
0
  6
CONTINUOUS
 62
               7
100
AcDbLine
 10
55.799991370605483
 20
6.9464180293945219
 30
0.0
 11
55.336038370605479
 21
7.7500076293945312
 31
0.0
  0
LINE
  5
48E
100
AcDbEntity
  8
0
  6
CONTINUOUS
 62
               7
100
AcDbLine
 10
56.399992370605474
 20
-6.0999927706054677
 30
0.0
 11
56.399992370605474
 21
6.6000076293945256
 31
0.0
  0
LINE
  5
48F
100
AcDbEntity
  8
0
  6
CONTINUOUS
 62
               7
100
AcDbLine
 10
57.79999237060548
 20
-4.6499923706054744
 30
0.0
 11
57.499991370605471
 21
-4.6499923706054744
 31
0.0
  0
LINE
  5
490
100
AcDbEntity
  8
0
  6
CONTINUOUS
 62
               7
100
AcDbLine
 10
57.499991370605471
 20
-5.3499919706054584
 30
0.0
 11
57.499991370605471
 21
5.8500072293945209
 31
0.0
  0
LINE
  5
491
100
AcDbEntity
  8
0
  6
CONTINUOUS
 62
               7
100
AcDbLine
 10
57.79999237060548
 20
5.1500076293945369
 30
0.0
 11
57.499991370605471
 21
5.1500076293945369
 31
0.0
  0
LINE
  5
492
100
AcDbEntity
  8
0
  6
CONTINUOUS
 62
               7
100
AcDbLine
 10
57.399991370605449
 20
-5.4499919706054811
 30
0.0
 11
57.499991370605471
 21
-5.3499919706054584
 31
0.0
  0
LINE
  5
493
100
AcDbEntity
  8
0
  6
CONTINUOUS
 62
               7
100
AcDbLine
 10
57.399991370605449
 20
-5.4499923706054574
 30
0.0
 11
56.399992370605474
 21
-5.4499923706054574
 31
0.0
  0
LINE
  5
494
100
AcDbEntity
  8
0
  6
CONTINUOUS
 62
               7
100
AcDbLine
 10
57.399991370605449
 20
5.9500072293945152
 30
0.0
 11
57.499991370605471
 21
5.8500072293945209
 31
0.0
  0
LINE
  5
495
100
AcDbEntity
  8
0
  6
CONTINUOUS
 62
               7
100
AcDbLine
 10
57.399991370605449
 20
5.9500076293945199
 30
0.0
 11
56.399992370605474
 21
5.9500076293945199
 31
0.0
  0
LINE
  5
496
100
AcDbEntity
  8
0
  6
CONTINUOUS
 62
               7
100
AcDbLine
 10
59.199989370605465
 20
-6.6499923706054744
 30
0.0
 11
58.29999237060548
 21
-6.6499923706054744
 31
0.0
  0
LINE
  5
497
100
AcDbEntity
  8
0
  6
CONTINUOUS
 62
               7
100
AcDbLine
 10
58.29999237060548
 20
-6.6499923706054744
 30
0.0
 11
58.29999237060548
 21
7.1500076293945085
 31
0.0
  0
LINE
  5
498
100
AcDbEntity
  8
0
  6
CONTINUOUS
 62
               7
100
AcDbLine
 10
59.499992370605469
 20
6.8500061293945294
 30
0.0
 11
59.499992370605469
 21
-6.3499923706054631
 31
0.0
  0
LINE
  5
499
100
AcDbEntity
  8
0
  6
CONTINUOUS
 62
               7
100
AcDbLine
 10
59.199989370605465
 20
7.1500076293945085
 30
0.0
 11
58.29999237060548
 21
7.1500076293945085
 31
0.0
  0
ARC
  5
49A
100
AcDbEntity
  8
0
  6
CONTINUOUS
 62
               7
100
AcDbCircle
 10
59.199989370605465
 20
-6.3499908706054669
 30
0.0
 40
0.3
100
AcDbArc
 50
270.0
 51
0.0
  0
ARC
  5
49B
100
AcDbEntity
  8
0
  6
CONTINUOUS
 62
               7
100
AcDbCircle
 10
57.79999237060548
 20
-5.1499919706054698
 30
0.0
 40
0.5
100
AcDbArc
 50
359.9999999999992
 51
89.99999999999919
  0
ARC
  5
49C
100
AcDbEntity
  8
0
  6
CONTINUOUS
 62
               7
100
AcDbCircle
 10
57.79999237060548
 20
5.6500072293945323
 30
0.0
 40
0.5
100
AcDbArc
 50
270.0
 51
0.0
  0
ARC
  5
49D
100
AcDbEntity
  8
0
  6
CONTINUOUS
 62
               7
100
AcDbCircle
 10
59.199989370605465
 20
6.8500061293945294
 30
0.0
 40
0.3
100
AcDbArc
 50
359.9999999999992
 51
89.99999999999919
  0
LINE
  5
49E
100
AcDbEntity
  8
0
  6
CONTINUOUS
 62
               7
100
AcDbLine
 10
45.699997370605473
 20
7.7500076293945312
 30
0.0
 11
37.599997370605479
 21
7.7500076293945312
 31
0.0
  0
LINE
  5
49F
100
AcDbEntity
  8
0
  6
CONTINUOUS
 62
               7
100
AcDbLine
 10
37.541444258870627
 20
8.3000076293945426
 30
0.0
 11
33.499992370605469
 21
8.3000076293945426
 31
0.0
  0
LINE
  5
4A0
100
AcDbEntity
  8
0
  6
CONTINUOUS
 62
               7
100
AcDbLine
 10
33.499992370605469
 20
15.300007629394543
 30
0.0
 11
33.499992370605469
 21
8.3000076293945426
 31
0.0
  0
LINE
  5
4A1
100
AcDbEntity
  8
0
  6
CONTINUOUS
 62
               7
100
AcDbLine
 10
37.599992370605463
 20
8.1985993251825562
 30
0.0
 11
37.599992370605463
 21
-7.4999923706054687
 31
0.0
  0
LINE
  5
4A2
100
AcDbEntity
  8
0
  6
CONTINUOUS
 62
               7
100
AcDbLine
 10
45.699997370605473
 20
-7.4999923706054687
 30
0.0
 11
45.699997370605473
 21
7.7500076293945312
 31
0.0
  0
LINE
  5
4A3
100
AcDbEntity
  8
0
  6
CONTINUOUS
 62
               7
100
AcDbLine
 10
55.336038370605479
 20
-7.7499923706054687
 30
0.0
 11
55.336038370605479
 21
-22.749992370605483
 31
0.0
  0
LINE
  5
4A4
100
AcDbEntity
  8
0
  6
CONTINUOUS
 62
               7
100
AcDbLine
 10
55.79999237060548
 20
-8.5535819706054781
 30
0.0
 11
55.79999237060548
 21
-21.946403636632084
 31
0.0
  0
LINE
  5
4A5
100
AcDbEntity
  8
0
  6
CONTINUOUS
 62
               7
100
AcDbLine
 10
57.399990970605472
 20
-9.5499923706054801
 30
0.0
 11
57.399990970605472
 21
-20.949991970605467
 31
0.0
  0
LINE
  5
4A6
100
AcDbEntity
  8
0
  6
CONTINUOUS
 62
               7
100
AcDbLine
 10
53.999997370605456
 20
-7.7499923706054687
 30
0.0
 11
53.999997370605456
 21
-22.749992370605483
 31
0.0
  0
LINE
  5
4A7
100
AcDbEntity
  8
0
  6
CONTINUOUS
 62
               7
100
AcDbLine
 10
53.799997370605467
 20
-8.4499923706054858
 30
0.0
 11
52.999997370605456
 21
-8.4499923706054858
 31
0.0
  0
LINE
  5
4A8
100
AcDbEntity
  8
0
  6
CONTINUOUS
 62
               7
100
AcDbLine
 10
52.899997370605462
 20
-7.7499923706054687
 30
0.0
 11
52.899997370605462
 21
-22.749992370605483
 31
0.0
  0
LINE
  5
4A9
100
AcDbEntity
  8
0
  6
CONTINUOUS
 62
               7
100
AcDbLine
 10
46.09999737060545
 20
-7.7499923706054687
 30
0.0
 11
46.099997370605479
 21
-22.749992370605483
 31
0.0
  0
LINE
  5
4AA
100
AcDbEntity
  8
0
  6
CONTINUOUS
 62
               7
100
AcDbLine
 10
45.899997370605462
 20
-22.549992370605466
 30
0.0
 11
45.699997370605473
 21
-22.749992370605483
 31
0.0
  0
LINE
  5
4AB
100
AcDbEntity
  8
0
  6
CONTINUOUS
 62
               7
100
AcDbLine
 10
45.699997370605473
 20
-7.7499923706054687
 30
0.0
 11
37.59999737060545
 21
-7.7499923706054687
 31
0.0
  0
LINE
  5
4AC
100
AcDbEntity
  8
0
  6
CONTINUOUS
 62
               7
100
AcDbLine
 10
45.899997370605462
 20
-7.9499923706054858
 30
0.0
 11
45.699997370605473
 21
-7.7499923706054687
 31
0.0
  0
LINE
  5
4AD
100
AcDbEntity
  8
0
  6
CONTINUOUS
 62
               7
100
AcDbLine
 10
52.899997370605462
 20
-22.749992370605483
 30
0.0
 11
46.099997370605479
 21
-22.749992370605483
 31
0.0
  0
LINE
  5
4AE
100
AcDbEntity
  8
0
  6
CONTINUOUS
 62
               7
100
AcDbLine
 10
52.999997370605456
 20
-22.649992370605474
 30
0.0
 11
52.899997370605462
 21
-22.749992370605483
 31
0.0
  0
LINE
  5
4AF
100
AcDbEntity
  8
0
  6
CONTINUOUS
 62
               7
100
AcDbLine
 10
52.999997370605456
 20
-7.8499923706054915
 30
0.0
 11
52.999997370605456
 21
-22.649992370605474
 31
0.0
  0
LINE
  5
4B0
100
AcDbEntity
  8
0
  6
CONTINUOUS
 62
               7
100
AcDbLine
 10
52.899997370605462
 20
-7.7499923706054687
 30
0.0
 11
52.999997370605456
 21
-7.8499923706054915
 31
0.0
  0
LINE
  5
4B1
100
AcDbEntity
  8
0
  6
CONTINUOUS
 62
               7
100
AcDbLine
 10
52.899997370605462
 20
-7.7499923706054687
 30
0.0
 11
46.09999737060545
 21
-7.7499923706054687
 31
0.0
  0
LINE
  5
4B2
100
AcDbEntity
  8
0
  6
CONTINUOUS
 62
               7
100
AcDbLine
 10
45.899997370605462
 20
-7.9499923706054858
 30
0.0
 11
45.899997370605462
 21
-22.549992370605466
 31
0.0
  0
LINE
  5
4B3
100
AcDbEntity
  8
0
  6
CONTINUOUS
 62
               7
100
AcDbLine
 10
45.899997370605462
 20
-7.9499923706054858
 30
0.0
 11
46.09999737060545
 21
-7.7499923706054687
 31
0.0
  0
LINE
  5
4B4
100
AcDbEntity
  8
0
  6
CONTINUOUS
 62
               7
100
AcDbLine
 10
45.899997370605462
 20
-22.549992370605466
 30
0.0
 11
46.099997370605479
 21
-22.749992370605483
 31
0.0
  0
LINE
  5
4B5
100
AcDbEntity
  8
0
  6
CONTINUOUS
 62
               7
100
AcDbLine
 10
55.336038370605479
 20
-22.749992370605483
 30
0.0
 11
53.999997370605456
 21
-22.749992370605483
 31
0.0
  0
LINE
  5
4B6
100
AcDbEntity
  8
0
  6
CONTINUOUS
 62
               7
100
AcDbLine
 10
55.336038370605479
 20
-7.7499923706054687
 30
0.0
 11
53.999997370605456
 21
-7.7499923706054687
 31
0.0
  0
LINE
  5
4B7
100
AcDbEntity
  8
0
  6
CONTINUOUS
 62
               7
100
AcDbLine
 10
53.799997370605467
 20
-22.049992370605466
 30
0.0
 11
52.999997370605456
 21
-22.049992370605466
 31
0.0
  0
LINE
  5
4B8
100
AcDbEntity
  8
0
  6
CONTINUOUS
 62
               7
100
AcDbLine
 10
55.79999237060548
 20
-21.946402770605474
 30
0.0
 11
56.399992370605474
 21
-21.599992370605477
 31
0.0
  0
LINE
  5
4B9
100
AcDbEntity
  8
0
  6
CONTINUOUS
 62
               7
100
AcDbLine
 10
55.79999237060548
 20
-8.5535819706054781
 30
0.0
 11
56.399992370605474
 21
-8.8999923706055029
 31
0.0
  0
LINE
  5
4BA
100
AcDbEntity
  8
0
  6
CONTINUOUS
 62
               7
100
AcDbLine
 10
53.799997370605467
 20
-7.9499923706054858
 30
0.0
 11
53.999997370605456
 21
-7.7499923706054687
 31
0.0
  0
LINE
  5
4BB
100
AcDbEntity
  8
0
  6
CONTINUOUS
 62
               7
100
AcDbLine
 10
53.799997370605467
 20
-22.549992370605466
 30
0.0
 11
53.999997370605456
 21
-22.749992370605483
 31
0.0
  0
LINE
  5
4BC
100
AcDbEntity
  8
0
  6
CONTINUOUS
 62
               7
100
AcDbLine
 10
53.799997370605467
 20
-7.9499923706054858
 30
0.0
 11
53.799997370605467
 21
-22.549992370605466
 31
0.0
  0
LINE
  5
4BD
100
AcDbEntity
  8
0
  6
CONTINUOUS
 62
               7
100
AcDbLine
 10
55.336038370605479
 20
-7.7499923706054687
 30
0.0
 11
55.799991370605483
 21
-8.5535819706054781
 31
0.0
  0
LINE
  5
4BE
100
AcDbEntity
  8
0
  6
CONTINUOUS
 62
               7
100
AcDbLine
 10
55.799991370605483
 20
-21.946402770605474
 30
0.0
 11
55.336038370605479
 21
-22.749992370605483
 31
0.0
  0
LINE
  5
4BF
100
AcDbEntity
  8
0
  6
CONTINUOUS
 62
               7
100
AcDbLine
 10
56.399992370605474
 20
-8.8999919706054698
 30
0.0
 11
56.399992370605474
 21
-21.599992370605477
 31
0.0
  0
LINE
  5
4C0
100
AcDbEntity
  8
0
  6
CONTINUOUS
 62
               7
100
AcDbLine
 10
57.79999237060548
 20
-10.349992370605491
 30
0.0
 11
57.499991370605471
 21
-10.349992370605491
 31
0.0
  0
LINE
  5
4C1
100
AcDbEntity
  8
0
  6
CONTINUOUS
 62
               7
100
AcDbLine
 10
57.499991370605471
 20
-9.6499927706054791
 30
0.0
 11
57.499991370605471
 21
-20.849991970605473
 31
0.0
  0
LINE
  5
4C2
100
AcDbEntity
  8
0
  6
CONTINUOUS
 62
               7
100
AcDbLine
 10
57.79999237060548
 20
-20.149992370605503
 30
0.0
 11
57.499991370605471
 21
-20.149992370605503
 31
0.0
  0
LINE
  5
4C3
100
AcDbEntity
  8
0
  6
CONTINUOUS
 62
               7
100
AcDbLine
 10
57.399991370605449
 20
-9.5499927706054848
 30
0.0
 11
57.499991370605471
 21
-9.6499927706054791
 31
0.0
  0
LINE
  5
4C4
100
AcDbEntity
  8
0
  6
CONTINUOUS
 62
               7
100
AcDbLine
 10
57.399991370605449
 20
-9.5499923706054801
 30
0.0
 11
56.399992370605474
 21
-9.5499923706054801
 31
0.0
  0
LINE
  5
4C5
100
AcDbEntity
  8
0
  6
CONTINUOUS
 62
               7
100
AcDbLine
 10
57.399991370605449
 20
-20.949991970605467
 30
0.0
 11
57.499991370605471
 21
-20.849991970605473
 31
0.0
  0
LINE
  5
4C6
100
AcDbEntity
  8
0
  6
CONTINUOUS
 62
               7
100
AcDbLine
 10
57.399991370605449
 20
-20.949992370605472
 30
0.0
 11
56.399992370605474
 21
-20.949992370605472
 31
0.0
  0
LINE
  5
4C7
100
AcDbEntity
  8
0
  6
CONTINUOUS
 62
               7
100
AcDbLine
 10
59.199989370605465
 20
-8.3499923706054915
 30
0.0
 11
58.29999237060548
 21
-8.3499923706054915
 31
0.0
  0
LINE
  5
4C8
100
AcDbEntity
  8
0
  6
CONTINUOUS
 62
               7
100
AcDbLine
 10
58.29999237060548
 20
-8.3499923706054915
 30
0.0
 11
58.29999237060548
 21
-22.149992370605474
 31
0.0
  0
LINE
  5
4C9
100
AcDbEntity
  8
0
  6
CONTINUOUS
 62
               7
100
AcDbLine
 10
59.499992370605469
 20
-21.849990870605481
 30
0.0
 11
59.499992370605469
 21
-8.6499923706055029
 31
0.0
  0
LINE
  5
4CA
100
AcDbEntity
  8
0
  6
CONTINUOUS
 62
               7
100
AcDbLine
 10
59.199989370605465
 20
-22.149992370605474
 30
0.0
 11
58.29999237060548
 21
-22.149992370605474
 31
0.0
  0
ARC
  5
4CB
100
AcDbEntity
  8
0
  6
CONTINUOUS
 62
               7
100
AcDbCircle
 10
59.199989370605465
 20
-8.6499938706054991
 30
0.0
 40
0.3
100
AcDbArc
 50
0.0
 51
90.0
  0
ARC
  5
4CC
100
AcDbEntity
  8
0
  6
CONTINUOUS
 62
               7
100
AcDbCircle
 10
57.79999237060548
 20
-9.8499927706054677
 30
0.0
 40
0.5
100
AcDbArc
 50
270.0
 51
0.0000000000008142
  0
ARC
  5
4CD
100
AcDbEntity
  8
0
  6
CONTINUOUS
 62
               7
100
AcDbCircle
 10
57.79999237060548
 20
-20.64999197060547
 30
0.0
 40
0.5
100
AcDbArc
 50
0.0
 51
90.0
  0
ARC
  5
4CE
100
AcDbEntity
  8
0
  6
CONTINUOUS
 62
               7
100
AcDbCircle
 10
59.199989370605465
 20
-21.849990870605481
 30
0.0
 40
0.3
100
AcDbArc
 50
270.0
 51
0.0000000000008142
  0
LINE
  5
4CF
100
AcDbEntity
  8
0
  6
CONTINUOUS
 62
               7
100
AcDbLine
 10
45.699997370605473
 20
-22.749992370605483
 30
0.0
 11
37.599997370605479
 21
-22.749992370605455
 31
0.0
  0
LINE
  5
4D0
100
AcDbEntity
  8
0
  6
CONTINUOUS
 62
               7
100
AcDbLine
 10
37.599992370605463
 20
-23.198584066393508
 30
0.0
 11
37.599992370605463
 21
-7.4999923706054687
 31
0.0
  0
LINE
  5
4D1
100
AcDbEntity
  8
0
  6
CONTINUOUS
 62
               7
100
AcDbLine
 10
45.699997370605473
 20
-7.4999923706054687
 30
0.0
 11
45.699997370605473
 21
-22.749992370605483
 31
0.0
  0
ARC
  5
4D2
100
AcDbEntity
  8
0
  6
CONTINUOUS
 62
               7
100
AcDbCircle
 10
33.699981689453125
 20
10.249984741210937
 30
0.0
 40
1.5
100
AcDbArc
 50
270.00007262760209
 51
0.0000409811350201
  0
ARC
  5
4D3
100
AcDbEntity
  8
0
  6
CONTINUOUS
 62
               7
100
AcDbCircle
 10
33.699981689453125
 20
11.749984741210937
 30
0.0
 40
1.5
100
AcDbArc
 50
0.0000409811350201
 51
89.999982013910454
  0
LINE
  5
4D4
100
AcDbEntity
  8
0
  6
CONTINUOUS
 62
               7
100
AcDbLine
 10
33.699981689453125
 20
8.7499847412109375
 30
0.0
 11
33.499984741210938
 21
8.7499847412109375
 31
0.0
  0
LINE
  5
4D5
100
AcDbEntity
  8
0
  6
CONTINUOUS
 62
               7
100
AcDbLine
 10
35.199996948242187
 20
11.749984741210937
 30
0.0
 11
35.199996948242187
 21
10.249984741210937
 31
0.0
  0
LINE
  5
4D6
100
AcDbEntity
  8
0
  6
CONTINUOUS
 62
               7
100
AcDbLine
 10
33.699981689453125
 20
13.249984741210938
 30
0.0
 11
33.499984741210938
 21
13.249984741210938
 31
0.0
  0
LINE
  5
4D7
100
AcDbEntity
  8
0
  6
CONTINUOUS
 62
               7
100
AcDbLine
 10
32.800003051757813
 20
-23.250007629394531
 30
0.0
 11
32.800003051757813
 21
-24.750007629394531
 31
0.0
  0
LINE
  5
4D8
100
AcDbEntity
  8
0
  6
CONTINUOUS
 62
               7
100
AcDbLine
 10
30.5
 20
-26.500007629394531
 30
0.0
 11
31.100006103515625
 21
-26.500007629394531
 31
0.0
  0
LINE
  5
4D9
100
AcDbEntity
  8
0
  6
CONTINUOUS
 62
               7
100
AcDbLine
 10
30.5
 20
-21.500007629394531
 30
0.0
 11
31.100006103515625
 21
-21.500007629394531
 31
0.0
  0
LINE
  5
4DA
100
AcDbEntity
  8
0
  6
CONTINUOUS
 62
               7
100
AcDbLine
 10
30.500000567252755
 20
-24.750556693241379
 30
0.0
 11
31.100004881722271
 21
-24.404144034549972
 31
0.0
  0
LINE
  5
4DB
100
AcDbEntity
  8
0
  6
CONTINUOUS
 62
               7
100
AcDbLine
 10
30.499997555394657
 20
-23.595857904121658
 30
0.0
 11
31.100001869864172
 21
-23.249445245430252
 31
0.0
  0
LINE
  5
4DC
100
AcDbEntity
  8
0
  6
CONTINUOUS
 62
               7
100
AcDbLine
 10
31.100006103515625
 20
-26.500007629394531
 30
0.0
 11
31.100006103515625
 21
-21.500007629394531
 31
0.0
  0
LINE
  5
4DD
100
AcDbEntity
  8
0
  6
CONTINUOUS
 62
               7
100
AcDbLine
 10
31.300003051757813
 20
-21.750003814697266
 30
0.0
 11
31.100006103515625
 21
-21.750003814697266
 31
0.0
  0
LINE
  5
4DE
100
AcDbEntity
  8
0
  6
CONTINUOUS
 62
               7
100
AcDbLine
 10
31.300003051757813
 20
-26.250003814697266
 30
0.0
 11
31.100006103515625
 21
-26.250003814697266
 31
0.0
  0
LINE
  5
4DF
100
AcDbEntity
  8
0
  6
CONTINUOUS
 62
               7
100
AcDbLine
 10
33.499992370605469
 20
-30.299992370605466
 30
0.0
 11
30.499992370605469
 21
-30.299992370605466
 31
0.0
  0
LINE
  5
4E0
100
AcDbEntity
  8
0
  6
CONTINUOUS
 62
             200
100
AcDbLine
 10
-11.999862670898438
 20
-43.899908447265631
 30
0.0
 11
-11.999862670898438
 21
-55.899908447265631
 31
0.0
  0
LINE
  5
4E1
100
AcDbEntity
  8
0
  6
CONTINUOUS
 62
               7
100
AcDbLine
 10
2.9999925415036879
 20
-30.499969444672427
 30
0.0
 11
2.9999960144045179
 21
15.500000037749313
 31
0.0
  0
LINE
  5
4E2
100
AcDbEntity
  8
0
  6
CONTINUOUS
 62
               7
100
AcDbLine
 10
3.499998263549585
 20
-30.499969482421807
 30
0.0
 11
2.9999925415036879
 21
-30.499969444672427
 31
0.0
  0
LINE
  5
4E3
100
AcDbEntity
  8
0
  6
CONTINUOUS
 62
               7
100
AcDbLine
 10
3.500001736450415
 20
15.499999999999932
 30
0.0
 11
2.9999960144045179
 21
15.500000037749313
 31
0.0
  0
ENDBLK
  5
4E4
100
AcDbEntity
  8
0
100
AcDbBlockEnd
  0
BLOCK
  5
4E5
100
AcDbEntity
  8
0
100
AcDbBlockBegin
  2
F15T-12
 70
               0
 10
0.0
 20
0.0
 30
0.0
  3
F15T-12
  1

  0
LINE
  5
4E6
100
AcDbEntity
  8
0
  6
CONTINUOUS
 62
               7
100
AcDbLine
 10
2.999969482421875
 20
25.500015258789062
 30
0.0
 11
12.999969482421875
 21
25.500015258789062
 31
0.0
  0
LINE
  5
4E7
100
AcDbEntity
  8
0
  6
CONTINUOUS
 62
               7
100
AcDbLine
 10
15.499969482421875
 20
-48.999984741210937
 30
0.0
 11
15.499969482421875
 21
-30.499984741210937
 31
0.0
  0
LINE
  5
4E8
100
AcDbEntity
  8
0
  6
CONTINUOUS
 62
               7
100
AcDbLine
 10
0.499969482421875
 20
-48.999984741210937
 30
0.0
 11
0.499969482421875
 21
-30.499984741210937
 31
0.0
  0
LINE
  5
4E9
100
AcDbEntity
  8
0
  6
CONTINUOUS
 62
               7
100
AcDbLine
 10
2.4999936854419502
 20
26.000024751783712
 30
0.0
 11
0.4999797611390022
 21
24.000012850542589
 31
0.0
  0
LINE
  5
4EA
100
AcDbEntity
  8
0
  6
CONTINUOUS
 62
               7
100
AcDbLine
 10
13.499945978030382
 20
26.00001906196087
 30
0.0
 11
15.499958722213933
 21
24.000005980600349
 31
0.0
  0
LINE
  5
4EB
100
AcDbEntity
  8
0
  6
CONTINUOUS
 62
               7
100
AcDbLine
 10
0.4999542236328125
 20
-40.499984741210937
 30
0.0
 11
15.499969482421875
 21
-40.499984741210937
 31
0.0
  0
LINE
  5
4EC
100
AcDbEntity
  8
0
  6
CONTINUOUS
 62
               7
100
AcDbLine
 10
0.9999542236328125
 20
-49.499984741210938
 30
0.0
 11
14.999969482421875
 21
-49.499984741210938
 31
0.0
  0
LINE
  5
4ED
100
AcDbEntity
  8
0
  6
CONTINUOUS
 62
               7
100
AcDbLine
 10
0.499969482421875
 20
15.5
 30
0.0
 11
0.499969482421875
 21
24.000015258789063
 31
0.0
  0
LINE
  5
4EE
100
AcDbEntity
  8
0
  6
CONTINUOUS
 62
               7
100
AcDbLine
 10
15.499969482421875
 20
15.5
 30
0.0
 11
15.499969482421875
 21
24.000015258789063
 31
0.0
  0
LINE
  5
4EF
100
AcDbEntity
  8
0
  6
CONTINUOUS
 62
               7
100
AcDbLine
 10
6.249969482421875
 20
-47.499984741210938
 30
0.0
 11
6.249969482421875
 21
-46.999984741210937
 31
0.0
  0
LINE
  5
4F0
100
AcDbEntity
  8
0
  6
CONTINUOUS
 62
               7
100
AcDbLine
 10
0.7499847412109375
 20
-47.499984741210938
 30
0.0
 11
0.7499847412109375
 21
-46.999984741210937
 31
0.0
  0
LINE
  5
4F1
100
AcDbEntity
  8
0
  6
CONTINUOUS
 62
               7
100
AcDbLine
 10
4.749969482421875
 20
-48.999984741210937
 30
0.0
 11
2.249969482421875
 21
-48.999984741210937
 31
0.0
  0
LINE
  5
4F2
100
AcDbEntity
  8
0
  6
CONTINUOUS
 62
               7
100
AcDbLine
 10
6.6999664306640625
 20
-49.199981689453125
 30
0.0
 11
6.6999664306640625
 21
-47.29998779296875
 31
0.0
  0
LINE
  5
4F3
100
AcDbEntity
  8
0
  6
CONTINUOUS
 62
               7
100
AcDbLine
 10
6.39996337890625
 20
-46.999984741210937
 30
0.0
 11
0.499969482421875
 21
-46.999984741210937
 31
0.0
  0
LINE
  5
4F4
100
AcDbEntity
  8
0
  6
CONTINUOUS
 62
               7
100
AcDbLine
 10
2.999969482421875
 20
36.900009155273437
 30
0.0
 11
12.999969482421875
 21
36.900009155273437
 31
0.0
  0
LINE
  5
4F5
100
AcDbEntity
  8
0
  6
CONTINUOUS
 62
               7
100
AcDbLine
 10
2.999969482421875
 20
27.500015258789062
 30
0.0
 11
12.999969482421875
 21
27.500015258789062
 31
0.0
  0
LINE
  5
4F6
100
AcDbEntity
  8
0
  6
CONTINUOUS
 62
               4
100
AcDbLine
 10
2.9999847412109375
 20
61.000030517578125
 30
0.0
 11
12.999984741210938
 21
61.000030517578125
 31
0.0
  0
LINE
  5
4F7
100
AcDbEntity
  8
0
  6
CONTINUOUS
 62
               7
100
AcDbLine
 10
2.999969482421875
 20
37.000015258789063
 30
0.0
 11
12.999969482421875
 21
37.000015258789063
 31
0.0
  0
LINE
  5
4F8
100
AcDbEntity
  8
0
  6
CONTINUOUS
 62
               4
100
AcDbLine
 10
3.0499725341796875
 20
61.000015258789063
 30
0.0
 11
3.0499725341796875
 21
81.000015258789063
 31
0.0
  0
LINE
  5
4F9
100
AcDbEntity
  8
0
  6
CONTINUOUS
 62
               4
100
AcDbLine
 10
12.949966430664063
 20
61.000015258789063
 30
0.0
 11
12.949966430664063
 21
81.000015258789063
 31
0.0
  0
LINE
  5
4FA
100
AcDbEntity
  8
0
  6
CONTINUOUS
 62
               4
100
AcDbLine
 10
9.2849578857421875
 20
81.000015258789063
 30
0.0
 11
9.2849578857421875
 21
84.826690673828125
 31
0.0
  0
LINE
  5
4FB
100
AcDbEntity
  8
0
  6
CONTINUOUS
 62
               4
100
AcDbLine
 10
10.714981079101563
 20
81.000015258789063
 30
0.0
 11
10.714981079101563
 21
85.209869384765625
 31
0.0
  0
LINE
  5
4FC
100
AcDbEntity
  8
0
  6
CONTINUOUS
 62
               4
100
AcDbLine
 10
9.5999603271484375
 20
89.000015258789063
 30
0.0
 11
9.5999603271484375
 21
94.000015258789063
 31
0.0
  0
LINE
  5
4FD
100
AcDbEntity
  8
0
  6
CONTINUOUS
 62
               4
100
AcDbLine
 10
10.399978637695312
 20
89.000015258789063
 30
0.0
 11
10.399978637695312
 21
94.000015258789063
 31
0.0
  0
LINE
  5
4FE
100
AcDbEntity
  8
0
  6
CONTINUOUS
 62
               4
100
AcDbLine
 10
9.5999603271484375
 20
94.000015258789063
 30
0.0
 11
10.39996337890625
 21
94.000015258789063
 31
0.0
  0
LINE
  5
4FF
100
AcDbEntity
  8
0
  6
CONTINUOUS
 62
               4
100
AcDbLine
 10
9.2849578857421875
 20
89.000015258789063
 30
0.0
 11
10.7149658203125
 21
89.000015258789063
 31
0.0
  0
LINE
  5
500
100
AcDbEntity
  8
0
  6
CONTINUOUS
 62
               4
100
AcDbLine
 10
9.2849578857421875
 20
85.861968994140625
 30
0.0
 11
9.2849578857421875
 21
89.000015258789063
 31
0.0
  0
LINE
  5
501
100
AcDbEntity
  8
0
  6
CONTINUOUS
 62
               4
100
AcDbLine
 10
10.714981079101563
 20
86.245147705078125
 30
0.0
 11
10.714981079101563
 21
89.000015258789063
 31
0.0
  0
LINE
  5
502
100
AcDbEntity
  8
0
  6
CONTINUOUS
 62
               4
100
AcDbLine
 10
3.0499725341796875
 20
81.000015258789063
 30
0.0
 11
12.949966430664063
 21
81.000015258789063
 31
0.0
  0
LINE
  5
503
100
AcDbEntity
  8
0
  6
CONTINUOUS
 62
               7
100
AcDbLine
 10
12.999969482421875
 20
25.500015258789062
 30
0.0
 11
12.999969482421875
 21
37.000015258789063
 31
0.0
  0
LINE
  5
504
100
AcDbEntity
  8
0
  6
CONTINUOUS
 62
               7
100
AcDbLine
 10
2.999969482421875
 20
25.500015258789062
 30
0.0
 11
2.999969482421875
 21
37.000015258789063
 31
0.0
  0
LINE
  5
505
100
AcDbEntity
  8
0
  6
CONTINUOUS
 62
               2
100
AcDbLine
 10
7.999969482421875
 20
-52.8028564453125
 30
0.0
 11
7.999969482421875
 21
82.755081176757813
 31
0.0
  0
LINE
  5
506
100
AcDbEntity
  8
0
  6
CONTINUOUS
 62
               4
100
AcDbLine
 10
7.3999786376953125
 20
71.500015258789063
 30
0.0
 11
8.5999603271484375
 21
71.500015258789063
 31
0.0
  0
LINE
  5
507
100
AcDbEntity
  8
0
  6
CONTINUOUS
 62
               4
100
AcDbLine
 10
8.5999603271484375
 20
74.500015258789063
 30
0.0
 11
8.5999603271484375
 21
71.500015258789063
 31
0.0
  0
LINE
  5
508
100
AcDbEntity
  8
0
  6
CONTINUOUS
 62
               4
100
AcDbLine
 10
7.3999786376953125
 20
74.500015258789063
 30
0.0
 11
7.3999786376953125
 21
71.500015258789063
 31
0.0
  0
LINE
  5
509
100
AcDbEntity
  8
0
  6
CONTINUOUS
 62
               4
100
AcDbLine
 10
9.1000303119180899
 20
74.49998099037839
 30
0.0
 11
8.6000280952475805
 21
73.999982145459398
 31
0.0
  0
LINE
  5
50A
100
AcDbEntity
  8
0
  6
CONTINUOUS
 62
               4
100
AcDbLine
 10
6.8999606434481393
 20
74.499985836451742
 30
0.0
 11
7.399950595379778
 21
73.999996305979948
 31
0.0
  0
LINE
  5
50B
100
AcDbEntity
  8
0
  6
CONTINUOUS
 62
               4
100
AcDbLine
 10
3.0499725341796875
 20
80.000015258789063
 30
0.0
 11
12.949966430664063
 21
80.000015258789063
 31
0.0
  0
LINE
  5
50C
100
AcDbEntity
  8
0
  6
CONTINUOUS
 62
               4
100
AcDbLine
 10
3.0499725341796875
 20
74.500015258789063
 30
0.0
 11
7.3999786376953125
 21
74.500015258789063
 31
0.0
  0
LINE
  5
50D
100
AcDbEntity
  8
0
  6
CONTINUOUS
 62
               4
100
AcDbLine
 10
8.5999603271484375
 20
74.500015258789063
 30
0.0
 11
12.949966430664063
 21
74.500015258789063
 31
0.0
  0
LINE
  5
50E
100
AcDbEntity
  8
0
  6
CONTINUOUS
 62
               7
100
AcDbLine
 10
-0.000030517578125
 20
15.5
 30
0.0
 11
15.999969482421875
 21
15.5
 31
0.0
  0
LINE
  5
50F
100
AcDbEntity
  8
0
  6
CONTINUOUS
 62
               7
100
AcDbLine
 10
-0.000030517578125
 20
-30.499984741210937
 30
0.0
 11
15.999969482421875
 21
-30.499984741210937
 31
0.0
  0
LINE
  5
510
100
AcDbEntity
  8
0
  6
CONTINUOUS
 62
               2
100
AcDbLine
 10
13.019882202148438
 20
-21.999977111816406
 30
0.0
 11
1.1850738525390625
 21
-21.999977111816406
 31
0.0
  0
LINE
  5
511
100
AcDbEntity
  8
0
  6
CONTINUOUS
 62
               2
100
AcDbLine
 10
8.999969482421875
 20
12.558258056640625
 30
0.0
 11
8.999969482421875
 21
1.05950927734375
 31
0.0
  0
LINE
  5
512
100
AcDbEntity
  8
0
  6
CONTINUOUS
 62
               2
100
AcDbLine
 10
6.999969482421875
 20
-27.558246612548828
 30
0.0
 11
6.999969482421875
 21
-16.059477806091309
 31
0.0
  0
LINE
  5
513
100
AcDbEntity
  8
0
  6
CONTINUOUS
 62
               7
100
AcDbLine
 10
-0.000030517578125
 20
15.5
 30
0.0
 11
-0.000030517578125
 21
-30.499984741210937
 31
0.0
  0
LINE
  5
514
100
AcDbEntity
  8
0
  6
CONTINUOUS
 62
               7
100
AcDbLine
 10
15.999969482421875
 20
15.5
 30
0.0
 11
15.999969482421875
 21
-30.499984741210937
 31
0.0
  0
LINE
  5
515
100
AcDbEntity
  8
0
  6
DASHED
 62
               4
100
AcDbLine
 10
-2.70001220703125
 20
-1.2499847412109375
 30
0.0
 11
-2.70001220703125
 21
1.2500152587890625
 31
0.0
  0
LINE
  5
516
100
AcDbEntity
  8
0
  6
DASHED
 62
               4
100
AcDbLine
 10
-1.20001220703125
 20
-2.7499847412109375
 30
0.0
 11
-0.70001220703125
 21
-2.7499847412109375
 31
0.0
  0
LINE
  5
517
100
AcDbEntity
  8
0
  6
DASHED
 62
               4
100
AcDbLine
 10
-1.20001220703125
 20
2.75
 30
0.0
 11
-0.70001220703125
 21
2.75
 31
0.0
  0
LINE
  5
518
100
AcDbEntity
  8
0
  6
CONTINUOUS
 62
               2
100
AcDbLine
 10
2.9800567626953125
 20
7.0
 30
0.0
 11
14.81488037109375
 21
7.0
 31
0.0
  0
LINE
  5
519
100
AcDbEntity
  8
0
  6
CONTINUOUS
 62
               2
100
AcDbLine
 10
-1.03717041015625
 20
-7.4999847412109375
 30
0.0
 11
16.957077026367188
 21
-7.4999847412109375
 31
0.0
  0
LINE
  5
51A
100
AcDbEntity
  8
0
  6
DASHED
 62
               4
100
AcDbLine
 10
17.5999755859375
 20
10.0
 30
0.0
 11
17.5999755859375
 21
-49.899978637695313
 31
0.0
  0
LINE
  5
51B
100
AcDbEntity
  8
0
  6
DASHED
 62
               4
100
AcDbLine
 10
-0.000030517578125
 20
-49.899978637695313
 30
0.0
 11
-0.000030517578125
 21
-51.499984741210938
 31
0.0
  0
LINE
  5
51C
100
AcDbEntity
  8
0
  6
DASHED
 62
               4
100
AcDbLine
 10
15.999969482421875
 20
-30.499984741210937
 30
0.0
 11
15.999969482421875
 21
-51.499984741210938
 31
0.0
  0
LINE
  5
51D
100
AcDbEntity
  8
0
  6
DASHED
 62
               4
100
AcDbLine
 10
15.999969482421875
 20
-49.899978637695313
 30
0.0
 11
-0.000030517578125
 21
-49.899978637695313
 31
0.0
  0
LINE
  5
51E
100
AcDbEntity
  8
0
  6
DASHED
 62
               4
100
AcDbLine
 10
15.999969482421875
 20
-51.499984741210938
 30
0.0
 11
-0.000030517578125
 21
-51.499984741210938
 31
0.0
  0
LINE
  5
51F
100
AcDbEntity
  8
0
  6
DASHED
 62
               4
100
AcDbLine
 10
17.5999755859375
 20
10.0
 30
0.0
 11
15.999969482421875
 21
10.0
 31
0.0
  0
LINE
  5
520
100
AcDbEntity
  8
0
  6
DASHED
 62
               4
100
AcDbLine
 10
-2.70001220703125
 20
-16.249980926513672
 30
0.0
 11
-2.70001220703125
 21
-13.749988555908203
 31
0.0
  0
LINE
  5
521
100
AcDbEntity
  8
0
  6
DASHED
 62
               4
100
AcDbLine
 10
-1.20001220703125
 20
-12.249996185302734
 30
0.0
 11
-0.70001220703125
 21
-12.249996185302734
 31
0.0
  0
LINE
  5
522
100
AcDbEntity
  8
0
  6
DASHED
 62
               4
100
AcDbLine
 10
-1.20001220703125
 20
-17.749988555908203
 30
0.0
 11
-0.70001220703125
 21
-17.749988555908203
 31
0.0
  0
LINE
  5
523
100
AcDbEntity
  8
0
  6
CENTER
 62
               2
100
AcDbLine
 10
9.499969482421875
 20
19.0
 30
0.0
 11
6.499969482421875
 21
19.0
 31
0.0
  0
ARC
  5
524
100
AcDbEntity
  8
0
  6
CONTINUOUS
 62
               7
100
AcDbCircle
 10
0.999969482421875
 20
-48.999984741210937
 30
0.0
 40
0.5
100
AcDbArc
 50
179.99996402782091
 51
269.99994604173139
  0
ARC
  5
525
100
AcDbEntity
  8
0
  6
CONTINUOUS
 62
               7
100
AcDbCircle
 10
14.999969482421875
 20
-48.999984741210937
 30
0.0
 40
0.5
100
AcDbArc
 50
270.00001798608872
 51
0.00001366037834
  0
ARC
  5
526
100
AcDbEntity
  8
0
  6
CONTINUOUS
 62
               7
100
AcDbCircle
 10
4.749969482421875
 20
-47.499984741210938
 30
0.0
 40
1.5
100
AcDbArc
 50
270.00001798608872
 51
359.99995901886416
  0
ARC
  5
527
100
AcDbEntity
  8
0
  6
CONTINUOUS
 62
               7
100
AcDbCircle
 10
2.249969482421875
 20
-47.499984741210938
 30
0.0
 40
1.5
100
AcDbArc
 50
179.99990938630756
 51
269.99994604173139
  0
ARC
  5
528
100
AcDbEntity
  8
0
  6
CONTINUOUS
 62
               7
100
AcDbCircle
 10
6.999969482421875
 20
-49.199981689453125
 30
0.0
 40
0.300000011920929
100
AcDbArc
 50
179.99998133066492
 51
270.00001798608872
  0
ARC
  5
529
100
AcDbEntity
  8
0
  6
CONTINUOUS
 62
               7
100
AcDbCircle
 10
6.39996337890625
 20
-47.29998779296875
 30
0.0
 40
0.300000011920929
100
AcDbArc
 50
0.0
 51
89.999982013910454
  0
CIRCLE
  5
52A
100
AcDbEntity
  8
0
  6
CONTINUOUS
 62
               2
100
AcDbCircle
 10
8.999969482421875
 20
7.0
 30
0.0
 40
5.0
  0
CIRCLE
  5
52B
100
AcDbEntity
  8
0
  6
CONTINUOUS
 62
               7
100
AcDbCircle
 10
8.999969482421875
 20
7.0
 30
0.0
 40
4.25
  0
CIRCLE
  5
52C
100
AcDbEntity
  8
0
  6
CONTINUOUS
 62
               2
100
AcDbCircle
 10
6.999969482421875
 20
-21.999984741210937
 30
0.0
 40
5.0
  0
CIRCLE
  5
52D
100
AcDbEntity
  8
0
  6
CONTINUOUS
 62
               7
100
AcDbCircle
 10
6.999969482421875
 20
-21.999984741210937
 30
0.0
 40
4.25
  0
CIRCLE
  5
52E
100
AcDbEntity
  8
0
  6
CONTINUOUS
 62
               2
100
AcDbCircle
 10
7.999969482421875
 20
-7.4999847412109375
 30
0.0
 40
5.0
  0
CIRCLE
  5
52F
100
AcDbEntity
  8
0
  6
CONTINUOUS
 62
               7
100
AcDbCircle
 10
7.999969482421875
 20
-7.4999847412109375
 30
0.0
 40
4.25
  0
ARC
  5
530
100
AcDbEntity
  8
0
  6
DASHED
 62
               4
100
AcDbCircle
 10
-1.20001220703125
 20
1.2500152587890625
 30
0.0
 40
1.5
100
AcDbArc
 50
89.999927372397096
 51
179.99990938630756
  0
ARC
  5
531
100
AcDbEntity
  8
0
  6
DASHED
 62
               4
100
AcDbCircle
 10
-1.20001220703125
 20
-1.2499847412109375
 30
0.0
 40
1.5
100
AcDbArc
 50
179.99998133066492
 51
269.99996334457541
  0
ARC
  5
532
100
AcDbEntity
  8
0
  6
DASHED
 62
               4
100
AcDbCircle
 10
15.999969482421875
 20
-49.899978637695313
 30
0.0
 40
1.5999994277954102
100
AcDbArc
 50
270.00001798608872
 51
0.0
  0
ARC
  5
533
100
AcDbEntity
  8
0
  6
DASHED
 62
               4
100
AcDbCircle
 10
-1.20001220703125
 20
-13.749988555908203
 30
0.0
 40
1.5
100
AcDbArc
 50
89.999927372397096
 51
179.99990938630756
  0
ARC
  5
534
100
AcDbEntity
  8
0
  6
DASHED
 62
               4
100
AcDbCircle
 10
-1.20001220703125
 20
-16.249980926513672
 30
0.0
 40
1.5
100
AcDbArc
 50
179.99998133066492
 51
269.99996334457541
  0
CIRCLE
  5
535
100
AcDbEntity
  8
0
  6
CONTINUOUS
 62
               7
100
AcDbCircle
 10
7.999969482421875
 20
19.0
 30
0.0
 40
0.6000000238418579
  0
LINE
  5
536
100
AcDbEntity
  8
0
  6
CONTINUOUS
 62
               7
100
AcDbLine
 10
2.4999847412109375
 20
26.000015258789063
 30
0.0
 11
2.999969482421875
 21
26.000015258789063
 31
0.0
  0
LINE
  5
537
100
AcDbEntity
  8
0
  6
CONTINUOUS
 62
               7
100
AcDbLine
 10
12.999969482421875
 20
26.000015258789063
 30
0.0
 11
13.499954223632812
 21
26.000015258789063
 31
0.0
  0
LINE
  5
538
100
AcDbEntity
  8
0
  6
DASHED
 62
               4
100
AcDbLine
 10
-0.70001220703125
 20
2.9500122070312784
 30
0.0
 11
-0.70001220703125
 21
-2.9499969482421591
 31
0.0
  0
LINE
  5
539
100
AcDbEntity
  8
0
  6
DASHED
 62
               4
100
AcDbLine
 10
-0.0000072713737609
 20
-0.3499977808678523
 30
0.0
 11
-0.7000146039754327
 21
-0.5375641819064185
 31
0.0
  0
LINE
  5
53A
100
AcDbEntity
  8
0
  6
DASHED
 62
               4
100
AcDbLine
 10
-0.7000121423652672
 20
0.3500010139041478
 30
0.0
 11
-0.0000195054271899
 21
0.53756342248289
 31
0.0
  0
LINE
  5
53B
100
AcDbEntity
  8
0
  6
DASHED
 62
               4
100
AcDbLine
 10
-0.70001220703125
 20
2.9500122070312784
 30
0.0
 11
-0.0000152587890625
 21
2.9500122070312784
 31
0.0
  0
LINE
  5
53C
100
AcDbEntity
  8
0
  6
DASHED
 62
               4
100
AcDbLine
 10
-0.70001220703125
 20
-2.9499969482421591
 30
0.0
 11
-0.0000152587890625
 21
-2.9499969482421591
 31
0.0
  0
LINE
  5
53D
100
AcDbEntity
  8
0
  6
DASHED
 62
               4
100
AcDbLine
 10
-0.70001220703125
 20
-12.049992561340304
 30
0.0
 11
-0.70001220703125
 21
-17.949992179870577
 31
0.0
  0
LINE
  5
53E
100
AcDbEntity
  8
0
  6
DASHED
 62
               4
100
AcDbLine
 10
-0.0000139022340591
 20
-15.350003719389861
 30
0.0
 11
-0.7000064959775045
 21
-15.537566171163235
 31
0.0
  0
LINE
  5
53F
100
AcDbEntity
  8
0
  6
DASHED
 62
               4
100
AcDbLine
 10
-0.7000198682335395
 20
-14.650005556820361
 30
0.0
 11
-0.0000124924363263
 21
-14.462439198977336
 31
0.0
  0
LINE
  5
540
100
AcDbEntity
  8
0
  6
DASHED
 62
               4
100
AcDbLine
 10
-0.70001220703125
 20
-12.049992561340304
 30
0.0
 11
-0.0000152587890625
 21
-12.049992561340304
 31
0.0
  0
LINE
  5
541
100
AcDbEntity
  8
0
  6
DASHED
 62
               4
100
AcDbLine
 10
-0.70001220703125
 20
-17.949992179870577
 30
0.0
 11
-0.0000152587890625
 21
-17.949992179870577
 31
0.0
  0
LINE
  5
542
100
AcDbEntity
  8
0
  6
DASHED
 62
               4
100
AcDbLine
 10
19.199966430664063
 20
-1.9999847412109375
 30
0.0
 11
19.199966430664063
 21
2.0000152587890625
 31
0.0
  0
LINE
  5
543
100
AcDbEntity
  8
0
  6
DASHED
 62
               4
100
AcDbLine
 10
18.0999755859375
 20
-1.9999847412109375
 30
0.0
 11
19.199966430664063
 21
-1.9999847412109375
 31
0.0
  0
LINE
  5
544
100
AcDbEntity
  8
0
  6
DASHED
 62
               4
100
AcDbLine
 10
18.0999755859375
 20
2.0000152587890625
 30
0.0
 11
19.199966430664063
 21
2.0000152587890625
 31
0.0
  0
ARC
  5
545
100
AcDbEntity
  8
0
  6
DASHED
 62
               4
100
AcDbCircle
 10
18.0999755859375
 20
2.5000152587890625
 30
0.0
 40
0.5
100
AcDbArc
 50
179.99998133066492
 51
270.00001798608872
  0
ARC
  5
546
100
AcDbEntity
  8
0
  6
DASHED
 62
               4
100
AcDbCircle
 10
18.0999755859375
 20
-2.4999847412109375
 30
0.0
 40
0.5
100
AcDbArc
 50
89.999982013910454
 51
179.99996402782091
  0
LINE
  5
547
100
AcDbEntity
  8
0
  6
DASHED
 62
               4
100
AcDbLine
 10
19.199966430664063
 20
-16.999992370605469
 30
0.0
 11
19.199966430664063
 21
-12.999992370605469
 31
0.0
  0
LINE
  5
548
100
AcDbEntity
  8
0
  6
DASHED
 62
               4
100
AcDbLine
 10
18.0999755859375
 20
-16.999992370605469
 30
0.0
 11
19.199966430664063
 21
-16.999992370605469
 31
0.0
  0
LINE
  5
549
100
AcDbEntity
  8
0
  6
DASHED
 62
               4
100
AcDbLine
 10
18.0999755859375
 20
-12.999992370605469
 30
0.0
 11
19.199966430664063
 21
-12.999992370605469
 31
0.0
  0
ARC
  5
54A
100
AcDbEntity
  8
0
  6
DASHED
 62
               4
100
AcDbCircle
 10
18.0999755859375
 20
-12.499992370605469
 30
0.0
 40
0.5
100
AcDbArc
 50
179.99998133066492
 51
270.00001798608872
  0
ARC
  5
54B
100
AcDbEntity
  8
0
  6
DASHED
 62
               4
100
AcDbCircle
 10
18.0999755859375
 20
-17.499992370605469
 30
0.0
 40
0.5
100
AcDbArc
 50
89.999982013910454
 51
179.99996402782091
  0
LINE
  5
54C
100
AcDbEntity
  8
0
  6
CONTINUOUS
 62
             200
100
AcDbLine
 10
7.9717142231886413
 20
84.474809685492261
 30
0.0
 11
12.04994407986942
 21
85.567568091297289
 31
0.0
  0
LINE
  5
54D
100
AcDbEntity
  8
0
  6
CONTINUOUS
 62
             200
100
AcDbLine
 10
7.9046882542506012
 20
85.492126298123537
 30
0.0
 11
12.049939386687583
 21
86.602843000793655
 31
0.0
  0
LINE
  5
54E
100
AcDbEntity
  8
0
  6
CONTINUOUS
 62
               4
100
AcDbLine
 10
12.949966430664063
 20
70.000015258789063
 30
0.0
 11
3.0499725341796875
 21
70.000015258789063
 31
0.0
  0
LINE
  5
54F
100
AcDbEntity
  8
0
  6
CONTINUOUS
 62
               4
100
AcDbLine
 10
9.1699694824218767
 20
55.700030517578142
 30
0.0
 11
10.829969482421873
 21
55.700030517578142
 31
0.0
  0
LINE
  5
550
100
AcDbEntity
  8
0
  6
CONTINUOUS
 62
               4
100
AcDbLine
 10
5.1699694824218767
 20
55.700030517578142
 30
0.0
 11
6.8299694824218733
 21
55.700030517578142
 31
0.0
  0
LINE
  5
551
100
AcDbEntity
  8
0
  6
CONTINUOUS
 62
               4
100
AcDbLine
 10
10.829969482421873
 20
55.700030517578142
 30
0.0
 11
10.829969482421873
 21
61.000030517578125
 31
0.0
  0
LINE
  5
552
100
AcDbEntity
  8
0
  6
CONTINUOUS
 62
               4
100
AcDbLine
 10
9.1699694824218767
 20
55.700030517578142
 30
0.0
 11
9.1699694824218767
 21
61.000030517578125
 31
0.0
  0
LINE
  5
553
100
AcDbEntity
  8
0
  6
CONTINUOUS
 62
               4
100
AcDbLine
 10
6.8299694824218733
 20
55.700030517578142
 30
0.0
 11
6.8299694824218733
 21
61.000030517578125
 31
0.0
  0
LINE
  5
554
100
AcDbEntity
  8
0
  6
CONTINUOUS
 62
               4
100
AcDbLine
 10
5.1699694824218767
 20
55.700030517578142
 30
0.0
 11
5.1699694824218767
 21
61.000030517578125
 31
0.0
  0
LINE
  5
555
100
AcDbEntity
  8
0
  6
CONTINUOUS
 62
               4
100
AcDbLine
 10
10.599969482421869
 20
55.700030517578142
 30
0.0
 11
10.599969482421869
 21
61.000030517578125
 31
0.0
  0
LINE
  5
556
100
AcDbEntity
  8
0
  6
CONTINUOUS
 62
               4
100
AcDbLine
 10
9.3999694824218807
 20
55.700030517578142
 30
0.0
 11
9.3999694824218807
 21
61.000030517578125
 31
0.0
  0
LINE
  5
557
100
AcDbEntity
  8
0
  6
CONTINUOUS
 62
               4
100
AcDbLine
 10
6.5999694824218693
 20
55.700030517578142
 30
0.0
 11
6.5999694824218693
 21
61.000030517578125
 31
0.0
  0
LINE
  5
558
100
AcDbEntity
  8
0
  6
CONTINUOUS
 62
               4
100
AcDbLine
 10
5.3999694824218807
 20
55.700030517578142
 30
0.0
 11
5.3999694824218807
 21
61.000030517578125
 31
0.0
  0
LINE
  5
559
100
AcDbEntity
  8
0
  6
CONTINUOUS
 62
               4
100
AcDbLine
 10
12.299969482421872
 20
54.0
 30
0.0
 11
12.999969482421875
 21
54.0
 31
0.0
  0
LINE
  5
55A
100
AcDbEntity
  8
0
  6
CONTINUOUS
 62
               4
100
AcDbLine
 10
3.6165210589663275
 20
54.0
 30
0.0
 11
3.6165210589663275
 21
61.000030517578125
 31
0.0
  0
LINE
  5
55B
100
AcDbEntity
  8
0
  6
CONTINUOUS
 62
               4
100
AcDbLine
 10
12.299969482421872
 20
54.0
 30
0.0
 11
12.299969482421872
 21
61.000030517578125
 31
0.0
  0
LINE
  5
55C
100
AcDbEntity
  8
0
  6
CONTINUOUS
 62
               4
100
AcDbLine
 10
2.999969482421875
 20
54.0
 30
0.0
 11
3.6165210604667664
 21
54.0
 31
0.0
  0
LINE
  5
55D
100
AcDbEntity
  8
0
  6
CONTINUOUS
 62
               4
100
AcDbLine
 10
12.999969482421875
 20
37.000015258789063
 30
0.0
 11
12.999969482421875
 21
61.000015258789063
 31
0.0
  0
LINE
  5
55E
100
AcDbEntity
  8
0
  6
CONTINUOUS
 62
               4
100
AcDbLine
 10
2.999969482421875
 20
37.000015258789063
 30
0.0
 11
2.999969482421875
 21
61.000015258789063
 31
0.0
  0
ENDBLK
  5
55F
100
AcDbEntity
  8
0
100
AcDbBlockEnd
  0
BLOCK
  5
560
100
AcDbEntity
  8
0
100
AcDbBlockBegin
  2
F15T-13
 70
               0
 10
0.0
 20
0.0
 30
0.0
  3
F15T-13
  1

  0
LINE
  5
561
100
AcDbEntity
  8
0
  6
CONTINUOUS
 62
               7
100
AcDbLine
 10
-13.0
 20
36.900009155273437
 30
0.0
 11
-3.0
 21
36.900009155273437
 31
0.0
  0
LINE
  5
562
100
AcDbEntity
  8
0
  6
CONTINUOUS
 62
               7
100
AcDbLine
 10
-13.0
 20
27.500015258789062
 30
0.0
 11
-3.0
 21
27.500015258789062
 31
0.0
  0
LINE
  5
563
100
AcDbEntity
  8
0
  6
CENTER
 62
               2
100
AcDbLine
 10
-10.5
 20
33.70001220703125
 30
0.0
 11
-5.5
 21
33.70001220703125
 31
0.0
  0
LINE
  5
564
100
AcDbEntity
  8
0
  6
CONTINUOUS
 62
               2
100
AcDbLine
 10
-8.0
 20
-52.166641235351563
 30
0.0
 11
-8.0
 21
82.755096435546875
 31
0.0
  0
LINE
  5
565
100
AcDbEntity
  8
0
  6
CONTINUOUS
 62
               4
100
AcDbLine
 10
-13.0
 20
61.000015258789063
 30
0.0
 11
-3.0
 21
61.000015258789063
 31
0.0
  0
LINE
  5
566
100
AcDbEntity
  8
0
  6
CONTINUOUS
 62
               7
100
AcDbLine
 10
-13.0
 20
37.000015258789063
 30
0.0
 11
-3.0
 21
37.000015258789063
 31
0.0
  0
LINE
  5
567
100
AcDbEntity
  8
0
  6
CONTINUOUS
 62
               7
100
AcDbLine
 10
-9.926788330078125
 20
33.400009155273438
 30
0.0
 11
-6.073211669921875
 21
33.400009155273438
 31
0.0
  0
LINE
  5
568
100
AcDbEntity
  8
0
  6
CONTINUOUS
 62
               7
100
AcDbLine
 10
-9.926788330078125
 20
34.000015258789063
 30
0.0
 11
-6.073211669921875
 21
34.000015258789063
 31
0.0
  0
LINE
  5
569
100
AcDbEntity
  8
0
  6
CONTINUOUS
 62
               4
100
AcDbLine
 10
-12.95001220703125
 20
61.000030517578125
 30
0.0
 11
-12.95001220703125
 21
74.500030517578125
 31
0.0
  0
LINE
  5
56A
100
AcDbEntity
  8
0
  6
CONTINUOUS
 62
               4
100
AcDbLine
 10
-3.5
 20
70.000015258789063
 30
0.0
 11
-12.5
 21
70.000015258789063
 31
0.0
  0
LINE
  5
56B
100
AcDbEntity
  8
0
  6
CONTINUOUS
 62
               4
100
AcDbLine
 10
-3.0500030517578125
 20
65.500015258789063
 30
0.0
 11
-12.95001220703125
 21
65.500015258789063
 31
0.0
  0
LINE
  5
56C
100
AcDbEntity
  8
0
  6
CONTINUOUS
 62
               4
100
AcDbLine
 10
-3.0500030517578125
 20
61.000015258789063
 30
0.0
 11
-3.0500030517578125
 21
74.500030517578125
 31
0.0
  0
LINE
  5
56D
100
AcDbEntity
  8
0
  6
CONTINUOUS
 62
               4
100
AcDbLine
 10
-12.949996948242187
 20
74.500015258789063
 30
0.0
 11
-11.5
 21
74.500015258789063
 31
0.0
  0
LINE
  5
56E
100
AcDbEntity
  8
0
  6
CONTINUOUS
 62
               4
100
AcDbLine
 10
-12.050003051757813
 20
70.000030517578125
 30
0.0
 11
-12.050003051757813
 21
72.500030517578125
 31
0.0
  0
LINE
  5
56F
100
AcDbEntity
  8
0
  6
CONTINUOUS
 62
               4
100
AcDbLine
 10
-3.9499969482421875
 20
70.000015258789063
 30
0.0
 11
-3.9499969482421875
 21
72.500030517578125
 31
0.0
  0
LINE
  5
570
100
AcDbEntity
  8
0
  6
CONTINUOUS
 62
               4
100
AcDbLine
 10
-4.5
 20
70.49847412109375
 30
0.0
 11
-4.5
 21
81.000015258789063
 31
0.0
  0
LINE
  5
571
100
AcDbEntity
  8
0
  6
CONTINUOUS
 62
               4
100
AcDbLine
 10
-11.5
 20
70.49847412109375
 30
0.0
 11
-11.5
 21
81.000015258789063
 31
0.0
  0
LINE
  5
572
100
AcDbEntity
  8
0
  6
CONTINUOUS
 62
               4
100
AcDbLine
 10
-11.5
 20
70.49847412109375
 30
0.0
 11
-4.5
 21
70.49847412109375
 31
0.0
  0
LINE
  5
573
100
AcDbEntity
  8
0
  6
CONTINUOUS
 62
               4
100
AcDbLine
 10
-11.5
 20
74.056167602539062
 30
0.0
 11
-4.5
 21
74.056167602539062
 31
0.0
  0
LINE
  5
574
100
AcDbEntity
  8
0
  6
CONTINUOUS
 62
               4
100
AcDbLine
 10
-11.5
 20
79.500015258789063
 30
0.0
 11
-4.5
 21
79.500015258789063
 31
0.0
  0
LINE
  5
575
100
AcDbEntity
  8
0
  6
CONTINUOUS
 62
               4
100
AcDbLine
 10
-12.899993896484375
 20
81.000015258789063
 30
0.0
 11
-3.100006103515625
 21
81.000015258789063
 31
0.0
  0
LINE
  5
576
100
AcDbEntity
  8
0
  6
CONTINUOUS
 62
               4
100
AcDbLine
 10
-4.5
 20
74.500015258789063
 30
0.0
 11
-3.0500030517578125
 21
74.500015258789063
 31
0.0
  0
LINE
  5
577
100
AcDbEntity
  8
0
  6
CONTINUOUS
 62
               4
100
AcDbLine
 10
-4.5
 20
73.500015258789063
 30
0.0
 11
-3.9499969482421875
 21
73.500015258789063
 31
0.0
  0
LINE
  5
578
100
AcDbEntity
  8
0
  6
CONTINUOUS
 62
               4
100
AcDbLine
 10
-4.5
 20
72.500015258789063
 30
0.0
 11
-3.9499969482421875
 21
72.500015258789063
 31
0.0
  0
LINE
  5
579
100
AcDbEntity
  8
0
  6
CONTINUOUS
 62
               4
100
AcDbLine
 10
-12.050003051757813
 20
73.500015258789063
 30
0.0
 11
-11.5
 21
73.500015258789063
 31
0.0
  0
LINE
  5
57A
100
AcDbEntity
  8
0
  6
CONTINUOUS
 62
               4
100
AcDbLine
 10
-12.050003051757813
 20
72.500015258789063
 30
0.0
 11
-11.5
 21
72.500015258789063
 31
0.0
  0
LINE
  5
57B
100
AcDbEntity
  8
0
  6
CONTINUOUS
 62
               4
100
AcDbLine
 10
-12.050003051757813
 20
73.500030517578125
 30
0.0
 11
-12.050003051757813
 21
74.500030517578125
 31
0.0
  0
LINE
  5
57C
100
AcDbEntity
  8
0
  6
CONTINUOUS
 62
               4
100
AcDbLine
 10
-3.9499969482421875
 20
73.500030517578125
 30
0.0
 11
-3.9499969482421875
 21
74.500030517578125
 31
0.0
  0
LINE
  5
57D
100
AcDbEntity
  8
0
  6
CONTINUOUS
 62
               4
100
AcDbLine
 10
-9.2849884033203125
 20
85.17333984375
 30
0.0
 11
-9.2849884033203125
 21
89.000015258789063
 31
0.0
  0
LINE
  5
57E
100
AcDbEntity
  8
0
  6
CONTINUOUS
 62
               4
100
AcDbLine
 10
-10.714996337890625
 20
84.790176391601563
 30
0.0
 11
-10.714996337890625
 21
89.000015258789063
 31
0.0
  0
LINE
  5
57F
100
AcDbEntity
  8
0
  6
CONTINUOUS
 62
               4
100
AcDbLine
 10
-10.715011596679687
 20
89.000015258789063
 30
0.0
 11
-9.285003662109375
 21
89.000015258789063
 31
0.0
  0
LINE
  5
580
100
AcDbEntity
  8
0
  6
CONTINUOUS
 62
               4
100
AcDbLine
 10
-9.5999908447265625
 20
89.000015258789063
 30
0.0
 11
-9.5999908447265625
 21
94.000015258789063
 31
0.0
  0
LINE
  5
581
100
AcDbEntity
  8
0
  6
CONTINUOUS
 62
               4
100
AcDbLine
 10
-10.399993896484375
 20
89.000015258789063
 30
0.0
 11
-10.399993896484375
 21
94.000015258789063
 31
0.0
  0
LINE
  5
582
100
AcDbEntity
  8
0
  6
CONTINUOUS
 62
               4
100
AcDbLine
 10
-10.400009155273437
 20
94.000015258789063
 30
0.0
 11
-9.600006103515625
 21
94.000015258789063
 31
0.0
  0
LINE
  5
583
100
AcDbEntity
  8
0
  6
CONTINUOUS
 62
               4
100
AcDbLine
 10
-9.2849884033203125
 20
81.000015258789063
 30
0.0
 11
-9.2849884033203125
 21
84.1380615234375
 31
0.0
  0
LINE
  5
584
100
AcDbEntity
  8
0
  6
CONTINUOUS
 62
               4
100
AcDbLine
 10
-10.714996337890625
 20
81.000015258789063
 30
0.0
 11
-10.714996337890625
 21
83.754898071289063
 31
0.0
  0
LINE
  5
585
100
AcDbEntity
  8
0
  6
CONTINUOUS
 62
               7
100
AcDbLine
 10
-3.0
 20
25.500015258789062
 30
0.0
 11
-3.0
 21
37.000015258789063
 31
0.0
  0
LINE
  5
586
100
AcDbEntity
  8
0
  6
CONTINUOUS
 62
               7
100
AcDbLine
 10
-13.0
 20
25.500015258789062
 30
0.0
 11
-13.0
 21
37.000015258789063
 31
0.0
  0
LINE
  5
587
100
AcDbEntity
  8
0
  6
CONTINUOUS
 62
               7
100
AcDbLine
 10
-2.5
 20
11.70001220703125
 30
0.0
 11
-0.79998779296875
 21
11.70001220703125
 31
0.0
  0
LINE
  5
588
100
AcDbEntity
  8
0
  6
CONTINUOUS
 62
               7
100
AcDbLine
 10
-13.5
 20
-26.699977874755859
 30
0.0
 11
-15.20001220703125
 21
-26.699977874755859
 31
0.0
  0
LINE
  5
589
100
AcDbEntity
  8
0
  6
CONTINUOUS
 62
               7
100
AcDbLine
 10
-13.5
 20
-21.299983978271484
 30
0.0
 11
-15.20001220703125
 21
-21.299983978271484
 31
0.0
  0
LINE
  5
58A
100
AcDbEntity
  8
0
  6
CONTINUOUS
 62
               7
100
AcDbLine
 10
-2.5000152587890625
 20
6.300018310546875
 30
0.0
 11
-0.79998779296875
 21
6.300018310546875
 31
0.0
  0
LINE
  5
58B
100
AcDbEntity
  8
0
  6
CONTINUOUS
 62
               7
100
AcDbLine
 10
-0.79998779296875
 20
15.300003051757813
 30
0.0
 11
-15.20001220703125
 21
15.300003051757813
 31
0.0
  0
LINE
  5
58C
100
AcDbEntity
  8
0
  6
CONTINUOUS
 62
               7
100
AcDbLine
 10
-0.79998779296875
 20
-30.299980163574219
 30
0.0
 11
-15.20001220703125
 21
-30.299980163574219
 31
0.0
  0
LINE
  5
58D
100
AcDbEntity
  8
0
  6
CONTINUOUS
 62
               7
100
AcDbLine
 10
-13.500015258789063
 20
8.300018310546875
 30
0.0
 11
-15.500015258789063
 21
8.300018310546875
 31
0.0
  0
LINE
  5
58E
100
AcDbEntity
  8
0
  6
CONTINUOUS
 62
               7
100
AcDbLine
 10
-2.5
 20
-23.299980163574219
 30
0.0
 11
-0.5
 21
-23.299980163574219
 31
0.0
  0
LINE
  5
58F
100
AcDbEntity
  8
0
  6
CONTINUOUS
 62
               7
100
AcDbLine
 10
-5.1999969482421875
 20
-25.999984741210937
 30
0.0
 11
-5.1999969482421875
 21
-30.299980163574219
 31
0.0
  0
LINE
  5
590
100
AcDbEntity
  8
0
  6
CONTINUOUS
 62
               7
100
AcDbLine
 10
-10.79998779296875
 20
15.300003051757813
 30
0.0
 11
-10.79998779296875
 21
11.0
 31
0.0
  0
LINE
  5
591
100
AcDbEntity
  8
0
  6
CONTINUOUS
 62
               7
100
AcDbLine
 10
-14.5
 20
-39.499984741210938
 30
0.0
 11
-1.5
 21
-39.499984741210938
 31
0.0
  0
LINE
  5
592
100
AcDbEntity
  8
0
  6
CONTINUOUS
 62
               7
100
AcDbLine
 10
-14.5
 20
-31.499984741210938
 30
0.0
 11
-1.5
 21
-31.499984741210938
 31
0.0
  0
LINE
  5
593
100
AcDbEntity
  8
0
  6
CONTINUOUS
 62
               7
100
AcDbLine
 10
-1.5
 20
-39.499984741210938
 30
0.0
 11
-1.5
 21
-31.499984741210938
 31
0.0
  0
LINE
  5
594
100
AcDbEntity
  8
0
  6
CONTINUOUS
 62
               7
100
AcDbLine
 10
-14.5
 20
-39.499984741210938
 30
0.0
 11
-14.5
 21
-31.499984741210938
 31
0.0
  0
LINE
  5
595
100
AcDbEntity
  8
0
  6
CONTINUOUS
 62
               7
100
AcDbLine
 10
-15.499998517212589
 20
-30.499996545648173
 30
0.0
 11
-14.499997539916876
 21
-31.499997691531462
 31
0.0
  0
LINE
  5
596
100
AcDbEntity
  8
0
  6
CONTINUOUS
 62
               7
100
AcDbLine
 10
-0.4999502245937038
 20
-30.500030178836823
 30
0.0
 11
-1.4999513704769925
 21
-31.500031156132536
 31
0.0
  0
LINE
  5
597
100
AcDbEntity
  8
0
  6
CONTINUOUS
 62
               7
100
AcDbLine
 10
-1.4999952031957946
 20
-39.499996490472768
 30
0.0
 11
-0.4999942259000818
 21
-40.499997636356056
 31
0.0
  0
LINE
  5
598
100
AcDbEntity
  8
0
  6
CONTINUOUS
 62
               7
100
AcDbLine
 10
-14.499944266302919
 20
-39.50001697384505
 30
0.0
 11
-15.499945412186207
 21
-40.500017951140762
 31
0.0
  0
LINE
  5
599
100
AcDbEntity
  8
0
  6
CONTINUOUS
 62
               7
100
AcDbLine
 10
-1.5807327263892148
 20
8.0808086745664696
 30
0.0
 11
-3.4192036972826827
 21
9.9192801103745296
 31
0.0
  0
LINE
  5
59A
100
AcDbEntity
  8
0
  6
CONTINUOUS
 62
               7
100
AcDbLine
 10
-12.580723035426672
 20
10.080769114510076
 30
0.0
 11
-14.419204795912265
 21
11.919251339912989
 31
0.0
  0
LINE
  5
59B
100
AcDbEntity
  8
0
  6
CONTINUOUS
 62
               7
100
AcDbLine
 10
-14.419196816544172
 20
10.08077062661323
 30
0.0
 11
-12.580725535707643
 21
11.919241752478229
 31
0.0
  0
LINE
  5
59C
100
AcDbEntity
  8
0
  6
CONTINUOUS
 62
               7
100
AcDbLine
 10
-3.4192063389236864
 20
8.0807895347124941
 30
0.0
 11
-1.5807350580871571
 21
9.9192606605774927
 31
0.0
  0
LINE
  5
59D
100
AcDbEntity
  8
0
  6
CONTINUOUS
 62
               7
100
AcDbLine
 10
-0.5
 20
-24.969207763671875
 30
0.0
 11
-0.5
 21
7.500030517578125
 31
0.0
  0
LINE
  5
59E
100
AcDbEntity
  8
0
  6
CONTINUOUS
 62
               4
100
AcDbLine
 10
-3.100006103515625
 20
74.500030517578125
 30
0.0
 11
-3.100006103515625
 21
81.000015258789063
 31
0.0
  0
LINE
  5
59F
100
AcDbEntity
  8
0
  6
CONTINUOUS
 62
               4
100
AcDbLine
 10
-12.899993896484375
 20
74.500030517578125
 30
0.0
 11
-12.899993896484375
 21
81.000015258789063
 31
0.0
  0
LINE
  5
5A0
100
AcDbEntity
  8
0
  6
CONTINUOUS
 62
               4
100
AcDbLine
 10
-12.0
 20
74.500030517578125
 30
0.0
 11
-12.0
 21
81.000015258789063
 31
0.0
  0
LINE
  5
5A1
100
AcDbEntity
  8
0
  6
CONTINUOUS
 62
               4
100
AcDbLine
 10
-4.0
 20
74.500030517578125
 30
0.0
 11
-4.0
 21
81.000015258789063
 31
0.0
  0
LINE
  5
5A2
100
AcDbEntity
  8
0
  6
CONTINUOUS
 62
               7
100
AcDbLine
 10
-3.4192078140649755
 20
-26.919249096061321
 30
0.0
 11
-1.5807257436345026
 21
-25.080767180603289
 31
0.0
  0
LINE
  5
5A3
100
AcDbEntity
  8
0
  6
CONTINUOUS
 62
               7
100
AcDbLine
 10
-1.580726362218229
 20
-26.919219166615221
 30
0.0
 11
-3.4191973331116969
 21
-25.080747730807161
 31
0.0
  0
LINE
  5
5A4
100
AcDbEntity
  8
0
  6
CONTINUOUS
 62
               7
100
AcDbLine
 10
-15.5
 20
-22.499969482421875
 30
0.0
 11
-15.5
 21
9.9692535400390625
 31
0.0
  0
LINE
  5
5A5
100
AcDbEntity
  8
0
  6
CONTINUOUS
 62
               7
100
AcDbLine
 10
-0.5
 20
-48.999984741210937
 30
0.0
 11
-0.5
 21
-27.03076171875
 31
0.0
  0
LINE
  5
5A6
100
AcDbEntity
  8
0
  6
CONTINUOUS
 62
               7
100
AcDbLine
 10
-15.5
 20
-48.999984741210937
 30
0.0
 11
-15.5
 21
-25.499969482421875
 31
0.0
  0
LINE
  5
5A7
100
AcDbEntity
  8
0
  6
CONTINUOUS
 62
               7
100
AcDbLine
 10
-15.000015258789063
 20
-49.499984741210938
 30
0.0
 11
-1.0
 21
-49.499984741210938
 31
0.0
  0
LINE
  5
5A8
100
AcDbEntity
  8
0
  6
CONTINUOUS
 62
               7
100
AcDbLine
 10
-15.5
 20
12.03076171875
 30
0.0
 11
-15.5
 21
24.000015258789063
 31
0.0
  0
LINE
  5
5A9
100
AcDbEntity
  8
0
  6
CONTINUOUS
 62
               7
100
AcDbLine
 10
-0.5
 20
10.500030517578125
 30
0.0
 11
-0.5
 21
24.000015258789063
 31
0.0
  0
LINE
  5
5AA
100
AcDbEntity
  8
0
  6
CONTINUOUS
 62
               7
100
AcDbLine
 10
-13.50003677067707
 20
26.000013321582628
 30
0.0
 11
-15.500018326184545
 21
24.000033789104236
 31
0.0
  0
LINE
  5
5AB
100
AcDbEntity
  8
0
  6
CONTINUOUS
 62
               7
100
AcDbLine
 10
-13.0
 20
25.500015258789062
 30
0.0
 11
-3.0
 21
25.500015258789062
 31
0.0
  0
LINE
  5
5AC
100
AcDbEntity
  8
0
  6
CONTINUOUS
 62
               7
100
AcDbLine
 10
-2.5000015331406757
 20
26.000008390376024
 30
0.0
 11
-0.4999995785492502
 21
24.000006098609447
 31
0.0
  0
LINE
  5
5AD
100
AcDbEntity
  8
0
  6
CONTINUOUS
 62
               7
100
AcDbLine
 10
-15.500015258789063
 20
-40.499984741210937
 30
0.0
 11
-0.5
 21
-40.499984741210937
 31
0.0
  0
LINE
  5
5AE
100
AcDbEntity
  8
0
  6
CONTINUOUS
 62
               7
100
AcDbLine
 10
-16.0
 20
15.500015258789063
 30
0.0
 11
0.0
 21
15.500015258789063
 31
0.0
  0
LINE
  5
5AF
100
AcDbEntity
  8
0
  6
CONTINUOUS
 62
               7
100
AcDbLine
 10
-16.0
 20
-30.499984741210937
 30
0.0
 11
0.0
 21
-30.499984741210937
 31
0.0
  0
LINE
  5
5B0
100
AcDbEntity
  8
0
  6
CONTINUOUS
 62
               7
100
AcDbLine
 10
0.0
 20
15.5
 30
0.0
 11
0.0
 21
-30.499984741210937
 31
0.0
  0
LINE
  5
5B1
100
AcDbEntity
  8
0
  6
CONTINUOUS
 62
               7
100
AcDbLine
 10
-16.0
 20
15.5
 30
0.0
 11
-16.0
 21
-30.499984741210937
 31
0.0
  0
LINE
  5
5B2
100
AcDbEntity
  8
0
  6
CONTINUOUS
 62
               2
100
AcDbLine
 10
-17.037139892578125
 20
-15.249988555908203
 30
0.0
 11
0.9571075439453125
 21
-15.249988555908203
 31
0.0
  0
LINE
  5
5B3
100
AcDbEntity
  8
0
  6
CONTINUOUS
 62
               2
100
AcDbLine
 10
-17.037139892578125
 20
0.2500152587890625
 30
0.0
 11
0.9571075439453125
 21
0.2500152587890625
 31
0.0
  0
LINE
  5
5B4
100
AcDbEntity
  8
0
  6
CONTINUOUS
 62
               7
100
AcDbLine
 10
-12.580738250437207
 20
-24.919215568294931
 30
0.0
 11
-14.419209221330675
 21
-23.080744132486871
 31
0.0
  0
LINE
  5
5B5
100
AcDbEntity
  8
0
  6
CONTINUOUS
 62
               7
100
AcDbLine
 10
-14.419198291683642
 20
-24.91922484578663
 30
0.0
 11
-12.580727010847113
 21
-23.080753719921631
 31
0.0
  0
LINE
  5
5B6
100
AcDbEntity
  8
0
  6
DASHED
 62
               4
100
AcDbLine
 10
-17.600006103515625
 20
10.0
 30
0.0
 11
-17.600006103515625
 21
-49.899978637695313
 31
0.0
  0
LINE
  5
5B7
100
AcDbEntity
  8
0
  6
DASHED
 62
               4
100
AcDbLine
 10
-17.600006103515625
 20
10.0
 30
0.0
 11
-16.0
 21
10.0
 31
0.0
  0
LINE
  5
5B8
100
AcDbEntity
  8
0
  6
DASHED
 62
               4
100
AcDbLine
 10
-16.0
 20
-49.899978637695313
 30
0.0
 11
0.0
 21
-49.899978637695313
 31
0.0
  0
LINE
  5
5B9
100
AcDbEntity
  8
0
  6
DASHED
 62
               4
100
AcDbLine
 10
-16.0
 20
-30.499984741210937
 30
0.0
 11
-16.0
 21
-49.899978637695313
 31
0.0
  0
LINE
  5
5BA
100
AcDbEntity
  8
0
  6
DASHED
 62
               4
100
AcDbLine
 10
-16.0
 20
-51.499984741210938
 30
0.0
 11
0.0
 21
-51.499984741210938
 31
0.0
  0
LINE
  5
5BB
100
AcDbEntity
  8
0
  6
DASHED
 62
               4
100
AcDbLine
 10
0.0
 20
-49.899978637695313
 30
0.0
 11
0.0
 21
-51.499984741210938
 31
0.0
  0
LINE
  5
5BC
100
AcDbEntity
  8
0
  6
DASHED
 62
               4
100
AcDbLine
 10
2.6999969482421875
 20
-1.2499847412109375
 30
0.0
 11
2.6999969482421875
 21
1.2500152587890625
 31
0.0
  0
LINE
  5
5BD
100
AcDbEntity
  8
0
  6
DASHED
 62
               4
100
AcDbLine
 10
1.1999969482421875
 20
-2.7499847412109375
 30
0.0
 11
0.6999969482421875
 21
-2.7499847412109375
 31
0.0
  0
LINE
  5
5BE
100
AcDbEntity
  8
0
  6
DASHED
 62
               4
100
AcDbLine
 10
1.1999969482421875
 20
2.75
 30
0.0
 11
0.6999969482421875
 21
2.75
 31
0.0
  0
LINE
  5
5BF
100
AcDbEntity
  8
0
  6
DASHED
 62
               4
100
AcDbLine
 10
2.6999969482421875
 20
-16.249980926513672
 30
0.0
 11
2.6999969482421875
 21
-13.749988555908203
 31
0.0
  0
LINE
  5
5C0
100
AcDbEntity
  8
0
  6
DASHED
 62
               4
100
AcDbLine
 10
1.1999969482421875
 20
-17.749988555908203
 30
0.0
 11
0.6999969482421875
 21
-17.749988555908203
 31
0.0
  0
LINE
  5
5C1
100
AcDbEntity
  8
0
  6
DASHED
 62
               4
100
AcDbLine
 10
1.1999969482421875
 20
-12.249996185302734
 30
0.0
 11
0.6999969482421875
 21
-12.249996185302734
 31
0.0
  0
CIRCLE
  5
5C2
100
AcDbEntity
  8
0
  6
CONTINUOUS
 62
               7
100
AcDbCircle
 10
-8.0
 20
33.70001220703125
 30
0.0
 40
2.0
  0
CIRCLE
  5
5C3
100
AcDbEntity
  8
0
  6
CONTINUOUS
 62
               7
100
AcDbCircle
 10
-8.0
 20
33.70001220703125
 30
0.0
 40
1.9499998092651367
  0
ARC
  5
5C4
100
AcDbEntity
  8
0
  6
CONTINUOUS
 62
               4
100
AcDbCircle
 10
-3.5500030517578125
 20
69.500015258789063
 30
0.0
 40
0.5
100
AcDbArc
 50
359.99995901886416
 51
89.999982013910454
  0
ARC
  5
5C5
100
AcDbEntity
  8
0
  6
CONTINUOUS
 62
               4
100
AcDbCircle
 10
-12.449996948242188
 20
69.500030517578125
 30
0.0
 40
0.5
100
AcDbArc
 50
89.999982013910454
 51
179.99996402782091
  0
ARC
  5
5C6
100
AcDbEntity
  8
0
  6
CONTINUOUS
 62
               7
100
AcDbCircle
 10
-2.5000152587890625
 20
9.0000152587890625
 30
0.0
 40
2.6999998092651367
100
AcDbArc
 50
89.999982013910454
 51
270.00000068324471
  0
ARC
  5
5C7
100
AcDbEntity
  8
0
  6
CONTINUOUS
 62
               7
100
AcDbCircle
 10
-13.5
 20
-23.999984741210937
 30
0.0
 40
2.6999998092651367
100
AcDbArc
 50
270.00001798608872
 51
89.999982013910454
  0
CIRCLE
  5
5C8
100
AcDbEntity
  8
0
  6
CONTINUOUS
 62
               7
100
AcDbCircle
 10
-2.5
 20
9.000030517578125
 30
0.0
 40
2.25
  0
ARC
  5
5C9
100
AcDbEntity
  8
0
  6
CONTINUOUS
 62
               7
100
AcDbCircle
 10
-13.5
 20
11.000015258789063
 30
0.0
 40
2.6999998092651367
100
AcDbArc
 50
270.00001798608872
 51
0.0
  0
ARC
  5
5CA
100
AcDbEntity
  8
0
  6
CONTINUOUS
 62
               7
100
AcDbCircle
 10
-0.79998779296875
 20
12.0
 30
0.0
 40
0.300000011920929
100
AcDbArc
 50
270.00001798608872
 51
0.0
  0
ARC
  5
5CB
100
AcDbEntity
  8
0
  6
CONTINUOUS
 62
               7
100
AcDbCircle
 10
-15.199996948242187
 20
-20.999988555908203
 30
0.0
 40
0.300000011920929
100
AcDbArc
 50
179.99996402782091
 51
270.00000068324471
  0
ARC
  5
5CC
100
AcDbEntity
  8
0
  6
CONTINUOUS
 62
               7
100
AcDbCircle
 10
-0.79998779296875
 20
6.0000152587890625
 30
0.0
 40
0.300000011920929
100
AcDbArc
 50
0.0
 51
89.999982013910454
  0
ARC
  5
5CD
100
AcDbEntity
  8
0
  6
CONTINUOUS
 62
               7
100
AcDbCircle
 10
-15.199996948242187
 20
-26.999977111816406
 30
0.0
 40
0.300000011920929
100
AcDbArc
 50
89.999982013910454
 51
179.99996402782091
  0
ARC
  5
5CE
100
AcDbEntity
  8
0
  6
CONTINUOUS
 62
               7
100
AcDbCircle
 10
-15.20001220703125
 20
15.000030517578125
 30
0.0
 40
0.300000011920929
100
AcDbArc
 50
89.999982013910454
 51
179.99996402782091
  0
ARC
  5
5CF
100
AcDbEntity
  8
0
  6
CONTINUOUS
 62
               7
100
AcDbCircle
 10
-0.79998779296875
 20
15.000015258789063
 30
0.0
 40
0.300000011920929
100
AcDbArc
 50
0.0
 51
89.999982013910454
  0
ARC
  5
5D0
100
AcDbEntity
  8
0
  6
CONTINUOUS
 62
               7
100
AcDbCircle
 10
-0.79998779296875
 20
-29.999977111816406
 30
0.0
 40
0.300000011920929
100
AcDbArc
 50
270.00001798608872
 51
0.0
  0
ARC
  5
5D1
100
AcDbEntity
  8
0
  6
CONTINUOUS
 62
               7
100
AcDbCircle
 10
-15.199996948242187
 20
-29.999977111816406
 30
0.0
 40
0.300000011920929
100
AcDbArc
 50
179.99996402782091
 51
270.00000068324471
  0
ARC
  5
5D2
100
AcDbEntity
  8
0
  6
CONTINUOUS
 62
               7
100
AcDbCircle
 10
-2.5
 20
-25.999984741210937
 30
0.0
 40
2.6999998092651367
100
AcDbArc
 50
89.999982013910454
 51
179.99996402782091
  0
CIRCLE
  5
5D3
100
AcDbEntity
  8
0
  6
CONTINUOUS
 62
               7
100
AcDbCircle
 10
-13.5
 20
11.0
 30
0.0
 40
2.25
  0
CIRCLE
  5
5D4
100
AcDbEntity
  8
0
  6
CONTINUOUS
 62
               7
100
AcDbCircle
 10
-2.5
 20
-25.999984741210937
 30
0.0
 40
2.25
  0
ARC
  5
5D5
100
AcDbEntity
  8
0
  6
CONTINUOUS
 62
               7
100
AcDbCircle
 10
-1.0
 20
-48.999984741210937
 30
0.0
 40
0.5
100
AcDbArc
 50
270.00001798608872
 51
0.00001366037834
  0
ARC
  5
5D6
100
AcDbEntity
  8
0
  6
CONTINUOUS
 62
               7
100
AcDbCircle
 10
-15.0
 20
-48.999984741210937
 30
0.0
 40
0.5
100
AcDbArc
 50
179.99996402782091
 51
269.99994604173139
  0
CIRCLE
  5
5D7
100
AcDbEntity
  8
0
  6
CONTINUOUS
 62
               7
100
AcDbCircle
 10
-13.5
 20
-23.999969482421875
 30
0.0
 40
2.25
  0
ARC
  5
5D8
100
AcDbEntity
  8
0
  6
DASHED
 62
               4
100
AcDbCircle
 10
-16.0
 20
-49.899978637695313
 30
0.0
 40
1.5999994277954102
100
AcDbArc
 50
179.99996402782091
 51
269.99994604173139
  0
ARC
  5
5D9
100
AcDbEntity
  8
0
  6
DASHED
 62
               4
100
AcDbCircle
 10
1.1999969482421875
 20
-16.249980926513672
 30
0.0
 40
1.5
100
AcDbArc
 50
270.00001798608872
 51
0.0
  0
ARC
  5
5DA
100
AcDbEntity
  8
0
  6
DASHED
 62
               4
100
AcDbCircle
 10
1.1999969482421875
 20
1.2500152587890625
 30
0.0
 40
1.5
100
AcDbArc
 50
0.00001366037834
 51
90.000036655423813
  0
ARC
  5
5DB
100
AcDbEntity
  8
0
  6
DASHED
 62
               4
100
AcDbCircle
 10
1.1999969482421875
 20
-1.2499847412109375
 30
0.0
 40
1.5
100
AcDbArc
 50
270.00001798608872
 51
0.0
  0
ARC
  5
5DC
100
AcDbEntity
  8
0
  6
DASHED
 62
               4
100
AcDbCircle
 10
1.1999969482421875
 20
-13.749988555908203
 30
0.0
 40
1.5
100
AcDbArc
 50
0.00001366037834
 51
90.000036655423813
  0
LINE
  5
5DD
100
AcDbEntity
  8
0
  6
CONTINUOUS
 62
               7
100
AcDbLine
 10
-13.500030517578125
 20
26.000015258789063
 30
0.0
 11
-13.0
 21
26.000015258789063
 31
0.0
  0
LINE
  5
5DE
100
AcDbEntity
  8
0
  6
CONTINUOUS
 62
               7
100
AcDbLine
 10
-3.0
 20
26.000015258789063
 30
0.0
 11
-2.4999847412109375
 21
26.000015258789063
 31
0.0
  0
LINE
  5
5DF
100
AcDbEntity
  8
0
  6
DASHED
 62
               4
100
AcDbLine
 10
0.6999969482421875
 20
-2.9499969482421875
 30
0.0
 11
0.6999969482421875
 21
2.95001220703125
 31
0.0
  0
LINE
  5
5E0
100
AcDbEntity
  8
0
  6
DASHED
 62
               4
100
AcDbLine
 10
0.0000054341044233
 20
0.3500015686158804
 30
0.0
 11
0.7000127667060951
 21
0.5375679696544466
 31
0.0
  0
LINE
  5
5E1
100
AcDbEntity
  8
0
  6
DASHED
 62
               4
100
AcDbLine
 10
0.7000168637387105
 20
-0.3500016739799321
 30
0.0
 11
0.0000094879414974
 21
-0.537568031822957
 31
0.0
  0
LINE
  5
5E2
100
AcDbEntity
  8
0
  6
DASHED
 62
               4
100
AcDbLine
 10
0.6999969482421875
 20
-2.9499969482421875
 30
0.0
 11
0.0
 21
-2.9499969482421875
 31
0.0
  0
LINE
  5
5E3
100
AcDbEntity
  8
0
  6
DASHED
 62
               4
100
AcDbLine
 10
0.6999969482421875
 20
2.95001220703125
 30
0.0
 11
0.0
 21
2.95001220703125
 31
0.0
  0
LINE
  5
5E4
100
AcDbEntity
  8
0
  6
DASHED
 62
               4
100
AcDbLine
 10
0.6999969482421875
 20
-17.949992179870605
 30
0.0
 11
0.6999969482421875
 21
-12.049992561340332
 31
0.0
  0
LINE
  5
5E5
100
AcDbEntity
  8
0
  6
DASHED
 62
               4
100
AcDbLine
 10
0.0000135421023515
 20
-14.650000420640936
 30
0.0
 11
0.700006135845797
 21
-14.462437968867562
 31
0.0
  0
LINE
  5
5E6
100
AcDbEntity
  8
0
  6
DASHED
 62
               4
100
AcDbLine
 10
0.7000199274652914
 20
-15.349989556581022
 30
0.0
 11
0.0000125516680782
 21
-15.537555914424047
 31
0.0
  0
LINE
  5
5E7
100
AcDbEntity
  8
0
  6
DASHED
 62
               4
100
AcDbLine
 10
0.6999969482421875
 20
-17.949992179870605
 30
0.0
 11
0.0
 21
-17.949992179870605
 31
0.0
  0
LINE
  5
5E8
100
AcDbEntity
  8
0
  6
DASHED
 62
               4
100
AcDbLine
 10
0.6999969482421875
 20
-12.049992561340332
 30
0.0
 11
0.0
 21
-12.049992561340332
 31
0.0
  0
CIRCLE
  5
5E9
100
AcDbEntity
  8
0
  6
CONTINUOUS
 62
               7
100
AcDbCircle
 10
-2.5
 20
9.000030517578125
 30
0.0
 40
2.5
  0
CIRCLE
  5
5EA
100
AcDbEntity
  8
0
  6
CONTINUOUS
 62
               7
100
AcDbCircle
 10
-13.5
 20
-23.999969482421875
 30
0.0
 40
2.5
  0
LINE
  5
5EB
100
AcDbEntity
  8
0
  6
DASHED
 62
               4
100
AcDbLine
 10
-19.199996948242187
 20
-12.999992370605497
 30
0.0
 11
-19.199996948242187
 21
-16.999992370605497
 31
0.0
  0
LINE
  5
5EC
100
AcDbEntity
  8
0
  6
DASHED
 62
               4
100
AcDbLine
 10
-18.100006103515625
 20
-12.999992370605497
 30
0.0
 11
-19.199996948242187
 21
-12.999992370605497
 31
0.0
  0
LINE
  5
5ED
100
AcDbEntity
  8
0
  6
DASHED
 62
               4
100
AcDbLine
 10
-18.100006103515625
 20
-16.999992370605497
 30
0.0
 11
-19.199996948242187
 21
-16.999992370605497
 31
0.0
  0
ARC
  5
5EE
100
AcDbEntity
  8
0
  6
DASHED
 62
               4
100
AcDbCircle
 10
-18.100006103515625
 20
-17.499992370605469
 30
0.0
 40
0.5
100
AcDbArc
 50
359.9999813306639
 51
90.000036655423813
  0
ARC
  5
5EF
100
AcDbEntity
  8
0
  6
DASHED
 62
               4
100
AcDbCircle
 10
-18.100006103515625
 20
-12.499992370605469
 30
0.0
 40
0.5
100
AcDbArc
 50
269.99996334457541
 51
359.99996402782114
  0
LINE
  5
5F0
100
AcDbEntity
  8
0
  6
DASHED
 62
               4
100
AcDbLine
 10
-19.199996948242187
 20
2.0000152587890341
 30
0.0
 11
-19.199996948242187
 21
-1.9999847412109659
 31
0.0
  0
LINE
  5
5F1
100
AcDbEntity
  8
0
  6
DASHED
 62
               4
100
AcDbLine
 10
-18.100006103515625
 20
2.0000152587890341
 30
0.0
 11
-19.199996948242187
 21
2.0000152587890341
 31
0.0
  0
LINE
  5
5F2
100
AcDbEntity
  8
0
  6
DASHED
 62
               4
100
AcDbLine
 10
-18.100006103515625
 20
-1.9999847412109659
 30
0.0
 11
-19.199996948242187
 21
-1.9999847412109659
 31
0.0
  0
ARC
  5
5F3
100
AcDbEntity
  8
0
  6
DASHED
 62
               4
100
AcDbCircle
 10
-18.100006103515625
 20
-2.4999847412109375
 30
0.0
 40
0.5
100
AcDbArc
 50
359.9999813306639
 51
90.000036655423813
  0
ARC
  5
5F4
100
AcDbEntity
  8
0
  6
DASHED
 62
               4
100
AcDbCircle
 10
-18.100006103515625
 20
2.5000152587890625
 30
0.0
 40
0.5
100
AcDbArc
 50
269.99996334457541
 51
359.99996402782114
  0
LINE
  5
5F5
100
AcDbEntity
  8
0
  6
CONTINUOUS
 62
             200
100
AcDbLine
 10
-12.000007620978977
 20
83.410579582381615
 30
0.0
 11
-8.1671107398452705
 21
84.43760121496112
 31
0.0
  0
LINE
  5
5F6
100
AcDbEntity
  8
0
  6
CONTINUOUS
 62
             200
100
AcDbLine
 10
-11.999997575302586
 20
84.445858441143173
 30
0.0
 11
-8.1303118073749374
 21
85.482737626312201
 31
0.0
  0
CIRCLE
  5
5F7
100
AcDbEntity
  8
0
  6
CONTINUOUS
 62
               7
100
AcDbCircle
 10
-8.0
 20
0.2500152587890625
 30
0.0
 40
7.4500000000000002
  0
ARC
  5
5F8
100
AcDbEntity
  8
0
  6
CONTINUOUS
 62
               7
100
AcDbCircle
 10
-8.0
 20
0.2500152587890625
 30
0.0
 40
6.9000000000000004
100
AcDbArc
 50
8.6933494299441101
 51
171.3066505700555
  0
CIRCLE
  5
5F9
100
AcDbEntity
  8
0
  6
CONTINUOUS
 62
               7
100
AcDbCircle
 10
-8.0
 20
0.2500152587890625
 30
0.0
 40
4.0499999999999998
  0
CIRCLE
  5
5FA
100
AcDbEntity
  8
0
  6
CONTINUOUS
 62
               7
100
AcDbCircle
 10
-8.0
 20
0.2500152587890625
 30
0.0
 40
3.0499999999999998
  0
ARC
  5
5FB
100
AcDbEntity
  8
0
  6
CONTINUOUS
 62
               7
100
AcDbCircle
 10
-8.0
 20
0.2500152587890625
 30
0.0
 40
6.9000000000000004
100
AcDbArc
 50
188.69334942994371
 51
351.30665057005507
  0
CIRCLE
  5
5FC
100
AcDbEntity
  8
0
  6
CONTINUOUS
 62
               7
100
AcDbCircle
 10
-8.0
 20
-15.249984741210938
 30
0.0
 40
7.4500000000000002
  0
ARC
  5
5FD
100
AcDbEntity
  8
0
  6
CONTINUOUS
 62
               7
100
AcDbCircle
 10
-8.0
 20
-15.249984741210938
 30
0.0
 40
6.9000000000000004
100
AcDbArc
 50
8.6933494299441101
 51
171.3066505700555
  0
LINE
  5
5FE
100
AcDbEntity
  8
0
  6
CONTINUOUS
 62
               7
100
AcDbLine
 10
-8.75
 20
-7.5714432130299656
 30
0.0
 11
-8.75
 21
-7.4285262693919094
 31
0.0
  0
LINE
  5
5FF
100
AcDbEntity
  8
0
  6
CONTINUOUS
 62
               7
100
AcDbLine
 10
-7.25
 20
-7.5714432130299656
 30
0.0
 11
-7.25
 21
-7.4285262693919094
 31
0.0
  0
ARC
  5
600
100
AcDbEntity
  8
0
  6
CONTINUOUS
 62
               7
100
AcDbCircle
 10
-9.0499999999999545
 20
-7.5714432130299656
 30
0.0
 40
0.3
100
AcDbArc
 50
277.78660072413879
 51
0.0
  0
ARC
  5
601
100
AcDbEntity
  8
0
  6
CONTINUOUS
 62
               7
100
AcDbCircle
 10
-9.0499999999999545
 20
-7.4285262693919094
 30
0.0
 40
0.3
100
AcDbArc
 50
0.0
 51
82.213399275863864
  0
ARC
  5
602
100
AcDbEntity
  8
0
  6
CONTINUOUS
 62
               7
100
AcDbCircle
 10
-6.9499999999999886
 20
-7.5714432130299656
 30
0.0
 40
0.3
100
AcDbArc
 50
179.99999999999963
 51
262.21339927586212
  0
ARC
  5
603
100
AcDbEntity
  8
0
  6
CONTINUOUS
 62
               7
100
AcDbCircle
 10
-6.9499999999999886
 20
-7.4285262693919094
 30
0.0
 40
0.3
100
AcDbArc
 50
97.786600724137088
 51
179.99999999999963
  0
CIRCLE
  5
604
100
AcDbEntity
  8
0
  6
CONTINUOUS
 62
               7
100
AcDbCircle
 10
-8.0
 20
-15.249984741210938
 30
0.0
 40
4.0499999999999998
  0
CIRCLE
  5
605
100
AcDbEntity
  8
0
  6
CONTINUOUS
 62
               7
100
AcDbCircle
 10
-8.0
 20
-15.249984741210938
 30
0.0
 40
3.0499999999999998
  0
ARC
  5
606
100
AcDbEntity
  8
0
  6
CONTINUOUS
 62
               7
100
AcDbCircle
 10
-8.0
 20
-15.249984741210938
 30
0.0
 40
6.9000000000000004
100
AcDbArc
 50
188.69334942994371
 51
351.30665057005507
  0
LINE
  5
607
100
AcDbEntity
  8
0
  6
CONTINUOUS
 62
               7
100
AcDbLine
 10
-14.399999999999977
 20
-16.049984741210949
 30
0.0
 11
-14.399999999999977
 21
-14.449984747171413
 31
0.0
  0
LINE
  5
608
100
AcDbEntity
  8
0
  6
CONTINUOUS
 62
               7
100
AcDbLine
 10
-14.399999999999977
 20
-14.449984741210926
 30
0.0
 11
-14.820728919785722
 21
-14.207076786116801
 31
0.0
  0
LINE
  5
609
100
AcDbEntity
  8
0
  6
CONTINUOUS
 62
               7
100
AcDbLine
 10
-14.399999999999977
 20
-16.049984741210949
 30
0.0
 11
-14.820728919785722
 21
-16.292892696305074
 31
0.0
  0
LINE
  5
60A
100
AcDbEntity
  8
0
  6
CONTINUOUS
 62
               7
100
AcDbLine
 10
-1.5999999999999659
 20
-16.049984741210949
 30
0.0
 11
-1.5999999999999659
 21
-14.449984747171413
 31
0.0
  0
LINE
  5
60B
100
AcDbEntity
  8
0
  6
CONTINUOUS
 62
               7
100
AcDbLine
 10
-1.5999999999999659
 20
-14.449984741210926
 30
0.0
 11
-1.1792710802142778
 21
-14.207076786116801
 31
0.0
  0
LINE
  5
60C
100
AcDbEntity
  8
0
  6
CONTINUOUS
 62
               7
100
AcDbLine
 10
-1.5999999999999659
 20
-16.049984741210949
 30
0.0
 11
-1.1792710802142778
 21
-16.292892696305074
 31
0.0
  0
LINE
  5
60D
100
AcDbEntity
  8
0
  6
CONTINUOUS
 62
               7
100
AcDbLine
 10
-14.399999999999977
 20
-0.5499847412109489
 30
0.0
 11
-14.399999999999977
 21
1.0500152528285867
 31
0.0
  0
LINE
  5
60E
100
AcDbEntity
  8
0
  6
CONTINUOUS
 62
               7
100
AcDbLine
 10
-14.399999999999977
 20
-0.5499847412109489
 30
0.0
 11
-14.820728919785722
 21
-0.7928926963050742
 31
0.0
  0
LINE
  5
60F
100
AcDbEntity
  8
0
  6
CONTINUOUS
 62
               7
100
AcDbLine
 10
-14.399999999999977
 20
1.0500152587890739
 30
0.0
 11
-14.820728919785722
 21
1.2929232138831992
 31
0.0
  0
LINE
  5
610
100
AcDbEntity
  8
0
  6
CONTINUOUS
 62
               7
100
AcDbLine
 10
-1.5999999999999659
 20
1.0500152587890739
 30
0.0
 11
-1.1792710802142778
 21
1.2929232138831992
 31
0.0
  0
LINE
  5
611
100
AcDbEntity
  8
0
  6
CONTINUOUS
 62
               7
100
AcDbLine
 10
-1.5999999999999659
 20
-0.5499847412109489
 30
0.0
 11
-1.5999999999999659
 21
1.0500152528285867
 31
0.0
  0
LINE
  5
612
100
AcDbEntity
  8
0
  6
CONTINUOUS
 62
               7
100
AcDbLine
 10
-1.5999999999999659
 20
-0.5499847412109489
 30
0.0
 11
-1.1792710802142778
 21
-0.7928926963050742
 31
0.0
  0
LINE
  5
613
100
AcDbEntity
  8
0
  6
CONTINUOUS
 62
               7
100
AcDbLine
 10
-5.1076809620810764
 20
8.3000114440918082
 30
0.0
 11
-15.50000000596043
 21
8.3000114440918082
 31
0.0
  0
LINE
  5
614
100
AcDbEntity
  8
0
  6
CONTINUOUS
 62
               7
100
AcDbLine
 10
-10.921677911281563
 20
-23.198580251696256
 30
0.0
 11
-0.4999999940395128
 21
-23.198580251696256
 31
0.0
  0
LINE
  5
615
100
AcDbEntity
  8
0
  6
CONTINUOUS
 62
               4
100
AcDbLine
 10
-3.0
 20
37.000015258789063
 30
0.0
 11
-3.0
 21
61.000015258789063
 31
0.0
  0
LINE
  5
616
100
AcDbEntity
  8
0
  6
CONTINUOUS
 62
               4
100
AcDbLine
 10
-13.0
 20
37.000015258789063
 30
0.0
 11
-13.0
 21
61.000030517578125
 31
0.0
  0
ENDBLK
  5
617
100
AcDbEntity
  8
0
100
AcDbBlockEnd
  0
BLOCK
  5
618
100
AcDbEntity
  8
0
100
AcDbBlockBegin
  2
F15T-14
 70
               0
 10
0.0
 20
0.0
 30
0.0
  3
F15T-14
  1

  0
LINE
  5
619
100
AcDbEntity
  8
0
  6
CENTER
 62
             200
100
AcDbLine
 10
-9.5289459228515625
 20
-13.0
 30
0.0
 11
-14.587600708007812
 21
-13.0
 31
0.0
  0
LINE
  5
61A
100
AcDbEntity
  8
0
  6
CENTER
 62
             200
100
AcDbLine
 10
-12.0
 20
-15.529434204101563
 30
0.0
 11
-12.0
 21
-10.669174194335937
 31
0.0
  0
LINE
  5
61B
100
AcDbEntity
  8
0
  6
CONTINUOUS
 62
               2
100
AcDbLine
 10
-19.54022216796875
 20
-8.0
 30
0.0
 11
62.00927734375
 21
-8.0
 31
0.0
  0
LINE
  5
61C
100
AcDbEntity
  8
0
  6
DASHED
 62
               4
100
AcDbLine
 10
-17.0
 20
0.0
 30
0.0
 11
-6.0
 21
0.0
 31
0.0
  0
LINE
  5
61D
100
AcDbEntity
  8
0
  6
DASHED
 62
               4
100
AcDbLine
 10
-17.0
 20
-16.0
 30
0.0
 11
-6.0
 21
-16.0
 31
0.0
  0
LINE
  5
61E
100
AcDbEntity
  8
0
  6
CONTINUOUS
 62
               7
100
AcDbLine
 10
3.0
 20
-0.5
 30
0.0
 11
37.599981741210911
 21
-0.5
 31
0.0
  0
LINE
  5
61F
100
AcDbEntity
  8
0
  6
CONTINUOUS
 62
               7
100
AcDbLine
 10
3.0
 20
-15.5
 30
0.0
 11
37.599981741210911
 21
-15.5
 31
0.0
  0
LINE
  5
620
100
AcDbEntity
  8
0
  6
DASHED
 62
               4
100
AcDbLine
 10
-7.0
 20
1.600006103515625
 30
0.0
 11
-7.0
 21
0.0
 31
0.0
  0
LINE
  5
621
100
AcDbEntity
  8
0
  6
CONTINUOUS
 62
               7
100
AcDbLine
 10
33.499984741210938
 20
-0.5
 30
0.0
 11
33.499984741210938
 21
-15.5
 31
0.0
  0
LINE
  5
622
100
AcDbEntity
  8
0
  6
CONTINUOUS
 62
               7
100
AcDbLine
 10
35.499984741210938
 20
-0.5
 30
0.0
 11
35.499984741210938
 21
-15.5
 31
0.0
  0
LINE
  5
623
100
AcDbEntity
  8
0
  6
CONTINUOUS
 62
               7
100
AcDbLine
 10
3.0
 20
0.0
 30
0.0
 11
3.0
 21
-16.0
 31
0.0
  0
LINE
  5
624
100
AcDbEntity
  8
0
  6
CONTINUOUS
 62
               7
100
AcDbLine
 10
34.499984741210937
 20
-0.5
 30
0.0
 11
34.499984741210937
 21
-15.5
 31
0.0
  0
LINE
  5
625
100
AcDbEntity
  8
0
  6
CONTINUOUS
 62
               7
100
AcDbLine
 10
34.499995512496298
 20
-0.4999974522766024
 30
0.0
 11
35.499996574085799
 21
-1.4999985138661032
 31
0.0
  0
LINE
  5
626
100
AcDbEntity
  8
0
  6
CONTINUOUS
 62
               7
100
AcDbLine
 10
35.499977292127653
 20
-14.499983928919733
 30
0.0
 11
34.499978085001487
 21
-15.499986929266356
 31
0.0
  0
LINE
  5
627
100
AcDbEntity
  8
0
  6
CONTINUOUS
 62
               7
100
AcDbLine
 10
7.5605639122879893
 20
-13.560732547976954
 30
0.0
 11
5.4392439626610667
 21
-11.43941170428036
 31
0.0
  0
LINE
  5
628
100
AcDbEntity
  8
0
  6
CONTINUOUS
 62
               7
100
AcDbLine
 10
7.5606257251532725
 20
-11.439329206328182
 30
0.0
 11
5.4392988123090618
 21
-13.560655225100163
 31
0.0
  0
LINE
  5
629
100
AcDbEntity
  8
0
  6
CONTINUOUS
 62
               7
100
AcDbLine
 10
6.499969482421875
 20
-9.5
 30
0.0
 11
3.499969482421875
 21
-9.5
 31
0.0
  0
LINE
  5
62A
100
AcDbEntity
  8
0
  6
CONTINUOUS
 62
               7
100
AcDbLine
 10
9.4999542236328125
 20
-12.499984741210938
 30
0.0
 11
9.4999542236328125
 21
-15.499984741210938
 31
0.0
  0
LINE
  5
62B
100
AcDbEntity
  8
0
  6
CONTINUOUS
 62
               7
100
AcDbLine
 10
24.500015258789063
 20
-3.5
 30
0.0
 11
24.500015258789063
 21
-0.5
 31
0.0
  0
LINE
  5
62C
100
AcDbEntity
  8
0
  6
CONTINUOUS
 62
               7
100
AcDbLine
 10
26.439312964982946
 20
-2.439385281022453
 30
0.0
 11
28.560632556982
 21
-4.5607064823469159
 31
0.0
  0
LINE
  5
62D
100
AcDbEntity
  8
0
  6
CONTINUOUS
 62
               7
100
AcDbLine
 10
26.43933373952359
 20
-4.5606625193184414
 30
0.0
 11
28.560654940848053
 21
-2.4393429273193874
 31
0.0
  0
LINE
  5
62E
100
AcDbEntity
  8
0
  6
CONTINUOUS
 62
               7
100
AcDbLine
 10
30.499984741210937
 20
-3.5
 30
0.0
 11
30.499984741210937
 21
-0.5
 31
0.0
  0
LINE
  5
62F
100
AcDbEntity
  8
0
  6
DASHED
 62
               4
100
AcDbLine
 10
1.25
 20
-18.699981689453125
 30
0.0
 11
-1.25
 21
-18.699981689453125
 31
0.0
  0
LINE
  5
630
100
AcDbEntity
  8
0
  6
DASHED
 62
               4
100
AcDbLine
 10
2.75
 20
-17.199996948242187
 30
0.0
 11
2.75
 21
-16.699996948242188
 31
0.0
  0
LINE
  5
631
100
AcDbEntity
  8
0
  6
DASHED
 62
               4
100
AcDbLine
 10
-2.7499847412109375
 20
-17.199996948242187
 30
0.0
 11
-2.7499847412109375
 21
-16.699996948242188
 31
0.0
  0
LINE
  5
632
100
AcDbEntity
  8
0
  6
DASHED
 62
               4
100
AcDbLine
 10
-7.0
 20
1.600006103515625
 30
0.0
 11
18.0
 21
1.600006103515625
 31
0.0
  0
LINE
  5
633
100
AcDbEntity
  8
0
  6
DASHED
 62
               4
100
AcDbLine
 10
3.0
 20
-16.0
 30
0.0
 11
18.0
 21
-16.0
 31
0.0
  0
LINE
  5
634
100
AcDbEntity
  8
0
  6
DASHED
 62
               4
100
AcDbLine
 10
3.0
 20
0.0
 30
0.0
 11
18.0
 21
0.0
 31
0.0
  0
LINE
  5
635
100
AcDbEntity
  8
0
  6
CONTINUOUS
 62
               7
100
AcDbLine
 10
-6.0
 20
0.0
 30
0.0
 11
3.0
 21
0.0
 31
0.0
  0
LINE
  5
636
100
AcDbEntity
  8
0
  6
CONTINUOUS
 62
               7
100
AcDbLine
 10
-6.0
 20
-16.0
 30
0.0
 11
3.0
 21
-16.0
 31
0.0
  0
LINE
  5
637
100
AcDbEntity
  8
0
  6
CONTINUOUS
 62
               7
100
AcDbLine
 10
-6.0
 20
0.0
 30
0.0
 11
-6.0
 21
-16.0
 31
0.0
  0
LINE
  5
638
100
AcDbEntity
  8
0
  6
DASHED
 62
               4
100
AcDbLine
 10
18.0
 20
1.600006103515625
 30
0.0
 11
18.0
 21
-16.0
 31
0.0
  0
LINE
  5
639
100
AcDbEntity
  8
0
  6
DASHED
 62
               4
100
AcDbLine
 10
-17.0
 20
0.0
 30
0.0
 11
-17.0
 21
-16.0
 31
0.0
  0
LINE
  5
63A
100
AcDbEntity
  8
0
  6
CENTER
 62
             200
100
AcDbLine
 10
-12.0
 20
-5.5294342041015625
 30
0.0
 11
-12.0
 21
-0.6691741943359375
 31
0.0
  0
LINE
  5
63B
100
AcDbEntity
  8
0
  6
CENTER
 62
             200
100
AcDbLine
 10
-9.5289459228515625
 20
-3.0
 30
0.0
 11
-14.587600708007812
 21
-3.0
 31
0.0
  0
CIRCLE
  5
63C
100
AcDbEntity
  8
0
  6
DASHED
 62
               4
100
AcDbCircle
 10
-12.0
 20
-13.0
 30
0.0
 40
1.6999998092651367
  0
CIRCLE
  5
63D
100
AcDbEntity
  8
0
  6
CONTINUOUS
 62
               7
100
AcDbCircle
 10
6.499969482421875
 20
-12.499984741210938
 30
0.0
 40
2.7999992370605469
  0
ARC
  5
63E
100
AcDbEntity
  8
0
  6
CONTINUOUS
 62
               7
100
AcDbCircle
 10
6.499969482421875
 20
-12.499984741210938
 30
0.0
 40
3.0
100
AcDbArc
 50
0.0
 51
89.999982013910454
  0
CIRCLE
  5
63F
100
AcDbEntity
  8
0
  6
CONTINUOUS
 62
               7
100
AcDbCircle
 10
27.5
 20
-3.5
 30
0.0
 40
2.7999992370605469
  0
ARC
  5
640
100
AcDbEntity
  8
0
  6
CONTINUOUS
 62
               7
100
AcDbCircle
 10
27.500015258789062
 20
-3.5
 30
0.0
 40
3.0
100
AcDbArc
 50
179.99996402782091
 51
0.0000919801827092
  0
ARC
  5
641
100
AcDbEntity
  8
0
  6
DASHED
 62
               4
100
AcDbCircle
 10
-1.25
 20
-17.199981689453125
 30
0.0
 40
1.5
100
AcDbArc
 50
179.99990938630756
 51
269.99994604173139
  0
ARC
  5
642
100
AcDbEntity
  8
0
  6
DASHED
 62
               4
100
AcDbCircle
 10
1.2499847412109375
 20
-17.199981689453125
 30
0.0
 40
1.5
100
AcDbArc
 50
270.00001798608872
 51
359.99995901886416
  0
CIRCLE
  5
643
100
AcDbEntity
  8
0
  6
DASHED
 62
               4
100
AcDbCircle
 10
-12.0
 20
-3.0
 30
0.0
 40
1.6999998092651367
  0
LINE
  5
644
100
AcDbEntity
  8
0
  6
DASHED
 62
               4
100
AcDbLine
 10
-2.9499969482421875
 20
-16.699996948242188
 30
0.0
 11
2.9499969482421875
 21
-16.699996948242188
 31
0.0
  0
LINE
  5
645
100
AcDbEntity
  8
0
  6
DASHED
 62
               4
100
AcDbLine
 10
0.349986586013074
 20
-15.999994514660102
 30
0.0
 11
0.537549037786448
 21
-16.699987108403548
 31
0.0
  0
LINE
  5
646
100
AcDbEntity
  8
0
  6
DASHED
 62
               4
100
AcDbLine
 10
-0.3500055229778809
 20
-16.700018189950242
 30
0.0
 11
-0.5375718808209058
 21
-16.000010814153029
 31
0.0
  0
LINE
  5
647
100
AcDbEntity
  8
0
  6
DASHED
 62
               4
100
AcDbLine
 10
-2.9499969482421875
 20
-16.699996948242188
 30
0.0
 11
-2.9499969482421875
 21
-16.0
 31
0.0
  0
LINE
  5
648
100
AcDbEntity
  8
0
  6
DASHED
 62
               4
100
AcDbLine
 10
2.9499969482421875
 20
-16.699996948242188
 30
0.0
 11
2.9499969482421875
 21
-16.0
 31
0.0
  0
LINE
  5
649
100
AcDbEntity
  8
0
  6
DASHED
 62
               4
100
AcDbLine
 10
2.0
 20
3.1999969482421804
 30
0.0
 11
-2.0
 21
3.1999969482421804
 31
0.0
  0
LINE
  5
64A
100
AcDbEntity
  8
0
  6
DASHED
 62
               4
100
AcDbLine
 10
2.0
 20
2.1000061035156179
 30
0.0
 11
2.0
 21
3.1999969482421804
 31
0.0
  0
LINE
  5
64B
100
AcDbEntity
  8
0
  6
DASHED
 62
               4
100
AcDbLine
 10
-2.0
 20
2.1000061035156179
 30
0.0
 11
-2.0
 21
3.1999969482421804
 31
0.0
  0
ARC
  5
64C
100
AcDbEntity
  8
0
  6
DASHED
 62
               4
100
AcDbCircle
 10
-2.5
 20
2.100006103515625
 30
0.0
 40
0.5
100
AcDbArc
 50
269.99996334457541
 51
0.0000179860890374
  0
ARC
  5
64D
100
AcDbEntity
  8
0
  6
DASHED
 62
               4
100
AcDbCircle
 10
2.5
 20
2.100006103515625
 30
0.0
 40
0.5
100
AcDbArc
 50
179.99996402782091
 51
269.99994604173139
  0
LINE
  5
64E
100
AcDbEntity
  8
0
  6
CONTINUOUS
 62
               7
100
AcDbLine
 10
35.899981741210922
 20
-10.799999999999997
 30
0.0
 11
35.499984741210938
 21
-10.799999999999997
 31
0.0
  0
LINE
  5
64F
100
AcDbEntity
  8
0
  6
CONTINUOUS
 62
               7
100
AcDbLine
 10
37.599981741210911
 20
-0.5
 30
0.0
 11
37.599981741210911
 21
-15.499999999999986
 31
0.0
  0
LINE
  5
650
100
AcDbEntity
  8
0
  6
CONTINUOUS
 62
               7
100
AcDbLine
 10
53.799981741210956
 20
-0.7000000000000171
 30
0.0
 11
53.999981741210945
 21
-0.5000000000000142
 31
0.0
  0
LINE
  5
651
100
AcDbEntity
  8
0
  6
CONTINUOUS
 62
               7
100
AcDbLine
 10
55.336022741210968
 20
-0.5000000000000142
 30
0.0
 11
53.999981741210945
 21
-0.5000000000000142
 31
0.0
  0
LINE
  5
652
100
AcDbEntity
  8
0
  6
CONTINUOUS
 62
               7
100
AcDbLine
 10
52.899981741210922
 20
-0.5000000000000142
 30
0.0
 11
52.999981741210945
 21
-0.6000000000000085
 31
0.0
  0
LINE
  5
653
100
AcDbEntity
  8
0
  6
CONTINUOUS
 62
               7
100
AcDbLine
 10
45.899981741210922
 20
-0.7000000000000171
 30
0.0
 11
46.099981741210911
 21
-0.5000000000000142
 31
0.0
  0
LINE
  5
654
100
AcDbEntity
  8
0
  6
CONTINUOUS
 62
               7
100
AcDbLine
 10
45.899981741210922
 20
-0.7000000000000171
 30
0.0
 11
45.699981741210934
 21
-0.5000000000000142
 31
0.0
  0
LINE
  5
655
100
AcDbEntity
  8
0
  6
CONTINUOUS
 62
               7
100
AcDbLine
 10
45.699981741210934
 20
-0.5000000000000142
 30
0.0
 11
37.599981741210911
 21
-0.5
 31
0.0
  0
LINE
  5
656
100
AcDbEntity
  8
0
  6
CONTINUOUS
 62
               7
100
AcDbLine
 10
52.899981741210922
 20
-0.5000000000000142
 30
0.0
 11
46.099981741210911
 21
-0.5000000000000142
 31
0.0
  0
ARC
  5
657
100
AcDbEntity
  8
0
  6
CONTINUOUS
 62
               7
100
AcDbCircle
 10
59.199973741210954
 20
-14.599998500000012
 30
0.0
 40
0.3
100
AcDbArc
 50
270.0
 51
0.0000000000008142
  0
ARC
  5
658
100
AcDbEntity
  8
0
  6
CONTINUOUS
 62
               7
100
AcDbCircle
 10
57.799976741210969
 20
-13.399999600000015
 30
0.0
 40
0.5
100
AcDbArc
 50
0.0
 51
90.0
  0
ARC
  5
659
100
AcDbEntity
  8
0
  6
CONTINUOUS
 62
               7
100
AcDbCircle
 10
57.799976741210969
 20
-2.6000004000000132
 30
0.0
 40
0.5
100
AcDbArc
 50
270.0
 51
0.0000000000008142
  0
ARC
  5
65A
100
AcDbEntity
  8
0
  6
CONTINUOUS
 62
               7
100
AcDbCircle
 10
59.199973741210954
 20
-1.4000015000000161
 30
0.0
 40
0.3
100
AcDbArc
 50
0.0
 51
90.0
  0
LINE
  5
65B
100
AcDbEntity
  8
0
  6
CONTINUOUS
 62
               7
100
AcDbLine
 10
59.199973741210954
 20
-14.900000000000006
 30
0.0
 11
58.299976741210969
 21
-14.900000000000006
 31
0.0
  0
LINE
  5
65C
100
AcDbEntity
  8
0
  6
CONTINUOUS
 62
               7
100
AcDbLine
 10
59.499976741210958
 20
-14.599998500000012
 30
0.0
 11
59.499976741210958
 21
-1.4000000000000199
 31
0.0
  0
LINE
  5
65D
100
AcDbEntity
  8
0
  6
CONTINUOUS
 62
               7
100
AcDbLine
 10
58.299976741210969
 20
-1.1000000000000085
 30
0.0
 11
58.299976741210969
 21
-14.900000000000006
 31
0.0
  0
LINE
  5
65E
100
AcDbEntity
  8
0
  6
CONTINUOUS
 62
               7
100
AcDbLine
 10
59.199973741210954
 20
-1.1000000000000085
 30
0.0
 11
58.299976741210969
 21
-1.1000000000000085
 31
0.0
  0
LINE
  5
65F
100
AcDbEntity
  8
0
  6
CONTINUOUS
 62
               7
100
AcDbLine
 10
57.399975741210937
 20
-13.700000000000003
 30
0.0
 11
56.399976741210935
 21
-13.700000000000003
 31
0.0
  0
LINE
  5
660
100
AcDbEntity
  8
0
  6
CONTINUOUS
 62
               7
100
AcDbLine
 10
57.399975741210937
 20
-13.699999599999998
 30
0.0
 11
57.49997574121096
 21
-13.599999600000004
 31
0.0
  0
LINE
  5
661
100
AcDbEntity
  8
0
  6
CONTINUOUS
 62
               7
100
AcDbLine
 10
57.399975741210937
 20
-2.3000000000000114
 30
0.0
 11
56.399976741210935
 21
-2.3000000000000114
 31
0.0
  0
LINE
  5
662
100
AcDbEntity
  8
0
  6
CONTINUOUS
 62
               7
100
AcDbLine
 10
57.399975741210937
 20
-2.300000400000016
 30
0.0
 11
57.49997574121096
 21
-2.4000004000000104
 31
0.0
  0
LINE
  5
663
100
AcDbEntity
  8
0
  6
CONTINUOUS
 62
               7
100
AcDbLine
 10
57.799976741210969
 20
-12.90000000000002
 30
0.0
 11
57.49997574121096
 21
-12.90000000000002
 31
0.0
  0
LINE
  5
664
100
AcDbEntity
  8
0
  6
CONTINUOUS
 62
               7
100
AcDbLine
 10
57.49997574121096
 20
-2.4000004000000104
 30
0.0
 11
57.49997574121096
 21
-13.599999600000004
 31
0.0
  0
LINE
  5
665
100
AcDbEntity
  8
0
  6
CONTINUOUS
 62
               7
100
AcDbLine
 10
57.799976741210969
 20
-3.1000000000000085
 30
0.0
 11
57.49997574121096
 21
-3.1000000000000085
 31
0.0
  0
LINE
  5
666
100
AcDbEntity
  8
0
  6
CONTINUOUS
 62
               7
100
AcDbLine
 10
56.399976741210935
 20
-1.6499996000000152
 30
0.0
 11
56.399976741210935
 21
-14.350000000000009
 31
0.0
  0
LINE
  5
667
100
AcDbEntity
  8
0
  6
CONTINUOUS
 62
               7
100
AcDbLine
 10
55.799975741210972
 20
-14.696410400000005
 30
0.0
 11
55.336022741210968
 21
-15.500000000000014
 31
0.0
  0
LINE
  5
668
100
AcDbEntity
  8
0
  6
CONTINUOUS
 62
               7
100
AcDbLine
 10
53.799981741210956
 20
-15.299999999999997
 30
0.0
 11
53.999981741210945
 21
-15.500000000000014
 31
0.0
  0
LINE
  5
669
100
AcDbEntity
  8
0
  6
CONTINUOUS
 62
               7
100
AcDbLine
 10
55.799976741210969
 20
-1.3035896000000093
 30
0.0
 11
56.399976741210935
 21
-1.6500000000000199
 31
0.0
  0
LINE
  5
66A
100
AcDbEntity
  8
0
  6
CONTINUOUS
 62
               7
100
AcDbLine
 10
55.799976741210969
 20
-14.696410400000005
 30
0.0
 11
56.399976741210935
 21
-14.350000000000009
 31
0.0
  0
LINE
  5
66B
100
AcDbEntity
  8
0
  6
CONTINUOUS
 62
               7
100
AcDbLine
 10
53.799981741210956
 20
-14.799999999999997
 30
0.0
 11
52.999981741210945
 21
-14.799999999999997
 31
0.0
  0
LINE
  5
66C
100
AcDbEntity
  8
0
  6
CONTINUOUS
 62
               7
100
AcDbLine
 10
55.336022741210968
 20
-15.500000000000014
 30
0.0
 11
53.999981741210945
 21
-15.500000000000014
 31
0.0
  0
LINE
  5
66D
100
AcDbEntity
  8
0
  6
CONTINUOUS
 62
               7
100
AcDbLine
 10
45.899981741210922
 20
-15.299999999999997
 30
0.0
 11
46.099981741210968
 21
-15.500000000000014
 31
0.0
  0
LINE
  5
66E
100
AcDbEntity
  8
0
  6
CONTINUOUS
 62
               7
100
AcDbLine
 10
52.999981741210945
 20
-15.400000000000006
 30
0.0
 11
52.899981741210922
 21
-15.500000000000014
 31
0.0
  0
LINE
  5
66F
100
AcDbEntity
  8
0
  6
CONTINUOUS
 62
               7
100
AcDbLine
 10
52.899981741210922
 20
-15.500000000000014
 30
0.0
 11
46.099981741210968
 21
-15.500000000000014
 31
0.0
  0
LINE
  5
670
100
AcDbEntity
  8
0
  6
CONTINUOUS
 62
               7
100
AcDbLine
 10
45.899981741210922
 20
-15.299999999999997
 30
0.0
 11
45.699981741210934
 21
-15.500000000000014
 31
0.0
  0
LINE
  5
671
100
AcDbEntity
  8
0
  6
CONTINUOUS
 62
               7
100
AcDbLine
 10
53.799981741210956
 20
-1.2000000000000099
 30
0.0
 11
52.999981741210945
 21
-1.2000000000000099
 31
0.0
  0
LINE
  5
672
100
AcDbEntity
  8
0
  6
CONTINUOUS
 62
               7
100
AcDbLine
 10
57.399975341210961
 20
-2.3000000000000114
 30
0.0
 11
57.399975341210961
 21
-13.699999599999998
 31
0.0
  0
LINE
  5
673
100
AcDbEntity
  8
0
  6
CONTINUOUS
 62
               7
100
AcDbLine
 10
55.799976741210969
 20
-1.3035896000000093
 30
0.0
 11
55.799976741210969
 21
-14.696411266026615
 31
0.0
  0
LINE
  5
674
100
AcDbEntity
  8
0
  6
CONTINUOUS
 62
               7
100
AcDbLine
 10
55.336022741210968
 20
-0.5000000000000142
 30
0.0
 11
55.336022741210968
 21
-15.500000000000014
 31
0.0
  0
LINE
  5
675
100
AcDbEntity
  8
0
  6
CONTINUOUS
 62
               7
100
AcDbLine
 10
53.999981741210945
 20
-0.5000000000000142
 30
0.0
 11
53.999981741210945
 21
-15.500000000000014
 31
0.0
  0
LINE
  5
676
100
AcDbEntity
  8
0
  6
CONTINUOUS
 62
               7
100
AcDbLine
 10
52.899981741210922
 20
-0.5000000000000142
 30
0.0
 11
52.899981741210922
 21
-15.500000000000014
 31
0.0
  0
LINE
  5
677
100
AcDbEntity
  8
0
  6
CONTINUOUS
 62
               7
100
AcDbLine
 10
46.099981741210911
 20
-0.5000000000000142
 30
0.0
 11
46.099981741210968
 21
-15.500000000000014
 31
0.0
  0
LINE
  5
678
100
AcDbEntity
  8
0
  6
CONTINUOUS
 62
               7
100
AcDbLine
 10
52.999981741210945
 20
-0.6000000000000085
 30
0.0
 11
52.999981741210945
 21
-15.400000000000006
 31
0.0
  0
LINE
  5
679
100
AcDbEntity
  8
0
  6
CONTINUOUS
 62
               7
100
AcDbLine
 10
45.899981741210922
 20
-0.7000000000000171
 30
0.0
 11
45.899981741210922
 21
-15.299999999999997
 31
0.0
  0
LINE
  5
67A
100
AcDbEntity
  8
0
  6
CONTINUOUS
 62
               7
100
AcDbLine
 10
53.799981741210956
 20
-0.7000000000000171
 30
0.0
 11
53.799981741210956
 21
-15.299999999999997
 31
0.0
  0
LINE
  5
67B
100
AcDbEntity
  8
0
  6
CONTINUOUS
 62
               7
100
AcDbLine
 10
55.336022741210968
 20
-0.5000000000000142
 30
0.0
 11
55.799975741210972
 21
-1.3035896000000093
 31
0.0
  0
LINE
  5
67C
100
AcDbEntity
  8
0
  6
CONTINUOUS
 62
               7
100
AcDbLine
 10
45.699981741210934
 20
-15.500000000000014
 30
0.0
 11
37.599981741210968
 21
-15.499999999999986
 31
0.0
  0
LINE
  5
67D
100
AcDbEntity
  8
0
  6
CONTINUOUS
 62
               7
100
AcDbLine
 10
45.699981741210934
 20
-0.5000000000000142
 30
0.0
 11
45.699981741210934
 21
-15.500000000000014
 31
0.0
  0
ARC
  5
67E
100
AcDbEntity
  8
0
  6
CONTINUOUS
 62
               7
100
AcDbCircle
 10
36.452038547954032
 20
-1.688114625785893
 30
0.0
 40
3.5792847910051169
100
AcDbArc
 50
286.69267023136581
 51
288.70638809068248
  0
ARC
  5
67F
100
AcDbEntity
  8
0
  6
CONTINUOUS
 62
               7
100
AcDbCircle
 10
36.635769008409056
 20
-2.2998200341795041
 30
0.0
 40
2.9405827545696739
100
AcDbArc
 50
284.66717248183664
 51
286.68715822034466
  0
ARC
  5
680
100
AcDbEntity
  8
0
  6
CONTINUOUS
 62
               7
100
AcDbCircle
 10
36.747789683575036
 20
-2.727270607247263
 30
0.0
 40
2.4986974735198264
100
AcDbArc
 50
282.64220171457441
 51
284.66400385668629
  0
ARC
  5
681
100
AcDbEntity
  8
0
  6
CONTINUOUS
 62
               7
100
AcDbCircle
 10
36.820910979230007
 20
-3.0528553591724261
 30
0.0
 40
2.1650027850202194
100
AcDbArc
 50
280.62232518402698
 51
282.63980934195735
  0
ARC
  5
682
100
AcDbEntity
  8
0
  6
CONTINUOUS
 62
               7
100
AcDbCircle
 10
36.869349811261202
 20
-3.3109292806447428
 30
0.0
 40
1.9024223823912618
100
AcDbArc
 50
278.59049995328968
 51
280.62121446048343
  0
ARC
  5
683
100
AcDbEntity
  8
0
  6
CONTINUOUS
 62
               7
100
AcDbCircle
 10
36.900930934917938
 20
-3.5197038422875266
 30
0.0
 40
1.6912727127528326
100
AcDbArc
 50
276.57616703707532
 51
278.58908144665446
  0
ARC
  5
684
100
AcDbEntity
  8
0
  6
CONTINUOUS
 62
               7
100
AcDbCircle
 10
36.920864129782331
 20
-3.6924878910812424
 30
0.0
 40
1.5173426706314583
100
AcDbArc
 50
274.53941277685004
 51
276.57563328073826
  0
ARC
  5
685
100
AcDbEntity
  8
0
  6
CONTINUOUS
 62
               7
100
AcDbCircle
 10
36.932370648761207
 20
-3.8371542881934673
 30
0.0
 40
1.3722193921649677
100
AcDbArc
 50
272.51342106276621
 51
274.53854321699731
  0
ARC
  5
686
100
AcDbEntity
  8
0
  6
CONTINUOUS
 62
               7
100
AcDbCircle
 10
36.937693961718168
 20
-3.9579877134910006
 30
0.0
 40
1.2512687661879294
100
AcDbArc
 50
270.49866627933261
 51
272.51254030422649
  0
ARC
  5
687
100
AcDbEntity
  8
0
  6
CONTINUOUS
 62
               7
100
AcDbCircle
 10
36.938602971821211
 20
-4.0605187632561766
 30
0.0
 40
1.1487336884614059
100
AcDbArc
 50
268.48535575865156
 51
270.49783724623398
  0
ARC
  5
688
100
AcDbEntity
  8
0
  6
CONTINUOUS
 62
               7
100
AcDbCircle
 10
36.936257101389685
 20
-4.1491709922463613
 30
0.0
 40
1.0600504273031055
100
AcDbArc
 50
266.41199098827923
 51
268.48545062568104
  0
ARC
  5
689
100
AcDbEntity
  8
0
  6
CONTINUOUS
 62
               7
100
AcDbCircle
 10
36.931500094123408
 20
-4.2253493061742233
 30
0.0
 40
0.9837237333251888
100
AcDbArc
 50
264.37936612442098
 51
266.41084465247422
  0
ARC
  5
68A
100
AcDbEntity
  8
0
  6
CONTINUOUS
 62
               7
100
AcDbCircle
 10
36.925100888209386
 20
-4.2904039228980224
 30
0.0
 40
0.9183551400777058
100
AcDbArc
 50
262.3191355074793
 51
264.37917307806055
  0
ARC
  5
68B
100
AcDbEntity
  8
0
  6
CONTINUOUS
 62
               7
100
AcDbCircle
 10
36.919889696931619
 20
-4.3300142356289228
 30
0.0
 40
0.8784037220175889
100
AcDbArc
 50
260.04442337093076
 51
262.31067627383635
  0
ARC
  5
68C
100
AcDbEntity
  8
0
  6
CONTINUOUS
 62
               7
100
AcDbCircle
 10
36.918743869091628
 20
-4.3365999794415231
 30
0.0
 40
0.8717190498304943
100
AcDbArc
 50
257.84307966954913
 51
260.04376613556292
  0
ARC
  5
68D
100
AcDbEntity
  8
0
  6
CONTINUOUS
 62
               7
100
AcDbCircle
 10
36.91814337194603
 20
-4.339428682876239
 30
0.0
 40
0.8688273229065229
100
AcDbArc
 50
255.64887660776731
 51
257.84250821435177
  0
ARC
  5
68E
100
AcDbEntity
  8
0
  6
CONTINUOUS
 62
               7
100
AcDbCircle
 10
36.918323149839892
 20
-4.3387601483362417
 30
0.0
 40
0.8695195562227179
100
AcDbArc
 50
253.46777810802979
 51
255.64831897789253
  0
ARC
  5
68F
100
AcDbEntity
  8
0
  6
CONTINUOUS
 62
               7
100
AcDbCircle
 10
36.919529363146751
 20
-4.3347250937714534
 30
0.0
 40
0.8737310345492286
100
AcDbArc
 50
251.30559968152713
 51
253.46724331822648
  0
ARC
  5
690
100
AcDbEntity
  8
0
  6
CONTINUOUS
 62
               7
100
AcDbCircle
 10
36.921997902331555
 20
-4.3274539479068963
 30
0.0
 40
0.8814097836866593
100
AcDbArc
 50
249.16783639663885
 51
251.30509574346664
  0
ARC
  5
691
100
AcDbEntity
  8
0
  6
CONTINUOUS
 62
               7
100
AcDbCircle
 10
36.925954232360624
 20
-4.317076848889279
 30
0.0
 40
0.8925154884911465
100
AcDbArc
 50
247.05958525577
 51
249.16737004731678
  0
ARC
  5
692
100
AcDbEntity
  8
0
  6
CONTINUOUS
 62
               7
100
AcDbCircle
 10
36.931613230618467
 20
-4.3037236413469415
 30
0.0
 40
0.9070183285139883
100
AcDbArc
 50
244.98548272674878
 51
247.05916177659881
  0
ARC
  5
693
100
AcDbEntity
  8
0
  6
CONTINUOUS
 62
               7
100
AcDbCircle
 10
36.939179017950948
 20
-4.2875238723829199
 30
0.0
 40
0.9248977473007884
100
AcDbArc
 50
242.94965877027008
 51
244.98510585905697
  0
ARC
  5
694
100
AcDbEntity
  8
0
  6
CONTINUOUS
 62
               7
100
AcDbCircle
 10
36.949143979570863
 20
-4.2680332268872192
 30
0.0
 40
0.9467880557216587
100
AcDbArc
 50
240.79047142950321
 51
242.94899039172853
  0
ARC
  5
695
100
AcDbEntity
  8
0
  6
CONTINUOUS
 62
               7
100
AcDbCircle
 10
36.963014337932236
 20
-4.243253503290056
 30
0.0
 40
0.9751856146405591
100
AcDbArc
 50
238.52513572890268
 51
240.7896493550252
  0
ARC
  5
696
100
AcDbEntity
  8
0
  6
CONTINUOUS
 62
               7
100
AcDbCircle
 10
36.980561242802054
 20
-4.2146029812582171
 30
0.0
 40
1.0087824336491014
100
AcDbArc
 50
236.32547329285086
 51
238.52479050684599
  0
ARC
  5
697
100
AcDbEntity
  8
0
  6
CONTINUOUS
 62
               7
100
AcDbCircle
 10
37.001731730632628
 20
-4.1828371094123966
 30
0.0
 40
1.0469565105542151
100
AcDbArc
 50
234.19394833181494
 51
236.32521446265287
  0
ARC
  5
698
100
AcDbEntity
  8
0
  6
CONTINUOUS
 62
               7
100
AcDbCircle
 10
37.02675227102111
 20
-4.1481588009364856
 30
0.0
 40
1.0897187895978158
100
AcDbArc
 50
232.13249726452804
 51
234.19376978971061
  0
ARC
  5
699
100
AcDbEntity
  8
0
  6
CONTINUOUS
 62
               7
100
AcDbCircle
 10
37.05656463548695
 20
-4.109838491243778
 30
0.0
 40
1.1382700312170682
100
AcDbArc
 50
230.00116996618092
 51
232.13187306362511
  0
ARC
  5
69A
100
AcDbEntity
  8
0
  6
CONTINUOUS
 62
               7
100
AcDbCircle
 10
37.094237971431482
 20
-4.064960286861961
 30
0.0
 40
1.1968646836743488
100
AcDbArc
 50
227.81937465147001
 51
230.00052406292571
  0
ARC
  5
69B
100
AcDbEntity
  8
0
  6
CONTINUOUS
 62
               7
100
AcDbCircle
 10
37.138425423949798
 20
-4.0161939585334494
 30
0.0
 40
1.262672629532426
100
AcDbArc
 50
225.73105398546483
 51
227.81941212471548
  0
ARC
  5
69C
100
AcDbEntity
  8
0
  6
CONTINUOUS
 62
               7
100
AcDbCircle
 10
37.189670269264894
 20
-3.9636400721813345
 30
0.0
 40
1.336075252302974
100
AcDbArc
 50
223.61051206819275
 51
225.73058613787501
  0
ARC
  5
69D
100
AcDbEntity
  8
0
  6
CONTINUOUS
 62
               7
100
AcDbCircle
 10
37.252270409913194
 20
-3.9040187416512211
 30
0.0
 40
1.4225245470859771
100
AcDbArc
 50
221.4760993620246
 51
223.61010722300441
  0
ARC
  5
69E
100
AcDbEntity
  8
0
  6
CONTINUOUS
 62
               7
100
AcDbCircle
 10
37.325258361169432
 20
-3.8395087845797917
 30
0.0
 40
1.519934893233972
100
AcDbArc
 50
219.33977233769167
 51
221.47581497566
  0
ARC
  5
69F
100
AcDbEntity
  8
0
  6
CONTINUOUS
 62
               7
100
AcDbCircle
 10
37.412735543661825
 20
-3.7678142180721395
 30
0.0
 40
1.6330382455386463
100
AcDbArc
 50
217.21733800905426
 51
219.33960577266524
  0
ARC
  5
6A0
100
AcDbEntity
  8
0
  6
CONTINUOUS
 62
               7
100
AcDbCircle
 10
37.513169984722026
 20
-3.6915338941230971
 30
0.0
 40
1.7591563044023779
100
AcDbArc
 50
215.11797332770689
 51
217.21729964211741
  0
ARC
  5
6A1
100
AcDbEntity
  8
0
  6
CONTINUOUS
 62
               7
100
AcDbCircle
 10
37.631240030035599
 20
-3.6084931106318265
 30
0.0
 40
1.9035041734933467
100
AcDbArc
 50
213.0543183714538
 51
215.11808218074967
  0
ARC
  5
6A2
100
AcDbEntity
  8
0
  6
CONTINUOUS
 62
               7
100
AcDbCircle
 10
37.768694605335611
 20
-3.5191124406518455
 30
0.0
 40
2.0674635019234326
100
AcDbArc
 50
210.94666501632599
 51
213.05272129209064
  0
ARC
  5
6A3
100
AcDbEntity
  8
0
  6
CONTINUOUS
 62
               7
100
AcDbCircle
 10
37.927144081914946
 20
-3.4240867859967281
 30
0.0
 40
2.2522231062592284
100
AcDbArc
 50
208.90024827716297
 51
210.94710659439673
  0
ARC
  5
6A4
100
AcDbEntity
  8
0
  6
CONTINUOUS
 62
               7
100
AcDbCircle
 10
38.110149077894761
 20
-3.3230591480235248
 30
0.0
 40
2.4612623661697048
100
AcDbArc
 50
206.84419992855368
 51
208.90029755576097
  0
ARC
  5
6A5
100
AcDbEntity
  8
0
  6
CONTINUOUS
 62
               7
100
AcDbCircle
 10
38.32142109876014
 20
-3.216117497564241
 30
0.0
 40
2.6980584455748691
100
AcDbArc
 50
204.79688870518282
 51
206.84449975495659
  0
ARC
  5
6A6
100
AcDbEntity
  8
0
  6
CONTINUOUS
 62
               7
100
AcDbCircle
 10
38.566936143116862
 20
-3.1027462534811434
 30
0.0
 40
2.9684852815271552
100
AcDbArc
 50
202.70917255837679
 51
204.79589951618007
  0
ARC
  5
6A7
100
AcDbEntity
  8
0
  6
CONTINUOUS
 62
               7
100
AcDbCircle
 10
38.843520569952148
 20
-2.9870014579238031
 30
0.0
 40
3.2683115693123259
100
AcDbArc
 50
200.66463514086291
 51
202.70909159173189
  0
ARC
  5
6A8
100
AcDbEntity
  8
0
  6
CONTINUOUS
 62
               7
100
AcDbCircle
 10
39.147532169089914
 20
-2.872351148774591
 30
0.0
 40
3.5932234738173441
100
AcDbArc
 50
198.61315457467981
 51
200.66446039759532
  0
ARC
  5
6A9
100
AcDbEntity
  8
0
  6
CONTINUOUS
 62
               7
100
AcDbCircle
 10
39.480245542361956
 20
-2.7602685964154503
 30
0.0
 40
3.944308487307179
100
AcDbArc
 50
196.57019298143391
 51
198.61352744566284
  0
ARC
  5
6AA
100
AcDbEntity
  8
0
  6
CONTINUOUS
 62
               7
100
AcDbCircle
 10
39.822553500881213
 20
-2.6583503084118405
 30
0.0
 40
4.3014668167016694
100
AcDbArc
 50
194.54026042390231
 51
196.57103213195174
  0
ARC
  5
6AB
100
AcDbEntity
  8
0
  6
CONTINUOUS
 62
               7
100
AcDbCircle
 10
40.160504565240842
 20
-2.5705952073000518
 30
0.0
 40
4.6506256211513239
100
AcDbArc
 50
192.48035777535409
 51
194.54147221332278
  0
ARC
  5
6AC
100
AcDbEntity
  8
0
  6
CONTINUOUS
 62
               7
100
AcDbCircle
 10
40.456407512612714
 20
-2.5048514142447331
 30
0.0
 40
4.9537439884679388
100
AcDbArc
 50
190.46925384142801
 51
192.48318221304518
  0
ARC
  5
6AD
100
AcDbEntity
  8
0
  6
CONTINUOUS
 62
               7
100
AcDbCircle
 10
40.665949855716519
 20
-2.4658645696607451
 30
0.0
 40
5.1668822103566283
100
AcDbArc
 50
188.44079659032496
 51
190.47216274009324
  0
ARC
  5
6AE
100
AcDbEntity
  8
0
  6
CONTINUOUS
 62
               7
100
AcDbCircle
 10
40.740629933884179
 20
-2.4544202991919164
 30
0.0
 40
5.2424332456517222
100
AcDbArc
 50
186.40093659987494
 51
188.44471158718153
  0
ARC
  5
6AF
100
AcDbEntity
  8
0
  6
CONTINUOUS
 62
               7
100
AcDbCircle
 10
40.638864130393188
 20
-2.4654152163795544
 30
0.0
 40
5.1400760871097102
100
AcDbArc
 50
184.37571833400145
 51
186.40560716991033
  0
ARC
  5
6B0
100
AcDbEntity
  8
0
  6
CONTINUOUS
 62
               7
100
AcDbCircle
 10
40.348318810984352
 20
-2.487204593224682
 30
0.0
 40
4.8487152236888873
100
AcDbArc
 50
182.34400008633639
 51
184.38093799339808
  0
ARC
  5
6B1
100
AcDbEntity
  8
0
  6
CONTINUOUS
 62
               7
100
AcDbCircle
 10
39.895322313870508
 20
-2.5053173252544099
 30
0.0
 40
4.3953569835635475
100
AcDbArc
 50
180.28397725260618
 51
182.349599834971
  0
ARC
  5
6B2
100
AcDbEntity
  8
0
  6
CONTINUOUS
 62
               7
100
AcDbCircle
 10
39.573356528690965
 20
-2.5083544630635259
 30
0.0
 40
4.0733803549498431
100
AcDbArc
 50
179.88248683709224
 51
180.26370356081804
  0
ARC
  5
6B3
100
AcDbEntity
  8
0
  6
CONTINUOUS
 62
               7
100
AcDbCircle
 10
35.752518673581761
 20
-11.945915595853776
 30
0.0
 40
1.1553648381076536
100
AcDbArc
 50
81.42492203625423
 51
82.667146876277556
  0
ARC
  5
6B4
100
AcDbEntity
  8
0
  6
CONTINUOUS
 62
               7
100
AcDbCircle
 10
35.752766402943394
 20
-11.944243946841979
 30
0.0
 40
1.1536749381666052
100
AcDbArc
 50
79.258584393433608
 51
81.42470890125874
  0
ARC
  5
6B5
100
AcDbEntity
  8
0
  6
CONTINUOUS
 62
               7
100
AcDbCircle
 10
35.75236830208388
 20
-11.94628717380354
 30
0.0
 40
1.1557565612105893
100
AcDbArc
 50
77.10737788627813
 51
79.258073020553965
  0
ARC
  5
6B6
100
AcDbEntity
  8
0
  6
CONTINUOUS
 62
               7
100
AcDbCircle
 10
35.750923532114712
 20
-11.95255491134975
 30
0.0
 40
1.1621886524346294
100
AcDbArc
 50
74.976896281260665
 51
77.106891749058079
  0
ARC
  5
6B7
100
AcDbEntity
  8
0
  6
CONTINUOUS
 62
               7
100
AcDbCircle
 10
35.748140270037567
 20
-11.962889579628737
 30
0.0
 40
1.172891541321601
100
AcDbArc
 50
72.872078475841278
 51
74.976441978120732
  0
ARC
  5
6B8
100
AcDbEntity
  8
0
  6
CONTINUOUS
 62
               7
100
AcDbCircle
 10
35.74374214608406
 20
-11.977131794293925
 30
0.0
 40
1.1877973824267298
100
AcDbArc
 50
70.797461977520783
 51
72.871661381619532
  0
ARC
  5
6B9
100
AcDbEntity
  8
0
  6
CONTINUOUS
 62
               7
100
AcDbCircle
 10
35.737468589844411
 20
-11.995120355421463
 30
0.0
 40
1.206848518289146
100
AcDbArc
 50
68.757134705399224
 51
70.797086133308056
  0
ARC
  5
6BA
100
AcDbEntity
  8
0
  6
CONTINUOUS
 62
               7
100
AcDbCircle
 10
35.728849102931008
 20
-12.017259115320755
 30
0.0
 40
1.2306060453551306
100
AcDbArc
 50
66.612438846551299
 51
68.756554612491442
  0
ARC
  5
6BB
100
AcDbEntity
  8
0
  6
CONTINUOUS
 62
               7
100
AcDbCircle
 10
35.716599939477788
 20
-12.045543438151796
 30
0.0
 40
1.2614288403806175
100
AcDbArc
 50
64.377376627482064
 51
66.611741226542037
  0
ARC
  5
6BC
100
AcDbEntity
  8
0
  6
CONTINUOUS
 62
               7
100
AcDbCircle
 10
35.700742832058296
 20
-12.078588155310968
 30
0.0
 40
1.2980812772469721
100
AcDbArc
 50
62.200177229995269
 51
64.377030950383286
  0
ARC
  5
6BD
100
AcDbEntity
  8
0
  6
CONTINUOUS
 62
               7
100
AcDbCircle
 10
35.681223388097948
 20
-12.115596786402605
 30
0.0
 40
1.3399220161149226
100
AcDbArc
 50
60.083488734298534
 51
62.199906680707045
  0
ARC
  5
6BE
100
AcDbEntity
  8
0
  6
CONTINUOUS
 62
               7
100
AcDbCircle
 10
35.657788604006981
 20
-12.156314279036906
 30
0.0
 40
1.3869018340082298
100
AcDbArc
 50
58.029427194731319
 51
60.083289245956443
  0
ARC
  5
6BF
100
AcDbEntity
  8
0
  6
CONTINUOUS
 62
               7
100
AcDbCircle
 10
35.629602929868867
 20
-12.2014473010952
 30
0.0
 40
1.440112939399137
100
AcDbArc
 50
55.915894755207312
 51
58.028898891463079
  0
ARC
  5
6C0
100
AcDbEntity
  8
0
  6
CONTINUOUS
 62
               7
100
AcDbCircle
 10
35.594032550829667
 20
-12.253990531338417
 30
0.0
 40
1.5035640443162497
100
AcDbArc
 50
53.758476066696922
 51
55.915352172414408
  0
ARC
  5
6C1
100
AcDbEntity
  8
0
  6
CONTINUOUS
 62
               7
100
AcDbCircle
 10
35.552140931860066
 20
-12.31114033850524
 30
0.0
 40
1.5744231171216525
100
AcDbArc
 50
51.683410240941399
 51
53.758457133662361
  0
ARC
  5
6C2
100
AcDbEntity
  8
0
  6
CONTINUOUS
 62
               7
100
AcDbCircle
 10
35.503457910537207
 20
-12.372728637950033
 30
0.0
 40
1.6529288816836427
100
AcDbArc
 50
49.579634764233944
 51
51.683014485892457
  0
ARC
  5
6C3
100
AcDbEntity
  8
0
  6
CONTINUOUS
 62
               7
100
AcDbCircle
 10
35.444346553640997
 20
-12.442118037924715
 30
0.0
 40
1.7440828242107302
100
AcDbArc
 50
47.461812485366671
 51
49.579289434050878
  0
ARC
  5
6C4
100
AcDbEntity
  8
0
  6
CONTINUOUS
 62
               7
100
AcDbCircle
 10
35.375672441642791
 20
-12.516950629504493
 30
0.0
 40
1.8456507835321854
100
AcDbArc
 50
45.339690439252934
 51
47.461563965274721
  0
ARC
  5
6C5
100
AcDbEntity
  8
0
  6
CONTINUOUS
 62
               7
100
AcDbCircle
 10
35.294066359877121
 20
-12.599522558899594
 30
0.0
 40
1.9617441773085496
100
AcDbArc
 50
43.225910519069139
 51
45.33953495864754
  0
ARC
  5
6C6
100
AcDbEntity
  8
0
  6
CONTINUOUS
 62
               7
100
AcDbCircle
 10
35.201010222856894
 20
-12.686984819533166
 30
0.0
 40
2.0894512314174238
100
AcDbArc
 50
41.127979318430661
 51
43.225860683954721
  0
ARC
  5
6C7
100
AcDbEntity
  8
0
  6
CONTINUOUS
 62
               7
100
AcDbCircle
 10
35.092842353125775
 20
-12.781442287125159
 30
0.0
 40
2.2330565976797208
100
AcDbArc
 50
39.055996559595627
 51
41.128048153047196
  0
ARC
  5
6C8
100
AcDbEntity
  8
0
  6
CONTINUOUS
 62
               7
100
AcDbCircle
 10
34.968537009733183
 20
-12.882237078044724
 30
0.0
 40
2.3930922366681844
100
AcDbArc
 50
36.934967577747663
 51
39.054750865241566
  0
ARC
  5
6C9
100
AcDbEntity
  8
0
  6
CONTINUOUS
 62
               7
100
AcDbCircle
 10
34.827364172617649
 20
-12.988386735081647
 30
0.0
 40
2.5697204320578275
100
AcDbArc
 50
34.860280900172633
 51
36.935311601635426
  0
ARC
  5
6CA
100
AcDbEntity
  8
0
  6
CONTINUOUS
 62
               7
100
AcDbCircle
 10
34.66727056786587
 20
-13.099907711660478
 30
0.0
 40
2.7648278140138127
100
AcDbArc
 50
32.763784300571402
 51
34.860332643969642
  0
ARC
  5
6CB
100
AcDbEntity
  8
0
  6
CONTINUOUS
 62
               7
100
AcDbCircle
 10
34.488520538901469
 20
-13.214985861619496
 30
0.0
 40
2.9774179180260334
100
AcDbArc
 50
30.726884204431748
 51
32.764455242535007
  0
ARC
  5
6CC
100
AcDbEntity
  8
0
  6
CONTINUOUS
 62
               7
100
AcDbCircle
 10
34.294785455345448
 20
-13.330113753697674
 30
0.0
 40
3.2027792138376987
100
AcDbArc
 50
28.683837398246926
 51
30.726475630672464
  0
ARC
  5
6CD
100
AcDbEntity
  8
0
  6
CONTINUOUS
 62
               7
100
AcDbCircle
 10
34.084863212429184
 20
-13.444956462640548
 30
0.0
 40
3.4420618830909504
100
AcDbArc
 50
26.64406455646521
 51
28.683700025493394
  0
ARC
  5
6CE
100
AcDbEntity
  8
0
  6
CONTINUOUS
 62
               7
100
AcDbCircle
 10
33.863701523464641
 20
-13.555929554765441
 30
0.0
 40
3.6895038353855494
100
AcDbArc
 50
24.612169418243386
 51
26.644213698148139
  0
ARC
  5
6CF
100
AcDbEntity
  8
0
  6
CONTINUOUS
 62
               7
100
AcDbCircle
 10
33.637103140612254
 20
-13.65974657370748
 30
0.0
 40
3.9387523065594494
100
AcDbArc
 50
22.536490800113032
 51
24.61235399434327
  0
ARC
  5
6D0
100
AcDbEntity
  8
0
  6
CONTINUOUS
 62
               7
100
AcDbCircle
 10
33.414846306615317
 20
-13.752085157102883
 30
0.0
 40
4.179427407790862
100
AcDbArc
 50
20.472738699495643
 51
22.53789510812695
  0
ARC
  5
6D1
100
AcDbEntity
  8
0
  6
CONTINUOUS
 62
               7
100
AcDbCircle
 10
33.216722189262128
 20
-13.826190091404584
 30
0.0
 40
4.3909568183558054
100
AcDbArc
 50
18.411110768756906
 51
20.474410854072399
  0
ARC
  5
6D2
100
AcDbEntity
  8
0
  6
CONTINUOUS
 62
               7
100
AcDbCircle
 10
33.062938844667656
 20
-13.877555594342809
 30
0.0
 40
4.5530916549443816
100
AcDbArc
 50
16.383347079526359
 51
18.413205839849123
  0
ARC
  5
6D3
100
AcDbEntity
  8
0
  6
CONTINUOUS
 62
               7
100
AcDbCircle
 10
32.974642041189412
 20
-13.903692291349159
 30
0.0
 40
4.6451754430736036
100
AcDbArc
 50
14.321200355521613
 51
16.385446585992153
  0
ARC
  5
6D4
100
AcDbEntity
  8
0
  6
CONTINUOUS
 62
               7
100
AcDbCircle
 10
32.970537531138859
 20
-13.90496056804038
 30
0.0
 40
4.649466125201223
100
AcDbArc
 50
12.287524785731456
 51
14.323832351812483
  0
ARC
  5
6D5
100
AcDbEntity
  8
0
  6
CONTINUOUS
 62
               7
100
AcDbCircle
 10
33.062380802966658
 20
-13.885186444355142
 30
0.0
 40
4.5555185280978989
100
AcDbArc
 50
10.249067486419207
 51
12.29035129179965
  0
ARC
  5
6D6
100
AcDbEntity
  8
0
  6
CONTINUOUS
 62
               7
100
AcDbCircle
 10
33.251063360117513
 20
-13.851299615215623
 30
0.0
 40
4.3638172725416116
100
AcDbArc
 50
8.2153907061555227
 51
10.252030923277148
  0
ARC
  5
6D7
100
AcDbEntity
  8
0
  6
CONTINUOUS
 62
               7
100
AcDbCircle
 10
33.523211963330624
 20
-13.812230427155527
 30
0.0
 40
4.0888787123857897
100
AcDbArc
 50
6.1528632145365769
 51
8.2184785901149038
  0
ARC
  5
6D8
100
AcDbEntity
  8
0
  6
CONTINUOUS
 62
               7
100
AcDbCircle
 10
33.847300265127615
 20
-13.777284254648833
 30
0.0
 40
3.7629117474124989
100
AcDbArc
 50
4.2258845932262368
 51
6.1527320581776372
  0
LINE
  5
6D9
100
AcDbEntity
  8
0
  6
CONTINUOUS
 62
               7
100
AcDbLine
 10
3.5
 20
-0.5
 30
0.0
 11
3.5
 21
-15.5
 31
0.0
  0
ENDBLK
  5
6DA
100
AcDbEntity
  8
0
100
AcDbBlockEnd
  0
BLOCK
  5
6DB
100
AcDbEntity
  8
0
100
AcDbBlockBegin
  2
F15T-15
 70
               0
 10
0.0
 20
0.0
 30
0.0
  3
F15T-15
  1

  0
LINE
  5
6DC
100
AcDbEntity
  8
0
  6
CENTER
 62
               2
100
AcDbLine
 10
32.5
 20
33.699996948242187
 30
0.0
 11
29.800003051757813
 21
33.699996948242187
 31
0.0
  0
LINE
  5
6DD
100
AcDbEntity
  8
0
  6
CONTINUOUS
 62
               7
100
AcDbLine
 10
30.5
 20
36.899993896484375
 30
0.0
 11
3.4999847412109375
 21
36.899993896484375
 31
0.0
  0
LINE
  5
6DE
100
AcDbEntity
  8
0
  6
CONTINUOUS
 62
               7
100
AcDbLine
 10
31.5
 20
31.75
 30
0.0
 11
31.5
 21
33.400009155273438
 31
0.0
  0
LINE
  5
6DF
100
AcDbEntity
  8
0
  6
CONTINUOUS
 62
               7
100
AcDbLine
 10
31.5
 20
31.75
 30
0.0
 11
30.5
 21
31.75
 31
0.0
  0
LINE
  5
6E0
100
AcDbEntity
  8
0
  6
CONTINUOUS
 62
               7
100
AcDbLine
 10
31.5
 20
35.649993896484375
 30
0.0
 11
30.5
 21
35.649993896484375
 31
0.0
  0
LINE
  5
6E1
100
AcDbEntity
  8
0
  6
CONTINUOUS
 62
               7
100
AcDbLine
 10
30.899993896484375
 20
33.400009155273438
 30
0.0
 11
30.899993896484375
 21
34.0
 31
0.0
  0
LINE
  5
6E2
100
AcDbEntity
  8
0
  6
CONTINUOUS
 62
               7
100
AcDbLine
 10
31.5
 20
33.399993896484375
 30
0.0
 11
30.900009155273437
 21
33.399993896484375
 31
0.0
  0
LINE
  5
6E3
100
AcDbEntity
  8
0
  6
CONTINUOUS
 62
               7
100
AcDbLine
 10
31.5
 20
34.0
 30
0.0
 11
30.900009155273437
 21
34.0
 31
0.0
  0
LINE
  5
6E4
100
AcDbEntity
  8
0
  6
CONTINUOUS
 62
               7
100
AcDbLine
 10
31.5
 20
34.0
 30
0.0
 11
31.5
 21
35.650009155273438
 31
0.0
  0
LINE
  5
6E5
100
AcDbEntity
  8
0
  6
CONTINUOUS
 62
               7
100
AcDbLine
 10
30.5
 20
15.5
 30
0.0
 11
3.4999847412109375
 21
15.5
 31
0.0
  0
LINE
  5
6E6
100
AcDbEntity
  8
0
  6
CONTINUOUS
 62
               7
100
AcDbLine
 10
30.5
 20
-30.499992370605469
 30
0.0
 11
30.5
 21
37.0
 31
0.0
  0
LINE
  5
6E7
100
AcDbEntity
  8
0
  6
CONTINUOUS
 62
               7
100
AcDbLine
 10
35.375732802152243
 20
15.5
 30
0.0
 11
30.5
 21
15.5
 31
0.0
  0
LINE
  5
6E8
100
AcDbEntity
  8
0
  6
CONTINUOUS
 62
               7
100
AcDbLine
 10
37.5
 20
13.375747680664063
 30
0.0
 11
37.5
 21
0.25
 31
0.0
  0
LINE
  5
6E9
100
AcDbEntity
  8
0
  6
CONTINUOUS
 62
               7
100
AcDbLine
 10
37.412123379240256
 20
13.587880453654179
 30
0.0
 11
35.587860302116496
 21
15.412139993982237
 31
0.0
  0
LINE
  5
6EA
100
AcDbEntity
  8
0
  6
CONTINUOUS
 62
               7
100
AcDbLine
 10
37.412136429980819
 20
-28.587876524033163
 30
0.0
 11
35.587873045309607
 21
-30.412135756813768
 31
0.0
  0
LINE
  5
6EB
100
AcDbEntity
  8
0
  6
CONTINUOUS
 62
               7
100
AcDbLine
 10
33.5
 20
-38.599990844726563
 30
0.0
 11
33.5
 21
-32.399993896484375
 31
0.0
  0
LINE
  5
6EC
100
AcDbEntity
  8
0
  6
CONTINUOUS
 62
               7
100
AcDbLine
 10
35.5
 20
-39.499984741210938
 30
0.0
 11
35.5
 21
-31.499984741210938
 31
0.0
  0
LINE
  5
6ED
100
AcDbEntity
  8
0
  6
CONTINUOUS
 62
               7
100
AcDbLine
 10
34.499944595204397
 20
-30.500016348230929
 30
0.0
 11
35.499960239648317
 21
-31.500024490446776
 31
0.0
  0
LINE
  5
6EE
100
AcDbEntity
  8
0
  6
CONTINUOUS
 62
               7
100
AcDbLine
 10
34.499999047719029
 20
-40.500028143873351
 30
0.0
 11
35.500000193602318
 21
-39.500027166577638
 31
0.0
  0
LINE
  5
6EF
100
AcDbEntity
  8
0
  6
CONTINUOUS
 62
               7
100
AcDbLine
 10
34.300003051757812
 20
-38.599990844726563
 30
0.0
 11
34.300003051757812
 21
-32.399993896484375
 31
0.0
  0
LINE
  5
6F0
100
AcDbEntity
  8
0
  6
CONTINUOUS
 62
               7
100
AcDbLine
 10
34.499984741210937
 20
-40.5
 30
0.0
 11
3.5
 21
-40.5
 31
0.0
  0
LINE
  5
6F1
100
AcDbEntity
  8
0
  6
CONTINUOUS
 62
               7
100
AcDbLine
 10
32.999984741210938
 20
-49.5
 30
0.0
 11
4.0
 21
-49.5
 31
0.0
  0
LINE
  5
6F2
100
AcDbEntity
  8
0
  6
CONTINUOUS
 62
               7
100
AcDbLine
 10
3.5
 20
-48.999984741210937
 30
0.0
 11
3.5
 21
37.0
 31
0.0
  0
LINE
  5
6F3
100
AcDbEntity
  8
0
  6
CONTINUOUS
 62
               7
100
AcDbLine
 10
33.5
 20
-48.999984741210937
 30
0.0
 11
33.5
 21
-40.499984741210937
 31
0.0
  0
LINE
  5
6F4
100
AcDbEntity
  8
0
  6
CONTINUOUS
 62
               7
100
AcDbLine
 10
33.499984741210938
 20
-38.5
 30
0.0
 11
31.499984741210938
 21
-38.5
 31
0.0
  0
LINE
  5
6F5
100
AcDbEntity
  8
0
  6
CONTINUOUS
 62
               7
100
AcDbLine
 10
33.499984741210938
 20
-32.5
 30
0.0
 11
31.499984741210938
 21
-32.5
 31
0.0
  0
LINE
  5
6F6
100
AcDbEntity
  8
0
  6
CONTINUOUS
 62
               7
100
AcDbLine
 10
32.5
 20
-38.599990844726563
 30
0.0
 11
32.5
 21
-38.499984741210937
 31
0.0
  0
LINE
  5
6F7
100
AcDbEntity
  8
0
  6
CONTINUOUS
 62
               7
100
AcDbLine
 10
31.5
 20
-40.499984741210937
 30
0.0
 11
31.5
 21
-38.499984741210937
 31
0.0
  0
LINE
  5
6F8
100
AcDbEntity
  8
0
  6
CONTINUOUS
 62
               7
100
AcDbLine
 10
32.5
 20
-32.499984741210937
 30
0.0
 11
32.5
 21
-32.399993896484375
 31
0.0
  0
LINE
  5
6F9
100
AcDbEntity
  8
0
  6
CONTINUOUS
 62
               7
100
AcDbLine
 10
31.5
 20
-32.499984741210937
 30
0.0
 11
31.5
 21
-30.499992370605469
 31
0.0
  0
LINE
  5
6FA
100
AcDbEntity
  8
0
  6
CONTINUOUS
 62
               7
100
AcDbLine
 10
31.599990844726563
 20
-40.499984741210937
 30
0.0
 11
31.599990844726563
 21
-38.599990844726563
 31
0.0
  0
LINE
  5
6FB
100
AcDbEntity
  8
0
  6
CONTINUOUS
 62
               7
100
AcDbLine
 10
34.29998779296875
 20
-32.399993896484375
 30
0.0
 11
31.599990844726563
 21
-32.399993896484375
 31
0.0
  0
LINE
  5
6FC
100
AcDbEntity
  8
0
  6
CONTINUOUS
 62
               7
100
AcDbLine
 10
34.29998779296875
 20
-38.599990844726563
 30
0.0
 11
31.599990844726563
 21
-38.599990844726563
 31
0.0
  0
LINE
  5
6FD
100
AcDbEntity
  8
0
  6
CONTINUOUS
 62
               7
100
AcDbLine
 10
31.599990844726563
 20
-32.399993896484375
 30
0.0
 11
31.599990844726563
 21
-30.499992370605469
 31
0.0
  0
LINE
  5
6FE
100
AcDbEntity
  8
0
  6
CONTINUOUS
 62
               7
100
AcDbLine
 10
34.5
 20
-40.499984741210937
 30
0.0
 11
34.5
 21
-30.499992370605469
 31
0.0
  0
LINE
  5
6FF
100
AcDbEntity
  8
0
  6
CONTINUOUS
 62
               7
100
AcDbLine
 10
37.5
 20
8.29998779296875
 30
0.0
 11
33.5
 21
8.29998779296875
 31
0.0
  0
LINE
  5
700
100
AcDbEntity
  8
0
  6
CONTINUOUS
 62
               7
100
AcDbLine
 10
37.5
 20
-26.700004577636719
 30
0.0
 11
30.5
 21
-26.700004577636719
 31
0.0
  0
LINE
  5
701
100
AcDbEntity
  8
0
  6
CONTINUOUS
 62
               7
100
AcDbLine
 10
37.5
 20
-21.300003051757813
 30
0.0
 11
30.5
 21
-21.300003051757813
 31
0.0
  0
LINE
  5
702
100
AcDbEntity
  8
0
  6
CONTINUOUS
 62
               7
100
AcDbLine
 10
31.300003051757813
 20
-26.250003814697266
 30
0.0
 11
31.100006103515625
 21
-26.250003814697266
 31
0.0
  0
LINE
  5
703
100
AcDbEntity
  8
0
  6
CONTINUOUS
 62
               7
100
AcDbLine
 10
31.300003051757813
 20
-21.750003814697266
 30
0.0
 11
31.100006103515625
 21
-21.750003814697266
 31
0.0
  0
LINE
  5
704
100
AcDbEntity
  8
0
  6
CONTINUOUS
 62
               7
100
AcDbLine
 10
32.800003051757813
 20
-23.250007629394531
 30
0.0
 11
32.800003051757813
 21
-24.750007629394531
 31
0.0
  0
LINE
  5
705
100
AcDbEntity
  8
0
  6
CONTINUOUS
 62
               7
100
AcDbLine
 10
33.699981689453125
 20
13.249984741210938
 30
0.0
 11
33.499984741210938
 21
13.249984741210938
 31
0.0
  0
LINE
  5
706
100
AcDbEntity
  8
0
  6
CONTINUOUS
 62
               7
100
AcDbLine
 10
35.199996948242187
 20
11.749984741210937
 30
0.0
 11
35.199996948242187
 21
10.249984741210937
 31
0.0
  0
LINE
  5
707
100
AcDbEntity
  8
0
  6
CONTINUOUS
 62
               7
100
AcDbLine
 10
33.699981689453125
 20
8.7499847412109375
 30
0.0
 11
33.499984741210938
 21
8.7499847412109375
 31
0.0
  0
LINE
  5
708
100
AcDbEntity
  8
0
  6
CONTINUOUS
 62
               7
100
AcDbLine
 10
30.5
 20
24.0
 30
0.0
 11
3.4999847412109375
 21
24.0
 31
0.0
  0
LINE
  5
709
100
AcDbEntity
  8
0
  6
CONTINUOUS
 62
               7
100
AcDbLine
 10
24.300018310546875
 20
-49.199996948242188
 30
0.0
 11
24.300018310546875
 21
-47.300003051757813
 31
0.0
  0
LINE
  5
70A
100
AcDbEntity
  8
0
  6
CONTINUOUS
 62
               7
100
AcDbLine
 10
33.5
 20
8.29998779296875
 30
0.0
 11
33.5
 21
15.499984741210938
 31
0.0
  0
LINE
  5
70B
100
AcDbEntity
  8
0
  6
CONTINUOUS
 62
               7
100
AcDbLine
 10
4.5
 20
27.499984741210938
 30
0.0
 11
3.5
 21
27.499984741210938
 31
0.0
  0
LINE
  5
70C
100
AcDbEntity
  8
0
  6
CONTINUOUS
 62
               7
100
AcDbLine
 10
4.5
 20
26.0
 30
0.0
 11
4.5
 21
27.499984741210938
 31
0.0
  0
LINE
  5
70D
100
AcDbEntity
  8
0
  6
CONTINUOUS
 62
               7
100
AcDbLine
 10
26.199996948242188
 20
27.499984741210938
 30
0.0
 11
7.0
 21
27.499984741210938
 31
0.0
  0
LINE
  5
70E
100
AcDbEntity
  8
0
  6
CONTINUOUS
 62
               7
100
AcDbLine
 10
7.0
 20
26.0
 30
0.0
 11
7.0
 21
27.499984741210938
 31
0.0
  0
LINE
  5
70F
100
AcDbEntity
  8
0
  6
CONTINUOUS
 62
               7
100
AcDbLine
 10
26.199996948242188
 20
26.0
 30
0.0
 11
26.199996948242188
 21
27.499984741210938
 31
0.0
  0
LINE
  5
710
100
AcDbEntity
  8
0
  6
CONTINUOUS
 62
               7
100
AcDbLine
 10
29.199996948242188
 20
26.0
 30
0.0
 11
29.199996948242188
 21
27.499984741210938
 31
0.0
  0
LINE
  5
711
100
AcDbEntity
  8
0
  6
CONTINUOUS
 62
               7
100
AcDbLine
 10
30.5
 20
27.499984741210938
 30
0.0
 11
29.199996948242188
 21
27.499984741210938
 31
0.0
  0
LINE
  5
712
100
AcDbEntity
  8
0
  6
CENTER
 62
               2
100
AcDbLine
 10
2.4710540771484375
 20
0.0
 30
0.0
 11
-1.58758544921875
 21
0.0
 31
0.0
  0
LINE
  5
713
100
AcDbEntity
  8
0
  6
CENTER
 62
               2
100
AcDbLine
 10
0.0
 20
2.5294189453125
 30
0.0
 11
0.0
 21
-2.3308258056640625
 31
0.0
  0
LINE
  5
714
100
AcDbEntity
  8
0
  6
CONTINUOUS
 62
               7
100
AcDbLine
 10
-6.0
 20
15.499984741210938
 30
0.0
 11
-6.0
 21
-30.5
 31
0.0
  0
LINE
  5
715
100
AcDbEntity
  8
0
  6
CONTINUOUS
 62
               7
100
AcDbLine
 10
3.0
 20
15.499984741210938
 30
0.0
 11
-6.0
 21
15.499984741210938
 31
0.0
  0
LINE
  5
716
100
AcDbEntity
  8
0
  6
CONTINUOUS
 62
               7
100
AcDbLine
 10
3.0
 20
-30.5
 30
0.0
 11
-6.0
 21
-30.5
 31
0.0
  0
LINE
  5
717
100
AcDbEntity
  8
0
  6
CENTER
 62
               2
100
AcDbLine
 10
34.320953369140625
 20
0.25
 30
0.0
 11
42.078445434570313
 21
0.25
 31
0.0
  0
LINE
  5
718
100
AcDbEntity
  8
0
  6
CONTINUOUS
 62
               7
100
AcDbLine
 10
37.5
 20
7.7499847412109375
 30
0.0
 11
40.0
 21
7.7499847412109375
 31
0.0
  0
LINE
  5
719
100
AcDbEntity
  8
0
  6
CONTINUOUS
 62
               7
100
AcDbLine
 10
37.5
 20
-22.750007629394531
 30
0.0
 11
40.0
 21
-22.750007629394531
 31
0.0
  0
LINE
  5
71A
100
AcDbEntity
  8
0
  6
CONTINUOUS
 62
               7
100
AcDbLine
 10
40.5
 20
-22.250007629394531
 30
0.0
 11
40.5
 21
-8.2500076293945313
 31
0.0
  0
LINE
  5
71B
100
AcDbEntity
  8
0
  6
CENTER
 62
               2
100
AcDbLine
 10
34.320953369140625
 20
-15.250011444091797
 30
0.0
 11
42.078445434570313
 21
-15.250011444091797
 31
0.0
  0
LINE
  5
71C
100
AcDbEntity
  8
0
  6
CONTINUOUS
 62
               7
100
AcDbLine
 10
30.400009155273438
 20
-47.0
 30
0.0
 11
24.600021362304688
 21
-47.0
 31
0.0
  0
LINE
  5
71D
100
AcDbEntity
  8
0
  6
CONTINUOUS
 62
               7
100
AcDbLine
 10
30.70001220703125
 20
-49.199996948242188
 30
0.0
 11
30.70001220703125
 21
-47.300003051757813
 31
0.0
  0
LINE
  5
71E
100
AcDbEntity
  8
0
  6
DASHED
 62
               4
100
AcDbLine
 10
18.000015258789063
 20
-51.5
 30
0.0
 11
-17.0
 21
-51.5
 31
0.0
  0
LINE
  5
71F
100
AcDbEntity
  8
0
  6
DASHED
 62
               4
100
AcDbLine
 10
-7.0
 20
-49.899993896484375
 30
0.0
 11
-17.0
 21
-49.899993896484375
 31
0.0
  0
LINE
  5
720
100
AcDbEntity
  8
0
  6
DASHED
 62
               4
100
AcDbLine
 10
-7.0
 20
9.9999847412109375
 30
0.0
 11
-7.0
 21
-51.5
 31
0.0
  0
LINE
  5
721
100
AcDbEntity
  8
0
  6
DASHED
 62
               4
100
AcDbLine
 10
-17.0
 20
-49.899993896484375
 30
0.0
 11
-17.0
 21
-51.5
 31
0.0
  0
LINE
  5
722
100
AcDbEntity
  8
0
  6
DASHED
 62
               4
100
AcDbLine
 10
18.000015258789063
 20
9.9999847412109375
 30
0.0
 11
18.000015258789063
 21
-51.5
 31
0.0
  0
LINE
  5
723
100
AcDbEntity
  8
0
  6
DASHED
 62
               4
100
AcDbLine
 10
18.000015258789063
 20
9.9999847412109375
 30
0.0
 11
-7.0
 21
9.9999847412109375
 31
0.0
  0
LINE
  5
724
100
AcDbEntity
  8
0
  6
CONTINUOUS
 62
               7
100
AcDbLine
 10
30.250015258789063
 20
-47.499984741210938
 30
0.0
 11
30.250015258789063
 21
-46.999984741210937
 31
0.0
  0
LINE
  5
725
100
AcDbEntity
  8
0
  6
CONTINUOUS
 62
               7
100
AcDbLine
 10
28.75
 20
-49.0
 30
0.0
 11
26.250015258789063
 21
-49.0
 31
0.0
  0
LINE
  5
726
100
AcDbEntity
  8
0
  6
CONTINUOUS
 62
               7
100
AcDbLine
 10
24.750015258789063
 20
-47.499984741210938
 30
0.0
 11
24.750015258789063
 21
-46.999984741210937
 31
0.0
  0
LINE
  5
727
100
AcDbEntity
  8
0
  6
CENTER
 62
               2
100
AcDbLine
 10
0.0
 20
-17.529436111450195
 30
0.0
 11
0.0
 21
-12.66917610168457
 31
0.0
  0
LINE
  5
728
100
AcDbEntity
  8
0
  6
CENTER
 62
               2
100
AcDbLine
 10
2.4710540771484375
 20
-15.000003814697266
 30
0.0
 11
-1.58758544921875
 21
-15.000003814697266
 31
0.0
  0
ARC
  5
729
100
AcDbEntity
  8
0
  6
CONTINUOUS
 62
               7
100
AcDbCircle
 10
37.199981689453125
 20
-28.375724792480469
 30
0.0
 40
0.300000011920929
100
AcDbArc
 50
315.00000899304399
 51
359.99997267924249
  0
ARC
  5
72A
100
AcDbEntity
  8
0
  6
CONTINUOUS
 62
               7
100
AcDbCircle
 10
35.375732421875
 20
-30.199989318847656
 30
0.0
 40
0.300000011920929
100
AcDbArc
 50
269.99996334457541
 51
314.99995435153068
  0
ARC
  5
72B
100
AcDbEntity
  8
0
  6
CONTINUOUS
 62
               7
100
AcDbCircle
 10
37.199996948242188
 20
13.375747680664063
 30
0.0
 40
0.300000011920929
100
AcDbArc
 50
359.99997267924249
 51
44.999936365441869
  0
ARC
  5
72C
100
AcDbEntity
  8
0
  6
CONTINUOUS
 62
               7
100
AcDbCircle
 10
35.375732421875
 20
15.20001220703125
 30
0.0
 40
0.300000011920929
100
AcDbArc
 50
44.999936365441869
 51
89.999927372397096
  0
ARC
  5
72D
100
AcDbEntity
  8
0
  6
CONTINUOUS
 62
               7
100
AcDbCircle
 10
32.999984741210938
 20
-48.999984741210937
 30
0.0
 40
0.5
100
AcDbArc
 50
270.00001798608872
 51
359.99995901886416
  0
ARC
  5
72E
100
AcDbEntity
  8
0
  6
CONTINUOUS
 62
               7
100
AcDbCircle
 10
4.0
 20
-48.999984741210937
 30
0.0
 40
0.5
100
AcDbArc
 50
179.99996402782091
 51
269.99994604173139
  0
ARC
  5
72F
100
AcDbEntity
  8
0
  6
CONTINUOUS
 62
               7
100
AcDbCircle
 10
31.300003051757813
 20
-24.750007629394531
 30
0.0
 40
1.5
100
AcDbArc
 50
270.00007262760209
 51
0.0000409811350201
  0
ARC
  5
730
100
AcDbEntity
  8
0
  6
CONTINUOUS
 62
               7
100
AcDbCircle
 10
31.300003051757813
 20
-23.250007629394531
 30
0.0
 40
1.5
100
AcDbArc
 50
0.0000409811350201
 51
89.999982013910454
  0
ARC
  5
731
100
AcDbEntity
  8
0
  6
CONTINUOUS
 62
               7
100
AcDbCircle
 10
33.699981689453125
 20
11.749984741210937
 30
0.0
 40
1.5
100
AcDbArc
 50
0.0000409811350201
 51
89.999982013910454
  0
ARC
  5
732
100
AcDbEntity
  8
0
  6
CONTINUOUS
 62
               7
100
AcDbCircle
 10
33.699981689453125
 20
10.249984741210937
 30
0.0
 40
1.5
100
AcDbArc
 50
270.00007262760209
 51
0.0000409811350201
  0
ARC
  5
733
100
AcDbEntity
  8
0
  6
CONTINUOUS
 62
               7
100
AcDbCircle
 10
6.5
 20
27.0
 30
0.0
 40
2.4999990463256836
100
AcDbArc
 50
203.5781768361424
 51
336.42181132471086
  0
ARC
  5
734
100
AcDbEntity
  8
0
  6
CONTINUOUS
 62
               7
100
AcDbCircle
 10
24.000015258789063
 20
-49.199996948242188
 30
0.0
 40
0.300000011920929
100
AcDbArc
 50
270.00001798608872
 51
0.0
  0
ARC
  5
735
100
AcDbEntity
  8
0
  6
CONTINUOUS
 62
               7
100
AcDbCircle
 10
24.600021362304688
 20
-47.300003051757813
 30
0.0
 40
0.300000011920929
100
AcDbArc
 50
89.999982013910454
 51
179.99996402782091
  0
CIRCLE
  5
736
100
AcDbEntity
  8
0
  6
CONTINUOUS
 62
               7
100
AcDbCircle
 10
0.0
 20
0.0
 30
0.0
 40
1.6999998092651367
  0
ARC
  5
737
100
AcDbEntity
  8
0
  6
CONTINUOUS
 62
               7
100
AcDbCircle
 10
40.0
 20
7.2499847412109375
 30
0.0
 40
0.5
100
AcDbArc
 50
0.0
 51
89.999982013910454
  0
ARC
  5
738
100
AcDbEntity
  8
0
  6
CONTINUOUS
 62
               7
100
AcDbCircle
 10
40.0
 20
-22.250007629394531
 30
0.0
 40
0.5
100
AcDbArc
 50
270.00001798608872
 51
0.0
  0
ARC
  5
739
100
AcDbEntity
  8
0
  6
CONTINUOUS
 62
               7
100
AcDbCircle
 10
30.400009155273438
 20
-47.300003051757813
 30
0.0
 40
0.300000011920929
100
AcDbArc
 50
0.0
 51
89.999982013910454
  0
ARC
  5
73A
100
AcDbEntity
  8
0
  6
CONTINUOUS
 62
               7
100
AcDbCircle
 10
31.000015258789063
 20
-49.199996948242188
 30
0.0
 40
0.300000011920929
100
AcDbArc
 50
179.99998133066492
 51
270.00001798608872
  0
ARC
  5
73B
100
AcDbEntity
  8
0
  6
CONTINUOUS
 62
               7
100
AcDbCircle
 10
28.75
 20
-47.499984741210938
 30
0.0
 40
1.5
100
AcDbArc
 50
270.00001798608872
 51
359.99995901886416
  0
ARC
  5
73C
100
AcDbEntity
  8
0
  6
CONTINUOUS
 62
               7
100
AcDbCircle
 10
26.250015258789063
 20
-47.499984741210938
 30
0.0
 40
1.5
100
AcDbArc
 50
179.99990938630756
 51
269.99994604173139
  0
CIRCLE
  5
73D
100
AcDbEntity
  8
0
  6
CONTINUOUS
 62
               7
100
AcDbCircle
 10
0.0
 20
-15.000003814697266
 30
0.0
 40
1.6999998092651367
  0
LINE
  5
73E
100
AcDbEntity
  8
0
  6
CONTINUOUS
 62
               7
100
AcDbLine
 10
30.5
 20
26.0
 30
0.0
 11
3.4999847412109375
 21
26.0
 31
0.0
  0
LINE
  5
73F
100
AcDbEntity
  8
0
  6
CONTINUOUS
 62
               7
100
AcDbLine
 10
31.100006103515625
 20
-26.500003814697266
 30
0.0
 11
31.100006103515625
 21
-21.500003814697266
 31
0.0
  0
LINE
  5
740
100
AcDbEntity
  8
0
  6
CONTINUOUS
 62
               7
100
AcDbLine
 10
30.5
 20
-21.500003814697266
 30
0.0
 11
31.100006103515625
 21
-21.500003814697266
 31
0.0
  0
LINE
  5
741
100
AcDbEntity
  8
0
  6
CONTINUOUS
 62
               7
100
AcDbLine
 10
30.5
 20
-26.500003814697266
 30
0.0
 11
31.100006103515625
 21
-26.500003814697266
 31
0.0
  0
LINE
  5
742
100
AcDbEntity
  8
0
  6
CONTINUOUS
 62
               7
100
AcDbLine
 10
30.499992021019352
 20
-23.595860943958542
 30
0.0
 11
31.10000954998759
 21
-23.249440655872604
 31
0.0
  0
LINE
  5
743
100
AcDbEntity
  8
0
  6
CONTINUOUS
 62
               7
100
AcDbLine
 10
30.49999503287745
 20
-24.750559733078262
 30
0.0
 11
31.099999347346966
 21
-24.404147074386856
 31
0.0
  0
LINE
  5
744
100
AcDbEntity
  8
0
  6
CONTINUOUS
 62
               4
100
AcDbLine
 10
14.599999999999994
 20
70.0
 30
0.0
 11
28.174999999999983
 21
70.0
 31
0.0
  0
LINE
  5
745
100
AcDbEntity
  8
0
  6
CONTINUOUS
 62
               4
100
AcDbLine
 10
30.5
 20
37.0
 30
0.0
 11
30.5
 21
61.0
 31
0.0
  0
LINE
  5
746
100
AcDbEntity
  8
0
  6
CONTINUOUS
 62
               4
100
AcDbLine
 10
3.5
 20
37.0
 30
0.0
 11
3.5
 21
61.0
 31
0.0
  0
LINE
  5
747
100
AcDbEntity
  8
0
  6
CONTINUOUS
 62
               4
100
AcDbLine
 10
3.5
 20
69.5
 30
0.0
 11
3.5
 21
61.0
 31
0.0
  0
LINE
  5
748
100
AcDbEntity
  8
0
  6
CONTINUOUS
 62
               4
100
AcDbLine
 10
23.5
 20
63.400000000000006
 30
0.0
 11
23.5
 21
62.450000000000017
 31
0.0
  0
LINE
  5
749
100
AcDbEntity
  8
0
  6
CONTINUOUS
 62
               4
100
AcDbLine
 10
10.599999999999994
 20
63.400000000000006
 30
0.0
 11
10.599999999999994
 21
62.450000000000017
 31
0.0
  0
LINE
  5
74A
100
AcDbEntity
  8
0
  6
CONTINUOUS
 62
               4
100
AcDbLine
 10
25.599999999999994
 20
63.400000000000006
 30
0.0
 11
23.5
 21
63.400000000000006
 31
0.0
  0
LINE
  5
74B
100
AcDbEntity
  8
0
  6
CONTINUOUS
 62
               4
100
AcDbLine
 10
10.599999999999994
 20
63.400000000000006
 30
0.0
 11
8.5
 21
63.400000000000006
 31
0.0
  0
LINE
  5
74C
100
AcDbEntity
  8
0
  6
CONTINUOUS
 62
               4
100
AcDbLine
 10
30.5
 20
65.180000000000007
 30
0.0
 11
30.5
 21
61.0
 31
0.0
  0
LINE
  5
74D
100
AcDbEntity
  8
0
  6
CONTINUOUS
 62
               4
100
AcDbLine
 10
28.629999999999995
 20
69.705000000000013
 30
0.0
 11
30.370000000000005
 21
65.789999999999992
 31
0.0
  0
ARC
  5
74E
100
AcDbEntity
  8
0
  6
CONTINUOUS
 62
               4
100
AcDbCircle
 10
28.174020838564047
 20
69.500099937446265
 30
0.0
 40
0.4999010215015999
100
AcDbArc
 50
24.197376208904771
 51
89.887774076864815
  0
ARC
  5
74F
100
AcDbEntity
  8
0
  6
CONTINUOUS
 62
               4
100
AcDbCircle
 10
29.002020395360574
 20
65.179610903929301
 30
0.0
 40
1.4979796551727449
100
AcDbArc
 50
0.0148824203654679
 51
24.046309772710686
  0
LINE
  5
750
100
AcDbEntity
  8
0
  6
CONTINUOUS
 62
               4
100
AcDbLine
 10
25.599999999999994
 20
63.400000000000006
 30
0.0
 11
25.599999999999994
 21
62.450000000000017
 31
0.0
  0
LINE
  5
751
100
AcDbEntity
  8
0
  6
CONTINUOUS
 62
               4
100
AcDbLine
 10
8.5
 20
63.400000000000006
 30
0.0
 11
8.5
 21
62.450000000000017
 31
0.0
  0
LINE
  5
752
100
AcDbEntity
  8
0
  6
CONTINUOUS
 62
               4
100
AcDbLine
 10
10.599999999999994
 20
62.450000000000017
 30
0.0
 11
8.5
 21
62.450000000000017
 31
0.0
  0
LINE
  5
753
100
AcDbEntity
  8
0
  6
CONTINUOUS
 62
               4
100
AcDbLine
 10
25.599999999999994
 20
62.450000000000017
 30
0.0
 11
23.5
 21
62.450000000000017
 31
0.0
  0
LINE
  5
754
100
AcDbEntity
  8
0
  6
CONTINUOUS
 62
               4
100
AcDbLine
 10
6.0
 20
74.5
 30
0.0
 11
6.0
 21
70.0
 31
0.0
  0
LINE
  5
755
100
AcDbEntity
  8
0
  6
CONTINUOUS
 62
               4
100
AcDbLine
 10
6.0
 20
70.0
 30
0.0
 11
4.0
 21
70.0
 31
0.0
  0
ARC
  5
756
100
AcDbEntity
  8
0
  6
CONTINUOUS
 62
               4
100
AcDbCircle
 10
4.0
 20
69.5
 30
0.0
 40
0.5
100
AcDbArc
 50
89.999999999999815
 51
179.99999999999963
  0
LINE
  5
757
100
AcDbEntity
  8
0
  6
CONTINUOUS
 62
               4
100
AcDbLine
 10
18.25
 20
61.5
 30
0.0
 11
18.25
 21
61.0
 31
0.0
  0
LINE
  5
758
100
AcDbEntity
  8
0
  6
CONTINUOUS
 62
               4
100
AcDbLine
 10
15.75
 20
61.5
 30
0.0
 11
15.75
 21
61.0
 31
0.0
  0
LINE
  5
759
100
AcDbEntity
  8
0
  6
CONTINUOUS
 62
               4
100
AcDbLine
 10
15.75
 20
61.5
 30
0.0
 11
18.25
 21
61.5
 31
0.0
  0
LINE
  5
75A
100
AcDbEntity
  8
0
  6
CONTINUOUS
 62
             200
100
AcDbLine
 10
13.314994343097709
 20
86.464464815078827
 30
0.0
 11
6.3849841895786028
 21
82.46341291056342
 31
0.0
  0
LINE
  5
75B
100
AcDbEntity
  8
0
  6
CONTINUOUS
 62
             200
100
AcDbLine
 10
13.315018891472022
 20
87.619105809934808
 30
0.0
 11
6.3849897999085385
 21
83.618057246153512
 31
0.0
  0
LINE
  5
75C
100
AcDbEntity
  8
0
  6
CONTINUOUS
 62
               4
100
AcDbLine
 10
7.8850036621093693
 20
81.0
 30
0.0
 11
7.8850036621093693
 21
83.329421997070312
 31
0.0
  0
LINE
  5
75D
100
AcDbEntity
  8
0
  6
CONTINUOUS
 62
               4
100
AcDbLine
 10
9.3150115966796818
 20
81.0
 30
0.0
 11
9.3150115966796818
 21
84.155029296875
 31
0.0
  0
LINE
  5
75E
100
AcDbEntity
  8
0
  6
CONTINUOUS
 62
               4
100
AcDbLine
 10
8.2000061035156193
 20
94.0
 30
0.0
 11
9.0000091552734318
 21
94.0
 31
0.0
  0
LINE
  5
75F
100
AcDbEntity
  8
0
  6
CONTINUOUS
 62
               4
100
AcDbLine
 10
8.2000061035156193
 20
89.0
 30
0.0
 11
8.2000061035156193
 21
93.999984741210937
 31
0.0
  0
LINE
  5
760
100
AcDbEntity
  8
0
  6
CONTINUOUS
 62
               4
100
AcDbLine
 10
9.0000091552734318
 20
89.0
 30
0.0
 11
9.0000091552734318
 21
94.0
 31
0.0
  0
LINE
  5
761
100
AcDbEntity
  8
0
  6
CONTINUOUS
 62
               4
100
AcDbLine
 10
7.8850036621093693
 20
89.0
 30
0.0
 11
9.3150115966796818
 21
89.0
 31
0.0
  0
LINE
  5
762
100
AcDbEntity
  8
0
  6
CONTINUOUS
 62
               4
100
AcDbLine
 10
7.8850036621093693
 20
84.484115600585937
 30
0.0
 11
7.8850036621093693
 21
89.0
 31
0.0
  0
LINE
  5
763
100
AcDbEntity
  8
0
  6
CONTINUOUS
 62
               4
100
AcDbLine
 10
9.3150115966796818
 20
85.309738159179688
 30
0.0
 11
9.3150115966796818
 21
89.0
 31
0.0
  0
LINE
  5
764
100
AcDbEntity
  8
0
  6
CONTINUOUS
 62
               7
100
AcDbLine
 10
3.5
 20
37.0
 30
0.0
 11
30.5
 21
37.0
 31
0.0
  0
LINE
  5
765
100
AcDbEntity
  8
0
  6
CONTINUOUS
 62
               4
100
AcDbLine
 10
11.815011596679682
 20
86.75311279296875
 30
0.0
 11
11.815011596679682
 21
89.0
 31
0.0
  0
LINE
  5
766
100
AcDbEntity
  8
0
  6
CONTINUOUS
 62
               4
100
AcDbLine
 10
10.385003662109369
 20
85.927490234375
 30
0.0
 11
10.385003662109369
 21
89.0
 31
0.0
  0
LINE
  5
767
100
AcDbEntity
  8
0
  6
CONTINUOUS
 62
               4
100
AcDbLine
 10
11.815011596679682
 20
89.0
 30
0.0
 11
10.385003662109369
 21
89.0
 31
0.0
  0
LINE
  5
768
100
AcDbEntity
  8
0
  6
CONTINUOUS
 62
               4
100
AcDbLine
 10
10.385003662109369
 20
81.0
 30
0.0
 11
10.385003662109369
 21
84.772796630859375
 31
0.0
  0
LINE
  5
769
100
AcDbEntity
  8
0
  6
CONTINUOUS
 62
               4
100
AcDbLine
 10
11.815011596679682
 20
81.0
 30
0.0
 11
11.815011596679682
 21
85.598403930664063
 31
0.0
  0
LINE
  5
76A
100
AcDbEntity
  8
0
  6
CONTINUOUS
 62
               4
100
AcDbLine
 10
11.500009155273432
 20
89.0
 30
0.0
 11
11.500009155273432
 21
94.0
 31
0.0
  0
LINE
  5
76B
100
AcDbEntity
  8
0
  6
CONTINUOUS
 62
               4
100
AcDbLine
 10
10.700006103515619
 20
89.0
 30
0.0
 11
10.700006103515619
 21
94.0
 31
0.0
  0
LINE
  5
76C
100
AcDbEntity
  8
0
  6
CONTINUOUS
 62
               4
100
AcDbLine
 10
11.500009155273432
 20
94.0
 30
0.0
 11
10.700006103515619
 21
94.0
 31
0.0
  0
LINE
  5
76D
100
AcDbEntity
  8
0
  6
CONTINUOUS
 62
               4
100
AcDbLine
 10
16.650003051757807
 20
79.5
 30
0.0
 11
16.650003051757807
 21
81.0
 31
0.0
  0
LINE
  5
76E
100
AcDbEntity
  8
0
  6
CONTINUOUS
 62
               4
100
AcDbLine
 10
14.650044511604023
 20
79.999958942901685
 30
0.0
 11
15.227396327367927
 21
80.999967647856465
 31
0.0
  0
LINE
  5
76F
100
AcDbEntity
  8
0
  6
CONTINUOUS
 62
               4
100
AcDbLine
 10
14.650003051757807
 20
74.5
 30
0.0
 11
14.650003051757807
 21
81.0
 31
0.0
  0
LINE
  5
770
100
AcDbEntity
  8
0
  6
CONTINUOUS
 62
               4
100
AcDbLine
 10
15.650001302236518
 20
70.49845074175937
 30
0.0
 11
16.150000411113609
 21
74.056138825448215
 31
0.0
  0
LINE
  5
771
100
AcDbEntity
  8
0
  6
CONTINUOUS
 62
               4
100
AcDbLine
 10
16.150003051757807
 20
74.05615234375
 30
0.0
 11
16.150003051757807
 21
79.5
 31
0.0
  0
LINE
  5
772
100
AcDbEntity
  8
0
  6
CONTINUOUS
 62
               4
100
AcDbLine
 10
5.6499877929687443
 20
80.0
 30
0.0
 11
6.1499877929687443
 21
80.0
 31
0.0
  0
LINE
  5
773
100
AcDbEntity
  8
0
  6
CONTINUOUS
 62
               4
100
AcDbLine
 10
5.6500030517578068
 20
80.0
 30
0.0
 11
5.6500030517578068
 21
81.0
 31
0.0
  0
LINE
  5
774
100
AcDbEntity
  8
0
  6
CONTINUOUS
 62
               4
100
AcDbLine
 10
6.1500030517578068
 20
74.5
 30
0.0
 11
6.1500030517578068
 21
80.0
 31
0.0
  0
LINE
  5
775
100
AcDbEntity
  8
0
  6
CONTINUOUS
 62
               4
100
AcDbLine
 10
14.650000209407693
 20
70.498474151870141
 30
0.0
 11
14.599979656101453
 21
70.548494705176381
 31
0.0
  0
LINE
  5
776
100
AcDbEntity
  8
0
  6
CONTINUOUS
 62
               4
100
AcDbLine
 10
16.149995422363276
 20
79.5
 30
0.0
 11
16.649995422363276
 21
79.5
 31
0.0
  0
LINE
  5
777
100
AcDbEntity
  8
0
  6
CONTINUOUS
 62
               4
100
AcDbLine
 10
14.650003051757807
 20
71.998458862304688
 30
0.0
 11
14.650003051757807
 21
74.5
 31
0.0
  0
LINE
  5
778
100
AcDbEntity
  8
0
  6
CONTINUOUS
 62
               4
100
AcDbLine
 10
14.650003051757807
 20
70.498458862304688
 30
0.0
 11
15.649995422363276
 21
70.498458862304688
 31
0.0
  0
LINE
  5
779
100
AcDbEntity
  8
0
  6
CONTINUOUS
 62
               4
100
AcDbLine
 10
14.599999999999994
 20
71.998458862304688
 30
0.0
 11
14.650003051757807
 21
71.998458862304688
 31
0.0
  0
LINE
  5
77A
100
AcDbEntity
  8
0
  6
CONTINUOUS
 62
               4
100
AcDbLine
 10
15.227349853515619
 20
81.0
 30
0.0
 11
16.649995422363276
 21
81.0
 31
0.0
  0
LINE
  5
77B
100
AcDbEntity
  8
0
  6
CONTINUOUS
 62
               4
100
AcDbLine
 10
6.0
 20
74.5
 30
0.0
 11
14.650003051757807
 21
74.5
 31
0.0
  0
LINE
  5
77C
100
AcDbEntity
  8
0
  6
CONTINUOUS
 62
               4
100
AcDbLine
 10
5.6499877929687443
 20
81.0
 30
0.0
 11
14.649987792968744
 21
81.0
 31
0.0
  0
LINE
  5
77D
100
AcDbEntity
  8
0
  6
CONTINUOUS
 62
               4
100
AcDbLine
 10
14.599999999999994
 20
74.5
 30
0.0
 11
14.599999999999994
 21
70.0
 31
0.0
  0
LINE
  5
77E
100
AcDbEntity
  8
0
  6
CONTINUOUS
 62
               4
100
AcDbLine
 10
3.5
 20
61.0
 30
0.0
 11
30.499992370605469
 21
61.0
 31
0.0
  0
LINE
  5
77F
100
AcDbEntity
  8
0
  6
CONTINUOUS
 62
               7
100
AcDbLine
 10
35.5
 20
-7.25
 30
0.0
 11
40.0
 21
-7.25
 31
0.0
  0
LINE
  5
780
100
AcDbEntity
  8
0
  6
CONTINUOUS
 62
               7
100
AcDbLine
 10
35.5
 20
-7.7500076293945312
 30
0.0
 11
40.0
 21
-7.7500076293945312
 31
0.0
  0
LINE
  5
781
100
AcDbEntity
  8
0
  6
CONTINUOUS
 62
               7
100
AcDbLine
 10
40.5
 20
-6.75
 30
0.0
 11
40.5
 21
7.2499847412109375
 31
0.0
  0
ARC
  5
782
100
AcDbEntity
  8
0
  6
CONTINUOUS
 62
               7
100
AcDbCircle
 10
40.0
 20
-6.75
 30
0.0
 40
0.5
100
AcDbArc
 50
270.00000000000023
 51
0.0
  0
ARC
  5
783
100
AcDbEntity
  8
0
  6
CONTINUOUS
 62
               7
100
AcDbCircle
 10
40.0
 20
-8.2500076293945313
 30
0.0
 40
0.5
100
AcDbArc
 50
0.0
 51
89.999999999999815
  0
LINE
  5
784
100
AcDbEntity
  8
0
  6
CONTINUOUS
 62
               7
100
AcDbLine
 10
35.5
 20
0.25
 30
0.0
 11
35.5
 21
-15.250011444091797
 31
0.0
  0
LINE
  5
785
100
AcDbEntity
  8
0
  6
CONTINUOUS
 62
               7
100
AcDbLine
 10
37.5
 20
-15.250011444091797
 30
0.0
 11
37.5
 21
-28.375728607177734
 31
0.0
  0
LINE
  5
786
100
AcDbEntity
  8
0
  6
CONTINUOUS
 62
               7
100
AcDbLine
 10
35.5
 20
0.25
 30
0.0
 11
37.5
 21
0.25
 31
0.0
  0
LINE
  5
787
100
AcDbEntity
  8
0
  6
CONTINUOUS
 62
               7
100
AcDbLine
 10
35.5
 20
-15.250011444091797
 30
0.0
 11
37.5
 21
-15.250011444091797
 31
0.0
  0
LINE
  5
788
100
AcDbEntity
  8
0
  6
CONTINUOUS
 62
               4
100
AcDbLine
 10
3.5
 20
54.0
 30
0.0
 11
5.1000137329101562
 21
54.0
 31
0.0
  0
LINE
  5
789
100
AcDbEntity
  8
0
  6
CONTINUOUS
 62
               4
100
AcDbLine
 10
4.2000137329101506
 20
54.0
 30
0.0
 11
4.2000137329101506
 21
61.0
 31
0.0
  0
LINE
  5
78A
100
AcDbEntity
  8
0
  6
CONTINUOUS
 62
               4
100
AcDbLine
 10
5.1000137329101562
 20
54.0
 30
0.0
 11
5.1000137329101562
 21
61.0
 31
0.0
  0
LINE
  5
78B
100
AcDbEntity
  8
0
  6
CENTER
 62
             200
100
AcDbLine
 10
-12.0
 20
-45.280000000000001
 30
0.0
 11
-12.0
 21
-55.900000000000006
 31
0.0
  0
LINE
  5
78C
100
AcDbEntity
  8
0
  6
CONTINUOUS
 62
               7
100
AcDbLine
 10
2.9999925415036879
 20
-30.499969444672427
 30
0.0
 11
2.9999960144045179
 21
15.500000037749313
 31
0.0
  0
LINE
  5
78D
100
AcDbEntity
  8
0
  6
CONTINUOUS
 62
               7
100
AcDbLine
 10
3.499998263549585
 20
-30.499969482421807
 30
0.0
 11
2.9999925415036879
 21
-30.499969444672427
 31
0.0
  0
LINE
  5
78E
100
AcDbEntity
  8
0
  6
CONTINUOUS
 62
               7
100
AcDbLine
 10
3.500001736450415
 20
15.499999999999932
 30
0.0
 11
2.9999960144045179
 21
15.500000037749313
 31
0.0
  0
LINE
  5
78F
100
AcDbEntity
  8
0
  6
CONTINUOUS
 62
               7
100
AcDbLine
 10
35.375732421875
 20
-30.499984741210937
 30
0.0
 11
3.4999847412109375
 21
-30.5
 31
0.0
  0
ENDBLK
  5
790
100
AcDbEntity
  8
0
100
AcDbBlockEnd
  0
ENDSEC
  0
SECTION
  2
ENTITIES
  0
INSERT
  5
791
100
AcDbEntity
  8
0
  6
ByBlock
100
AcDbBlockReference
  2
F15T-10
 10
-212.23750305175781
 20
-54.4920654296875
 30
0.0
  0
INSERT
  5
792
100
AcDbEntity
  8
0
  6
ByBlock
100
AcDbBlockReference
  2
F15T-5
 10
-207.08010864257812
 20
-189.750732421875
 30
0.0
  0
INSERT
  5
793
100
AcDbEntity
  8
0
  6
ByBlock
100
AcDbBlockReference
  2
F15T-6
 10
-305.580078125
 20
-189.750732421875
 30
0.0
  0
INSERT
  5
794
100
AcDbEntity
  8
0
  6
ByBlock
100
AcDbBlockReference
  2
F15T-7
 10
-98.580108642578125
 20
-189.750732421875
 30
0.0
 50
0.0000874264213558
  0
INSERT
  5
795
100
AcDbEntity
  8
0
  6
ByBlock
100
AcDbBlockReference
  2
F15T-1
 10
-212.23739624023437
 20
138.68838500976562
 30
0.0
 50
0.0003672152221312
  0
INSERT
  5
796
100
AcDbEntity
  8
0
  6
ByBlock
100
AcDbBlockReference
  2
F15T-8
 10
-344.8974609375
 20
138.68843078613281
 30
0.0
  0
INSERT
  5
797
100
AcDbEntity
  8
0
  6
ByBlock
100
AcDbBlockReference
  2
F15T-9
 10
-61.237548828125
 20
138.6884765625
 30
0.0
 50
359.99956286789234
  0
INSERT
  5
798
100
AcDbEntity
  8
0
  6
ByBlock
100
AcDbBlockReference
  2
F15T-11
 10
170.43902587890625
 20
148.68832397460937
 30
0.0
 50
359.9998265935771
  0
INSERT
  5
799
100
AcDbEntity
  8
0
  6
ByBlock
100
AcDbBlockReference
  2
F15T-12
 10
56.339187622070312
 20
148.68841552734375
 30
0.0
 50
0.0000400861079512
  0
INSERT
  5
79A
100
AcDbEntity
  8
0
  6
ByBlock
100
AcDbBlockReference
  2
F15T-13
 10
321.0390625
 20
148.68841552734375
 30
0.0
 50
359.99982514715646
  0
INSERT
  5
79B
100
AcDbEntity
  8
0
  6
ByBlock
100
AcDbBlockReference
  2
F15T-14
 10
170.43916320800781
 20
45.229095458984375
 30
0.0
 50
359.99997109867377
  0
INSERT
  5
79C
100
AcDbEntity
  8
0
  6
ByBlock
100
AcDbBlockReference
  2
F15T-15
 10
180.43911743164062
 20
-128.69355773925781
 30
0.0
 50
0.0000589761581593
  0
INSERT
  5
79D
100
AcDbEntity
  8
0
  6
ByBlock
100
AcDbBlockReference
  2
F15T-2
 10
60.939178466796875
 20
-128.69357299804687
 30
0.0
 50
0.0005464161758052
  0
INSERT
  5
79E
100
AcDbEntity
  8
0
  6
ByBlock
100
AcDbBlockReference
  2
F15T-3
 10
321.0390625
 20
-128.693603515625
 30
0.0
 50
359.99982514715646
  0
INSERT
  5
79F
100
AcDbEntity
  8
0
  6
ByBlock
100
AcDbBlockReference
  2
F15T-4
 10
180.43916320800781
 20
-234.55523681640625
 30
0.0
 50
0.0001295206730615
  0
LINE
  5
7A0
100
AcDbEntity
  8
0
  6
CONTINUOUS
 62
               7
100
AcDbLine
 10
399.80000000000001
 20
276.25
 30
0.0
 11
399.80000000000001
 21
-276.75
 31
0.0
  0
LINE
  5
7A1
100
AcDbEntity
  8
0
  6
CONTINUOUS
 62
               7
100
AcDbLine
 10
-399.25
 20
276.25
 30
0.0
 11
-399.25
 21
-276.75
 31
0.0
  0
LINE
  5
7A2
100
AcDbEntity
  8
0
  6
CONTINUOUS
 62
               7
100
AcDbLine
 10
-399.25
 20
276.25
 30
0.0
 11
399.80000000000001
 21
276.25
 31
0.0
  0
LINE
  5
7A3
100
AcDbEntity
  8
0
  6
CONTINUOUS
 62
               7
100
AcDbLine
 10
-399.25
 20
-276.75
 30
0.0
 11
399.80000000000001
 21
-276.75
 31
0.0
  0
LINE
  5
7A4
100
AcDbEntity
  8
0
  6
CONTINUOUS
 62
               7
100
AcDbLine
 10
239.80000000000001
 20
-251.75
 30
0.0
 11
399.80000000000001
 21
-251.75
 31
0.0
  0
LINE
  5
7A5
100
AcDbEntity
  8
0
  6
CONTINUOUS
 62
               7
100
AcDbLine
 10
239.80000000000001
 20
251.25
 30
0.0
 11
399.80000000000001
 21
251.25
 31
0.0
  0
LINE
  5
7A6
100
AcDbEntity
  8
0
  6
CONTINUOUS
 62
               7
100
AcDbLine
 10
-399.25
 20
251.25
 30
0.0
 11
-239.25
 21
251.25
 31
0.0
  0
LINE
  5
7A7
100
AcDbEntity
  8
0
  6
CONTINUOUS
 62
               7
100
AcDbLine
 10
239.80000000000001
 20
-251.75
 30
0.0
 11
239.80000000000001
 21
-276.75
 31
0.0
  0
LINE
  5
7A8
100
AcDbEntity
  8
0
  6
CONTINUOUS
 62
               7
100
AcDbLine
 10
239.80000000000001
 20
251.25
 30
0.0
 11
239.80000000000001
 21
276.25
 31
0.0
  0
LINE
  5
7A9
100
AcDbEntity
  8
0
  6
CONTINUOUS
 62
               7
100
AcDbLine
 10
-239.25
 20
276.25
 30
0.0
 11
-239.25
 21
251.25
 31
0.0
  0
LINE
  5
7AA
100
AcDbEntity
  8
0
  6
CONTINUOUS
 62
               7
100
AcDbLine
 10
0.27
 20
276.25
 30
0.0
 11
0.27
 21
-276.75
 31
0.0
  0
LINE
  5
7AB
100
AcDbEntity
  8
0
  6
CONTINUOUS
 62
               7
100
AcDbLine
 10
0.27
 20
-0.25
 30
0.0
 11
399.80000000000001
 21
-0.25
 31
0.0
  0
LINE
  5
7AC
100
AcDbEntity
  8
0
  6
CONTINUOUS
 62
               7
100
AcDbLine
 10
-399.25
 20
-92.409999999999997
 30
0.0
 11
0.27
 21
-92.409999999999997
 31
0.0
  0
MTEXT
  5
7AD
100
AcDbEntity
  8
0
  6
CONTINUOUS
 62
               7
100
AcDbMText
 10
245.88456269755227
 20
-264.25
 30
0.0
 40
12.5
 41
0.0
 71
               4
 72
               1
  1
\W1.121;\A1;KOGANEI CORP.
  0
MTEXT
  5
7AE
100
AcDbEntity
  8
0
  6
CONTINUOUS
 62
               7
100
AcDbMText
 10
290.09979829720089
 20
263.75
 30
0.0
 40
9.0
 41
0.0
 71
               4
 72
               1
  1
\W1.200;\A1;Ver.3.0
  0
MTEXT
  5
7AF
100
AcDbEntity
  8
0
  6
CONTINUOUS
 62
               7
100
AcDbMText
 10
-382.12234106487148
 20
231.25
 30
0.0
 40
9.0
 41
0.0
 71
               4
 72
               1
  1
\W1.085;\A1;MODEL:F15T1-A2-PS
  0
MTEXT
  5
7B0
100
AcDbEntity
  8
0
  6
CONTINUOUS
 62
               7
100
AcDbMText
 10
-362.57090654372104
 20
263.75
 30
0.0
 40
9.0
 41
0.0
 71
               4
 72
               1
  1
\W1.119;\A1;F15 SERIES
  0
MTEXT
  5
7B1
100
AcDbEntity
  8
0
  6
CONTINUOUS
 62
               7
100
AcDbMText
 10
17.402652831612876
 20
256.25
 30
0.0
 40
9.0
 41
0.0
 71
               4
 72
               1
  1
\W1.085;\A1;MODEL:F15T1-F3-PS
  0
MTEXT
  5
7B2
100
AcDbEntity
  8
0
  6
CONTINUOUS
 62
               7
100
AcDbMText
 10
17.402652831612876
 20
-20.25
 30
0.0
 40
9.0
 41
0.0
 71
               4
 72
               1
  1
\W1.085;\A1;MODEL:F15T1-F4-PS
  0
MTEXT
  5
7B3
100
AcDbEntity
  8
0
  6
CONTINUOUS
 62
               7
100
AcDbMText
 10
-382.13000067858695
 20
-112.41665649414062
 30
0.0
 40
9.0
 41
0.0
 71
               4
 72
               1
  1
\W1.080;\A1;MODEL:-PL
  0
ENDSEC
  0
SECTION
  2
OBJECTS
  0
DICTIONARY
  5
19
100
AcDbDictionary
  3
ACAD_GROUP
350
1A
  3
ACAD_MLINESTYLE
350
1B
  0
DICTIONARY
  5
1A
102
{ACAD_REACTORS
330
19
102
}
100
AcDbDictionary
  0
DICTIONARY
  5
1B
102
{ACAD_REACTORS
330
19
102
}
100
AcDbDictionary
  3
STANDARD
350
1C
  0
MLINESTYLE
  5
1C
102
{ACAD_REACTORS
330
1B
102
}
100
AcDbMlineStyle
  2
Standard
 70
               0
  3

 62
               0
 51
90.0
 52
90.0
 71
               2
 49
0.5
 62
             256
  6
ByLayer
 49
-0.5
 62
             256
  6
ByLayer
  0
ENDSEC
  0
EOF
