  0
SECTION
  2
HEADER
  9
$ACADVER
  1
AC1012
  9
$DWGCODEPAGE
  3
dos932
  9
$INSBASE
 10
0.0
 20
0.0
 30
0.0
  9
$EXTMIN
 10
-399.25
 20
-276.75
 30
0.0
  9
$EXTMAX
 10
406.09414987197181
 20
276.25
 30
0.0
  9
$LIMMIN
 10
-399.25
 20
-276.75
  9
$LIMMAX
 10
406.09414987197181
 20
276.25
  9
$ORTHOMODE
 70
               0
  9
$REGENMODE
 70
               1
  9
$FILLMODE
 70
               1
  9
$QTEXTMODE
 70
               0
  9
$MIRRTEXT
 70
               1
  9
$DRAGMODE
 70
               2
  9
$LTSCALE
 40
1.0
  9
$OSMODE
 70
               0
  9
$ATTMODE
 70
               1
  9
$TEXTSIZE
 40
3.2000000476837158
  9
$TRACEWID
 40
0.05
  9
$TEXTSTYLE
  7
MX_NOTE_STANDARD
  9
$CLAYER
  8
0
  9
$CELTYPE
  6
CONTINUOUS
  9
$CECOLOR
 62
             256
  9
$CELTSCALE
 40
1.0
  9
$DELOBJ
 70
               1
  9
$DISPSILH
 70
               0
  9
$DIMSCALE
 40
1.0
  9
$DIMASZ
 40
2.5
  9
$DIMEXO
 40
1.5
  9
$DIMDLI
 40
3.75
  9
$DIMRND
 40
0.0
  9
$DIMDLE
 40
0.0
  9
$DIMEXE
 40
1.5
  9
$DIMTP
 40
0.0
  9
$DIMTM
 40
0.0
  9
$DIMTXT
 40
3.2000000476837158
  9
$DIMCEN
 40
2.5
  9
$DIMTSZ
 40
0.0
  9
$DIMTOL
 70
               0
  9
$DIMLIM
 70
               0
  9
$DIMTIH
 70
               0
  9
$DIMTOH
 70
               0
  9
$DIMSE1
 70
               0
  9
$DIMSE2
 70
               0
  9
$DIMTAD
 70
               1
  9
$DIMZIN
 70
               8
  9
$DIMBLK
  1

  9
$DIMASO
 70
               1
  9
$DIMSHO
 70
               1
  9
$DIMPOST
  1

  9
$DIMAPOST
  1

  9
$DIMALT
 70
               0
  9
$DIMALTD
 70
               4
  9
$DIMALTF
 40
0.03937007874016
  9
$DIMLFAC
 40
1.0
  9
$DIMTOFL
 70
               1
  9
$DIMTVP
 40
0.0
  9
$DIMTIX
 70
               0
  9
$DIMSOXD
 70
               0
  9
$DIMSAH
 70
               0
  9
$DIMBLK1
  1

  9
$DIMBLK2
  1

  9
$DIMSTYLE
  2
MXDIMSTYLE
  9
$DIMCLRD
 70
               0
  9
$DIMCLRE
 70
               0
  9
$DIMCLRT
 70
               0
  9
$DIMTFAC
 40
1.0
  9
$DIMGAP
 40
1.0
  9
$DIMJUST
 70
               0
  9
$DIMSD1
 70
               0
  9
$DIMSD2
 70
               0
  9
$DIMTOLJ
 70
               1
  9
$DIMTZIN
 70
               0
  9
$DIMALTZ
 70
               0
  9
$DIMALTTZ
 70
               0
  9
$DIMFIT
 70
               3
  9
$DIMUPT
 70
               1
  9
$DIMUNIT
 70
               2
  9
$DIMDEC
 70
               4
  9
$DIMTDEC
 70
               4
  9
$DIMALTU
 70
               2
  9
$DIMALTTD
 70
               4
  9
$DIMTXSTY
  7
MX_NOTE_STANDARD
  9
$DIMAUNIT
 70
               0
  9
$LUNITS
 70
               2
  9
$LUPREC
 70
               4
  9
$SKETCHINC
 40
0.1
  9
$FILLETRAD
 40
0.0
  9
$AUNITS
 70
               0
  9
$AUPREC
 70
               0
  9
$MENU
  1
acad
  9
$ELEVATION
 40
0.0
  9
$PELEVATION
 40
0.0
  9
$THICKNESS
 40
0.0
  9
$LIMCHECK
 70
               0
  9
$BLIPMODE
 70
               1
  9
$CHAMFERA
 40
0.0
  9
$CHAMFERB
 40
0.0
  9
$CHAMFERC
 40
0.0
  9
$CHAMFERD
 40
0.0
  9
$SKPOLY
 70
               0
  9
$TDCREATE
 40
2453378.356493055
  9
$TDUPDATE
 40
2453378.356493055
  9
$TDINDWG
 40
0.0000000000
  9
$TDUSRTIMER
 40
0.0000000000
  9
$USRTIMER
 70
               1
  9
$ANGBASE
 50
0.0
  9
$ANGDIR
 70
               0
  9
$PDMODE
 70
               0
  9
$PDSIZE
 40
0.0
  9
$PLINEWID
 40
0.0
  9
$COORDS
 70
               1
  9
$SPLFRAME
 70
               0
  9
$SPLINETYPE
 70
               6
  9
$SPLINESEGS
 70
               8
  9
$ATTDIA
 70
               0
  9
$ATTREQ
 70
               1
  9
$HANDLING
 70
               1
  9
$HANDSEED
  5
788
  9
$SURFTAB1
 70
               6
  9
$SURFTAB2
 70
               6
  9
$SURFTYPE
 70
               6
  9
$SURFU
 70
               6
  9
$SURFV
 70
               6
  9
$UCSNAME
  2

  9
$UCSORG
 10
0.0
 20
0.0
 30
0.0
  9
$UCSXDIR
 10
1.0
 20
0.0
 30
0.0
  9
$UCSYDIR
 10
0.0
 20
1.0
 30
0.0
  9
$PUCSNAME
  2

  9
$PUCSORG
 10
0.0
 20
0.0
 30
0.0
  9
$PUCSXDIR
 10
1.0
 20
0.0
 30
0.0
  9
$PUCSYDIR
 10
0.0
 20
1.0
 30
0.0
  9
$USERI1
 70
               0
  9
$USERI2
 70
               0
  9
$USERI3
 70
               0
  9
$USERI4
 70
               0
  9
$USERI5
 70
               0
  9
$USERR1
 40
0.0
  9
$USERR2
 40
0.0
  9
$USERR3
 40
0.0
  9
$USERR4
 40
0.0
  9
$USERR5
 40
0.0
  9
$WORLDVIEW
 70
               1
  9
$SHADEDGE
 70
               3
  9
$SHADEDIF
 70
              70
  9
$TILEMODE
 70
               1
  9
$MAXACTVP
 70
              16
  9
$PINSBASE
 10
0.0
 20
0.0
 30
0.0
  9
$PLIMCHECK
 70
               0
  9
$PEXTMIN
 10
1.0000000000000000E+20
 20
1.0000000000000000E+20
 30
1.0000000000000000E+20
  9
$PEXTMAX
 10
-1.0000000000000000E+20
 20
-1.0000000000000000E+20
 30
-1.0000000000000000E+20
  9
$PLIMMIN
 10
0.0
 20
0.0
  9
$PLIMMAX
 10
12.0
 20
9.0
  9
$UNITMODE
 70
               0
  9
$VISRETAIN
 70
               0
  9
$PLINEGEN
 70
               1
  9
$PSLTSCALE
 70
               0
  9
$TREEDEPTH
 70
            3020
  9
$PICKSTYLE
 70
               1
  9
$CMLSTYLE
  2
Standard
  9
$CMLJUST
 70
               0
  9
$CMLSCALE
 40
1.0
  9
$SAVEIMAGES
 70
               0
  0
ENDSEC
  0
SECTION
  2
CLASSES
  0
CLASS
  1
LWPOLYLINE
  2
AcDbPolyline
  3
"AutoCAD"
 90
        0
280
               0
281
               1
  0
CLASS
  1
IMAGE
  2
AcDbRasterImage
  3
ISM
 90
      127
280
               0
281
               1
  0
CLASS
  1
OLE2FRAME
  2
AcDbOle2Frame
  3
""
 90
        0
280
               0
281
               1
  0
CLASS
  1
HATCH
  2
AcDbHatch
  3
"ACAD_SEDONA"
 90
        0
280
               0
281
               1
  0
CLASS
  1
DICTIONARYVAR
  2
AcDbDictionaryVar
  3
"AutoCAD"
 90
        0
280
               0
281
               0
  0
CLASS
  1
RASTERVARIABLES
  2
AcDbRasterVariables
  3
ISM
 90
        0
280
               0
281
               0
  0
CLASS
  1
IMAGEDEF
  2
AcDbRasterImageDef
  3
ISM
 90
        0
280
               0
281
               0
  0
CLASS
  1
IMAGEDEF_REACTOR
  2
AcDbRasterImageDefReactor
  3
ISM
 90
        1
280
               0
281
               0
  0
CLASS
  1
IDBUFFER
  2
AcDbIdBuffer
  3
"Acad"
 90
        0
280
               0
281
               0
  0
CLASS
  1
SPATIAL_FILTER
  2
AcDbSpatialFilter
  3
"Acad"
 90
        0
280
               0
281
               0
  0
CLASS
  1
XRECORD
  2
AcDbXrecord
  3
"<Built In>"
 90
        0
280
               0
281
               0
  0
CLASS
  1
SORTENTSTABLE
  2
AcDbSortentsTable
  3
"AutoCAD"
 90
        0
280
               0
281
               0
  0
CLASS
  1
LAYER_INDEX
  2
AcDbLayerIndex
  3
"Acad"
 90
        0
280
               0
281
               0
  0
CLASS
  1
SPATIAL_INDEX
  2
AcDbSpatialIndex
  3
"Acad"
 90
        0
280
               0
281
               0
  0
CLASS
  1
OBJECT_PTR
  2
CAseDLPNTableRecord
  3
"ASE-LPNTableRecord"
 90
        1
280
               0
281
               0
  0
CLASS
  1
LAYOUT
  2
AcDbLayout
  3
"AutoCAD 2000"
 90
        1
280
               0
281
               0
  0
CLASS
  1
PLOTSETTINGS
  2
AcDbPlotSettings
  3
"AutoCAD 2000"
 90
        1
280
               0
281
               0
  0
CLASS
  1
ACDBDICTIONARYWDFLT
  2
AcDbDictionaryWithDefault
  3
"AutoCAD 2000"
 90
        1
280
               0
281
               0
  0
CLASS
  1
ACDBPLACEHOLDER
  2
AcDbPlaceHolder
  3
"AutoCAD 2000"
 90
        1
280
               0
281
               0
  0
ENDSEC
  0
SECTION
  2
TABLES
  0
TABLE
  2
VPORT
  5
7
100
AcDbSymbolTable
 70
               1
  0
VPORT
  5
15
100
AcDbSymbolTableRecord
100
AcDbViewportTableRecord
  2
*ACTIVE
 70
               0
 10
0.0
 20
0.0
 11
1.0
 21
1.0
 12
3.4220749359859042
 22
-0.25
 13
0.0
 23
0.0
 14
1.0
 24
1.0
 15
0.0
 25
0.0
 16
0.0
 26
0.0
 36
1.0
 17
0.0
 27
0.0
 37
0.0
 40
558.52999999999997
 41
1.7320508075688772
 42
50.0
 43
0.0
 44
0.0
 50
0.0
 51
0.0
 71
               0
 72
             100
 73
               1
 74
               1
 75
               0
 76
               0
 77
               0
 78
               0
  0
ENDTAB
  0
TABLE
  2
LTYPE
  5
4
100
AcDbSymbolTable
 70
               5
  0
LTYPE
  5
11
100
AcDbSymbolTableRecord
100
AcDbLinetypeTableRecord
  2
BYBLOCK
 70
              64
  3

 72
              65
 73
               0
 40
0.0
  0
LTYPE
  5
12
100
AcDbSymbolTableRecord
100
AcDbLinetypeTableRecord
  2
BYLAYER
 70
              64
  3

 72
              65
 73
               0
 40
0.0
  0
LTYPE
  5
13
100
AcDbSymbolTableRecord
100
AcDbLinetypeTableRecord
  2
CONTINUOUS
 70
              64
  3
Solid line
 72
              65
 73
               0
 40
0.0
  0
LTYPE
  5
31
100
AcDbSymbolTableRecord
100
AcDbLinetypeTableRecord
  2
CENTER
 70
              64
  3
Center ____ _ ____ _ ____ _ ____ _ ____ _ ____
 72
              65
 73
               4
 40
26.0
 49
20.0
 74
               0
 49
-2.0
 74
               0
 49
2.0
 74
               0
 49
-2.0
 74
               0
  0
LTYPE
  5
D3
100
AcDbSymbolTableRecord
100
AcDbLinetypeTableRecord
  2
DASHED
 70
              64
  3
Dashed __ __ __ __ __ __ __ __ __ __ __ __ __ _
 72
              65
 73
               2
 40
4.0
 49
2.0
 74
               0
 49
-2.0
 74
               0
  0
ENDTAB
  0
TABLE
  2
LAYER
  5
2
100
AcDbSymbolTable
 70
               2
  0
LAYER
  5
14
100
AcDbSymbolTableRecord
100
AcDbLayerTableRecord
  2
0
 70
               0
 62
               7
  6
CONTINUOUS
  0
LAYER
  5
1D
100
AcDbSymbolTableRecord
100
AcDbLayerTableRecord
  2
DEFPOINTS
 70
               0
 62
               7
  6
CONTINUOUS
  0
ENDTAB
  0
TABLE
  2
STYLE
  5
3
100
AcDbSymbolTable
 70
               1
  0
STYLE
  5
17
100
AcDbSymbolTableRecord
100
AcDbTextStyleTableRecord
  2
MX_NOTE_STANDARD
 70
               0
 40
0.0
 41
1.0
 50
0.0
 71
               0
 42
3.2000000476837158
  3
txt.shx
  4
extfont.shx
  0
ENDTAB
  0
TABLE
  2
VIEW
  5
5
100
AcDbSymbolTable
 70
               0
  0
ENDTAB
  0
TABLE
  2
UCS
  5
6
100
AcDbSymbolTable
 70
               0
  0
ENDTAB
  0
TABLE
  2
APPID
  5
8
100
AcDbSymbolTable
 70
               1
  0
APPID
  5
16
100
AcDbSymbolTableRecord
100
AcDbRegAppTableRecord
  2
ACAD
 70
               0
  0
ENDTAB
  0
TABLE
  2
DIMSTYLE
  5
9
100
AcDbSymbolTable
 70
               1
  0
DIMSTYLE
105
18
100
AcDbSymbolTableRecord
100
AcDbDimStyleTableRecord
  2
MXDIMSTYLE
 70
               0
  3

  4

  5

  6

  7

 40
1.0
 41
2.5
 42
1.5
 43
3.75
 44
1.5
 45
0.0
 46
0.0
 47
0.0
 48
0.0
 71
               0
 72
               0
 73
               0
 74
               0
 75
               0
 76
               0
 77
               1
 78
               8
140
3.2000000476837158
141
2.5
142
0.0
143
0.03937007874016
144
1.0
145
0.0
146
1.0
147
1.0
170
               0
171
               4
172
               1
173
               0
174
               0
175
               0
176
               0
177
               0
178
               0
270
               2
271
               4
272
               4
273
               2
274
               4
275
               0
280
               0
281
               0
282
               0
283
               1
284
               0
285
               0
286
               0
287
               3
288
               1
340
17
  0
ENDTAB
  0
TABLE
  2
BLOCK_RECORD
  5
1
100
AcDbSymbolTable
 70
              15
  0
BLOCK_RECORD
  5
A
100
AcDbSymbolTableRecord
100
AcDbBlockTableRecord
  2
*MODEL_SPACE
  0
BLOCK_RECORD
  5
B
100
AcDbSymbolTableRecord
100
AcDbBlockTableRecord
  2
*PAPER_SPACE
  0
BLOCK_RECORD
  5
1E
100
AcDbSymbolTableRecord
100
AcDbBlockTableRecord
  2
F15T0-1
  0
BLOCK_RECORD
  5
1F
100
AcDbSymbolTableRecord
100
AcDbBlockTableRecord
  2
F15T0-2
  0
BLOCK_RECORD
  5
20
100
AcDbSymbolTableRecord
100
AcDbBlockTableRecord
  2
F15T0-3
  0
BLOCK_RECORD
  5
21
100
AcDbSymbolTableRecord
100
AcDbBlockTableRecord
  2
F15T0-4
  0
BLOCK_RECORD
  5
22
100
AcDbSymbolTableRecord
100
AcDbBlockTableRecord
  2
F15T0-5
  0
BLOCK_RECORD
  5
23
100
AcDbSymbolTableRecord
100
AcDbBlockTableRecord
  2
F15T0-6
  0
BLOCK_RECORD
  5
24
100
AcDbSymbolTableRecord
100
AcDbBlockTableRecord
  2
F15T0-7
  0
BLOCK_RECORD
  5
25
100
AcDbSymbolTableRecord
100
AcDbBlockTableRecord
  2
F15T0-8
  0
BLOCK_RECORD
  5
26
100
AcDbSymbolTableRecord
100
AcDbBlockTableRecord
  2
F15T0-9
  0
BLOCK_RECORD
  5
27
100
AcDbSymbolTableRecord
100
AcDbBlockTableRecord
  2
F15T0-10
  0
BLOCK_RECORD
  5
28
100
AcDbSymbolTableRecord
100
AcDbBlockTableRecord
  2
F15T0-11
  0
BLOCK_RECORD
  5
29
100
AcDbSymbolTableRecord
100
AcDbBlockTableRecord
  2
F15T0-12
  0
BLOCK_RECORD
  5
2A
100
AcDbSymbolTableRecord
100
AcDbBlockTableRecord
  2
F15T0-13
  0
BLOCK_RECORD
  5
2B
100
AcDbSymbolTableRecord
100
AcDbBlockTableRecord
  2
F15T0-14
  0
BLOCK_RECORD
  5
2C
100
AcDbSymbolTableRecord
100
AcDbBlockTableRecord
  2
F15T0-15
  0
ENDTAB
  0
ENDSEC
  0
SECTION
  2
BLOCKS
  0
BLOCK
  5
D
100
AcDbEntity
  8
0
100
AcDbBlockBegin
  2
*MODEL_SPACE
 70
               0
 10
0.0
 20
0.0
 30
0.0
  3
*MODEL_SPACE
  1

  0
ENDBLK
  5
E
100
AcDbEntity
  8
0
100
AcDbBlockEnd
  0
BLOCK
  5
F
100
AcDbEntity
 67
               1
  8
0
100
AcDbBlockBegin
  2
*PAPER_SPACE
 70
               0
 10
0.0
 20
0.0
 30
0.0
  3
*PAPER_SPACE
  1

  0
ENDBLK
  5
10
100
AcDbEntity
 67
               1
  8
0
100
AcDbBlockEnd
  0
BLOCK
  5
2D
100
AcDbEntity
  8
0
100
AcDbBlockBegin
  2
F15T0-1
 70
               0
 10
0.0
 20
0.0
 30
0.0
  3
F15T0-1
  1

  0
LINE
  5
2E
100
AcDbEntity
  8
0
  6
CONTINUOUS
 62
               7
100
AcDbLine
 10
6.5
 20
8.0
 30
0.0
 11
16.5
 21
8.0
 31
0.0
  0
LINE
  5
2F
100
AcDbEntity
  8
0
  6
CONTINUOUS
 62
               7
100
AcDbLine
 10
6.4999847412109375
 20
19.399993896484375
 30
0.0
 11
16.499984741210937
 21
19.399993896484375
 31
0.0
  0
LINE
  5
30
100
AcDbEntity
  8
0
  6
CONTINUOUS
 62
               7
100
AcDbLine
 10
6.4999847412109375
 20
10.0
 30
0.0
 11
16.499984741210937
 21
10.0
 31
0.0
  0
LINE
  5
32
100
AcDbEntity
  8
0
  6
CENTER
 62
               2
100
AcDbLine
 10
8.9999847412109375
 20
16.199996948242187
 30
0.0
 11
13.999984741210938
 21
16.199996948242187
 31
0.0
  0
LINE
  5
33
100
AcDbEntity
  8
0
  6
CONTINUOUS
 62
               2
100
AcDbLine
 10
11.5
 20
-59.666656494140625
 30
0.0
 11
11.5
 21
65.916961285609887
 31
0.0
  0
LINE
  5
34
100
AcDbEntity
  8
0
  6
CONTINUOUS
 62
               7
100
AcDbLine
 10
9.5731964111328125
 20
15.899993896484375
 30
0.0
 11
13.426773071289063
 21
15.899993896484375
 31
0.0
  0
LINE
  5
35
100
AcDbEntity
  8
0
  6
CONTINUOUS
 62
               7
100
AcDbLine
 10
9.5731964111328125
 20
16.5
 30
0.0
 11
13.426773071289063
 21
16.5
 31
0.0
  0
LINE
  5
36
100
AcDbEntity
  8
0
  6
CONTINUOUS
 62
               7
100
AcDbLine
 10
16.5
 20
8.0
 30
0.0
 11
16.5
 21
19.5
 31
0.0
  0
LINE
  5
37
100
AcDbEntity
  8
0
  6
CONTINUOUS
 62
               7
100
AcDbLine
 10
6.5
 20
8.0
 30
0.0
 11
6.5
 21
19.5
 31
0.0
  0
LINE
  5
38
100
AcDbEntity
  8
0
  6
CONTINUOUS
 62
               7
100
AcDbLine
 10
19.0
 20
-56.5
 30
0.0
 11
19.0
 21
-44.530776977539062
 31
0.0
  0
LINE
  5
39
100
AcDbEntity
  8
0
  6
CONTINUOUS
 62
               7
100
AcDbLine
 10
4.0
 20
-56.5
 30
0.0
 11
4.0
 21
-42.999984741210937
 31
0.0
  0
LINE
  5
3A
100
AcDbEntity
  8
0
  6
CONTINUOUS
 62
               7
100
AcDbLine
 10
3.9999847412109375
 20
-2.0
 30
0.0
 11
18.999984741210937
 21
-2.0
 31
0.0
  0
LINE
  5
3B
100
AcDbEntity
  8
0
  6
CONTINUOUS
 62
               7
100
AcDbLine
 10
5.9999984398021411
 20
8.4999978972581971
 30
0.0
 11
3.9999953050976842
 21
6.499996785604651
 31
0.0
  0
LINE
  5
3C
100
AcDbEntity
  8
0
  6
CONTINUOUS
 62
               7
100
AcDbLine
 10
16.999989676056884
 20
8.4999933032422632
 30
0.0
 11
18.999983538454217
 21
6.4999991036711435
 31
0.0
  0
LINE
  5
3D
100
AcDbEntity
  8
0
  6
CONTINUOUS
 62
               7
100
AcDbLine
 10
16.999984741210937
 20
-5.8000030517578125
 30
0.0
 11
18.699996948242188
 21
-5.8000030517578125
 31
0.0
  0
LINE
  5
3E
100
AcDbEntity
  8
0
  6
CONTINUOUS
 62
               7
100
AcDbLine
 10
5.9999847412109375
 20
-44.199981689453125
 30
0.0
 11
4.29998779296875
 21
-44.199981689453125
 31
0.0
  0
LINE
  5
3F
100
AcDbEntity
  8
0
  6
CONTINUOUS
 62
               7
100
AcDbLine
 10
5.9999847412109375
 20
-38.79998779296875
 30
0.0
 11
4.29998779296875
 21
-38.79998779296875
 31
0.0
  0
LINE
  5
40
100
AcDbEntity
  8
0
  6
CONTINUOUS
 62
               7
100
AcDbLine
 10
16.999984741210937
 20
-11.199981689453125
 30
0.0
 11
18.699996948242188
 21
-11.199981689453125
 31
0.0
  0
LINE
  5
41
100
AcDbEntity
  8
0
  6
CONTINUOUS
 62
               7
100
AcDbLine
 10
18.699996948242188
 20
-2.20001220703125
 30
0.0
 11
4.29998779296875
 21
-2.20001220703125
 31
0.0
  0
LINE
  5
42
100
AcDbEntity
  8
0
  6
CONTINUOUS
 62
               7
100
AcDbLine
 10
18.699996948242188
 20
-47.79998779296875
 30
0.0
 11
4.29998779296875
 21
-47.79998779296875
 31
0.0
  0
LINE
  5
43
100
AcDbEntity
  8
0
  6
CONTINUOUS
 62
               7
100
AcDbLine
 10
5.9999847412109375
 20
-9.199981689453125
 30
0.0
 11
3.9999847412109375
 21
-9.199981689453125
 31
0.0
  0
LINE
  5
44
100
AcDbEntity
  8
0
  6
CONTINUOUS
 62
               7
100
AcDbLine
 10
16.999984741210937
 20
-40.79998779296875
 30
0.0
 11
18.999984741210937
 21
-40.79998779296875
 31
0.0
  0
LINE
  5
45
100
AcDbEntity
  8
0
  6
CONTINUOUS
 62
               7
100
AcDbLine
 10
14.300003051757813
 20
-43.5
 30
0.0
 11
14.300003051757813
 21
-47.79998779296875
 31
0.0
  0
LINE
  5
46
100
AcDbEntity
  8
0
  6
CONTINUOUS
 62
               7
100
AcDbLine
 10
8.70001220703125
 20
-2.20001220703125
 30
0.0
 11
8.70001220703125
 21
-6.5
 31
0.0
  0
LINE
  5
47
100
AcDbEntity
  8
0
  6
CONTINUOUS
 62
               7
100
AcDbLine
 10
14.29998779296875
 20
-45.79998779296875
 30
0.0
 11
3.9999847412109375
 21
-45.79998779296875
 31
0.0
  0
LINE
  5
48
100
AcDbEntity
  8
0
  6
CONTINUOUS
 62
               7
100
AcDbLine
 10
18.999984741210937
 20
-4.20001220703125
 30
0.0
 11
8.6999969482421875
 21
-4.20001220703125
 31
0.0
  0
LINE
  5
49
100
AcDbEntity
  8
0
  6
CONTINUOUS
 62
               7
100
AcDbLine
 10
3.9999847412109375
 20
-48.0
 30
0.0
 11
18.999984741210937
 21
-48.0
 31
0.0
  0
LINE
  5
4A
100
AcDbEntity
  8
0
  6
CONTINUOUS
 62
               7
100
AcDbLine
 10
4.4999847412109375
 20
-57.0
 30
0.0
 11
18.499984741210938
 21
-57.0
 31
0.0
  0
LINE
  5
4B
100
AcDbEntity
  8
0
  6
CONTINUOUS
 62
               7
100
AcDbLine
 10
17.919229334043848
 20
-9.4192209279390227
 30
0.0
 11
16.08075229400481
 21
-7.5807434229838577
 31
0.0
  0
LINE
  5
4C
100
AcDbEntity
  8
0
  6
CONTINUOUS
 62
               7
100
AcDbLine
 10
6.9192329558608208
 20
-7.4192544188483112
 30
0.0
 11
5.0807538927732594
 21
-5.5807748908441113
 31
0.0
  0
LINE
  5
4D
100
AcDbEntity
  8
0
  6
CONTINUOUS
 62
               7
100
AcDbLine
 10
5.0807630522560885
 20
-7.4192439378994095
 30
0.0
 11
6.9192343330926178
 21
-5.5807728120344109
 31
0.0
  0
LINE
  5
4E
100
AcDbEntity
  8
0
  6
CONTINUOUS
 62
               7
100
AcDbLine
 10
16.080750832478316
 20
-9.4192223324016595
 30
0.0
 11
17.919232902908789
 21
-7.5807404169436268
 31
0.0
  0
LINE
  5
4F
100
AcDbEntity
  8
0
  6
CONTINUOUS
 62
               7
100
AcDbLine
 10
4.0
 20
-5.4692535400390625
 30
0.0
 11
4.0
 21
6.5
 31
0.0
  0
LINE
  5
50
100
AcDbEntity
  8
0
  6
CONTINUOUS
 62
               7
100
AcDbLine
 10
19.0
 20
-42.469223022460937
 30
0.0
 11
19.0
 21
-9.9999542236328125
 31
0.0
  0
LINE
  5
51
100
AcDbEntity
  8
0
  6
CONTINUOUS
 62
               7
100
AcDbLine
 10
-3.5000152587890625
 20
-55.999984741210937
 30
0.0
 11
3.9999847412109375
 21
-55.999984741210937
 31
0.0
  0
LINE
  5
52
100
AcDbEntity
  8
0
  6
CONTINUOUS
 62
               7
100
AcDbLine
 10
-3.5
 20
6.0
 30
0.0
 11
4.0
 21
6.0
 31
0.0
  0
LINE
  5
53
100
AcDbEntity
  8
0
  6
CONTINUOUS
 62
               7
100
AcDbLine
 10
-3.5
 20
-55.999984741210937
 30
0.0
 11
-3.5
 21
6.0
 31
0.0
  0
LINE
  5
54
100
AcDbEntity
  8
0
  6
CONTINUOUS
 62
               7
100
AcDbLine
 10
18.999984741210937
 20
-55.999984741210937
 30
0.0
 11
26.499984741210938
 21
-55.999984741210937
 31
0.0
  0
LINE
  5
55
100
AcDbEntity
  8
0
  6
CONTINUOUS
 62
               7
100
AcDbLine
 10
19.0
 20
6.0
 30
0.0
 11
26.5
 21
6.0
 31
0.0
  0
LINE
  5
56
100
AcDbEntity
  8
0
  6
CONTINUOUS
 62
               2
100
AcDbLine
 10
-2.70001220703125
 20
-49.999984741210938
 30
0.0
 11
2.6999969482421875
 21
-49.999984741210938
 31
0.0
  0
LINE
  5
57
100
AcDbEntity
  8
0
  6
CONTINUOUS
 62
               2
100
AcDbLine
 10
-2.70001220703125
 20
0.0
 30
0.0
 11
2.6999969482421875
 21
0.0
 31
0.0
  0
LINE
  5
58
100
AcDbEntity
  8
0
  6
CONTINUOUS
 62
               2
100
AcDbLine
 10
0.0
 20
-52.699981689453125
 30
0.0
 11
0.0
 21
-47.29998779296875
 31
0.0
  0
LINE
  5
59
100
AcDbEntity
  8
0
  6
CONTINUOUS
 62
               2
100
AcDbLine
 10
0.0
 20
-2.6999969482421875
 30
0.0
 11
0.0
 21
2.70001220703125
 31
0.0
  0
LINE
  5
5A
100
AcDbEntity
  8
0
  6
CONTINUOUS
 62
               7
100
AcDbLine
 10
16.080743962541419
 20
-44.419233989191525
 30
0.0
 11
17.919215243377948
 21
-42.580762863326527
 31
0.0
  0
LINE
  5
5B
100
AcDbEntity
  8
0
  6
CONTINUOUS
 62
               7
100
AcDbLine
 10
17.919214119027856
 20
-44.419248769117985
 30
0.0
 11
16.080743148134388
 21
-42.580777333309925
 31
0.0
  0
LINE
  5
5C
100
AcDbEntity
  8
0
  6
CONTINUOUS
 62
               7
100
AcDbLine
 10
5.0807534849227522
 20
-42.419209738916834
 30
0.0
 11
6.9192247657592816
 21
-40.580738613051835
 31
0.0
  0
LINE
  5
5D
100
AcDbEntity
  8
0
  6
CONTINUOUS
 62
               7
100
AcDbLine
 10
6.9192238099985843
 20
-42.419223591613445
 30
0.0
 11
5.0807528391051164
 21
-40.580752155805385
 31
0.0
  0
LINE
  5
5E
100
AcDbEntity
  8
0
  6
CONTINUOUS
 62
               7
100
AcDbLine
 10
4.0
 20
-39.999984741210937
 30
0.0
 11
4.0
 21
-7.53076171875
 31
0.0
  0
LINE
  5
5F
100
AcDbEntity
  8
0
  6
CONTINUOUS
 62
               7
100
AcDbLine
 10
19.0
 20
-7.0
 30
0.0
 11
19.0
 21
6.5
 31
0.0
  0
CIRCLE
  5
60
100
AcDbEntity
  8
0
  6
CONTINUOUS
 62
               7
100
AcDbCircle
 10
11.5
 20
16.199996948242187
 30
0.0
 40
2.0
  0
CIRCLE
  5
61
100
AcDbEntity
  8
0
  6
CONTINUOUS
 62
               7
100
AcDbCircle
 10
11.5
 20
16.199996948242187
 30
0.0
 40
1.9499998092651367
  0
ARC
  5
62
100
AcDbEntity
  8
0
  6
CONTINUOUS
 62
               7
100
AcDbCircle
 10
16.999984741210937
 20
-8.4999847412109375
 30
0.0
 40
2.6999998092651367
100
AcDbArc
 50
89.999982013910454
 51
270.00000068324471
  0
ARC
  5
63
100
AcDbEntity
  8
0
  6
CONTINUOUS
 62
               7
100
AcDbCircle
 10
5.9999847412109375
 20
-41.5
 30
0.0
 40
2.6999998092651367
100
AcDbArc
 50
270.00001798608872
 51
89.999982013910454
  0
CIRCLE
  5
64
100
AcDbEntity
  8
0
  6
CONTINUOUS
 62
               7
100
AcDbCircle
 10
16.999984741210937
 20
-8.499969482421875
 30
0.0
 40
2.25
  0
ARC
  5
65
100
AcDbEntity
  8
0
  6
CONTINUOUS
 62
               7
100
AcDbCircle
 10
6.0
 20
-6.4999847412109375
 30
0.0
 40
2.6999998092651367
100
AcDbArc
 50
270.00001798608872
 51
0.0
  0
ARC
  5
66
100
AcDbEntity
  8
0
  6
CONTINUOUS
 62
               7
100
AcDbCircle
 10
18.699996948242188
 20
-5.5000152587890625
 30
0.0
 40
0.300000011920929
100
AcDbArc
 50
270.00001798608872
 51
0.0
  0
ARC
  5
67
100
AcDbEntity
  8
0
  6
CONTINUOUS
 62
               7
100
AcDbCircle
 10
4.29998779296875
 20
-38.5
 30
0.0
 40
0.300000011920929
100
AcDbArc
 50
179.99996402782091
 51
270.00000068324471
  0
ARC
  5
68
100
AcDbEntity
  8
0
  6
CONTINUOUS
 62
               7
100
AcDbCircle
 10
18.699996948242188
 20
-11.499984741210938
 30
0.0
 40
0.300000011920929
100
AcDbArc
 50
0.0
 51
89.999982013910454
  0
ARC
  5
69
100
AcDbEntity
  8
0
  6
CONTINUOUS
 62
               7
100
AcDbCircle
 10
4.29998779296875
 20
-44.499984741210937
 30
0.0
 40
0.300000011920929
100
AcDbArc
 50
89.999982013910454
 51
179.99996402782091
  0
ARC
  5
6A
100
AcDbEntity
  8
0
  6
CONTINUOUS
 62
               7
100
AcDbCircle
 10
4.29998779296875
 20
-2.4999847412109375
 30
0.0
 40
0.300000011920929
100
AcDbArc
 50
89.999982013910454
 51
179.99996402782091
  0
ARC
  5
6B
100
AcDbEntity
  8
0
  6
CONTINUOUS
 62
               7
100
AcDbCircle
 10
18.699996948242188
 20
-2.5
 30
0.0
 40
0.300000011920929
100
AcDbArc
 50
0.0
 51
89.999982013910454
  0
ARC
  5
6C
100
AcDbEntity
  8
0
  6
CONTINUOUS
 62
               7
100
AcDbCircle
 10
18.699996948242188
 20
-47.499984741210938
 30
0.0
 40
0.300000011920929
100
AcDbArc
 50
270.00001798608872
 51
0.0
  0
ARC
  5
6D
100
AcDbEntity
  8
0
  6
CONTINUOUS
 62
               7
100
AcDbCircle
 10
4.29998779296875
 20
-47.499984741210938
 30
0.0
 40
0.300000011920929
100
AcDbArc
 50
179.99996402782091
 51
270.00000068324471
  0
ARC
  5
6E
100
AcDbEntity
  8
0
  6
CONTINUOUS
 62
               7
100
AcDbCircle
 10
16.999984741210937
 20
-43.5
 30
0.0
 40
2.6999998092651367
100
AcDbArc
 50
89.999982013910454
 51
179.99996402782091
  0
ARC
  5
6F
100
AcDbEntity
  8
0
  6
CONTINUOUS
 62
               7
100
AcDbCircle
 10
4.4999847412109375
 20
-56.5
 30
0.0
 40
0.5
100
AcDbArc
 50
179.99996402782091
 51
269.99994604173139
  0
ARC
  5
70
100
AcDbEntity
  8
0
  6
CONTINUOUS
 62
               7
100
AcDbCircle
 10
18.499984741210938
 20
-56.5
 30
0.0
 40
0.5
100
AcDbArc
 50
270.00001798608872
 51
0.00001366037834
  0
CIRCLE
  5
71
100
AcDbEntity
  8
0
  6
CONTINUOUS
 62
               7
100
AcDbCircle
 10
6.0
 20
-6.5
 30
0.0
 40
2.25
  0
CIRCLE
  5
72
100
AcDbEntity
  8
0
  6
CONTINUOUS
 62
               7
100
AcDbCircle
 10
-0.0000152587890625
 20
-49.999984741210938
 30
0.0
 40
1.6999998092651367
  0
CIRCLE
  5
73
100
AcDbEntity
  8
0
  6
CONTINUOUS
 62
               7
100
AcDbCircle
 10
0.0
 20
0.0000152587890625
 30
0.0
 40
1.6999998092651367
  0
CIRCLE
  5
74
100
AcDbEntity
  8
0
  6
CONTINUOUS
 62
               7
100
AcDbCircle
 10
16.999984741210937
 20
-43.5
 30
0.0
 40
2.25
  0
CIRCLE
  5
75
100
AcDbEntity
  8
0
  6
CONTINUOUS
 62
               7
100
AcDbCircle
 10
6.0
 20
-41.499984741210938
 30
0.0
 40
2.25
  0
LINE
  5
76
100
AcDbEntity
  8
0
  6
CONTINUOUS
 62
               7
100
AcDbLine
 10
6.0
 20
8.5
 30
0.0
 11
6.5
 21
8.5
 31
0.0
  0
LINE
  5
77
100
AcDbEntity
  8
0
  6
CONTINUOUS
 62
               7
100
AcDbLine
 10
16.5
 20
8.5
 30
0.0
 11
17.0
 21
8.5
 31
0.0
  0
CIRCLE
  5
78
100
AcDbEntity
  8
0
  6
CONTINUOUS
 62
               7
100
AcDbCircle
 10
6.0
 20
-41.499984741210938
 30
0.0
 40
2.5
  0
CIRCLE
  5
79
100
AcDbEntity
  8
0
  6
CONTINUOUS
 62
               7
100
AcDbCircle
 10
16.999984741210937
 20
-8.499969482421875
 30
0.0
 40
2.5
  0
LINE
  5
7A
100
AcDbEntity
  8
0
  6
CONTINUOUS
 62
               4
100
AcDbLine
 10
16.5
 20
19.5
 30
0.0
 11
16.5
 21
43.5
 31
0.0
  0
LINE
  5
7B
100
AcDbEntity
  8
0
  6
CONTINUOUS
 62
               4
100
AcDbLine
 10
6.5
 20
19.5
 30
0.0
 11
6.5
 21
43.500015258789063
 31
0.0
  0
LINE
  5
7C
100
AcDbEntity
  8
0
  6
CONTINUOUS
 62
             200
100
AcDbLine
 10
7.5000024246974135
 20
66.94584318235411
 30
0.0
 11
11.5
 21
68.017639311366111
 31
0.0
  0
LINE
  5
7D
100
AcDbEntity
  8
0
  6
CONTINUOUS
 62
             200
100
AcDbLine
 10
7.4999923790210232
 20
65.910564323592553
 30
0.0
 11
11.5
 21
66.982363144335466
 31
0.0
  0
ARC
  5
7E
100
AcDbEntity
  8
0
  6
CONTINUOUS
 62
               4
100
AcDbCircle
 10
7.0500030517578125
 20
52.000015258789063
 30
0.0
 40
0.5
100
AcDbArc
 50
89.999982013910454
 51
179.99996402782091
  0
ARC
  5
7F
100
AcDbEntity
  8
0
  6
CONTINUOUS
 62
               4
100
AcDbCircle
 10
15.949996948242188
 20
52.0
 30
0.0
 40
0.5
100
AcDbArc
 50
359.99995901886416
 51
89.999982013910454
  0
LINE
  5
80
100
AcDbEntity
  8
0
  6
CONTINUOUS
 62
               4
100
AcDbLine
 10
15.5
 20
57.000015258789063
 30
0.0
 11
15.5
 21
63.5
 31
0.0
  0
LINE
  5
81
100
AcDbEntity
  8
0
  6
CONTINUOUS
 62
               4
100
AcDbLine
 10
7.5
 20
57.000015258789063
 30
0.0
 11
7.5
 21
63.5
 31
0.0
  0
LINE
  5
82
100
AcDbEntity
  8
0
  6
CONTINUOUS
 62
               4
100
AcDbLine
 10
6.600006103515625
 20
57.000015258789063
 30
0.0
 11
6.600006103515625
 21
63.5
 31
0.0
  0
LINE
  5
83
100
AcDbEntity
  8
0
  6
CONTINUOUS
 62
               4
100
AcDbLine
 10
16.399993896484375
 20
57.000015258789063
 30
0.0
 11
16.399993896484375
 21
63.5
 31
0.0
  0
LINE
  5
84
100
AcDbEntity
  8
0
  6
CONTINUOUS
 62
               4
100
AcDbLine
 10
8.785003662109375
 20
63.5
 30
0.0
 11
8.785003662109375
 21
66.2548828125
 31
0.0
  0
LINE
  5
85
100
AcDbEntity
  8
0
  6
CONTINUOUS
 62
               4
100
AcDbLine
 10
10.215011596679687
 20
63.5
 30
0.0
 11
10.215011596679687
 21
66.638046264648438
 31
0.0
  0
LINE
  5
86
100
AcDbEntity
  8
0
  6
CONTINUOUS
 62
               4
100
AcDbLine
 10
9.0999908447265625
 20
76.5
 30
0.0
 11
9.899993896484375
 21
76.5
 31
0.0
  0
LINE
  5
87
100
AcDbEntity
  8
0
  6
CONTINUOUS
 62
               4
100
AcDbLine
 10
9.100006103515625
 20
71.5
 30
0.0
 11
9.100006103515625
 21
76.5
 31
0.0
  0
LINE
  5
88
100
AcDbEntity
  8
0
  6
CONTINUOUS
 62
               4
100
AcDbLine
 10
9.9000091552734375
 20
71.5
 30
0.0
 11
9.9000091552734375
 21
76.5
 31
0.0
  0
LINE
  5
89
100
AcDbEntity
  8
0
  6
CONTINUOUS
 62
               4
100
AcDbLine
 10
8.7849884033203125
 20
71.5
 30
0.0
 11
10.214996337890625
 21
71.5
 31
0.0
  0
LINE
  5
8A
100
AcDbEntity
  8
0
  6
CONTINUOUS
 62
               4
100
AcDbLine
 10
8.785003662109375
 20
67.2901611328125
 30
0.0
 11
8.785003662109375
 21
71.5
 31
0.0
  0
LINE
  5
8B
100
AcDbEntity
  8
0
  6
CONTINUOUS
 62
               4
100
AcDbLine
 10
10.215011596679687
 20
67.673324584960937
 30
0.0
 11
10.215011596679687
 21
71.5
 31
0.0
  0
LINE
  5
8C
100
AcDbEntity
  8
0
  6
CONTINUOUS
 62
               4
100
AcDbLine
 10
15.550003051757813
 20
56.000015258789063
 30
0.0
 11
15.550003051757813
 21
57.000015258789063
 31
0.0
  0
LINE
  5
8D
100
AcDbEntity
  8
0
  6
CONTINUOUS
 62
               4
100
AcDbLine
 10
7.4499969482421875
 20
56.000015258789063
 30
0.0
 11
7.4499969482421875
 21
57.000015258789063
 31
0.0
  0
LINE
  5
8E
100
AcDbEntity
  8
0
  6
CONTINUOUS
 62
               4
100
AcDbLine
 10
7.4499969482421875
 20
55.0
 30
0.0
 11
8.0
 21
55.0
 31
0.0
  0
LINE
  5
8F
100
AcDbEntity
  8
0
  6
CONTINUOUS
 62
               4
100
AcDbLine
 10
7.4499969482421875
 20
56.0
 30
0.0
 11
8.0
 21
56.0
 31
0.0
  0
LINE
  5
90
100
AcDbEntity
  8
0
  6
CONTINUOUS
 62
               4
100
AcDbLine
 10
15.0
 20
55.0
 30
0.0
 11
15.550003051757813
 21
55.0
 31
0.0
  0
LINE
  5
91
100
AcDbEntity
  8
0
  6
CONTINUOUS
 62
               4
100
AcDbLine
 10
15.0
 20
56.0
 30
0.0
 11
15.550003051757813
 21
56.0
 31
0.0
  0
LINE
  5
92
100
AcDbEntity
  8
0
  6
CONTINUOUS
 62
               4
100
AcDbLine
 10
15.0
 20
57.0
 30
0.0
 11
16.449996948242188
 21
57.0
 31
0.0
  0
LINE
  5
93
100
AcDbEntity
  8
0
  6
CONTINUOUS
 62
               4
100
AcDbLine
 10
6.600006103515625
 20
63.5
 30
0.0
 11
16.399993896484375
 21
63.5
 31
0.0
  0
LINE
  5
94
100
AcDbEntity
  8
0
  6
CONTINUOUS
 62
               4
100
AcDbLine
 10
8.0
 20
62.0
 30
0.0
 11
15.0
 21
62.0
 31
0.0
  0
LINE
  5
95
100
AcDbEntity
  8
0
  6
CONTINUOUS
 62
               4
100
AcDbLine
 10
8.0
 20
56.55615234375
 30
0.0
 11
15.0
 21
56.55615234375
 31
0.0
  0
LINE
  5
96
100
AcDbEntity
  8
0
  6
CONTINUOUS
 62
               4
100
AcDbLine
 10
8.0
 20
52.998458862304687
 30
0.0
 11
15.0
 21
52.998458862304687
 31
0.0
  0
LINE
  5
97
100
AcDbEntity
  8
0
  6
CONTINUOUS
 62
               4
100
AcDbLine
 10
8.0
 20
52.998458862304687
 30
0.0
 11
8.0
 21
63.5
 31
0.0
  0
LINE
  5
98
100
AcDbEntity
  8
0
  6
CONTINUOUS
 62
               4
100
AcDbLine
 10
15.0
 20
52.998458862304687
 30
0.0
 11
15.0
 21
63.5
 31
0.0
  0
LINE
  5
99
100
AcDbEntity
  8
0
  6
CONTINUOUS
 62
               4
100
AcDbLine
 10
15.550003051757813
 20
52.5
 30
0.0
 11
15.550003051757813
 21
55.000015258789063
 31
0.0
  0
LINE
  5
9A
100
AcDbEntity
  8
0
  6
CONTINUOUS
 62
               4
100
AcDbLine
 10
7.4499969482421875
 20
52.500015258789063
 30
0.0
 11
7.4499969482421875
 21
55.000015258789063
 31
0.0
  0
LINE
  5
9B
100
AcDbEntity
  8
0
  6
CONTINUOUS
 62
               4
100
AcDbLine
 10
6.5500030517578125
 20
57.0
 30
0.0
 11
8.0
 21
57.0
 31
0.0
  0
LINE
  5
9C
100
AcDbEntity
  8
0
  6
CONTINUOUS
 62
               4
100
AcDbLine
 10
16.449996948242188
 20
43.5
 30
0.0
 11
16.449996948242188
 21
57.000015258789063
 31
0.0
  0
LINE
  5
9D
100
AcDbEntity
  8
0
  6
CONTINUOUS
 62
               2
100
AcDbLine
 10
16.449996948242188
 20
48.0
 30
0.0
 11
6.54998779296875
 21
48.0
 31
0.0
  0
LINE
  5
9E
100
AcDbEntity
  8
0
  6
CONTINUOUS
 62
               4
100
AcDbLine
 10
16.0
 20
52.5
 30
0.0
 11
7.0
 21
52.5
 31
0.0
  0
LINE
  5
9F
100
AcDbEntity
  8
0
  6
CONTINUOUS
 62
               4
100
AcDbLine
 10
6.54998779296875
 20
43.500015258789063
 30
0.0
 11
6.54998779296875
 21
57.000015258789063
 31
0.0
  0
LINE
  5
A0
100
AcDbEntity
  8
0
  6
CONTINUOUS
 62
               4
100
AcDbLine
 10
6.5
 20
43.5
 30
0.0
 11
16.5
 21
43.5
 31
0.0
  0
LINE
  5
A1
100
AcDbEntity
  8
0
  6
CONTINUOUS
 62
               7
100
AcDbLine
 10
6.5
 20
19.5
 30
0.0
 11
16.5
 21
19.5
 31
0.0
  0
LINE
  5
A2
100
AcDbEntity
  8
0
  6
CONTINUOUS
 62
               7
100
AcDbLine
 10
26.5
 20
-55.999984741210937
 30
0.0
 11
26.5
 21
6.0
 31
0.0
  0
ENDBLK
  5
A3
100
AcDbEntity
  8
0
100
AcDbBlockEnd
  0
BLOCK
  5
A4
100
AcDbEntity
  8
0
100
AcDbBlockBegin
  2
F15T0-2
 70
               0
 10
0.0
 20
0.0
 30
0.0
  3
F15T0-2
  1

  0
LINE
  5
A5
100
AcDbEntity
  8
0
  6
CONTINUOUS
 62
               7
100
AcDbLine
 10
3.0000000646659828
 20
25.500003069084983
 30
0.0
 11
13.000000064665983
 21
25.500003069084983
 31
0.0
  0
LINE
  5
A6
100
AcDbEntity
  8
0
  6
CONTINUOUS
 62
               7
100
AcDbLine
 10
15.500000064665983
 20
-38.999996930915017
 30
0.0
 11
15.500000064665983
 21
-30.499996930915017
 31
0.0
  0
LINE
  5
A7
100
AcDbEntity
  8
0
  6
CONTINUOUS
 62
               7
100
AcDbLine
 10
0.5000000646659828
 20
-38.999996930915017
 30
0.0
 11
0.5000000646659828
 21
-30.499996930915017
 31
0.0
  0
LINE
  5
A8
100
AcDbEntity
  8
0
  6
CONTINUOUS
 62
               7
100
AcDbLine
 10
2.500024267686058
 20
26.000012562079633
 30
0.0
 11
0.50001034338311
 21
24.000000660838509
 31
0.0
  0
LINE
  5
A9
100
AcDbEntity
  8
0
  6
CONTINUOUS
 62
               7
100
AcDbLine
 10
13.49997656027449
 20
26.00000687225679
 30
0.0
 11
15.49998930445804
 21
23.999993790896269
 31
0.0
  0
LINE
  5
AA
100
AcDbEntity
  8
0
  6
CONTINUOUS
 62
               7
100
AcDbLine
 10
0.9999848058769203
 20
-39.499996930915017
 30
0.0
 11
15.000000064665983
 21
-39.499996930915017
 31
0.0
  0
LINE
  5
AB
100
AcDbEntity
  8
0
  6
CONTINUOUS
 62
               7
100
AcDbLine
 10
0.5000000646659828
 20
15.49998781029592
 30
0.0
 11
0.5000000646659828
 21
24.000003069084983
 31
0.0
  0
LINE
  5
AC
100
AcDbEntity
  8
0
  6
CONTINUOUS
 62
               7
100
AcDbLine
 10
15.500000064665983
 20
15.49998781029592
 30
0.0
 11
15.500000064665983
 21
24.000003069084983
 31
0.0
  0
LINE
  5
AD
100
AcDbEntity
  8
0
  6
CONTINUOUS
 62
               7
100
AcDbLine
 10
6.2500000646659828
 20
-37.499996930915017
 30
0.0
 11
6.2500000646659828
 21
-36.999996930915017
 31
0.0
  0
LINE
  5
AE
100
AcDbEntity
  8
0
  6
CONTINUOUS
 62
               7
100
AcDbLine
 10
0.7500153234550453
 20
-37.499996930915017
 30
0.0
 11
0.7500153234550453
 21
-36.999996930915017
 31
0.0
  0
LINE
  5
AF
100
AcDbEntity
  8
0
  6
CONTINUOUS
 62
               7
100
AcDbLine
 10
4.7500000646659828
 20
-38.999996930915017
 30
0.0
 11
2.2500000646659828
 21
-38.999996930915017
 31
0.0
  0
LINE
  5
B0
100
AcDbEntity
  8
0
  6
CONTINUOUS
 62
               7
100
AcDbLine
 10
6.6999970129081703
 20
-39.199993879157205
 30
0.0
 11
6.6999970129081703
 21
-37.29999998267283
 31
0.0
  0
LINE
  5
B1
100
AcDbEntity
  8
0
  6
CONTINUOUS
 62
               7
100
AcDbLine
 10
6.3999939611503578
 20
-36.999996930915017
 30
0.0
 11
0.5000000646659828
 21
-36.999996930915017
 31
0.0
  0
LINE
  5
B2
100
AcDbEntity
  8
0
  6
CONTINUOUS
 62
               7
100
AcDbLine
 10
3.0000000646659828
 20
36.899996965569358
 30
0.0
 11
13.000000064665983
 21
36.899996965569358
 31
0.0
  0
LINE
  5
B3
100
AcDbEntity
  8
0
  6
CONTINUOUS
 62
               7
100
AcDbLine
 10
3.0000000646659828
 20
27.500003069084983
 30
0.0
 11
13.000000064665983
 21
27.500003069084983
 31
0.0
  0
LINE
  5
B4
100
AcDbEntity
  8
0
  6
CONTINUOUS
 62
               4
100
AcDbLine
 10
3.0000153234550453
 20
61.000018327874045
 30
0.0
 11
13.000015323455045
 21
61.000018327874045
 31
0.0
  0
LINE
  5
B5
100
AcDbEntity
  8
0
  6
CONTINUOUS
 62
               7
100
AcDbLine
 10
3.0000000646659828
 20
37.000003069084983
 30
0.0
 11
13.000000064665983
 21
37.000003069084983
 31
0.0
  0
LINE
  5
B6
100
AcDbEntity
  8
0
  6
CONTINUOUS
 62
               4
100
AcDbLine
 10
3.0500031164237953
 20
61.000003069084983
 30
0.0
 11
3.0500031164237953
 21
81.000003069084983
 31
0.0
  0
LINE
  5
B7
100
AcDbEntity
  8
0
  6
CONTINUOUS
 62
               4
100
AcDbLine
 10
12.94999701290817
 20
61.000003069084983
 30
0.0
 11
12.94999701290817
 21
81.000003069084983
 31
0.0
  0
LINE
  5
B8
100
AcDbEntity
  8
0
  6
CONTINUOUS
 62
               4
100
AcDbLine
 10
9.2849884679862953
 20
81.000003069084983
 30
0.0
 11
9.2849884679862953
 21
84.826678484124045
 31
0.0
  0
LINE
  5
B9
100
AcDbEntity
  8
0
  6
CONTINUOUS
 62
               4
100
AcDbLine
 10
10.71501166134567
 20
81.000003069084983
 30
0.0
 11
10.71501166134567
 21
85.209857195061545
 31
0.0
  0
LINE
  5
BA
100
AcDbEntity
  8
0
  6
CONTINUOUS
 62
               4
100
AcDbLine
 10
9.5999909093925453
 20
89.000003069084983
 30
0.0
 11
9.5999909093925453
 21
94.000003069084983
 31
0.0
  0
LINE
  5
BB
100
AcDbEntity
  8
0
  6
CONTINUOUS
 62
               4
100
AcDbLine
 10
10.40000921993942
 20
89.000003069084983
 30
0.0
 11
10.40000921993942
 21
94.000003069084983
 31
0.0
  0
LINE
  5
BC
100
AcDbEntity
  8
0
  6
CONTINUOUS
 62
               4
100
AcDbLine
 10
9.5999909093925453
 20
94.000003069084983
 30
0.0
 11
10.399993961150358
 21
94.000003069084983
 31
0.0
  0
LINE
  5
BD
100
AcDbEntity
  8
0
  6
CONTINUOUS
 62
               4
100
AcDbLine
 10
9.2849884679862953
 20
89.000003069084983
 30
0.0
 11
10.714996402556608
 21
89.000003069084983
 31
0.0
  0
LINE
  5
BE
100
AcDbEntity
  8
0
  6
CONTINUOUS
 62
               4
100
AcDbLine
 10
9.2849884679862953
 20
85.861956804436545
 30
0.0
 11
9.2849884679862953
 21
89.000003069084983
 31
0.0
  0
LINE
  5
BF
100
AcDbEntity
  8
0
  6
CONTINUOUS
 62
               4
100
AcDbLine
 10
10.71501166134567
 20
86.245135515374045
 30
0.0
 11
10.71501166134567
 21
89.000003069084983
 31
0.0
  0
LINE
  5
C0
100
AcDbEntity
  8
0
  6
CONTINUOUS
 62
               4
100
AcDbLine
 10
3.0500031164237953
 20
81.000003069084983
 30
0.0
 11
12.94999701290817
 21
81.000003069084983
 31
0.0
  0
LINE
  5
C1
100
AcDbEntity
  8
0
  6
CONTINUOUS
 62
               7
100
AcDbLine
 10
13.000000064665983
 20
25.500003069084983
 30
0.0
 11
13.000000064665983
 21
37.000003069084983
 31
0.0
  0
LINE
  5
C2
100
AcDbEntity
  8
0
  6
CONTINUOUS
 62
               7
100
AcDbLine
 10
3.0000000646659828
 20
25.500003069084983
 30
0.0
 11
3.0000000646659828
 21
37.000003069084983
 31
0.0
  0
LINE
  5
C3
100
AcDbEntity
  8
0
  6
CONTINUOUS
 62
               2
100
AcDbLine
 10
8.0000000646659828
 20
-45.409826843454027
 30
0.0
 11
8.0000000646659828
 21
82.755068987053733
 31
0.0
  0
LINE
  5
C4
100
AcDbEntity
  8
0
  6
CONTINUOUS
 62
               4
100
AcDbLine
 10
7.4000092199394203
 20
71.500003069084983
 30
0.0
 11
8.5999909093925453
 21
71.500003069084983
 31
0.0
  0
LINE
  5
C5
100
AcDbEntity
  8
0
  6
CONTINUOUS
 62
               4
100
AcDbLine
 10
8.5999909093925453
 20
74.500003069084983
 30
0.0
 11
8.5999909093925453
 21
71.500003069084983
 31
0.0
  0
LINE
  5
C6
100
AcDbEntity
  8
0
  6
CONTINUOUS
 62
               4
100
AcDbLine
 10
7.4000092199394203
 20
74.500003069084983
 30
0.0
 11
7.4000092199394203
 21
71.500003069084983
 31
0.0
  0
LINE
  5
C7
100
AcDbEntity
  8
0
  6
CONTINUOUS
 62
               4
100
AcDbLine
 10
9.1000608941621977
 20
74.49996880067431
 30
0.0
 11
8.6000586774916883
 21
73.999969955755319
 31
0.0
  0
LINE
  5
C8
100
AcDbEntity
  8
0
  6
CONTINUOUS
 62
               4
100
AcDbLine
 10
6.8999912256922471
 20
74.499973646747662
 30
0.0
 11
7.3999811776238857
 21
73.999984116275868
 31
0.0
  0
LINE
  5
C9
100
AcDbEntity
  8
0
  6
CONTINUOUS
 62
               4
100
AcDbLine
 10
3.0500031164237953
 20
80.000003069084983
 30
0.0
 11
12.94999701290817
 21
80.000003069084983
 31
0.0
  0
LINE
  5
CA
100
AcDbEntity
  8
0
  6
CONTINUOUS
 62
               4
100
AcDbLine
 10
3.0500031164237953
 20
74.500003069084983
 30
0.0
 11
7.4000092199394203
 21
74.500003069084983
 31
0.0
  0
LINE
  5
CB
100
AcDbEntity
  8
0
  6
CONTINUOUS
 62
               4
100
AcDbLine
 10
8.5999909093925453
 20
74.500003069084983
 30
0.0
 11
12.94999701290817
 21
74.500003069084983
 31
0.0
  0
LINE
  5
CC
100
AcDbEntity
  8
0
  6
CONTINUOUS
 62
               7
100
AcDbLine
 10
0.0000000646659828
 20
15.49998781029592
 30
0.0
 11
16.000000064665983
 21
15.49998781029592
 31
0.0
  0
LINE
  5
CD
100
AcDbEntity
  8
0
  6
CONTINUOUS
 62
               7
100
AcDbLine
 10
0.0000000646659828
 20
-30.499996930915017
 30
0.0
 11
16.000000064665983
 21
-30.499996930915017
 31
0.0
  0
LINE
  5
CE
100
AcDbEntity
  8
0
  6
CONTINUOUS
 62
               2
100
AcDbLine
 10
13.019912784392545
 20
-21.999989301520486
 30
0.0
 11
1.1851044347831703
 21
-21.999989301520486
 31
0.0
  0
LINE
  5
CF
100
AcDbEntity
  8
0
  6
CONTINUOUS
 62
               2
100
AcDbLine
 10
9.0000000646659828
 20
12.558245866936545
 30
0.0
 11
9.0000000646659828
 21
1.0594970876396701
 31
0.0
  0
LINE
  5
D0
100
AcDbEntity
  8
0
  6
CONTINUOUS
 62
               2
100
AcDbLine
 10
7.0000000646659828
 20
-27.558258802252908
 30
0.0
 11
7.0000000646659828
 21
-16.059489995795388
 31
0.0
  0
LINE
  5
D1
100
AcDbEntity
  8
0
  6
CONTINUOUS
 62
               7
100
AcDbLine
 10
0.0000000646659828
 20
15.49998781029592
 30
0.0
 11
0.0000000646659828
 21
-30.499996930915017
 31
0.0
  0
LINE
  5
D2
100
AcDbEntity
  8
0
  6
CONTINUOUS
 62
               7
100
AcDbLine
 10
16.000000064665983
 20
15.49998781029592
 30
0.0
 11
16.000000064665983
 21
-30.499996930915017
 31
0.0
  0
LINE
  5
D4
100
AcDbEntity
  8
0
  6
DASHED
 62
               4
100
AcDbLine
 10
-2.6999816247871422
 20
-1.2499969309150174
 30
0.0
 11
-2.6999816247871422
 21
1.2500030690849826
 31
0.0
  0
LINE
  5
D5
100
AcDbEntity
  8
0
  6
DASHED
 62
               4
100
AcDbLine
 10
-1.1999816247871422
 20
-2.7499969309150174
 30
0.0
 11
-0.6999816247871422
 21
-2.7499969309150174
 31
0.0
  0
LINE
  5
D6
100
AcDbEntity
  8
0
  6
DASHED
 62
               4
100
AcDbLine
 10
-1.1999816247871422
 20
2.7499878102959201
 30
0.0
 11
-0.6999816247871422
 21
2.7499878102959201
 31
0.0
  0
LINE
  5
D7
100
AcDbEntity
  8
0
  6
CONTINUOUS
 62
               2
100
AcDbLine
 10
2.9800873449394203
 20
6.9999878102959201
 30
0.0
 11
14.814910953337858
 21
6.9999878102959201
 31
0.0
  0
LINE
  5
D8
100
AcDbEntity
  8
0
  6
CONTINUOUS
 62
               2
100
AcDbLine
 10
-1.0371398279121422
 20
-7.4999969309150174
 30
0.0
 11
16.957107608611295
 21
-7.4999969309150174
 31
0.0
  0
LINE
  5
D9
100
AcDbEntity
  8
0
  6
DASHED
 62
               4
100
AcDbLine
 10
17.600006168181608
 20
9.9999878102959201
 30
0.0
 11
17.600006168181608
 21
-49.899990827399392
 31
0.0
  0
LINE
  5
DA
100
AcDbEntity
  8
0
  6
DASHED
 62
               4
100
AcDbLine
 10
0.0000000646659828
 20
-49.899990827399392
 30
0.0
 11
0.0000000646659828
 21
-51.499996930915017
 31
0.0
  0
LINE
  5
DB
100
AcDbEntity
  8
0
  6
DASHED
 62
               4
100
AcDbLine
 10
16.000000064665983
 20
-30.499996930915017
 30
0.0
 11
16.000000064665983
 21
-51.499996930915017
 31
0.0
  0
LINE
  5
DC
100
AcDbEntity
  8
0
  6
DASHED
 62
               4
100
AcDbLine
 10
16.000000064665983
 20
-49.899990827399392
 30
0.0
 11
0.0000000646659828
 21
-49.899990827399392
 31
0.0
  0
LINE
  5
DD
100
AcDbEntity
  8
0
  6
DASHED
 62
               4
100
AcDbLine
 10
16.000000064665983
 20
-51.499996930915017
 30
0.0
 11
0.0000000646659828
 21
-51.499996930915017
 31
0.0
  0
LINE
  5
DE
100
AcDbEntity
  8
0
  6
DASHED
 62
               4
100
AcDbLine
 10
17.600006168181608
 20
9.9999878102959201
 30
0.0
 11
16.000000064665983
 21
9.9999878102959201
 31
0.0
  0
LINE
  5
DF
100
AcDbEntity
  8
0
  6
DASHED
 62
               4
100
AcDbLine
 10
-2.6999816247871422
 20
-16.249993116217752
 30
0.0
 11
-2.6999816247871422
 21
-13.750000745612283
 31
0.0
  0
LINE
  5
E0
100
AcDbEntity
  8
0
  6
DASHED
 62
               4
100
AcDbLine
 10
-1.1999816247871422
 20
-12.250008375006814
 30
0.0
 11
-0.6999816247871422
 21
-12.250008375006814
 31
0.0
  0
LINE
  5
E1
100
AcDbEntity
  8
0
  6
DASHED
 62
               4
100
AcDbLine
 10
-1.1999816247871422
 20
-17.750000745612283
 30
0.0
 11
-0.6999816247871422
 21
-17.750000745612283
 31
0.0
  0
LINE
  5
E2
100
AcDbEntity
  8
0
  6
CENTER
 62
               2
100
AcDbLine
 10
9.5000000646659828
 20
18.99998781029592
 30
0.0
 11
6.5000000646659828
 21
18.99998781029592
 31
0.0
  0
ARC
  5
E3
100
AcDbEntity
  8
0
  6
CONTINUOUS
 62
               7
100
AcDbCircle
 10
1.0000000646659828
 20
-38.999996930915017
 30
0.0
 40
0.5
100
AcDbArc
 50
179.99996402782091
 51
269.99994604173139
  0
ARC
  5
E4
100
AcDbEntity
  8
0
  6
CONTINUOUS
 62
               7
100
AcDbCircle
 10
15.000000064665983
 20
-38.999996930915017
 30
0.0
 40
0.5
100
AcDbArc
 50
270.00001798608872
 51
0.00001366037834
  0
ARC
  5
E5
100
AcDbEntity
  8
0
  6
CONTINUOUS
 62
               7
100
AcDbCircle
 10
4.7500000646659828
 20
-37.499996930915017
 30
0.0
 40
1.5
100
AcDbArc
 50
270.00001798608872
 51
359.99995901886416
  0
ARC
  5
E6
100
AcDbEntity
  8
0
  6
CONTINUOUS
 62
               7
100
AcDbCircle
 10
2.2500000646659828
 20
-37.499996930915017
 30
0.0
 40
1.5
100
AcDbArc
 50
179.99990938630756
 51
269.99994604173139
  0
ARC
  5
E7
100
AcDbEntity
  8
0
  6
CONTINUOUS
 62
               7
100
AcDbCircle
 10
7.0000000646659828
 20
-39.199993879157205
 30
0.0
 40
0.300000011920929
100
AcDbArc
 50
179.99998133066492
 51
270.00001798608872
  0
ARC
  5
E8
100
AcDbEntity
  8
0
  6
CONTINUOUS
 62
               7
100
AcDbCircle
 10
6.3999939611503578
 20
-37.29999998267283
 30
0.0
 40
0.300000011920929
100
AcDbArc
 50
0.0
 51
89.999982013910454
  0
CIRCLE
  5
E9
100
AcDbEntity
  8
0
  6
CONTINUOUS
 62
               2
100
AcDbCircle
 10
9.0000000646659828
 20
6.9999878102959201
 30
0.0
 40
5.0
  0
CIRCLE
  5
EA
100
AcDbEntity
  8
0
  6
CONTINUOUS
 62
               7
100
AcDbCircle
 10
9.0000000646659828
 20
6.9999878102959201
 30
0.0
 40
4.25
  0
CIRCLE
  5
EB
100
AcDbEntity
  8
0
  6
CONTINUOUS
 62
               2
100
AcDbCircle
 10
7.0000000646659828
 20
-21.999996930915017
 30
0.0
 40
5.0
  0
CIRCLE
  5
EC
100
AcDbEntity
  8
0
  6
CONTINUOUS
 62
               7
100
AcDbCircle
 10
7.0000000646659828
 20
-21.999996930915017
 30
0.0
 40
4.25
  0
CIRCLE
  5
ED
100
AcDbEntity
  8
0
  6
CONTINUOUS
 62
               2
100
AcDbCircle
 10
8.0000000646659828
 20
-7.4999969309150174
 30
0.0
 40
5.0
  0
CIRCLE
  5
EE
100
AcDbEntity
  8
0
  6
CONTINUOUS
 62
               7
100
AcDbCircle
 10
8.0000000646659828
 20
-7.4999969309150174
 30
0.0
 40
4.25
  0
ARC
  5
EF
100
AcDbEntity
  8
0
  6
DASHED
 62
               4
100
AcDbCircle
 10
-1.1999816247871422
 20
1.2500030690849826
 30
0.0
 40
1.5
100
AcDbArc
 50
89.999927372397096
 51
179.99990938630756
  0
ARC
  5
F0
100
AcDbEntity
  8
0
  6
DASHED
 62
               4
100
AcDbCircle
 10
-1.1999816247871422
 20
-1.2499969309150174
 30
0.0
 40
1.5
100
AcDbArc
 50
179.99998133066492
 51
269.99996334457541
  0
ARC
  5
F1
100
AcDbEntity
  8
0
  6
DASHED
 62
               4
100
AcDbCircle
 10
16.000000064665983
 20
-49.899990827399392
 30
0.0
 40
1.5999994277954102
100
AcDbArc
 50
270.00001798608872
 51
0.0
  0
ARC
  5
F2
100
AcDbEntity
  8
0
  6
DASHED
 62
               4
100
AcDbCircle
 10
-1.1999816247871422
 20
-13.750000745612283
 30
0.0
 40
1.5
100
AcDbArc
 50
89.999927372397096
 51
179.99990938630756
  0
ARC
  5
F3
100
AcDbEntity
  8
0
  6
DASHED
 62
               4
100
AcDbCircle
 10
-1.1999816247871422
 20
-16.249993116217752
 30
0.0
 40
1.5
100
AcDbArc
 50
179.99998133066492
 51
269.99996334457541
  0
CIRCLE
  5
F4
100
AcDbEntity
  8
0
  6
CONTINUOUS
 62
               7
100
AcDbCircle
 10
8.0000000646659828
 20
18.99998781029592
 30
0.0
 40
0.6000000238418579
  0
LINE
  5
F5
100
AcDbEntity
  8
0
  6
CONTINUOUS
 62
               7
100
AcDbLine
 10
2.5000153234550453
 20
26.000003069084983
 30
0.0
 11
3.0000000646659828
 21
26.000003069084983
 31
0.0
  0
LINE
  5
F6
100
AcDbEntity
  8
0
  6
CONTINUOUS
 62
               7
100
AcDbLine
 10
13.000000064665983
 20
26.000003069084983
 30
0.0
 11
13.49998480587692
 21
26.000003069084983
 31
0.0
  0
LINE
  5
F7
100
AcDbEntity
  8
0
  6
DASHED
 62
               4
100
AcDbLine
 10
-0.6999816247871422
 20
2.9500000173271843
 30
0.0
 11
-0.6999816247871422
 21
-2.950009137946239
 31
0.0
  0
LINE
  5
F8
100
AcDbEntity
  8
0
  6
DASHED
 62
               4
100
AcDbLine
 10
0.0000233108703469
 20
-0.3500099705719322
 30
0.0
 11
-0.6999840217313249
 21
-0.5375763716104984
 31
0.0
  0
LINE
  5
F9
100
AcDbEntity
  8
0
  6
DASHED
 62
               4
100
AcDbLine
 10
-0.6999815601211594
 20
0.3499888242000679
 30
0.0
 11
0.0000110768169179
 21
0.5375512327788101
 31
0.0
  0
LINE
  5
FA
100
AcDbEntity
  8
0
  6
DASHED
 62
               4
100
AcDbLine
 10
-0.6999816247871422
 20
2.9500000173271843
 30
0.0
 11
0.0000153234550453
 21
2.9500000173271843
 31
0.0
  0
LINE
  5
FB
100
AcDbEntity
  8
0
  6
DASHED
 62
               4
100
AcDbLine
 10
-0.6999816247871422
 20
-2.950009137946239
 30
0.0
 11
0.0000153234550453
 21
-2.950009137946239
 31
0.0
  0
LINE
  5
FC
100
AcDbEntity
  8
0
  6
DASHED
 62
               4
100
AcDbLine
 10
-0.6999816247871422
 20
-12.050004751044384
 30
0.0
 11
-0.6999816247871422
 21
-17.950004369574657
 31
0.0
  0
LINE
  5
FD
100
AcDbEntity
  8
0
  6
DASHED
 62
               4
100
AcDbLine
 10
0.0000166800100487
 20
-15.350015909093941
 30
0.0
 11
-0.6999759137333967
 21
-15.537578360867315
 31
0.0
  0
LINE
  5
FE
100
AcDbEntity
  8
0
  6
DASHED
 62
               4
100
AcDbLine
 10
-0.6999892859894317
 20
-14.650017746524441
 30
0.0
 11
0.0000180898077815
 21
-14.462451388681416
 31
0.0
  0
LINE
  5
FF
100
AcDbEntity
  8
0
  6
DASHED
 62
               4
100
AcDbLine
 10
-0.6999816247871422
 20
-12.050004751044384
 30
0.0
 11
0.0000153234550453
 21
-12.050004751044384
 31
0.0
  0
LINE
  5
100
100
AcDbEntity
  8
0
  6
DASHED
 62
               4
100
AcDbLine
 10
-0.6999816247871422
 20
-17.950004369574657
 30
0.0
 11
0.0000153234550453
 21
-17.950004369574657
 31
0.0
  0
LINE
  5
101
100
AcDbEntity
  8
0
  6
DASHED
 62
               4
100
AcDbLine
 10
19.19999701290817
 20
-1.9999969309150174
 30
0.0
 11
19.19999701290817
 21
2.0000030690849826
 31
0.0
  0
LINE
  5
102
100
AcDbEntity
  8
0
  6
DASHED
 62
               4
100
AcDbLine
 10
18.100006168181608
 20
-1.9999969309150174
 30
0.0
 11
19.19999701290817
 21
-1.9999969309150174
 31
0.0
  0
LINE
  5
103
100
AcDbEntity
  8
0
  6
DASHED
 62
               4
100
AcDbLine
 10
18.100006168181608
 20
2.0000030690849826
 30
0.0
 11
19.19999701290817
 21
2.0000030690849826
 31
0.0
  0
ARC
  5
104
100
AcDbEntity
  8
0
  6
DASHED
 62
               4
100
AcDbCircle
 10
18.100006168181608
 20
2.5000030690849826
 30
0.0
 40
0.5
100
AcDbArc
 50
179.99998133066492
 51
270.00001798608872
  0
ARC
  5
105
100
AcDbEntity
  8
0
  6
DASHED
 62
               4
100
AcDbCircle
 10
18.100006168181608
 20
-2.4999969309150174
 30
0.0
 40
0.5
100
AcDbArc
 50
89.999982013910454
 51
179.99996402782091
  0
LINE
  5
106
100
AcDbEntity
  8
0
  6
DASHED
 62
               4
100
AcDbLine
 10
19.19999701290817
 20
-17.000004560309549
 30
0.0
 11
19.19999701290817
 21
-13.000004560309549
 31
0.0
  0
LINE
  5
107
100
AcDbEntity
  8
0
  6
DASHED
 62
               4
100
AcDbLine
 10
18.100006168181608
 20
-17.000004560309549
 30
0.0
 11
19.19999701290817
 21
-17.000004560309549
 31
0.0
  0
LINE
  5
108
100
AcDbEntity
  8
0
  6
DASHED
 62
               4
100
AcDbLine
 10
18.100006168181608
 20
-13.000004560309549
 30
0.0
 11
19.19999701290817
 21
-13.000004560309549
 31
0.0
  0
ARC
  5
109
100
AcDbEntity
  8
0
  6
DASHED
 62
               4
100
AcDbCircle
 10
18.100006168181608
 20
-12.500004560309549
 30
0.0
 40
0.5
100
AcDbArc
 50
179.99998133066492
 51
270.00001798608872
  0
ARC
  5
10A
100
AcDbEntity
  8
0
  6
DASHED
 62
               4
100
AcDbCircle
 10
18.100006168181608
 20
-17.500004560309549
 30
0.0
 40
0.5
100
AcDbArc
 50
89.999982013910454
 51
179.99996402782091
  0
LINE
  5
10B
100
AcDbEntity
  8
0
  6
CONTINUOUS
 62
             200
100
AcDbLine
 10
8.0000000646659828
 20
84.482368469745097
 30
0.0
 11
12.049974662113527
 21
85.567555901593209
 31
0.0
  0
LINE
  5
10C
100
AcDbEntity
  8
0
  6
CONTINUOUS
 62
             200
100
AcDbLine
 10
8.0000000646659828
 20
85.517644636775756
 30
0.0
 11
12.049969968931691
 21
86.602830811089575
 31
0.0
  0
LINE
  5
10D
100
AcDbEntity
  8
0
  6
CONTINUOUS
 62
               4
100
AcDbLine
 10
12.94999701290817
 20
70.000003069084983
 30
0.0
 11
3.0500031164237953
 21
70.000003069084983
 31
0.0
  0
LINE
  5
10E
100
AcDbEntity
  8
0
  6
CONTINUOUS
 62
               4
100
AcDbLine
 10
9.1700000646659845
 20
55.700018327874062
 30
0.0
 11
10.830000064665981
 21
55.700018327874062
 31
0.0
  0
LINE
  5
10F
100
AcDbEntity
  8
0
  6
CONTINUOUS
 62
               4
100
AcDbLine
 10
5.1700000646659845
 20
55.700018327874062
 30
0.0
 11
6.8300000646659811
 21
55.700018327874062
 31
0.0
  0
LINE
  5
110
100
AcDbEntity
  8
0
  6
CONTINUOUS
 62
               4
100
AcDbLine
 10
10.830000064665981
 20
55.700018327874062
 30
0.0
 11
10.830000064665981
 21
61.000018327874045
 31
0.0
  0
LINE
  5
111
100
AcDbEntity
  8
0
  6
CONTINUOUS
 62
               4
100
AcDbLine
 10
9.1700000646659845
 20
55.700018327874062
 30
0.0
 11
9.1700000646659845
 21
61.000018327874045
 31
0.0
  0
LINE
  5
112
100
AcDbEntity
  8
0
  6
CONTINUOUS
 62
               4
100
AcDbLine
 10
6.8300000646659811
 20
55.700018327874062
 30
0.0
 11
6.8300000646659811
 21
61.000018327874045
 31
0.0
  0
LINE
  5
113
100
AcDbEntity
  8
0
  6
CONTINUOUS
 62
               4
100
AcDbLine
 10
5.1700000646659845
 20
55.700018327874062
 30
0.0
 11
5.1700000646659845
 21
61.000018327874045
 31
0.0
  0
LINE
  5
114
100
AcDbEntity
  8
0
  6
CONTINUOUS
 62
               4
100
AcDbLine
 10
10.600000064665977
 20
55.700018327874062
 30
0.0
 11
10.600000064665977
 21
61.000018327874045
 31
0.0
  0
LINE
  5
115
100
AcDbEntity
  8
0
  6
CONTINUOUS
 62
               4
100
AcDbLine
 10
9.4000000646659885
 20
55.700018327874062
 30
0.0
 11
9.4000000646659885
 21
61.000018327874045
 31
0.0
  0
LINE
  5
116
100
AcDbEntity
  8
0
  6
CONTINUOUS
 62
               4
100
AcDbLine
 10
6.6000000646659771
 20
55.700018327874062
 30
0.0
 11
6.6000000646659771
 21
61.000018327874045
 31
0.0
  0
LINE
  5
117
100
AcDbEntity
  8
0
  6
CONTINUOUS
 62
               4
100
AcDbLine
 10
5.4000000646659885
 20
55.700018327874062
 30
0.0
 11
5.4000000646659885
 21
61.000018327874045
 31
0.0
  0
LINE
  5
118
100
AcDbEntity
  8
0
  6
CONTINUOUS
 62
               4
100
AcDbLine
 10
12.30000006466598
 20
53.99998781029592
 30
0.0
 11
13.000000064665983
 21
53.99998781029592
 31
0.0
  0
LINE
  5
119
100
AcDbEntity
  8
0
  6
CONTINUOUS
 62
               4
100
AcDbLine
 10
3.6165516412104353
 20
53.99998781029592
 30
0.0
 11
3.6165516412104353
 21
61.000018327874045
 31
0.0
  0
LINE
  5
11A
100
AcDbEntity
  8
0
  6
CONTINUOUS
 62
               4
100
AcDbLine
 10
12.30000006466598
 20
53.99998781029592
 30
0.0
 11
12.30000006466598
 21
61.000018327874045
 31
0.0
  0
LINE
  5
11B
100
AcDbEntity
  8
0
  6
CONTINUOUS
 62
               4
100
AcDbLine
 10
3.0000000646659828
 20
53.99998781029592
 30
0.0
 11
3.6165516427108741
 21
53.99998781029592
 31
0.0
  0
LINE
  5
11C
100
AcDbEntity
  8
0
  6
CONTINUOUS
 62
               4
100
AcDbLine
 10
13.000000064665983
 20
37.000003069084983
 30
0.0
 11
13.000000064665983
 21
61.000003069084983
 31
0.0
  0
LINE
  5
11D
100
AcDbEntity
  8
0
  6
CONTINUOUS
 62
               4
100
AcDbLine
 10
3.0000000646659828
 20
37.000003069084983
 30
0.0
 11
3.0000000646659828
 21
61.000003069084983
 31
0.0
  0
ENDBLK
  5
11E
100
AcDbEntity
  8
0
100
AcDbBlockEnd
  0
BLOCK
  5
11F
100
AcDbEntity
  8
0
100
AcDbBlockBegin
  2
F15T0-3
 70
               0
 10
0.0
 20
0.0
 30
0.0
  3
F15T0-3
  1

  0
LINE
  5
120
100
AcDbEntity
  8
0
  6
CONTINUOUS
 62
               7
100
AcDbLine
 10
-13.0
 20
36.899996948242176
 30
0.0
 11
-3.0
 21
36.899996948242176
 31
0.0
  0
LINE
  5
121
100
AcDbEntity
  8
0
  6
CONTINUOUS
 62
               7
100
AcDbLine
 10
-13.0
 20
27.500003051757801
 30
0.0
 11
-3.0
 21
27.500003051757801
 31
0.0
  0
LINE
  5
122
100
AcDbEntity
  8
0
  6
CENTER
 62
               2
100
AcDbLine
 10
-10.5
 20
33.699999999999989
 30
0.0
 11
-5.5
 21
33.699999999999989
 31
0.0
  0
LINE
  5
123
100
AcDbEntity
  8
0
  6
CONTINUOUS
 62
               2
100
AcDbLine
 10
-8.0
 20
-45.409826860781209
 30
0.0
 11
-8.0
 21
82.755084228515614
 31
0.0
  0
LINE
  5
124
100
AcDbEntity
  8
0
  6
CONTINUOUS
 62
               4
100
AcDbLine
 10
-13.0
 20
61.000003051757801
 30
0.0
 11
-3.0
 21
61.000003051757801
 31
0.0
  0
LINE
  5
125
100
AcDbEntity
  8
0
  6
CONTINUOUS
 62
               7
100
AcDbLine
 10
-13.0
 20
37.000003051757801
 30
0.0
 11
-3.0
 21
37.000003051757801
 31
0.0
  0
LINE
  5
126
100
AcDbEntity
  8
0
  6
CONTINUOUS
 62
               7
100
AcDbLine
 10
-9.926788330078125
 20
33.399996948242176
 30
0.0
 11
-6.073211669921875
 21
33.399996948242176
 31
0.0
  0
LINE
  5
127
100
AcDbEntity
  8
0
  6
CONTINUOUS
 62
               7
100
AcDbLine
 10
-9.926788330078125
 20
34.000003051757801
 30
0.0
 11
-6.073211669921875
 21
34.000003051757801
 31
0.0
  0
LINE
  5
128
100
AcDbEntity
  8
0
  6
CONTINUOUS
 62
               4
100
AcDbLine
 10
-12.95001220703125
 20
61.000018310546864
 30
0.0
 11
-12.95001220703125
 21
74.500018310546864
 31
0.0
  0
LINE
  5
129
100
AcDbEntity
  8
0
  6
CONTINUOUS
 62
               4
100
AcDbLine
 10
-3.5
 20
70.000003051757801
 30
0.0
 11
-12.5
 21
70.000003051757801
 31
0.0
  0
LINE
  5
12A
100
AcDbEntity
  8
0
  6
CONTINUOUS
 62
               4
100
AcDbLine
 10
-3.0500030517578125
 20
65.500003051757801
 30
0.0
 11
-12.95001220703125
 21
65.500003051757801
 31
0.0
  0
LINE
  5
12B
100
AcDbEntity
  8
0
  6
CONTINUOUS
 62
               4
100
AcDbLine
 10
-3.0500030517578125
 20
61.000003051757801
 30
0.0
 11
-3.0500030517578125
 21
74.500018310546864
 31
0.0
  0
LINE
  5
12C
100
AcDbEntity
  8
0
  6
CONTINUOUS
 62
               4
100
AcDbLine
 10
-12.949996948242187
 20
74.500003051757801
 30
0.0
 11
-11.5
 21
74.500003051757801
 31
0.0
  0
LINE
  5
12D
100
AcDbEntity
  8
0
  6
CONTINUOUS
 62
               4
100
AcDbLine
 10
-12.050003051757813
 20
70.000018310546864
 30
0.0
 11
-12.050003051757813
 21
72.500018310546864
 31
0.0
  0
LINE
  5
12E
100
AcDbEntity
  8
0
  6
CONTINUOUS
 62
               4
100
AcDbLine
 10
-3.9499969482421875
 20
70.000003051757801
 30
0.0
 11
-3.9499969482421875
 21
72.500018310546864
 31
0.0
  0
LINE
  5
12F
100
AcDbEntity
  8
0
  6
CONTINUOUS
 62
               4
100
AcDbLine
 10
-4.5
 20
70.498461914062489
 30
0.0
 11
-4.5
 21
81.000003051757801
 31
0.0
  0
LINE
  5
130
100
AcDbEntity
  8
0
  6
CONTINUOUS
 62
               4
100
AcDbLine
 10
-11.5
 20
70.498461914062489
 30
0.0
 11
-11.5
 21
81.000003051757801
 31
0.0
  0
LINE
  5
131
100
AcDbEntity
  8
0
  6
CONTINUOUS
 62
               4
100
AcDbLine
 10
-11.5
 20
70.498461914062489
 30
0.0
 11
-4.5
 21
70.498461914062489
 31
0.0
  0
LINE
  5
132
100
AcDbEntity
  8
0
  6
CONTINUOUS
 62
               4
100
AcDbLine
 10
-11.5
 20
74.056155395507801
 30
0.0
 11
-4.5
 21
74.056155395507801
 31
0.0
  0
LINE
  5
133
100
AcDbEntity
  8
0
  6
CONTINUOUS
 62
               4
100
AcDbLine
 10
-11.5
 20
79.500003051757801
 30
0.0
 11
-4.5
 21
79.500003051757801
 31
0.0
  0
LINE
  5
134
100
AcDbEntity
  8
0
  6
CONTINUOUS
 62
               4
100
AcDbLine
 10
-12.899993896484375
 20
81.000003051757801
 30
0.0
 11
-3.100006103515625
 21
81.000003051757801
 31
0.0
  0
LINE
  5
135
100
AcDbEntity
  8
0
  6
CONTINUOUS
 62
               4
100
AcDbLine
 10
-4.5
 20
74.500003051757801
 30
0.0
 11
-3.0500030517578125
 21
74.500003051757801
 31
0.0
  0
LINE
  5
136
100
AcDbEntity
  8
0
  6
CONTINUOUS
 62
               4
100
AcDbLine
 10
-4.5
 20
73.500003051757801
 30
0.0
 11
-3.9499969482421875
 21
73.500003051757801
 31
0.0
  0
LINE
  5
137
100
AcDbEntity
  8
0
  6
CONTINUOUS
 62
               4
100
AcDbLine
 10
-4.5
 20
72.500003051757801
 30
0.0
 11
-3.9499969482421875
 21
72.500003051757801
 31
0.0
  0
LINE
  5
138
100
AcDbEntity
  8
0
  6
CONTINUOUS
 62
               4
100
AcDbLine
 10
-12.050003051757813
 20
73.500003051757801
 30
0.0
 11
-11.5
 21
73.500003051757801
 31
0.0
  0
LINE
  5
139
100
AcDbEntity
  8
0
  6
CONTINUOUS
 62
               4
100
AcDbLine
 10
-12.050003051757813
 20
72.500003051757801
 30
0.0
 11
-11.5
 21
72.500003051757801
 31
0.0
  0
LINE
  5
13A
100
AcDbEntity
  8
0
  6
CONTINUOUS
 62
               4
100
AcDbLine
 10
-12.050003051757813
 20
73.500018310546864
 30
0.0
 11
-12.050003051757813
 21
74.500018310546864
 31
0.0
  0
LINE
  5
13B
100
AcDbEntity
  8
0
  6
CONTINUOUS
 62
               4
100
AcDbLine
 10
-3.9499969482421875
 20
73.500018310546864
 30
0.0
 11
-3.9499969482421875
 21
74.500018310546864
 31
0.0
  0
LINE
  5
13C
100
AcDbEntity
  8
0
  6
CONTINUOUS
 62
               4
100
AcDbLine
 10
-9.2849884033203125
 20
85.173327636718739
 30
0.0
 11
-9.2849884033203125
 21
89.000003051757801
 31
0.0
  0
LINE
  5
13D
100
AcDbEntity
  8
0
  6
CONTINUOUS
 62
               4
100
AcDbLine
 10
-10.714996337890625
 20
84.790164184570301
 30
0.0
 11
-10.714996337890625
 21
89.000003051757801
 31
0.0
  0
LINE
  5
13E
100
AcDbEntity
  8
0
  6
CONTINUOUS
 62
               4
100
AcDbLine
 10
-10.715011596679687
 20
89.000003051757801
 30
0.0
 11
-9.285003662109375
 21
89.000003051757801
 31
0.0
  0
LINE
  5
13F
100
AcDbEntity
  8
0
  6
CONTINUOUS
 62
               4
100
AcDbLine
 10
-9.5999908447265625
 20
89.000003051757801
 30
0.0
 11
-9.5999908447265625
 21
94.000003051757801
 31
0.0
  0
LINE
  5
140
100
AcDbEntity
  8
0
  6
CONTINUOUS
 62
               4
100
AcDbLine
 10
-10.399993896484375
 20
89.000003051757801
 30
0.0
 11
-10.399993896484375
 21
94.000003051757801
 31
0.0
  0
LINE
  5
141
100
AcDbEntity
  8
0
  6
CONTINUOUS
 62
               4
100
AcDbLine
 10
-10.400009155273437
 20
94.000003051757801
 30
0.0
 11
-9.600006103515625
 21
94.000003051757801
 31
0.0
  0
LINE
  5
142
100
AcDbEntity
  8
0
  6
CONTINUOUS
 62
               4
100
AcDbLine
 10
-9.2849884033203125
 20
81.000003051757801
 30
0.0
 11
-9.2849884033203125
 21
84.138049316406239
 31
0.0
  0
LINE
  5
143
100
AcDbEntity
  8
0
  6
CONTINUOUS
 62
               4
100
AcDbLine
 10
-10.714996337890625
 20
81.000003051757801
 30
0.0
 11
-10.714996337890625
 21
83.754885864257801
 31
0.0
  0
LINE
  5
144
100
AcDbEntity
  8
0
  6
CONTINUOUS
 62
               7
100
AcDbLine
 10
-3.0
 20
25.500003051757801
 30
0.0
 11
-3.0
 21
37.000003051757801
 31
0.0
  0
LINE
  5
145
100
AcDbEntity
  8
0
  6
CONTINUOUS
 62
               7
100
AcDbLine
 10
-13.0
 20
25.500003051757801
 30
0.0
 11
-13.0
 21
37.000003051757801
 31
0.0
  0
LINE
  5
146
100
AcDbEntity
  8
0
  6
CONTINUOUS
 62
               7
100
AcDbLine
 10
-2.5
 20
11.699999999999989
 30
0.0
 11
-0.79998779296875
 21
11.699999999999989
 31
0.0
  0
LINE
  5
147
100
AcDbEntity
  8
0
  6
CONTINUOUS
 62
               7
100
AcDbLine
 10
-13.5
 20
-26.699990081787121
 30
0.0
 11
-15.20001220703125
 21
-26.699990081787121
 31
0.0
  0
LINE
  5
148
100
AcDbEntity
  8
0
  6
CONTINUOUS
 62
               7
100
AcDbLine
 10
-13.5
 20
-21.299996185302746
 30
0.0
 11
-15.20001220703125
 21
-21.299996185302746
 31
0.0
  0
LINE
  5
149
100
AcDbEntity
  8
0
  6
CONTINUOUS
 62
               7
100
AcDbLine
 10
-2.5000152587890625
 20
6.3000061035156136
 30
0.0
 11
-0.79998779296875
 21
6.3000061035156136
 31
0.0
  0
LINE
  5
14A
100
AcDbEntity
  8
0
  6
CONTINUOUS
 62
               7
100
AcDbLine
 10
-0.79998779296875
 20
15.299990844726551
 30
0.0
 11
-15.20001220703125
 21
15.299990844726551
 31
0.0
  0
LINE
  5
14B
100
AcDbEntity
  8
0
  6
CONTINUOUS
 62
               7
100
AcDbLine
 10
-0.79998779296875
 20
-30.29999237060548
 30
0.0
 11
-15.20001220703125
 21
-30.29999237060548
 31
0.0
  0
LINE
  5
14C
100
AcDbEntity
  8
0
  6
CONTINUOUS
 62
               7
100
AcDbLine
 10
-13.500015258789063
 20
8.3000061035156136
 30
0.0
 11
-15.500015258789063
 21
8.3000061035156136
 31
0.0
  0
LINE
  5
14D
100
AcDbEntity
  8
0
  6
CONTINUOUS
 62
               7
100
AcDbLine
 10
-2.5
 20
-23.29999237060548
 30
0.0
 11
-0.5
 21
-23.29999237060548
 31
0.0
  0
LINE
  5
14E
100
AcDbEntity
  8
0
  6
CONTINUOUS
 62
               7
100
AcDbLine
 10
-5.1999969482421875
 20
-25.999996948242199
 30
0.0
 11
-5.1999969482421875
 21
-30.29999237060548
 31
0.0
  0
LINE
  5
14F
100
AcDbEntity
  8
0
  6
CONTINUOUS
 62
               7
100
AcDbLine
 10
-10.79998779296875
 20
15.299990844726551
 30
0.0
 11
-10.79998779296875
 21
10.999987792968739
 31
0.0
  0
LINE
  5
150
100
AcDbEntity
  8
0
  6
CONTINUOUS
 62
               7
100
AcDbLine
 10
-5.20001220703125
 20
-28.29999237060548
 30
0.0
 11
-15.5
 21
-28.29999237060548
 31
0.0
  0
LINE
  5
151
100
AcDbEntity
  8
0
  6
CONTINUOUS
 62
               7
100
AcDbLine
 10
-0.5
 20
13.299990844726551
 30
0.0
 11
-10.79998779296875
 21
13.299990844726551
 31
0.0
  0
LINE
  5
152
100
AcDbEntity
  8
0
  6
CONTINUOUS
 62
               7
100
AcDbLine
 10
-1.5807327263892148
 20
8.0807964675352082
 30
0.0
 11
-3.4192036972826827
 21
9.9192679033432682
 31
0.0
  0
LINE
  5
153
100
AcDbEntity
  8
0
  6
CONTINUOUS
 62
               7
100
AcDbLine
 10
-12.580723035426672
 20
10.080756907478815
 30
0.0
 11
-14.419204795912265
 21
11.919239132881728
 31
0.0
  0
LINE
  5
154
100
AcDbEntity
  8
0
  6
CONTINUOUS
 62
               7
100
AcDbLine
 10
-14.419196816544172
 20
10.080758419581969
 30
0.0
 11
-12.580725535707643
 21
11.919229545446967
 31
0.0
  0
LINE
  5
155
100
AcDbEntity
  8
0
  6
CONTINUOUS
 62
               7
100
AcDbLine
 10
-3.4192063389236864
 20
8.0807773276812327
 30
0.0
 11
-1.5807350580871571
 21
9.9192484535462313
 31
0.0
  0
LINE
  5
156
100
AcDbEntity
  8
0
  6
CONTINUOUS
 62
               7
100
AcDbLine
 10
-0.5
 20
-24.969219970703136
 30
0.0
 11
-0.5
 21
7.5000183105468636
 31
0.0
  0
LINE
  5
157
100
AcDbEntity
  8
0
  6
CONTINUOUS
 62
               4
100
AcDbLine
 10
-3.100006103515625
 20
74.500018310546864
 30
0.0
 11
-3.100006103515625
 21
81.000003051757801
 31
0.0
  0
LINE
  5
158
100
AcDbEntity
  8
0
  6
CONTINUOUS
 62
               4
100
AcDbLine
 10
-12.899993896484375
 20
74.500018310546864
 30
0.0
 11
-12.899993896484375
 21
81.000003051757801
 31
0.0
  0
LINE
  5
159
100
AcDbEntity
  8
0
  6
CONTINUOUS
 62
               4
100
AcDbLine
 10
-12.0
 20
74.500018310546864
 30
0.0
 11
-12.0
 21
81.000003051757801
 31
0.0
  0
LINE
  5
15A
100
AcDbEntity
  8
0
  6
CONTINUOUS
 62
               4
100
AcDbLine
 10
-4.0
 20
74.500018310546864
 30
0.0
 11
-4.0
 21
81.000003051757801
 31
0.0
  0
LINE
  5
15B
100
AcDbEntity
  8
0
  6
CONTINUOUS
 62
               7
100
AcDbLine
 10
-3.4192078140649755
 20
-26.919261303092583
 30
0.0
 11
-1.5807257436345026
 21
-25.08077938763455
 31
0.0
  0
LINE
  5
15C
100
AcDbEntity
  8
0
  6
CONTINUOUS
 62
               7
100
AcDbLine
 10
-1.580726362218229
 20
-26.919231373646483
 30
0.0
 11
-3.4191973331116969
 21
-25.080759937838423
 31
0.0
  0
LINE
  5
15D
100
AcDbEntity
  8
0
  6
CONTINUOUS
 62
               7
100
AcDbLine
 10
-15.5
 20
-22.499981689453136
 30
0.0
 11
-15.5
 21
9.9692413330078011
 31
0.0
  0
LINE
  5
15E
100
AcDbEntity
  8
0
  6
CONTINUOUS
 62
               7
100
AcDbLine
 10
-0.5
 20
-38.999996948242199
 30
0.0
 11
-0.5
 21
-27.030773925781261
 31
0.0
  0
LINE
  5
15F
100
AcDbEntity
  8
0
  6
CONTINUOUS
 62
               7
100
AcDbLine
 10
-15.5
 20
-38.999996948242199
 30
0.0
 11
-15.5
 21
-25.499981689453136
 31
0.0
  0
LINE
  5
160
100
AcDbEntity
  8
0
  6
CONTINUOUS
 62
               7
100
AcDbLine
 10
-15.000015258789063
 20
-39.499996948242199
 30
0.0
 11
-1.0
 21
-39.499996948242199
 31
0.0
  0
LINE
  5
161
100
AcDbEntity
  8
0
  6
CONTINUOUS
 62
               7
100
AcDbLine
 10
-15.5
 20
12.030749511718739
 30
0.0
 11
-15.5
 21
24.000003051757801
 31
0.0
  0
LINE
  5
162
100
AcDbEntity
  8
0
  6
CONTINUOUS
 62
               7
100
AcDbLine
 10
-0.5
 20
10.500018310546864
 30
0.0
 11
-0.5
 21
24.000003051757801
 31
0.0
  0
LINE
  5
163
100
AcDbEntity
  8
0
  6
CONTINUOUS
 62
               7
100
AcDbLine
 10
-13.50003677067707
 20
26.000001114551367
 30
0.0
 11
-15.500018326184545
 21
24.000021582072975
 31
0.0
  0
LINE
  5
164
100
AcDbEntity
  8
0
  6
CONTINUOUS
 62
               7
100
AcDbLine
 10
-13.0
 20
25.500003051757801
 30
0.0
 11
-3.0
 21
25.500003051757801
 31
0.0
  0
LINE
  5
165
100
AcDbEntity
  8
0
  6
CONTINUOUS
 62
               7
100
AcDbLine
 10
-2.5000015331406757
 20
25.999996183344763
 30
0.0
 11
-0.4999995785492502
 21
23.999993891578185
 31
0.0
  0
LINE
  5
166
100
AcDbEntity
  8
0
  6
CONTINUOUS
 62
               7
100
AcDbLine
 10
-16.0
 20
-30.499996948242199
 30
0.0
 11
0.0
 21
-30.499996948242199
 31
0.0
  0
LINE
  5
167
100
AcDbEntity
  8
0
  6
CONTINUOUS
 62
               7
100
AcDbLine
 10
-16.0
 20
15.500003051757801
 30
0.0
 11
0.0
 21
15.500003051757801
 31
0.0
  0
LINE
  5
168
100
AcDbEntity
  8
0
  6
CONTINUOUS
 62
               7
100
AcDbLine
 10
0.0
 20
15.499987792968739
 30
0.0
 11
0.0
 21
-30.499996948242199
 31
0.0
  0
LINE
  5
169
100
AcDbEntity
  8
0
  6
CONTINUOUS
 62
               7
100
AcDbLine
 10
-16.0
 20
15.499987792968739
 30
0.0
 11
-16.0
 21
-30.499996948242199
 31
0.0
  0
LINE
  5
16A
100
AcDbEntity
  8
0
  6
CONTINUOUS
 62
               2
100
AcDbLine
 10
-17.037139892578125
 20
-15.250000762939464
 30
0.0
 11
0.9571075439453125
 21
-15.250000762939464
 31
0.0
  0
LINE
  5
16B
100
AcDbEntity
  8
0
  6
CONTINUOUS
 62
               2
100
AcDbLine
 10
-17.037139892578125
 20
0.2500030517578011
 30
0.0
 11
0.9571075439453125
 21
0.2500030517578011
 31
0.0
  0
LINE
  5
16C
100
AcDbEntity
  8
0
  6
CONTINUOUS
 62
               7
100
AcDbLine
 10
-12.580738250437207
 20
-24.919227775326192
 30
0.0
 11
-14.419209221330675
 21
-23.080756339518132
 31
0.0
  0
LINE
  5
16D
100
AcDbEntity
  8
0
  6
CONTINUOUS
 62
               7
100
AcDbLine
 10
-14.419198291683642
 20
-24.919237052817891
 30
0.0
 11
-12.580727010847113
 21
-23.080765926952893
 31
0.0
  0
LINE
  5
16E
100
AcDbEntity
  8
0
  6
DASHED
 62
               4
100
AcDbLine
 10
-17.600006103515625
 20
9.9999877929687386
 30
0.0
 11
-17.600006103515625
 21
-49.899990844726574
 31
0.0
  0
LINE
  5
16F
100
AcDbEntity
  8
0
  6
DASHED
 62
               4
100
AcDbLine
 10
-17.600006103515625
 20
9.9999877929687386
 30
0.0
 11
-16.0
 21
9.9999877929687386
 31
0.0
  0
LINE
  5
170
100
AcDbEntity
  8
0
  6
DASHED
 62
               4
100
AcDbLine
 10
-16.0
 20
-49.899990844726574
 30
0.0
 11
0.0
 21
-49.899990844726574
 31
0.0
  0
LINE
  5
171
100
AcDbEntity
  8
0
  6
DASHED
 62
               4
100
AcDbLine
 10
-16.0
 20
-30.499996948242199
 30
0.0
 11
-16.0
 21
-49.899990844726574
 31
0.0
  0
LINE
  5
172
100
AcDbEntity
  8
0
  6
DASHED
 62
               4
100
AcDbLine
 10
-16.0
 20
-51.499996948242199
 30
0.0
 11
0.0
 21
-51.499996948242199
 31
0.0
  0
LINE
  5
173
100
AcDbEntity
  8
0
  6
DASHED
 62
               4
100
AcDbLine
 10
0.0
 20
-49.899990844726574
 30
0.0
 11
0.0
 21
-51.499996948242199
 31
0.0
  0
LINE
  5
174
100
AcDbEntity
  8
0
  6
DASHED
 62
               4
100
AcDbLine
 10
2.6999969482421875
 20
-1.2499969482421989
 30
0.0
 11
2.6999969482421875
 21
1.2500030517578011
 31
0.0
  0
LINE
  5
175
100
AcDbEntity
  8
0
  6
DASHED
 62
               4
100
AcDbLine
 10
1.1999969482421875
 20
-2.7499969482421989
 30
0.0
 11
0.6999969482421875
 21
-2.7499969482421989
 31
0.0
  0
LINE
  5
176
100
AcDbEntity
  8
0
  6
DASHED
 62
               4
100
AcDbLine
 10
1.1999969482421875
 20
2.7499877929687386
 30
0.0
 11
0.6999969482421875
 21
2.7499877929687386
 31
0.0
  0
LINE
  5
177
100
AcDbEntity
  8
0
  6
DASHED
 62
               4
100
AcDbLine
 10
2.6999969482421875
 20
-16.249993133544933
 30
0.0
 11
2.6999969482421875
 21
-13.750000762939464
 31
0.0
  0
LINE
  5
178
100
AcDbEntity
  8
0
  6
DASHED
 62
               4
100
AcDbLine
 10
1.1999969482421875
 20
-17.750000762939464
 30
0.0
 11
0.6999969482421875
 21
-17.750000762939464
 31
0.0
  0
LINE
  5
179
100
AcDbEntity
  8
0
  6
DASHED
 62
               4
100
AcDbLine
 10
1.1999969482421875
 20
-12.250008392333996
 30
0.0
 11
0.6999969482421875
 21
-12.250008392333996
 31
0.0
  0
CIRCLE
  5
17A
100
AcDbEntity
  8
0
  6
CONTINUOUS
 62
               7
100
AcDbCircle
 10
-8.0
 20
33.699999999999989
 30
0.0
 40
2.0
  0
CIRCLE
  5
17B
100
AcDbEntity
  8
0
  6
CONTINUOUS
 62
               7
100
AcDbCircle
 10
-8.0
 20
33.699999999999989
 30
0.0
 40
1.9499998092651367
  0
ARC
  5
17C
100
AcDbEntity
  8
0
  6
CONTINUOUS
 62
               4
100
AcDbCircle
 10
-3.5500030517578125
 20
69.500003051757801
 30
0.0
 40
0.5
100
AcDbArc
 50
359.99995901886416
 51
89.999982013910454
  0
ARC
  5
17D
100
AcDbEntity
  8
0
  6
CONTINUOUS
 62
               4
100
AcDbCircle
 10
-12.449996948242188
 20
69.500018310546864
 30
0.0
 40
0.5
100
AcDbArc
 50
89.999982013910454
 51
179.99996402782091
  0
ARC
  5
17E
100
AcDbEntity
  8
0
  6
CONTINUOUS
 62
               7
100
AcDbCircle
 10
-2.5000152587890625
 20
9.0000030517578011
 30
0.0
 40
2.6999998092651367
100
AcDbArc
 50
89.999982013910454
 51
270.00000068324471
  0
ARC
  5
17F
100
AcDbEntity
  8
0
  6
CONTINUOUS
 62
               7
100
AcDbCircle
 10
-13.5
 20
-23.999996948242199
 30
0.0
 40
2.6999998092651367
100
AcDbArc
 50
270.00001798608872
 51
89.999982013910454
  0
CIRCLE
  5
180
100
AcDbEntity
  8
0
  6
CONTINUOUS
 62
               7
100
AcDbCircle
 10
-2.5
 20
9.0000183105468636
 30
0.0
 40
2.25
  0
ARC
  5
181
100
AcDbEntity
  8
0
  6
CONTINUOUS
 62
               7
100
AcDbCircle
 10
-13.5
 20
11.000003051757801
 30
0.0
 40
2.6999998092651367
100
AcDbArc
 50
270.00001798608872
 51
0.0
  0
ARC
  5
182
100
AcDbEntity
  8
0
  6
CONTINUOUS
 62
               7
100
AcDbCircle
 10
-0.79998779296875
 20
11.999987792968739
 30
0.0
 40
0.300000011920929
100
AcDbArc
 50
270.00001798608872
 51
0.0
  0
ARC
  5
183
100
AcDbEntity
  8
0
  6
CONTINUOUS
 62
               7
100
AcDbCircle
 10
-15.199996948242187
 20
-21.000000762939464
 30
0.0
 40
0.300000011920929
100
AcDbArc
 50
179.99996402782091
 51
270.00000068324471
  0
ARC
  5
184
100
AcDbEntity
  8
0
  6
CONTINUOUS
 62
               7
100
AcDbCircle
 10
-0.79998779296875
 20
6.0000030517578011
 30
0.0
 40
0.300000011920929
100
AcDbArc
 50
0.0
 51
89.999982013910454
  0
ARC
  5
185
100
AcDbEntity
  8
0
  6
CONTINUOUS
 62
               7
100
AcDbCircle
 10
-15.199996948242187
 20
-26.999989318847668
 30
0.0
 40
0.300000011920929
100
AcDbArc
 50
89.999982013910454
 51
179.99996402782091
  0
ARC
  5
186
100
AcDbEntity
  8
0
  6
CONTINUOUS
 62
               7
100
AcDbCircle
 10
-15.20001220703125
 20
15.000018310546864
 30
0.0
 40
0.300000011920929
100
AcDbArc
 50
89.999982013910454
 51
179.99996402782091
  0
ARC
  5
187
100
AcDbEntity
  8
0
  6
CONTINUOUS
 62
               7
100
AcDbCircle
 10
-0.79998779296875
 20
15.000003051757801
 30
0.0
 40
0.300000011920929
100
AcDbArc
 50
0.0
 51
89.999982013910454
  0
ARC
  5
188
100
AcDbEntity
  8
0
  6
CONTINUOUS
 62
               7
100
AcDbCircle
 10
-0.79998779296875
 20
-29.999989318847668
 30
0.0
 40
0.300000011920929
100
AcDbArc
 50
270.00001798608872
 51
0.0
  0
ARC
  5
189
100
AcDbEntity
  8
0
  6
CONTINUOUS
 62
               7
100
AcDbCircle
 10
-15.199996948242187
 20
-29.999989318847668
 30
0.0
 40
0.300000011920929
100
AcDbArc
 50
179.99996402782091
 51
270.00000068324471
  0
ARC
  5
18A
100
AcDbEntity
  8
0
  6
CONTINUOUS
 62
               7
100
AcDbCircle
 10
-2.5
 20
-25.999996948242199
 30
0.0
 40
2.6999998092651367
100
AcDbArc
 50
89.999982013910454
 51
179.99996402782091
  0
CIRCLE
  5
18B
100
AcDbEntity
  8
0
  6
CONTINUOUS
 62
               7
100
AcDbCircle
 10
-13.5
 20
10.999987792968739
 30
0.0
 40
2.25
  0
CIRCLE
  5
18C
100
AcDbEntity
  8
0
  6
CONTINUOUS
 62
               7
100
AcDbCircle
 10
-2.5
 20
-25.999996948242199
 30
0.0
 40
2.25
  0
ARC
  5
18D
100
AcDbEntity
  8
0
  6
CONTINUOUS
 62
               7
100
AcDbCircle
 10
-1.0
 20
-38.999996948242199
 30
0.0
 40
0.5
100
AcDbArc
 50
270.00001798608872
 51
0.00001366037834
  0
ARC
  5
18E
100
AcDbEntity
  8
0
  6
CONTINUOUS
 62
               7
100
AcDbCircle
 10
-15.0
 20
-38.999996948242199
 30
0.0
 40
0.5
100
AcDbArc
 50
179.99996402782091
 51
269.99994604173139
  0
CIRCLE
  5
18F
100
AcDbEntity
  8
0
  6
CONTINUOUS
 62
               7
100
AcDbCircle
 10
-13.5
 20
-23.999981689453136
 30
0.0
 40
2.25
  0
ARC
  5
190
100
AcDbEntity
  8
0
  6
DASHED
 62
               4
100
AcDbCircle
 10
-16.0
 20
-49.899990844726574
 30
0.0
 40
1.5999994277954102
100
AcDbArc
 50
179.99996402782091
 51
269.99994604173139
  0
ARC
  5
191
100
AcDbEntity
  8
0
  6
DASHED
 62
               4
100
AcDbCircle
 10
1.1999969482421875
 20
-16.249993133544933
 30
0.0
 40
1.5
100
AcDbArc
 50
270.00001798608872
 51
0.0
  0
ARC
  5
192
100
AcDbEntity
  8
0
  6
DASHED
 62
               4
100
AcDbCircle
 10
1.1999969482421875
 20
1.2500030517578011
 30
0.0
 40
1.5
100
AcDbArc
 50
0.00001366037834
 51
90.000036655423813
  0
ARC
  5
193
100
AcDbEntity
  8
0
  6
DASHED
 62
               4
100
AcDbCircle
 10
1.1999969482421875
 20
-1.2499969482421989
 30
0.0
 40
1.5
100
AcDbArc
 50
270.00001798608872
 51
0.0
  0
ARC
  5
194
100
AcDbEntity
  8
0
  6
DASHED
 62
               4
100
AcDbCircle
 10
1.1999969482421875
 20
-13.750000762939464
 30
0.0
 40
1.5
100
AcDbArc
 50
0.00001366037834
 51
90.000036655423813
  0
LINE
  5
195
100
AcDbEntity
  8
0
  6
CONTINUOUS
 62
               7
100
AcDbLine
 10
-13.500030517578125
 20
26.000003051757801
 30
0.0
 11
-13.0
 21
26.000003051757801
 31
0.0
  0
LINE
  5
196
100
AcDbEntity
  8
0
  6
CONTINUOUS
 62
               7
100
AcDbLine
 10
-3.0
 20
26.000003051757801
 30
0.0
 11
-2.4999847412109375
 21
26.000003051757801
 31
0.0
  0
LINE
  5
197
100
AcDbEntity
  8
0
  6
DASHED
 62
               4
100
AcDbLine
 10
0.6999969482421875
 20
-2.9500091552734489
 30
0.0
 11
0.6999969482421875
 21
2.9499999999999886
 31
0.0
  0
LINE
  5
198
100
AcDbEntity
  8
0
  6
DASHED
 62
               4
100
AcDbLine
 10
0.0000054341044233
 20
0.349989361584619
 30
0.0
 11
0.7000127667060951
 21
0.5375557626231853
 31
0.0
  0
LINE
  5
199
100
AcDbEntity
  8
0
  6
DASHED
 62
               4
100
AcDbLine
 10
0.7000168637387105
 20
-0.3500138810111935
 30
0.0
 11
0.0000094879414974
 21
-0.5375802388542184
 31
0.0
  0
LINE
  5
19A
100
AcDbEntity
  8
0
  6
DASHED
 62
               4
100
AcDbLine
 10
0.6999969482421875
 20
-2.9500091552734489
 30
0.0
 11
0.0
 21
-2.9500091552734489
 31
0.0
  0
LINE
  5
19B
100
AcDbEntity
  8
0
  6
DASHED
 62
               4
100
AcDbLine
 10
0.6999969482421875
 20
2.9499999999999886
 30
0.0
 11
0.0
 21
2.9499999999999886
 31
0.0
  0
LINE
  5
19C
100
AcDbEntity
  8
0
  6
DASHED
 62
               4
100
AcDbLine
 10
0.6999969482421875
 20
-17.950004386901867
 30
0.0
 11
0.6999969482421875
 21
-12.050004768371593
 31
0.0
  0
LINE
  5
19D
100
AcDbEntity
  8
0
  6
DASHED
 62
               4
100
AcDbLine
 10
0.0000135421023515
 20
-14.650012627672197
 30
0.0
 11
0.700006135845797
 21
-14.462450175898823
 31
0.0
  0
LINE
  5
19E
100
AcDbEntity
  8
0
  6
DASHED
 62
               4
100
AcDbLine
 10
0.7000199274652914
 20
-15.350001763612283
 30
0.0
 11
0.0000125516680782
 21
-15.537568121455308
 31
0.0
  0
LINE
  5
19F
100
AcDbEntity
  8
0
  6
DASHED
 62
               4
100
AcDbLine
 10
0.6999969482421875
 20
-17.950004386901867
 30
0.0
 11
0.0
 21
-17.950004386901867
 31
0.0
  0
LINE
  5
1A0
100
AcDbEntity
  8
0
  6
DASHED
 62
               4
100
AcDbLine
 10
0.6999969482421875
 20
-12.050004768371593
 30
0.0
 11
0.0
 21
-12.050004768371593
 31
0.0
  0
CIRCLE
  5
1A1
100
AcDbEntity
  8
0
  6
CONTINUOUS
 62
               7
100
AcDbCircle
 10
-2.5
 20
9.0000183105468636
 30
0.0
 40
2.5
  0
CIRCLE
  5
1A2
100
AcDbEntity
  8
0
  6
CONTINUOUS
 62
               7
100
AcDbCircle
 10
-13.5
 20
-23.999981689453136
 30
0.0
 40
2.5
  0
LINE
  5
1A3
100
AcDbEntity
  8
0
  6
DASHED
 62
               4
100
AcDbLine
 10
-19.199996948242187
 20
-13.000004577636759
 30
0.0
 11
-19.199996948242187
 21
-17.000004577636759
 31
0.0
  0
LINE
  5
1A4
100
AcDbEntity
  8
0
  6
DASHED
 62
               4
100
AcDbLine
 10
-18.100006103515625
 20
-13.000004577636759
 30
0.0
 11
-19.199996948242187
 21
-13.000004577636759
 31
0.0
  0
LINE
  5
1A5
100
AcDbEntity
  8
0
  6
DASHED
 62
               4
100
AcDbLine
 10
-18.100006103515625
 20
-17.000004577636759
 30
0.0
 11
-19.199996948242187
 21
-17.000004577636759
 31
0.0
  0
ARC
  5
1A6
100
AcDbEntity
  8
0
  6
DASHED
 62
               4
100
AcDbCircle
 10
-18.100006103515625
 20
-17.50000457763673
 30
0.0
 40
0.5
100
AcDbArc
 50
359.9999813306639
 51
90.000036655423813
  0
ARC
  5
1A7
100
AcDbEntity
  8
0
  6
DASHED
 62
               4
100
AcDbCircle
 10
-18.100006103515625
 20
-12.50000457763673
 30
0.0
 40
0.5
100
AcDbArc
 50
269.99996334457541
 51
359.99996402782114
  0
LINE
  5
1A8
100
AcDbEntity
  8
0
  6
DASHED
 62
               4
100
AcDbLine
 10
-19.199996948242187
 20
2.0000030517577727
 30
0.0
 11
-19.199996948242187
 21
-1.9999969482422273
 31
0.0
  0
LINE
  5
1A9
100
AcDbEntity
  8
0
  6
DASHED
 62
               4
100
AcDbLine
 10
-18.100006103515625
 20
2.0000030517577727
 30
0.0
 11
-19.199996948242187
 21
2.0000030517577727
 31
0.0
  0
LINE
  5
1AA
100
AcDbEntity
  8
0
  6
DASHED
 62
               4
100
AcDbLine
 10
-18.100006103515625
 20
-1.9999969482422273
 30
0.0
 11
-19.199996948242187
 21
-1.9999969482422273
 31
0.0
  0
ARC
  5
1AB
100
AcDbEntity
  8
0
  6
DASHED
 62
               4
100
AcDbCircle
 10
-18.100006103515625
 20
-2.4999969482421989
 30
0.0
 40
0.5
100
AcDbArc
 50
359.9999813306639
 51
90.000036655423813
  0
ARC
  5
1AC
100
AcDbEntity
  8
0
  6
DASHED
 62
               4
100
AcDbCircle
 10
-18.100006103515625
 20
2.5000030517578011
 30
0.0
 40
0.5
100
AcDbArc
 50
269.99996334457541
 51
359.99996402782114
  0
LINE
  5
1AD
100
AcDbEntity
  8
0
  6
CONTINUOUS
 62
             200
100
AcDbLine
 10
-12.000007620978977
 20
83.410567375350354
 30
0.0
 11
-8.0
 21
84.482366196093267
 31
0.0
  0
LINE
  5
1AE
100
AcDbEntity
  8
0
  6
CONTINUOUS
 62
             200
100
AcDbLine
 10
-11.999997575302586
 20
84.445846234111912
 30
0.0
 11
-8.0
 21
85.517642363123926
 31
0.0
  0
CIRCLE
  5
1AF
100
AcDbEntity
  8
0
  6
CONTINUOUS
 62
               2
100
AcDbCircle
 10
-8.0
 20
0.2500030517578011
 30
0.0
 40
5.0
  0
CIRCLE
  5
1B0
100
AcDbEntity
  8
0
  6
CONTINUOUS
 62
               7
100
AcDbCircle
 10
-8.0
 20
0.2500030517578011
 30
0.0
 40
4.25
  0
CIRCLE
  5
1B1
100
AcDbEntity
  8
0
  6
CONTINUOUS
 62
               7
100
AcDbCircle
 10
-8.0
 20
0.2500030517578011
 30
0.0
 40
7.5
  0
CIRCLE
  5
1B2
100
AcDbEntity
  8
0
  6
CONTINUOUS
 62
               2
100
AcDbCircle
 10
-8.0
 20
-15.25000457763673
 30
0.0
 40
5.0
  0
CIRCLE
  5
1B3
100
AcDbEntity
  8
0
  6
CONTINUOUS
 62
               7
100
AcDbCircle
 10
-8.0
 20
-15.25000457763673
 30
0.0
 40
4.25
  0
CIRCLE
  5
1B4
100
AcDbEntity
  8
0
  6
CONTINUOUS
 62
               7
100
AcDbCircle
 10
-8.0
 20
-15.25000457763673
 30
0.0
 40
7.5
  0
LINE
  5
1B5
100
AcDbEntity
  8
0
  6
CONTINUOUS
 62
               4
100
AcDbLine
 10
-3.0
 20
37.000003051757801
 30
0.0
 11
-3.0
 21
61.000003051757801
 31
0.0
  0
LINE
  5
1B6
100
AcDbEntity
  8
0
  6
CONTINUOUS
 62
               4
100
AcDbLine
 10
-13.0
 20
37.000003051757801
 30
0.0
 11
-13.0
 21
61.000018310546864
 31
0.0
  0
ENDBLK
  5
1B7
100
AcDbEntity
  8
0
100
AcDbBlockEnd
  0
BLOCK
  5
1B8
100
AcDbEntity
  8
0
100
AcDbBlockBegin
  2
F15T0-4
 70
               0
 10
0.0
 20
0.0
 30
0.0
  3
F15T0-4
  1

  0
LINE
  5
1B9
100
AcDbEntity
  8
0
  6
CENTER
 62
             200
100
AcDbLine
 10
-9.5289489746093636
 20
-13.0
 30
0.0
 11
-14.587603759765614
 21
-13.0
 31
0.0
  0
LINE
  5
1BA
100
AcDbEntity
  8
0
  6
CENTER
 62
             200
100
AcDbLine
 10
-12.000003051757801
 20
-15.529434204101563
 30
0.0
 11
-12.000003051757801
 21
-10.669174194335937
 31
0.0
  0
LINE
  5
1BB
100
AcDbEntity
  8
0
  6
CONTINUOUS
 62
               2
100
AcDbLine
 10
-19.540225219726551
 20
-8.0
 30
0.0
 11
44.753062624258689
 21
-8.0
 31
0.0
  0
LINE
  5
1BC
100
AcDbEntity
  8
0
  6
DASHED
 62
               4
100
AcDbLine
 10
-17.000003051757801
 20
0.0
 30
0.0
 11
-6.0000030517578011
 21
0.0
 31
0.0
  0
LINE
  5
1BD
100
AcDbEntity
  8
0
  6
DASHED
 62
               4
100
AcDbLine
 10
-17.000003051757801
 20
-16.0
 30
0.0
 11
-6.0000030517578011
 21
-16.0
 31
0.0
  0
LINE
  5
1BE
100
AcDbEntity
  8
0
  6
CONTINUOUS
 62
               7
100
AcDbLine
 10
2.9999969482421989
 20
-0.5
 30
0.0
 11
33.499981689453136
 21
-0.5
 31
0.0
  0
LINE
  5
1BF
100
AcDbEntity
  8
0
  6
CONTINUOUS
 62
               7
100
AcDbLine
 10
2.9999969482421989
 20
-15.5
 30
0.0
 11
33.499981689453136
 21
-15.5
 31
0.0
  0
LINE
  5
1C0
100
AcDbEntity
  8
0
  6
DASHED
 62
               4
100
AcDbLine
 10
-7.0000030517578011
 20
1.600006103515625
 30
0.0
 11
-7.0000030517578011
 21
0.0
 31
0.0
  0
LINE
  5
1C1
100
AcDbEntity
  8
0
  6
CONTINUOUS
 62
               7
100
AcDbLine
 10
33.499981689453136
 20
-0.5
 30
0.0
 11
33.499981689453136
 21
-15.5
 31
0.0
  0
LINE
  5
1C2
100
AcDbEntity
  8
0
  6
CONTINUOUS
 62
               7
100
AcDbLine
 10
2.9999969482421989
 20
0.0
 30
0.0
 11
2.9999969482421989
 21
-16.0
 31
0.0
  0
LINE
  5
1C3
100
AcDbEntity
  8
0
  6
CONTINUOUS
 62
               7
100
AcDbLine
 10
7.5605608605301882
 20
-13.560732547976954
 30
0.0
 11
5.4392409109032656
 21
-11.43941170428036
 31
0.0
  0
LINE
  5
1C4
100
AcDbEntity
  8
0
  6
CONTINUOUS
 62
               7
100
AcDbLine
 10
7.5606226733954713
 20
-11.439329206328182
 30
0.0
 11
5.4392957605512606
 21
-13.560655225100163
 31
0.0
  0
LINE
  5
1C5
100
AcDbEntity
  8
0
  6
CONTINUOUS
 62
               7
100
AcDbLine
 10
6.4999664306640739
 20
-9.5
 30
0.0
 11
3.4999664306640739
 21
-9.5
 31
0.0
  0
LINE
  5
1C6
100
AcDbEntity
  8
0
  6
CONTINUOUS
 62
               7
100
AcDbLine
 10
9.4999511718750114
 20
-12.499984741210938
 30
0.0
 11
9.4999511718750114
 21
-15.499984741210938
 31
0.0
  0
LINE
  5
1C7
100
AcDbEntity
  8
0
  6
CONTINUOUS
 62
               7
100
AcDbLine
 10
24.500012207031261
 20
-3.5
 30
0.0
 11
24.500012207031261
 21
-0.5
 31
0.0
  0
LINE
  5
1C8
100
AcDbEntity
  8
0
  6
CONTINUOUS
 62
               7
100
AcDbLine
 10
26.439309913225145
 20
-2.439385281022453
 30
0.0
 11
28.560629505224199
 21
-4.5607064823469159
 31
0.0
  0
LINE
  5
1C9
100
AcDbEntity
  8
0
  6
CONTINUOUS
 62
               7
100
AcDbLine
 10
26.439330687765789
 20
-4.5606625193184414
 30
0.0
 11
28.560651889090252
 21
-2.4393429273193874
 31
0.0
  0
LINE
  5
1CA
100
AcDbEntity
  8
0
  6
CONTINUOUS
 62
               7
100
AcDbLine
 10
30.499981689453136
 20
-3.5
 30
0.0
 11
30.499981689453136
 21
-0.5
 31
0.0
  0
LINE
  5
1CB
100
AcDbEntity
  8
0
  6
DASHED
 62
               4
100
AcDbLine
 10
1.2499969482421989
 20
-18.699981689453125
 30
0.0
 11
-1.2500030517578011
 21
-18.699981689453125
 31
0.0
  0
LINE
  5
1CC
100
AcDbEntity
  8
0
  6
DASHED
 62
               4
100
AcDbLine
 10
2.7499969482421989
 20
-17.199996948242187
 30
0.0
 11
2.7499969482421989
 21
-16.699996948242188
 31
0.0
  0
LINE
  5
1CD
100
AcDbEntity
  8
0
  6
DASHED
 62
               4
100
AcDbLine
 10
-2.7499877929687386
 20
-17.199996948242187
 30
0.0
 11
-2.7499877929687386
 21
-16.699996948242188
 31
0.0
  0
LINE
  5
1CE
100
AcDbEntity
  8
0
  6
DASHED
 62
               4
100
AcDbLine
 10
-7.0000030517578011
 20
1.600006103515625
 30
0.0
 11
17.999996948242199
 21
1.600006103515625
 31
0.0
  0
LINE
  5
1CF
100
AcDbEntity
  8
0
  6
DASHED
 62
               4
100
AcDbLine
 10
2.9999969482421989
 20
-16.0
 30
0.0
 11
17.999996948242199
 21
-16.0
 31
0.0
  0
LINE
  5
1D0
100
AcDbEntity
  8
0
  6
DASHED
 62
               4
100
AcDbLine
 10
2.9999969482421989
 20
0.0
 30
0.0
 11
17.999996948242199
 21
0.0
 31
0.0
  0
LINE
  5
1D1
100
AcDbEntity
  8
0
  6
CONTINUOUS
 62
               7
100
AcDbLine
 10
-6.0000030517578011
 20
0.0
 30
0.0
 11
2.9999969482421989
 21
0.0
 31
0.0
  0
LINE
  5
1D2
100
AcDbEntity
  8
0
  6
CONTINUOUS
 62
               7
100
AcDbLine
 10
-6.0000030517578011
 20
-16.0
 30
0.0
 11
2.9999969482421989
 21
-16.0
 31
0.0
  0
LINE
  5
1D3
100
AcDbEntity
  8
0
  6
CONTINUOUS
 62
               7
100
AcDbLine
 10
-6.0000030517578011
 20
0.0
 30
0.0
 11
-6.0000030517578011
 21
-16.0
 31
0.0
  0
LINE
  5
1D4
100
AcDbEntity
  8
0
  6
DASHED
 62
               4
100
AcDbLine
 10
17.999996948242199
 20
1.600006103515625
 30
0.0
 11
17.999996948242199
 21
-16.0
 31
0.0
  0
LINE
  5
1D5
100
AcDbEntity
  8
0
  6
DASHED
 62
               4
100
AcDbLine
 10
-17.000003051757801
 20
0.0
 30
0.0
 11
-17.000003051757801
 21
-16.0
 31
0.0
  0
LINE
  5
1D6
100
AcDbEntity
  8
0
  6
CENTER
 62
             200
100
AcDbLine
 10
-12.000003051757801
 20
-5.5294342041015625
 30
0.0
 11
-12.000003051757801
 21
-0.6691741943359375
 31
0.0
  0
LINE
  5
1D7
100
AcDbEntity
  8
0
  6
CENTER
 62
             200
100
AcDbLine
 10
-9.5289489746093636
 20
-3.0
 30
0.0
 11
-14.587603759765614
 21
-3.0
 31
0.0
  0
CIRCLE
  5
1D8
100
AcDbEntity
  8
0
  6
DASHED
 62
               4
100
AcDbCircle
 10
-12.000003051757801
 20
-13.0
 30
0.0
 40
1.6999998092651367
  0
CIRCLE
  5
1D9
100
AcDbEntity
  8
0
  6
CONTINUOUS
 62
               7
100
AcDbCircle
 10
6.4999664306640739
 20
-12.499984741210938
 30
0.0
 40
2.7999992370605469
  0
ARC
  5
1DA
100
AcDbEntity
  8
0
  6
CONTINUOUS
 62
               7
100
AcDbCircle
 10
6.4999664306640739
 20
-12.499984741210938
 30
0.0
 40
3.0
100
AcDbArc
 50
0.0
 51
89.999982013910454
  0
CIRCLE
  5
1DB
100
AcDbEntity
  8
0
  6
CONTINUOUS
 62
               7
100
AcDbCircle
 10
27.499996948242199
 20
-3.5
 30
0.0
 40
2.7999992370605469
  0
ARC
  5
1DC
100
AcDbEntity
  8
0
  6
CONTINUOUS
 62
               7
100
AcDbCircle
 10
27.500012207031261
 20
-3.5
 30
0.0
 40
3.0
100
AcDbArc
 50
179.99996402782091
 51
0.0000919801827092
  0
ARC
  5
1DD
100
AcDbEntity
  8
0
  6
DASHED
 62
               4
100
AcDbCircle
 10
-1.2500030517578011
 20
-17.199981689453125
 30
0.0
 40
1.5
100
AcDbArc
 50
179.99990938630756
 51
269.99994604173139
  0
ARC
  5
1DE
100
AcDbEntity
  8
0
  6
DASHED
 62
               4
100
AcDbCircle
 10
1.2499816894531364
 20
-17.199981689453125
 30
0.0
 40
1.5
100
AcDbArc
 50
270.00001798608872
 51
359.99995901886416
  0
CIRCLE
  5
1DF
100
AcDbEntity
  8
0
  6
DASHED
 62
               4
100
AcDbCircle
 10
-12.000003051757801
 20
-3.0
 30
0.0
 40
1.6999998092651367
  0
LINE
  5
1E0
100
AcDbEntity
  8
0
  6
DASHED
 62
               4
100
AcDbLine
 10
-2.9499999999999886
 20
-16.699996948242188
 30
0.0
 11
2.9499938964843864
 21
-16.699996948242188
 31
0.0
  0
LINE
  5
1E1
100
AcDbEntity
  8
0
  6
DASHED
 62
               4
100
AcDbLine
 10
0.3499835342552728
 20
-15.999994514660102
 30
0.0
 11
0.5375459860286469
 21
-16.699987108403548
 31
0.0
  0
LINE
  5
1E2
100
AcDbEntity
  8
0
  6
DASHED
 62
               4
100
AcDbLine
 10
-0.350008574735682
 20
-16.700018189950242
 30
0.0
 11
-0.5375749325787069
 21
-16.000010814153029
 31
0.0
  0
LINE
  5
1E3
100
AcDbEntity
  8
0
  6
DASHED
 62
               4
100
AcDbLine
 10
-2.9499999999999886
 20
-16.699996948242188
 30
0.0
 11
-2.9499999999999886
 21
-16.0
 31
0.0
  0
LINE
  5
1E4
100
AcDbEntity
  8
0
  6
DASHED
 62
               4
100
AcDbLine
 10
2.9499938964843864
 20
-16.699996948242188
 30
0.0
 11
2.9499938964843864
 21
-16.0
 31
0.0
  0
LINE
  5
1E5
100
AcDbEntity
  8
0
  6
DASHED
 62
               4
100
AcDbLine
 10
1.9999969482421989
 20
3.1999969482421875
 30
0.0
 11
-2.0000030517578011
 21
3.1999969482421875
 31
0.0
  0
LINE
  5
1E6
100
AcDbEntity
  8
0
  6
DASHED
 62
               4
100
AcDbLine
 10
1.9999969482421989
 20
2.100006103515625
 30
0.0
 11
1.9999969482421989
 21
3.1999969482421875
 31
0.0
  0
LINE
  5
1E7
100
AcDbEntity
  8
0
  6
DASHED
 62
               4
100
AcDbLine
 10
-2.0000030517578011
 20
2.100006103515625
 30
0.0
 11
-2.0000030517578011
 21
3.1999969482421875
 31
0.0
  0
ARC
  5
1E8
100
AcDbEntity
  8
0
  6
DASHED
 62
               4
100
AcDbCircle
 10
-2.5000030517578011
 20
2.100006103515625
 30
0.0
 40
0.5
100
AcDbArc
 50
269.99996334457541
 51
0.0000179860890374
  0
ARC
  5
1E9
100
AcDbEntity
  8
0
  6
DASHED
 62
               4
100
AcDbCircle
 10
2.4999969482421989
 20
2.100006103515625
 30
0.0
 40
0.5
100
AcDbArc
 50
179.99996402782091
 51
269.99994604173139
  0
LINE
  5
1EA
100
AcDbEntity
  8
0
  6
CONTINUOUS
 62
               7
100
AcDbLine
 10
33.499981689453136
 20
-0.5
 30
0.0
 11
39.999996948242199
 21
-0.5
 31
0.0
  0
LINE
  5
1EB
100
AcDbEntity
  8
0
  6
CONTINUOUS
 62
               7
100
AcDbLine
 10
40.499996948242199
 20
-1.0
 30
0.0
 11
40.499996948242199
 21
-15.0
 31
0.0
  0
LINE
  5
1EC
100
AcDbEntity
  8
0
  6
CONTINUOUS
 62
               7
100
AcDbLine
 10
37.499996948242199
 20
-1.0
 30
0.0
 11
37.499996948242199
 21
-15.0
 31
0.0
  0
ARC
  5
1ED
100
AcDbEntity
  8
0
  6
CONTINUOUS
 62
               7
100
AcDbCircle
 10
36.999996948242199
 20
-1.0
 30
0.0
 40
0.5
100
AcDbArc
 50
0.0
 51
89.999982013910454
  0
ARC
  5
1EE
100
AcDbEntity
  8
0
  6
CONTINUOUS
 62
               7
100
AcDbCircle
 10
39.999996948242199
 20
-1.0
 30
0.0
 40
0.5
100
AcDbArc
 50
0.0
 51
89.999982013910454
  0
LINE
  5
1EF
100
AcDbEntity
  8
0
  6
CONTINUOUS
 62
               7
100
AcDbLine
 10
33.499981689453136
 20
-15.5
 30
0.0
 11
39.999996948242199
 21
-15.5
 31
0.0
  0
ARC
  5
1F0
100
AcDbEntity
  8
0
  6
CONTINUOUS
 62
               7
100
AcDbCircle
 10
36.999996948242199
 20
-15.0
 30
0.0
 40
0.5
100
AcDbArc
 50
270.00001798608872
 51
0.0
  0
ARC
  5
1F1
100
AcDbEntity
  8
0
  6
CONTINUOUS
 62
               7
100
AcDbCircle
 10
39.999996948242199
 20
-15.0
 30
0.0
 40
0.5
100
AcDbArc
 50
270.00001798608872
 51
0.0
  0
LINE
  5
1F2
100
AcDbEntity
  8
0
  6
CONTINUOUS
 62
               7
100
AcDbLine
 10
3.4999969482421989
 20
-0.5
 30
0.0
 11
3.4999969482421989
 21
-15.5
 31
0.0
  0
ENDBLK
  5
1F3
100
AcDbEntity
  8
0
100
AcDbBlockEnd
  0
BLOCK
  5
1F4
100
AcDbEntity
  8
0
100
AcDbBlockBegin
  2
F15T0-5
 70
               0
 10
0.0
 20
0.0
 30
0.0
  3
F15T0-5
  1

  0
ARC
  5
1F5
100
AcDbEntity
  8
0
  6
CONTINUOUS
 62
               4
100
AcDbCircle
 10
0.54998779296875
 20
32.500015258789063
 30
0.0
 40
0.5
100
AcDbArc
 50
89.999982013910454
 51
179.99996402782091
  0
ARC
  5
1F6
100
AcDbEntity
  8
0
  6
CONTINUOUS
 62
               4
100
AcDbCircle
 10
9.4499969482421875
 20
32.5
 30
0.0
 40
0.5
100
AcDbArc
 50
359.99995901886416
 51
89.999982013910454
  0
LINE
  5
1F7
100
AcDbEntity
  8
0
  6
CONTINUOUS
 62
               4
100
AcDbLine
 10
0.0
 20
0.0
 30
0.0
 11
0.0
 21
24.000015258789063
 31
0.0
  0
LINE
  5
1F8
100
AcDbEntity
  8
0
  6
CONTINUOUS
 62
               4
100
AcDbLine
 10
10.0
 20
0.0
 30
0.0
 11
10.0
 21
24.0
 31
0.0
  0
LINE
  5
1F9
100
AcDbEntity
  8
0
  6
CONTINUOUS
 62
               4
100
AcDbLine
 10
9.949981689453125
 20
24.0
 30
0.0
 11
9.949981689453125
 21
32.5
 31
0.0
  0
LINE
  5
1FA
100
AcDbEntity
  8
0
  6
CONTINUOUS
 62
               4
100
AcDbLine
 10
9.949981689453125
 20
28.5
 30
0.0
 11
0.04998779296875
 21
28.5
 31
0.0
  0
LINE
  5
1FB
100
AcDbEntity
  8
0
  6
CONTINUOUS
 62
               4
100
AcDbLine
 10
9.5
 20
33.0
 30
0.0
 11
0.5
 21
33.0
 31
0.0
  0
LINE
  5
1FC
100
AcDbEntity
  8
0
  6
CONTINUOUS
 62
               4
100
AcDbLine
 10
0.04998779296875
 20
24.000015258789063
 30
0.0
 11
0.04998779296875
 21
32.500015258789063
 31
0.0
  0
LINE
  5
1FD
100
AcDbEntity
  8
0
  6
CONTINUOUS
 62
               4
100
AcDbLine
 10
-0.0000152587890625
 20
24.0
 30
0.0
 11
9.9999847412109375
 21
24.0
 31
0.0
  0
LINE
  5
1FE
100
AcDbEntity
  8
0
  6
CONTINUOUS
 62
               2
100
AcDbLine
 10
5.0
 20
-3.3936598895391512
 30
0.0
 11
5.0
 21
34.954635620117188
 31
0.0
  0
ENDBLK
  5
1FF
100
AcDbEntity
  8
0
100
AcDbBlockEnd
  0
BLOCK
  5
200
100
AcDbEntity
  8
0
100
AcDbBlockBegin
  2
F15T0-6
 70
               0
 10
0.0
 20
0.0
 30
0.0
  3
F15T0-6
  1

  0
LINE
  5
201
100
AcDbEntity
  8
0
  6
CONTINUOUS
 62
               7
100
AcDbLine
 10
0.0
 20
0.0
 30
0.0
 11
27.0
 21
0.0
 31
0.0
  0
LINE
  5
202
100
AcDbEntity
  8
0
  6
CONTINUOUS
 62
               4
100
AcDbLine
 10
11.999996044018358
 20
20.999997260560981
 30
0.0
 11
11.999999434860394
 21
2.9999972605612979
 31
0.0
  0
LINE
  5
203
100
AcDbEntity
  8
0
  6
CONTINUOUS
 62
               4
100
AcDbLine
 10
4.9999960440184816
 20
20.999995941900213
 30
0.0
 11
4.9999994348605172
 21
2.9999959419005315
 31
0.0
  0
LINE
  5
204
100
AcDbEntity
  8
0
  6
CONTINUOUS
 62
               4
100
AcDbLine
 10
13.999996044018323
 20
20.999997637321233
 30
0.0
 11
4.9999960440184816
 21
20.999995941900213
 31
0.0
  0
LINE
  5
205
100
AcDbEntity
  8
0
  6
CONTINUOUS
 62
               4
100
AcDbLine
 10
13.999999434860358
 20
2.9999976373215493
 30
0.0
 11
4.9999994348605172
 21
2.9999959419005315
 31
0.0
  0
LINE
  5
206
100
AcDbEntity
  8
0
  6
CONTINUOUS
 62
               4
100
AcDbLine
 10
-29.500003588640251
 20
19.049992408281106
 30
0.0
 11
-29.50000373934493
 21
19.849995460038901
 31
0.0
  0
LINE
  5
207
100
AcDbEntity
  8
0
  6
CONTINUOUS
 62
               4
100
AcDbLine
 10
-29.500004210295188
 20
22.349995460038858
 30
0.0
 11
-29.500004059590566
 21
21.54999240828106
 31
0.0
  0
LINE
  5
208
100
AcDbEntity
  8
0
  6
CONTINUOUS
 62
               4
100
AcDbLine
 10
-20.491123654404049
 20
22.66501485732811
 30
0.0
 11
-24.500019528427419
 21
22.665014102131856
 31
0.0
  0
LINE
  5
209
100
AcDbEntity
  8
0
  6
CONTINUOUS
 62
               4
100
AcDbLine
 10
-20.874302095956473
 20
21.235006850574564
 30
0.0
 11
-24.5000192590424
 21
21.235006167561568
 31
0.0
  0
LINE
  5
20A
100
AcDbEntity
  8
0
  6
CONTINUOUS
 62
               4
100
AcDbLine
 10
-21.160999282086593
 20
20.165014731136811
 30
0.0
 11
-24.500019057477161
 21
20.165014102131902
 31
0.0
  0
LINE
  5
20B
100
AcDbEntity
  8
0
  6
CONTINUOUS
 62
               4
100
AcDbLine
 10
-21.544177723639013
 20
18.735006724383268
 30
0.0
 11
-24.500018788092088
 21
18.735006167561615
 31
0.0
  0
LINE
  5
20C
100
AcDbEntity
  8
0
  6
CONTINUOUS
 62
               4
100
AcDbLine
 10
-16.500003108270615
 20
16.499991805464806
 30
0.0
 11
-16.500004803691631
 21
25.499991805464642
 31
0.0
  0
LINE
  5
20D
100
AcDbEntity
  8
0
  6
CONTINUOUS
 62
               4
100
AcDbLine
 10
-10.000004794272192
 20
25.449989978177594
 30
0.0
 11
-10.000004803691747
 21
25.499993029935403
 31
0.0
  0
LINE
  5
20E
100
AcDbEntity
  8
0
  6
CONTINUOUS
 62
               4
100
AcDbLine
 10
-16.500004912452276
 20
26.077338607222448
 30
0.0
 11
-16.500005180451883
 21
27.49999180546461
 31
0.0
  0
LINE
  5
20F
100
AcDbEntity
  8
0
  6
CONTINUOUS
 62
               4
100
AcDbLine
 10
-5.9984636659965052
 20
25.499993783746135
 30
0.0
 11
-5.9984638543766309
 21
26.499993783746113
 31
0.0
  0
LINE
  5
210
100
AcDbEntity
  8
0
  6
CONTINUOUS
 62
               4
100
AcDbLine
 10
-15.00000508626179
 20
26.999992088034805
 30
0.0
 11
-15.000005180451909
 21
27.499992088034798
 31
0.0
  0
LINE
  5
211
100
AcDbEntity
  8
0
  6
CONTINUOUS
 62
               4
100
AcDbLine
 10
-10.000003202460791
 20
16.999993029935553
 30
0.0
 11
-15.500003202460695
 21
16.999991993844919
 31
0.0
  0
LINE
  5
212
100
AcDbEntity
  8
0
  6
CONTINUOUS
 62
               4
100
AcDbLine
 10
-15.500003108270631
 20
16.49999199384493
 30
0.0
 11
-16.500003108270615
 21
16.499991805464806
 31
0.0
  0
LINE
  5
213
100
AcDbEntity
  8
0
  6
CONTINUOUS
 62
               4
100
AcDbLine
 10
-15.500003108270631
 20
16.49999199384493
 30
0.0
 11
-15.500003202460695
 21
16.999991993844919
 31
0.0
  0
LINE
  5
214
100
AcDbEntity
  8
0
  6
CONTINUOUS
 62
               4
100
AcDbLine
 10
-9.5561574300119432
 20
26.999993113547404
 30
0.0
 11
-15.00000508626179
 21
26.999992088034805
 31
0.0
  0
LINE
  5
215
100
AcDbEntity
  8
0
  6
CONTINUOUS
 62
               4
100
AcDbLine
 10
-5.998459571554017
 20
26.500064931303775
 30
0.0
 11
-9.5561477494327356
 21
27.000063584121861
 31
0.0
  0
LINE
  5
216
100
AcDbEntity
  8
0
  6
CONTINUOUS
 62
               4
100
AcDbLine
 10
-10.000004803691747
 20
25.499993029935403
 30
0.0
 11
-16.500004803691631
 21
25.499991805464642
 31
0.0
  0
LINE
  5
217
100
AcDbEntity
  8
0
  6
CONTINUOUS
 62
               4
100
AcDbLine
 10
-15.500004761866304
 20
25.499970432931367
 30
0.0
 11
-16.499999122211054
 21
26.077316564534396
 31
0.0
  0
LINE
  5
218
100
AcDbEntity
  8
0
  6
CONTINUOUS
 62
               4
100
AcDbLine
 10
-15.000005180451909
 20
27.499992088034798
 30
0.0
 11
-16.500005180451883
 21
27.49999180546461
 31
0.0
  0
LINE
  5
219
100
AcDbEntity
  8
0
  6
CONTINUOUS
 62
               4
100
AcDbLine
 10
-16.500004269638499
 20
22.665015609175629
 30
0.0
 11
-19.455845334091567
 21
22.665015052353976
 31
0.0
  0
LINE
  5
21A
100
AcDbEntity
  8
0
  6
CONTINUOUS
 62
               4
100
AcDbLine
 10
-16.500004000253426
 20
21.235007674605345
 30
0.0
 11
-19.839023775643991
 21
21.235007045600433
 31
0.0
  0
LINE
  5
21B
100
AcDbEntity
  8
0
  6
CONTINUOUS
 62
               4
100
AcDbLine
 10
-16.500003529303168
 20
18.735007674605388
 30
0.0
 11
-20.508899403326531
 21
18.735006919409138
 31
0.0
  0
LINE
  5
21C
100
AcDbEntity
  8
0
  6
CONTINUOUS
 62
               4
100
AcDbLine
 10
-16.50000379868824
 20
20.165015609175676
 30
0.0
 11
-20.125720961774114
 21
20.16501492616268
 31
0.0
  0
LINE
  5
21D
100
AcDbEntity
  8
0
  6
CONTINUOUS
 62
             200
100
AcDbLine
 10
-19.053940259438328
 20
24.164997583181783
 30
0.0
 11
-20.910832106887497
 21
17.234977700513234
 31
0.0
  0
LINE
  5
21E
100
AcDbEntity
  8
0
  6
CONTINUOUS
 62
             200
100
AcDbLine
 10
-20.089219118197949
 20
24.164987342479481
 30
0.0
 11
-21.946107016384769
 21
17.23498219866989
 31
0.0
  0
LINE
  5
21F
100
AcDbEntity
  8
0
  6
CONTINUOUS
 62
               4
100
AcDbLine
 10
26.999994690506966
 20
28.185000000159228
 30
0.0
 11
26.999995478877789
 21
24.000000000159304
 31
0.0
  0
LINE
  5
220
100
AcDbEntity
  8
0
  6
CONTINUOUS
 62
               4
100
AcDbLine
 10
24.674993783456767
 20
32.999999562175404
 30
0.0
 11
-2.5030869098003947
 21
32.999994442365498
 31
0.0
  0
LINE
  5
221
100
AcDbEntity
  8
0
  6
CONTINUOUS
 62
               4
100
AcDbLine
 10
12.249995384687987
 20
24.499997221552636
 30
0.0
 11
12.249995478878049
 21
23.999997221552647
 31
0.0
  0
LINE
  5
222
100
AcDbEntity
  8
0
  6
CONTINUOUS
 62
               4
100
AcDbLine
 10
14.749995384687942
 20
24.499997692502951
 30
0.0
 11
14.749995478878004
 21
23.999997692502962
 31
0.0
  0
LINE
  5
223
100
AcDbEntity
  8
0
  6
CONTINUOUS
 62
               4
100
AcDbLine
 10
14.749995384687942
 20
24.499997692502951
 30
0.0
 11
12.249995384687987
 21
24.499997221552636
 31
0.0
  0
LINE
  5
224
100
AcDbEntity
  8
0
  6
CONTINUOUS
 62
               4
100
AcDbLine
 10
25.129993839028892
 20
32.704999647888307
 30
0.0
 11
26.869994576537035
 21
28.789999975669804
 31
0.0
  0
ARC
  5
225
100
AcDbEntity
  8
0
  6
CONTINUOUS
 62
               4
100
AcDbCircle
 10
24.675681741018185
 20
32.502670674382578
 30
0.0
 40
0.4973293636201366
100
AcDbArc
 50
24.00591438202218
 51
90.079257490519069
  0
ARC
  5
226
100
AcDbEntity
  8
0
  6
CONTINUOUS
 62
               4
100
AcDbCircle
 10
25.501118639876903
 20
28.179394119917809
 30
0.0
 40
1.4988865337462252
100
AcDbArc
 50
0.2142884200112988
 51
24.039915236620011
  0
LINE
  5
227
100
AcDbEntity
  8
0
  6
CONTINUOUS
 62
               4
100
AcDbLine
 10
19.899995026765612
 20
26.39999866266049
 30
0.0
 11
19.899995205726746
 21
25.449998662660462
 31
0.0
  0
LINE
  5
228
100
AcDbEntity
  8
0
  6
CONTINUOUS
 62
               4
100
AcDbLine
 10
6.9999950267658626
 20
26.399996232557005
 30
0.0
 11
6.9999952057269423
 21
25.449996232557034
 31
0.0
  0
LINE
  5
229
100
AcDbEntity
  8
0
  6
CONTINUOUS
 62
               4
100
AcDbLine
 10
21.999995026765596
 20
26.399999058258722
 30
0.0
 11
19.899995026765612
 21
26.39999866266049
 31
0.0
  0
LINE
  5
22A
100
AcDbEntity
  8
0
  6
CONTINUOUS
 62
               4
100
AcDbLine
 10
6.9999950267658626
 20
26.399996232557005
 30
0.0
 11
4.8999950267658772
 21
26.399995836958777
 31
0.0
  0
LINE
  5
22B
100
AcDbEntity
  8
0
  6
CONTINUOUS
 62
               4
100
AcDbLine
 10
21.999995026765596
 20
26.399999058258722
 30
0.0
 11
21.999995205726677
 21
25.449999058258694
 31
0.0
  0
LINE
  5
22C
100
AcDbEntity
  8
0
  6
CONTINUOUS
 62
               4
100
AcDbLine
 10
4.8999950267658772
 20
26.399995836958777
 30
0.0
 11
4.8999952057269569
 21
25.449995836958806
 31
0.0
  0
LINE
  5
22D
100
AcDbEntity
  8
0
  6
CONTINUOUS
 62
               4
100
AcDbLine
 10
6.9999952057269423
 20
25.449996232557034
 30
0.0
 11
4.8999952057269569
 21
25.449995836958806
 31
0.0
  0
LINE
  5
22E
100
AcDbEntity
  8
0
  6
CONTINUOUS
 62
               4
100
AcDbLine
 10
21.999995205726677
 20
25.449999058258694
 30
0.0
 11
19.899995205726746
 21
25.449998662660462
 31
0.0
  0
LINE
  5
22F
100
AcDbEntity
  8
0
  6
CONTINUOUS
 62
               4
100
AcDbLine
 10
1.4999951774700153
 20
25.599995196466431
 30
0.0
 11
1.4999954788781824
 21
23.999995196466436
 31
0.0
  0
LINE
  5
230
100
AcDbEntity
  8
0
  6
CONTINUOUS
 62
               4
100
AcDbLine
 10
-3.000006122352636
 20
32.4999943481168
 30
0.0
 11
-3.0000048225299047
 21
25.599994348116944
 31
0.0
  0
ARC
  5
231
100
AcDbEntity
  8
0
  6
CONTINUOUS
 62
               4
100
AcDbCircle
 10
-2.5015465726611557
 20
32.501534892034947
 30
0.0
 40
0.4984619302958243
100
AcDbArc
 50
89.822943258783283
 51
180.17707832798735
  0
LINE
  5
232
100
AcDbEntity
  8
0
  6
CONTINUOUS
 62
               4
100
AcDbLine
 10
1.4999951774700153
 20
25.599995196466431
 30
0.0
 11
-3.0000048225299047
 21
25.599994348755921
 31
0.0
  0
LINE
  5
233
100
AcDbEntity
  8
0
  6
CONTINUOUS
 62
               4
100
AcDbLine
 10
14.294995478878027
 20
23.999997606630259
 30
0.0
 11
12.794995478878056
 21
23.999997324060068
 31
0.0
  0
LINE
  5
234
100
AcDbEntity
  8
0
  6
CONTINUOUS
 62
               4
100
AcDbLine
 10
26.999995478877789
 20
23.999999999999574
 30
0.0
 11
1.3999954788782181
 21
23.999995177468673
 31
0.0
  0
LINE
  5
235
100
AcDbEntity
  8
0
  6
CONTINUOUS
 62
               4
100
AcDbLine
 10
26.999995478877789
 20
23.999999999999574
 30
0.0
 11
27.000000000000465
 21
-0.0000000000000053
 31
0.0
  0
LINE
  5
236
100
AcDbEntity
  8
0
  6
CONTINUOUS
 62
               4
100
AcDbLine
 10
14.629997279320927
 20
24.49999766989767
 30
0.0
 11
14.599996592675419
 21
24.499997664246148
 31
0.0
  0
LINE
  5
237
100
AcDbEntity
  8
0
  6
CONTINUOUS
 62
               4
100
AcDbLine
 10
12.3000014882036
 20
24.499997230972813
 30
0.0
 11
12.269997622643723
 21
24.499997225320644
 31
0.0
  0
LINE
  5
238
100
AcDbEntity
  8
0
  6
CONTINUOUS
 62
               4
100
AcDbLine
 10
13.700005557214009
 20
24.49999749470572
 30
0.0
 11
13.199989662642059
 21
24.499997400512655
 31
0.0
  0
LINE
  5
239
100
AcDbEntity
  8
0
  6
CONTINUOUS
 62
               4
100
AcDbLine
 10
-0.000003202460968
 20
16.999994913736639
 30
0.0
 11
0.0
 21
0.0
 31
0.0
  0
LINE
  5
23A
100
AcDbEntity
  8
0
  6
CONTINUOUS
 62
               4
100
AcDbLine
 10
-10.000003202460791
 20
16.999993029935553
 30
0.0
 11
1.3999967975389844
 21
16.999995177468794
 31
0.0
  0
LINE
  5
23B
100
AcDbEntity
  8
0
  6
CONTINUOUS
 62
               4
100
AcDbLine
 10
-10.000004803691747
 20
25.499993029935403
 30
0.0
 11
1.3999951963080295
 21
25.499995177468641
 31
0.0
  0
LINE
  5
23C
100
AcDbEntity
  8
0
  6
CONTINUOUS
 62
               4
100
AcDbLine
 10
-10.000004803691747
 20
25.499993029935403
 30
0.0
 11
-10.000003202460791
 21
16.999993029935553
 31
0.0
  0
LINE
  5
23D
100
AcDbEntity
  8
0
  6
CONTINUOUS
 62
               4
100
AcDbLine
 10
1.3999967975389844
 20
16.999995177468794
 30
0.0
 11
1.3999951963080304
 21
25.499995173177133
 31
0.0
  0
LINE
  5
23E
100
AcDbEntity
  8
0
  6
CONTINUOUS
 62
               4
100
AcDbLine
 10
-24.500003529300141
 20
18.734990908775433
 30
0.0
 11
-24.500003798685213
 21
20.164998843345721
 31
0.0
  0
LINE
  5
23F
100
AcDbEntity
  8
0
  6
CONTINUOUS
 62
               4
100
AcDbLine
 10
-24.500004269635472
 20
22.664998843345675
 30
0.0
 11
-24.500004000250399
 21
21.234990908775391
 31
0.0
  0
LINE
  5
240
100
AcDbEntity
  8
0
  6
CONTINUOUS
 62
               4
100
AcDbLine
 10
-24.500019318379717
 20
21.549993350178749
 30
0.0
 11
-29.500004059590566
 21
21.54999240828106
 31
0.0
  0
LINE
  5
241
100
AcDbEntity
  8
0
  6
CONTINUOUS
 62
               4
100
AcDbLine
 10
-24.500019469084336
 20
22.349996401936547
 30
0.0
 11
-29.500004210295188
 21
22.349995460038858
 31
0.0
  0
LINE
  5
242
100
AcDbEntity
  8
0
  6
CONTINUOUS
 62
               4
100
AcDbLine
 10
-24.500018847429402
 20
19.049993350178795
 30
0.0
 11
-29.500003588640251
 21
19.049992408281106
 31
0.0
  0
LINE
  5
243
100
AcDbEntity
  8
0
  6
CONTINUOUS
 62
               4
100
AcDbLine
 10
-24.500018998134081
 20
19.849996401936593
 30
0.0
 11
-29.50000373934493
 21
19.849995460038901
 31
0.0
  0
ENDBLK
  5
244
100
AcDbEntity
  8
0
100
AcDbBlockEnd
  0
BLOCK
  5
245
100
AcDbEntity
  8
0
100
AcDbBlockBegin
  2
F15T0-7
 70
               0
 10
0.0
 20
0.0
 30
0.0
  3
F15T0-7
  1

  0
LINE
  5
246
100
AcDbEntity
  8
0
  6
CONTINUOUS
 62
               4
100
AcDbLine
 10
-11.999999932906519
 20
20.999995047923903
 30
0.0
 11
-11.999999990415233
 21
2.9999950479239033
 31
0.0
  0
LINE
  5
247
100
AcDbEntity
  8
0
  6
CONTINUOUS
 62
               4
100
AcDbLine
 10
-4.999999932906519
 20
20.999995070288435
 30
0.0
 11
-4.9999999904152332
 21
2.9999950702884348
 31
0.0
  0
LINE
  5
248
100
AcDbEntity
  8
0
  6
CONTINUOUS
 62
               4
100
AcDbLine
 10
-4.999999932906519
 20
20.999995070288435
 30
0.0
 11
-13.999999932906519
 21
20.999995041534078
 31
0.0
  0
LINE
  5
249
100
AcDbEntity
  8
0
  6
CONTINUOUS
 62
               4
100
AcDbLine
 10
-4.9999999904152332
 20
2.9999950702884348
 30
0.0
 11
-13.999999990415233
 21
2.9999950415340777
 31
0.0
  0
LINE
  5
24A
100
AcDbEntity
  8
0
  6
CONTINUOUS
 62
               4
100
AcDbLine
 10
29.500000060863385
 20
19.049997871244386
 30
0.0
 11
29.50000006341935
 21
19.850000923002199
 31
0.0
  0
LINE
  5
24B
100
AcDbEntity
  8
0
  6
CONTINUOUS
 62
               4
100
AcDbLine
 10
29.500000071406646
 20
22.350000923002199
 30
0.0
 11
29.50000006885071
 21
21.549997871244386
 31
0.0
  0
LINE
  5
24C
100
AcDbEntity
  8
0
  6
CONTINUOUS
 62
               4
100
AcDbLine
 10
20.491119457178741
 20
22.665018651980233
 30
0.0
 11
24.500015331202178
 21
22.665018639172104
 31
0.0
  0
LINE
  5
24D
100
AcDbEntity
  8
0
  6
CONTINUOUS
 62
               4
100
AcDbLine
 10
20.874298163547451
 20
21.235010716185684
 30
0.0
 11
24.500015326633417
 21
21.235010704601791
 31
0.0
  0
LINE
  5
24E
100
AcDbEntity
  8
0
  6
CONTINUOUS
 62
               4
100
AcDbLine
 10
21.160995547824228
 20
20.165018649840022
 30
0.0
 11
24.500015323214853
 21
20.165018639172104
 31
0.0
  0
LINE
  5
24F
100
AcDbEntity
  8
0
  6
CONTINUOUS
 62
               4
100
AcDbLine
 10
21.544174254192967
 20
18.735010714045472
 30
0.0
 11
24.500015318646092
 21
18.735010704601791
 31
0.0
  0
LINE
  5
250
100
AcDbEntity
  8
0
  6
CONTINUOUS
 62
               4
100
AcDbLine
 10
16.500000052716302
 20
16.499994861020639
 30
0.0
 11
16.50000008147066
 21
25.499994861020639
 31
0.0
  0
LINE
  5
251
100
AcDbEntity
  8
0
  6
CONTINUOUS
 62
               4
100
AcDbLine
 10
10.000000081310901
 20
25.449991830029887
 30
0.0
 11
10.00000008147066
 21
25.4999948817877
 31
0.0
  0
LINE
  5
252
100
AcDbEntity
  8
0
  6
CONTINUOUS
 62
               4
100
AcDbLine
 10
16.500000083315228
 20
26.077341662778451
 30
0.0
 11
16.500000087860514
 21
27.499994861020639
 31
0.0
  0
LINE
  5
253
100
AcDbEntity
  8
0
  6
CONTINUOUS
 62
               4
100
AcDbLine
 10
5.9984589437753471
 20
25.499994894572296
 30
0.0
 11
5.9984589469702883
 21
26.499994894572296
 31
0.0
  0
LINE
  5
254
100
AcDbEntity
  8
0
  6
CONTINUOUS
 62
               4
100
AcDbLine
 10
15.000000086263043
 20
26.999994865813051
 30
0.0
 11
15.000000087860514
 21
27.499994865813051
 31
0.0
  0
LINE
  5
255
100
AcDbEntity
  8
0
  6
CONTINUOUS
 62
               4
100
AcDbLine
 10
10.000000054313773
 20
16.9999948817877
 30
0.0
 11
15.500000054313773
 21
16.99999486421558
 31
0.0
  0
LINE
  5
256
100
AcDbEntity
  8
0
  6
CONTINUOUS
 62
               4
100
AcDbLine
 10
15.500000052716302
 20
16.49999486421558
 30
0.0
 11
16.500000052716302
 21
16.499994861020639
 31
0.0
  0
LINE
  5
257
100
AcDbEntity
  8
0
  6
CONTINUOUS
 62
               4
100
AcDbLine
 10
15.500000052716302
 20
16.49999486421558
 30
0.0
 11
15.500000054313773
 21
16.99999486421558
 31
0.0
  0
LINE
  5
258
100
AcDbEntity
  8
0
  6
CONTINUOUS
 62
               4
100
AcDbLine
 10
9.5561524300130429
 20
26.999994883205716
 30
0.0
 11
15.000000086263043
 21
26.999994865813051
 31
0.0
  0
LINE
  5
259
100
AcDbEntity
  8
0
  6
CONTINUOUS
 62
               4
100
AcDbLine
 10
5.9984546641344991
 20
26.500066042129163
 30
0.0
 11
9.5561427494207862
 21
27.000065353778382
 31
0.0
  0
LINE
  5
25A
100
AcDbEntity
  8
0
  6
CONTINUOUS
 62
               4
100
AcDbLine
 10
10.00000008147066
 20
25.4999948817877
 30
0.0
 11
16.50000008147066
 21
25.499994861020639
 31
0.0
  0
LINE
  5
25B
100
AcDbEntity
  8
0
  6
CONTINUOUS
 62
               4
100
AcDbLine
 10
15.500000039649308
 20
25.49997330330217
 30
0.0
 11
16.499994293078089
 21
26.077319620089327
 31
0.0
  0
LINE
  5
25C
100
AcDbEntity
  8
0
  6
CONTINUOUS
 62
               4
100
AcDbLine
 10
15.000000087860514
 20
27.499994865813051
 30
0.0
 11
16.500000087860514
 21
27.499994861020639
 31
0.0
  0
LINE
  5
25D
100
AcDbEntity
  8
0
  6
CONTINUOUS
 62
               4
100
AcDbLine
 10
16.500000072413116
 20
22.665018664731576
 30
0.0
 11
19.455841136866241
 21
22.665018655287895
 31
0.0
  0
LINE
  5
25E
100
AcDbEntity
  8
0
  6
CONTINUOUS
 62
               4
100
AcDbLine
 10
16.500000067844326
 20
21.235010730161264
 30
0.0
 11
19.839019843234951
 21
21.235010719493346
 31
0.0
  0
LINE
  5
25F
100
AcDbEntity
  8
0
  6
CONTINUOUS
 62
               4
100
AcDbLine
 10
16.50000005985703
 20
18.735010730161264
 30
0.0
 11
20.508895933880467
 21
18.735010717353134
 31
0.0
  0
LINE
  5
260
100
AcDbEntity
  8
0
  6
CONTINUOUS
 62
               4
100
AcDbLine
 10
16.500000064425791
 20
20.165018664731576
 30
0.0
 11
20.125717227511728
 21
20.165018653147683
 31
0.0
  0
LINE
  5
261
100
AcDbEntity
  8
0
  6
CONTINUOUS
 62
             200
100
AcDbLine
 10
19.053935784438465
 20
24.165001111688809
 30
0.0
 11
20.910828915224641
 21
17.234981572889239
 31
0.0
  0
LINE
  5
262
100
AcDbEntity
  8
0
  6
CONTINUOUS
 62
             200
100
AcDbLine
 10
20.089214643199966
 20
24.164991062704814
 30
0.0
 11
21.946103824721035
 21
17.234986262763471
 31
0.0
  0
LINE
  5
263
100
AcDbEntity
  8
0
  6
CONTINUOUS
 62
               4
100
AcDbLine
 10
-26.999999909950958
 20
28.184995000159745
 30
0.0
 11
-26.999999923321724
 21
23.999995000159743
 31
0.0
  0
LINE
  5
264
100
AcDbEntity
  8
0
  6
CONTINUOUS
 62
               4
100
AcDbLine
 10
-24.674999894567378
 20
32.999994992731558
 30
0.0
 11
2.7000001054326503
 21
32.999994905270398
 31
0.0
  0
LINE
  5
265
100
AcDbEntity
  8
0
  6
CONTINUOUS
 62
               4
100
AcDbLine
 10
-12.249999921724282
 20
24.499994953034559
 30
0.0
 11
-12.249999923321752
 21
23.999994953034559
 31
0.0
  0
LINE
  5
266
100
AcDbEntity
  8
0
  6
CONTINUOUS
 62
               4
100
AcDbLine
 10
-14.749999921724282
 20
24.499994961021912
 30
0.0
 11
-14.749999923321752
 21
23.999994961021912
 31
0.0
  0
LINE
  5
267
100
AcDbEntity
  8
0
  6
CONTINUOUS
 62
               4
100
AcDbLine
 10
-14.749999921724282
 20
24.499994961021912
 30
0.0
 11
-12.249999921724282
 21
24.499994953034559
 31
0.0
  0
LINE
  5
268
100
AcDbEntity
  8
0
  6
CONTINUOUS
 62
               4
100
AcDbLine
 10
-25.129999895509883
 20
32.704994994185199
 30
0.0
 11
-26.869999908018031
 21
28.789994999744408
 31
0.0
  0
ARC
  5
269
100
AcDbEntity
  8
0
  6
CONTINUOUS
 62
               4
100
AcDbCircle
 10
-24.675687760030826
 20
32.50266610481134
 30
0.0
 40
0.4973293636201366
100
AcDbArc
 50
89.92075311981003
 51
155.99409622830692
  0
ARC
  5
26A
100
AcDbEntity
  8
0
  6
CONTINUOUS
 62
               4
100
AcDbCircle
 10
-25.501123858282767
 20
28.179389397487967
 30
0.0
 40
1.4988865337462252
100
AcDbArc
 50
155.96009537370909
 51
179.78572219031781
  0
LINE
  5
26B
100
AcDbEntity
  8
0
  6
CONTINUOUS
 62
               4
100
AcDbLine
 10
-19.899999915653893
 20
26.399994977475785
 30
0.0
 11
-19.899999918689076
 21
25.44999497747574
 31
0.0
  0
LINE
  5
26C
100
AcDbEntity
  8
0
  6
CONTINUOUS
 62
               4
100
AcDbLine
 10
-6.9999999156539161
 20
26.39999493626118
 30
0.0
 11
-6.9999999186890705
 21
25.449994936261191
 31
0.0
  0
LINE
  5
26D
100
AcDbEntity
  8
0
  6
CONTINUOUS
 62
               4
100
AcDbLine
 10
-21.999999915653916
 20
26.399994984185128
 30
0.0
 11
-19.899999915653893
 21
26.399994977475785
 31
0.0
  0
LINE
  5
26E
100
AcDbEntity
  8
0
  6
CONTINUOUS
 62
               4
100
AcDbLine
 10
-6.9999999156539161
 20
26.39999493626118
 30
0.0
 11
-4.8999999156538934
 21
26.399994929551838
 31
0.0
  0
LINE
  5
26F
100
AcDbEntity
  8
0
  6
CONTINUOUS
 62
               4
100
AcDbLine
 10
-21.999999915653916
 20
26.399994984185128
 30
0.0
 11
-21.999999918689099
 21
25.449994984185082
 31
0.0
  0
LINE
  5
270
100
AcDbEntity
  8
0
  6
CONTINUOUS
 62
               4
100
AcDbLine
 10
-4.8999999156538934
 20
26.399994929551838
 30
0.0
 11
-4.8999999186890761
 21
25.449994929551849
 31
0.0
  0
LINE
  5
271
100
AcDbEntity
  8
0
  6
CONTINUOUS
 62
               4
100
AcDbLine
 10
-6.9999999186890705
 20
25.449994936261191
 30
0.0
 11
-4.8999999186890761
 21
25.449994929551849
 31
0.0
  0
LINE
  5
272
100
AcDbEntity
  8
0
  6
CONTINUOUS
 62
               4
100
AcDbLine
 10
-21.999999918689099
 20
25.449994984185082
 30
0.0
 11
-19.899999918689076
 21
25.44999497747574
 31
0.0
  0
LINE
  5
273
100
AcDbEntity
  8
0
  6
CONTINUOUS
 62
               4
100
AcDbLine
 10
-1.4999999182098236
 20
25.599994918689106
 30
0.0
 11
-1.4999999233217238
 21
23.999994918689083
 31
0.0
  0
LINE
  5
274
100
AcDbEntity
  8
0
  6
CONTINUOUS
 62
               4
100
AcDbLine
 10
3.2000001038351797
 20
32.499994903672928
 30
0.0
 11
3.200000081790165
 21
25.59999490367295
 31
0.0
  0
ARC
  5
275
100
AcDbEntity
  8
0
  6
CONTINUOUS
 62
               4
100
AcDbCircle
 10
2.701540553858365
 20
32.50153535528375
 30
0.0
 40
0.4984619302958243
100
AcDbArc
 50
359.82293228234096
 51
90.177067351545816
  0
LINE
  5
276
100
AcDbEntity
  8
0
  6
CONTINUOUS
 62
               4
100
AcDbLine
 10
-1.4999999182098236
 20
25.599994918689106
 30
0.0
 11
3.200000081790165
 21
25.59999490367295
 31
0.0
  0
LINE
  5
277
100
AcDbEntity
  8
0
  6
CONTINUOUS
 62
               4
100
AcDbLine
 10
-14.29499992332174
 20
23.999994959408468
 30
0.0
 11
-12.79499992332174
 21
23.999994954616056
 31
0.0
  0
LINE
  5
278
100
AcDbEntity
  8
0
  6
CONTINUOUS
 62
               4
100
AcDbLine
 10
-26.999999923321752
 20
23.999995000000013
 30
0.0
 11
-1.3999999233217295
 21
23.999994918209836
 31
0.0
  0
LINE
  5
279
100
AcDbEntity
  8
0
  6
CONTINUOUS
 62
               4
100
AcDbLine
 10
-26.999999923321752
 20
23.999995000000013
 30
0.0
 11
-27.0
 21
-0.0000049999999874
 31
0.0
  0
LINE
  5
27A
100
AcDbEntity
  8
0
  6
CONTINUOUS
 62
               4
100
AcDbLine
 10
-14.630001816357236
 20
24.499994960638503
 30
0.0
 11
-14.600001129711728
 21
24.499994960542665
 31
0.0
  0
LINE
  5
27B
100
AcDbEntity
  8
0
  6
CONTINUOUS
 62
               4
100
AcDbLine
 10
-12.300006025239895
 20
24.499994953194346
 30
0.0
 11
-12.270002159680018
 21
24.499994953098451
 31
0.0
  0
LINE
  5
27C
100
AcDbEntity
  8
0
  6
CONTINUOUS
 62
               4
100
AcDbLine
 10
-13.700010094250302
 20
24.499994957667241
 30
0.0
 11
-13.199994199678372
 21
24.499994956069713
 31
0.0
  0
LINE
  5
27D
100
AcDbEntity
  8
0
  6
CONTINUOUS
 62
               4
100
AcDbLine
 10
0.000000054313773
 20
16.999994913736941
 30
0.0
 11
0.0
 21
0.0
 31
0.0
  0
LINE
  5
27E
100
AcDbEntity
  8
0
  6
CONTINUOUS
 62
               4
100
AcDbLine
 10
10.000000054313773
 20
16.9999948817877
 30
0.0
 11
-1.3999999456862042
 21
16.999994918209836
 31
0.0
  0
LINE
  5
27F
100
AcDbEntity
  8
0
  6
CONTINUOUS
 62
               4
100
AcDbLine
 10
10.00000008147066
 20
25.4999948817877
 30
0.0
 11
-1.3999999185293177
 21
25.499994918209836
 31
0.0
  0
LINE
  5
280
100
AcDbEntity
  8
0
  6
CONTINUOUS
 62
               4
100
AcDbLine
 10
10.00000008147066
 20
25.4999948817877
 30
0.0
 11
10.000000054313773
 21
16.9999948817877
 31
0.0
  0
LINE
  5
281
100
AcDbEntity
  8
0
  6
CONTINUOUS
 62
               4
100
AcDbLine
 10
-1.3999999456862042
 20
16.999994918209836
 30
0.0
 11
-1.3999999185293177
 21
25.499994913918329
 31
0.0
  0
LINE
  5
282
100
AcDbEntity
  8
0
  6
CONTINUOUS
 62
               4
100
AcDbLine
 10
24.500000059856973
 20
18.734995445812785
 30
0.0
 11
24.500000064425763
 21
20.165003380383098
 31
0.0
  0
LINE
  5
283
100
AcDbEntity
  8
0
  6
CONTINUOUS
 62
               4
100
AcDbLine
 10
24.500000072413059
 20
22.665003380383098
 30
0.0
 11
24.500000067844297
 21
21.234995445812785
 31
0.0
  0
LINE
  5
284
100
AcDbEntity
  8
0
  6
CONTINUOUS
 62
               4
100
AcDbLine
 10
24.500015327639773
 20
21.549997887218979
 30
0.0
 11
29.50000006885071
 21
21.549997871244386
 31
0.0
  0
LINE
  5
285
100
AcDbEntity
  8
0
  6
CONTINUOUS
 62
               4
100
AcDbLine
 10
24.500015330195708
 20
22.350000938976791
 30
0.0
 11
29.500000071406646
 21
22.350000923002199
 31
0.0
  0
LINE
  5
286
100
AcDbEntity
  8
0
  6
CONTINUOUS
 62
               4
100
AcDbLine
 10
24.500015319652448
 20
19.049997887218979
 30
0.0
 11
29.500000060863385
 21
19.049997871244386
 31
0.0
  0
LINE
  5
287
100
AcDbEntity
  8
0
  6
CONTINUOUS
 62
               4
100
AcDbLine
 10
24.500015322208412
 20
19.850000938976791
 30
0.0
 11
29.50000006341935
 21
19.850000923002199
 31
0.0
  0
ENDBLK
  5
288
100
AcDbEntity
  8
0
100
AcDbBlockEnd
  0
BLOCK
  5
289
100
AcDbEntity
  8
0
100
AcDbBlockBegin
  2
F15T0-8
 70
               0
 10
0.0
 20
0.0
 30
0.0
  3
F15T0-8
  1

  0
LINE
  5
28A
100
AcDbEntity
  8
0
  6
CENTER
 62
               2
100
AcDbLine
 10
-2.70001220703125
 20
-50.000030517578125
 30
0.0
 11
2.6999969482421875
 21
-50.000030517578125
 31
0.0
  0
LINE
  5
28B
100
AcDbEntity
  8
0
  6
CENTER
 62
               2
100
AcDbLine
 10
-2.700103759765625
 20
0.0
 30
0.0
 11
2.6999053955078125
 21
0.0
 31
0.0
  0
LINE
  5
28C
100
AcDbEntity
  8
0
  6
CENTER
 62
               2
100
AcDbLine
 10
54.5
 20
16.199951171875
 30
0.0
 11
51.800003051757813
 21
16.199951171875
 31
0.0
  0
LINE
  5
28D
100
AcDbEntity
  8
0
  6
CONTINUOUS
 62
               7
100
AcDbLine
 10
52.5
 20
19.399948120117188
 30
0.0
 11
25.5
 21
19.399948120117188
 31
0.0
  0
LINE
  5
28E
100
AcDbEntity
  8
0
  6
CONTINUOUS
 62
               7
100
AcDbLine
 10
53.5
 20
14.249954223632813
 30
0.0
 11
53.5
 21
15.89996337890625
 31
0.0
  0
LINE
  5
28F
100
AcDbEntity
  8
0
  6
CONTINUOUS
 62
               7
100
AcDbLine
 10
53.5
 20
14.249954223632813
 30
0.0
 11
52.5
 21
14.249954223632813
 31
0.0
  0
LINE
  5
290
100
AcDbEntity
  8
0
  6
CONTINUOUS
 62
               7
100
AcDbLine
 10
53.5
 20
18.149948120117188
 30
0.0
 11
52.5
 21
18.149948120117188
 31
0.0
  0
LINE
  5
291
100
AcDbEntity
  8
0
  6
CONTINUOUS
 62
               7
100
AcDbLine
 10
52.900009155273438
 20
15.89996337890625
 30
0.0
 11
52.900009155273438
 21
16.499954223632812
 31
0.0
  0
LINE
  5
292
100
AcDbEntity
  8
0
  6
CONTINUOUS
 62
               7
100
AcDbLine
 10
53.5
 20
15.899948120117187
 30
0.0
 11
52.900009155273438
 21
15.899948120117187
 31
0.0
  0
LINE
  5
293
100
AcDbEntity
  8
0
  6
CONTINUOUS
 62
               7
100
AcDbLine
 10
53.5
 20
16.499954223632812
 30
0.0
 11
52.900009155273438
 21
16.499954223632812
 31
0.0
  0
LINE
  5
294
100
AcDbEntity
  8
0
  6
CONTINUOUS
 62
               7
100
AcDbLine
 10
53.5
 20
16.499954223632812
 30
0.0
 11
53.5
 21
18.14996337890625
 31
0.0
  0
LINE
  5
295
100
AcDbEntity
  8
0
  6
CONTINUOUS
 62
               7
100
AcDbLine
 10
52.5
 20
-2.0000457763671875
 30
0.0
 11
25.5
 21
-2.0000457763671875
 31
0.0
  0
LINE
  5
296
100
AcDbEntity
  8
0
  6
CONTINUOUS
 62
               7
100
AcDbLine
 10
52.5
 20
-48.000030517578125
 30
0.0
 11
52.5
 21
19.499954223632812
 31
0.0
  0
LINE
  5
297
100
AcDbEntity
  8
0
  6
CONTINUOUS
 62
               7
100
AcDbLine
 10
55.375747680664063
 20
-2.0000457763671875
 30
0.0
 11
52.500015258789063
 21
-2.0000457763671875
 31
0.0
  0
LINE
  5
298
100
AcDbEntity
  8
0
  6
CONTINUOUS
 62
               7
100
AcDbLine
 10
57.5
 20
-4.124298095703125
 30
0.0
 11
57.5
 21
-45.875762939453125
 31
0.0
  0
LINE
  5
299
100
AcDbEntity
  8
0
  6
CONTINUOUS
 62
               7
100
AcDbLine
 10
57.412130089468064
 20
-3.912179194383782
 30
0.0
 11
55.587867012344304
 21
-2.0879196540557245
 31
0.0
  0
LINE
  5
29A
100
AcDbEntity
  8
0
  6
CONTINUOUS
 62
               7
100
AcDbLine
 10
57.412137239613571
 20
-46.087911558331086
 30
0.0
 11
55.587873854942359
 21
-47.912170791111691
 31
0.0
  0
LINE
  5
29B
100
AcDbEntity
  8
0
  6
CONTINUOUS
 62
               7
100
AcDbLine
 10
55.5
 20
-48.000045776367188
 30
0.0
 11
25.500015258789062
 21
-48.000045776367188
 31
0.0
  0
LINE
  5
29C
100
AcDbEntity
  8
0
  6
CONTINUOUS
 62
               7
100
AcDbLine
 10
55.0
 20
-57.000045776367188
 30
0.0
 11
26.000015258789063
 21
-57.000045776367188
 31
0.0
  0
LINE
  5
29D
100
AcDbEntity
  8
0
  6
CONTINUOUS
 62
               7
100
AcDbLine
 10
25.500015258789062
 20
-56.500030517578125
 30
0.0
 11
25.500015258789062
 21
19.499954223632812
 31
0.0
  0
LINE
  5
29E
100
AcDbEntity
  8
0
  6
CONTINUOUS
 62
               7
100
AcDbLine
 10
55.5
 20
-56.500030517578125
 30
0.0
 11
55.5
 21
-48.000030517578125
 31
0.0
  0
LINE
  5
29F
100
AcDbEntity
  8
0
  6
CONTINUOUS
 62
               7
100
AcDbLine
 10
52.250015258789062
 20
-55.000030517578125
 30
0.0
 11
52.250015258789062
 21
-54.500030517578125
 31
0.0
  0
LINE
  5
2A0
100
AcDbEntity
  8
0
  6
CONTINUOUS
 62
               7
100
AcDbLine
 10
46.750030517578125
 20
-55.000030517578125
 30
0.0
 11
46.750030517578125
 21
-54.500030517578125
 31
0.0
  0
LINE
  5
2A1
100
AcDbEntity
  8
0
  6
CONTINUOUS
 62
               7
100
AcDbLine
 10
50.750015258789063
 20
-56.500045776367188
 30
0.0
 11
48.250015258789063
 21
-56.500045776367188
 31
0.0
  0
LINE
  5
2A2
100
AcDbEntity
  8
0
  6
CONTINUOUS
 62
               7
100
AcDbLine
 10
57.5
 20
-9.200042724609375
 30
0.0
 11
55.5
 21
-9.200042724609375
 31
0.0
  0
LINE
  5
2A3
100
AcDbEntity
  8
0
  6
CONTINUOUS
 62
               7
100
AcDbLine
 10
57.5
 20
-44.200042724609375
 30
0.0
 11
52.5
 21
-44.200042724609375
 31
0.0
  0
LINE
  5
2A4
100
AcDbEntity
  8
0
  6
CONTINUOUS
 62
               7
100
AcDbLine
 10
57.5
 20
-38.800048828125
 30
0.0
 11
52.5
 21
-38.800048828125
 31
0.0
  0
LINE
  5
2A5
100
AcDbEntity
  8
0
  6
CONTINUOUS
 62
               7
100
AcDbLine
 10
53.300003051757812
 20
-43.750045776367188
 30
0.0
 11
53.100006103515625
 21
-43.750045776367188
 31
0.0
  0
LINE
  5
2A6
100
AcDbEntity
  8
0
  6
CONTINUOUS
 62
               7
100
AcDbLine
 10
53.300003051757812
 20
-39.250045776367188
 30
0.0
 11
53.100006103515625
 21
-39.250045776367188
 31
0.0
  0
LINE
  5
2A7
100
AcDbEntity
  8
0
  6
CONTINUOUS
 62
               7
100
AcDbLine
 10
54.800003051757813
 20
-40.750045776367188
 30
0.0
 11
54.800003051757813
 21
-42.250045776367188
 31
0.0
  0
LINE
  5
2A8
100
AcDbEntity
  8
0
  6
CONTINUOUS
 62
               7
100
AcDbLine
 10
55.699996948242188
 20
-4.25006103515625
 30
0.0
 11
55.5
 21
-4.25006103515625
 31
0.0
  0
LINE
  5
2A9
100
AcDbEntity
  8
0
  6
CONTINUOUS
 62
               7
100
AcDbLine
 10
57.199996948242188
 20
-5.75006103515625
 30
0.0
 11
57.199996948242188
 21
-7.25006103515625
 31
0.0
  0
LINE
  5
2AA
100
AcDbEntity
  8
0
  6
CONTINUOUS
 62
               7
100
AcDbLine
 10
55.699996948242188
 20
-8.7500457763671875
 30
0.0
 11
55.5
 21
-8.7500457763671875
 31
0.0
  0
LINE
  5
2AB
100
AcDbEntity
  8
0
  6
CONTINUOUS
 62
               7
100
AcDbLine
 10
25.0
 20
-56.000030517578125
 30
0.0
 11
25.0
 21
5.999969482421875
 31
0.0
  0
LINE
  5
2AC
100
AcDbEntity
  8
0
  6
CONTINUOUS
 62
               7
100
AcDbLine
 10
25.0
 20
-56.000030517578125
 30
0.0
 11
0.0
 21
-56.000030517578125
 31
0.0
  0
LINE
  5
2AD
100
AcDbEntity
  8
0
  6
CONTINUOUS
 62
               7
100
AcDbLine
 10
25.0
 20
5.9999542236328125
 30
0.0
 11
0.0
 21
5.9999542236328125
 31
0.0
  0
LINE
  5
2AE
100
AcDbEntity
  8
0
  6
CONTINUOUS
 62
               7
100
AcDbLine
 10
0.0
 20
-56.000030517578125
 30
0.0
 11
0.0
 21
5.999969482421875
 31
0.0
  0
LINE
  5
2AF
100
AcDbEntity
  8
0
  6
CENTER
 62
               2
100
AcDbLine
 10
22.863998413085938
 20
-17.500041961669922
 30
0.0
 11
11.136001586914063
 21
-17.500041961669922
 31
0.0
  0
LINE
  5
2B0
100
AcDbEntity
  8
0
  6
CENTER
 62
               2
100
AcDbLine
 10
14.924514770507813
 20
-32.500041961669922
 30
0.0
 11
3.1970367431640625
 21
-32.500041961669922
 31
0.0
  0
LINE
  5
2B1
100
AcDbEntity
  8
0
  6
CENTER
 62
               2
100
AcDbLine
 10
9.0
 20
-38.313796997070313
 30
0.0
 11
9.0
 21
-26.586563110351563
 31
0.0
  0
LINE
  5
2B2
100
AcDbEntity
  8
0
  6
CENTER
 62
               2
100
AcDbLine
 10
17.0
 20
-23.364032745361328
 30
0.0
 11
17.0
 21
-11.636032104492188
 31
0.0
  0
LINE
  5
2B3
100
AcDbEntity
  8
0
  6
CONTINUOUS
 62
               7
100
AcDbLine
 10
52.5
 20
6.4999542236328125
 30
0.0
 11
25.5
 21
6.4999542236328125
 31
0.0
  0
LINE
  5
2B4
100
AcDbEntity
  8
0
  6
CONTINUOUS
 62
               7
100
AcDbLine
 10
46.300018310546875
 20
-56.700042724609375
 30
0.0
 11
46.300018310546875
 21
-54.800048828125
 31
0.0
  0
LINE
  5
2B5
100
AcDbEntity
  8
0
  6
CONTINUOUS
 62
               7
100
AcDbLine
 10
52.70001220703125
 20
-56.700042724609375
 30
0.0
 11
52.70001220703125
 21
-54.800048828125
 31
0.0
  0
LINE
  5
2B6
100
AcDbEntity
  8
0
  6
CONTINUOUS
 62
               7
100
AcDbLine
 10
52.400009155273438
 20
-54.500045776367188
 30
0.0
 11
46.600021362304688
 21
-54.500045776367188
 31
0.0
  0
LINE
  5
2B7
100
AcDbEntity
  8
0
  6
CONTINUOUS
 62
               7
100
AcDbLine
 10
55.5
 20
-9.200042724609375
 30
0.0
 11
55.5
 21
-2.00006103515625
 31
0.0
  0
LINE
  5
2B8
100
AcDbEntity
  8
0
  6
CONTINUOUS
 62
               7
100
AcDbLine
 10
26.5
 20
9.99993896484375
 30
0.0
 11
25.5
 21
9.99993896484375
 31
0.0
  0
LINE
  5
2B9
100
AcDbEntity
  8
0
  6
CONTINUOUS
 62
               7
100
AcDbLine
 10
26.5
 20
8.4999542236328125
 30
0.0
 11
26.5
 21
9.99993896484375
 31
0.0
  0
LINE
  5
2BA
100
AcDbEntity
  8
0
  6
CONTINUOUS
 62
               7
100
AcDbLine
 10
48.20001220703125
 20
9.99993896484375
 30
0.0
 11
29.0
 21
9.99993896484375
 31
0.0
  0
LINE
  5
2BB
100
AcDbEntity
  8
0
  6
CONTINUOUS
 62
               7
100
AcDbLine
 10
29.0
 20
8.4999542236328125
 30
0.0
 11
29.0
 21
9.99993896484375
 31
0.0
  0
LINE
  5
2BC
100
AcDbEntity
  8
0
  6
CONTINUOUS
 62
               7
100
AcDbLine
 10
48.20001220703125
 20
8.4999542236328125
 30
0.0
 11
48.20001220703125
 21
9.99993896484375
 31
0.0
  0
LINE
  5
2BD
100
AcDbEntity
  8
0
  6
CONTINUOUS
 62
               7
100
AcDbLine
 10
51.20001220703125
 20
8.4999542236328125
 30
0.0
 11
51.20001220703125
 21
9.99993896484375
 31
0.0
  0
LINE
  5
2BE
100
AcDbEntity
  8
0
  6
CONTINUOUS
 62
               7
100
AcDbLine
 10
52.5
 20
9.99993896484375
 30
0.0
 11
51.20001220703125
 21
9.99993896484375
 31
0.0
  0
ARC
  5
2BF
100
AcDbEntity
  8
0
  6
CONTINUOUS
 62
               7
100
AcDbCircle
 10
57.199996948242188
 20
-45.875762939453125
 30
0.0
 40
0.300000011920929
100
AcDbArc
 50
315.00000899304399
 51
359.99997267924249
  0
ARC
  5
2C0
100
AcDbEntity
  8
0
  6
CONTINUOUS
 62
               7
100
AcDbCircle
 10
55.375747680664063
 20
-47.700027465820312
 30
0.0
 40
0.300000011920929
100
AcDbArc
 50
269.99996334457541
 51
314.99995435153068
  0
ARC
  5
2C1
100
AcDbEntity
  8
0
  6
CONTINUOUS
 62
               7
100
AcDbCircle
 10
57.20001220703125
 20
-4.124298095703125
 30
0.0
 40
0.300000011920929
100
AcDbArc
 50
359.99997267924249
 51
44.999936365441869
  0
ARC
  5
2C2
100
AcDbEntity
  8
0
  6
CONTINUOUS
 62
               7
100
AcDbCircle
 10
55.375747680664063
 20
-2.3000335693359375
 30
0.0
 40
0.300000011920929
100
AcDbArc
 50
44.999936365441869
 51
89.999927372397096
  0
ARC
  5
2C3
100
AcDbEntity
  8
0
  6
CONTINUOUS
 62
               7
100
AcDbCircle
 10
55.0
 20
-56.500030517578125
 30
0.0
 40
0.5
100
AcDbArc
 50
270.00001798608872
 51
359.99995901886416
  0
ARC
  5
2C4
100
AcDbEntity
  8
0
  6
CONTINUOUS
 62
               7
100
AcDbCircle
 10
26.000015258789063
 20
-56.500030517578125
 30
0.0
 40
0.5
100
AcDbArc
 50
179.99996402782091
 51
269.99994604173139
  0
ARC
  5
2C5
100
AcDbEntity
  8
0
  6
CONTINUOUS
 62
               7
100
AcDbCircle
 10
50.750015258789063
 20
-55.000030517578125
 30
0.0
 40
1.5
100
AcDbArc
 50
270.00001798608872
 51
359.99995901886416
  0
ARC
  5
2C6
100
AcDbEntity
  8
0
  6
CONTINUOUS
 62
               7
100
AcDbCircle
 10
48.250015258789063
 20
-55.000030517578125
 30
0.0
 40
1.5
100
AcDbArc
 50
179.99990938630756
 51
269.99994604173139
  0
ARC
  5
2C7
100
AcDbEntity
  8
0
  6
CONTINUOUS
 62
               7
100
AcDbCircle
 10
53.300003051757812
 20
-42.250045776367188
 30
0.0
 40
1.5
100
AcDbArc
 50
270.00007262760209
 51
0.0000409811350201
  0
ARC
  5
2C8
100
AcDbEntity
  8
0
  6
CONTINUOUS
 62
               7
100
AcDbCircle
 10
53.300003051757812
 20
-40.750045776367188
 30
0.0
 40
1.5
100
AcDbArc
 50
0.0000409811350201
 51
89.999982013910454
  0
ARC
  5
2C9
100
AcDbEntity
  8
0
  6
CONTINUOUS
 62
               7
100
AcDbCircle
 10
55.699996948242188
 20
-5.75006103515625
 30
0.0
 40
1.5
100
AcDbArc
 50
0.0000409811350201
 51
89.999982013910454
  0
ARC
  5
2CA
100
AcDbEntity
  8
0
  6
CONTINUOUS
 62
               7
100
AcDbCircle
 10
55.699996948242188
 20
-7.25006103515625
 30
0.0
 40
1.5
100
AcDbArc
 50
270.00007262760209
 51
0.0000409811350201
  0
CIRCLE
  5
2CB
100
AcDbEntity
  8
0
  6
CONTINUOUS
 62
               2
100
AcDbCircle
 10
9.0607757568359375
 20
-32.450183868408203
 30
0.0
 40
4.8639993667602539
  0
CIRCLE
  5
2CC
100
AcDbEntity
  8
0
  6
CONTINUOUS
 62
               2
100
AcDbCircle
 10
17.0
 20
-17.500034332275391
 30
0.0
 40
4.8639993667602539
  0
CIRCLE
  5
2CD
100
AcDbEntity
  8
0
  6
CONTINUOUS
 62
               7
100
AcDbCircle
 10
9.0607757568359375
 20
-32.450183868408203
 30
0.0
 40
4.2829999923706055
  0
CIRCLE
  5
2CE
100
AcDbEntity
  8
0
  6
CONTINUOUS
 62
               7
100
AcDbCircle
 10
17.0
 20
-17.500034332275391
 30
0.0
 40
4.2829999923706055
  0
ARC
  5
2CF
100
AcDbEntity
  8
0
  6
CONTINUOUS
 62
               7
100
AcDbCircle
 10
28.5
 20
9.4999542236328125
 30
0.0
 40
2.4999990463256836
100
AcDbArc
 50
203.5781768361424
 51
336.42181132471086
  0
ARC
  5
2D0
100
AcDbEntity
  8
0
  6
CONTINUOUS
 62
               7
100
AcDbCircle
 10
53.000015258789063
 20
-56.700042724609375
 30
0.0
 40
0.300000011920929
100
AcDbArc
 50
179.99998133066492
 51
270.00001798608872
  0
ARC
  5
2D1
100
AcDbEntity
  8
0
  6
CONTINUOUS
 62
               7
100
AcDbCircle
 10
46.000015258789063
 20
-56.700042724609375
 30
0.0
 40
0.300000011920929
100
AcDbArc
 50
270.00001798608872
 51
0.0
  0
ARC
  5
2D2
100
AcDbEntity
  8
0
  6
CONTINUOUS
 62
               7
100
AcDbCircle
 10
46.600021362304688
 20
-54.800048828125
 30
0.0
 40
0.300000011920929
100
AcDbArc
 50
89.999982013910454
 51
179.99996402782091
  0
ARC
  5
2D3
100
AcDbEntity
  8
0
  6
CONTINUOUS
 62
               7
100
AcDbCircle
 10
52.400009155273438
 20
-54.800048828125
 30
0.0
 40
0.300000011920929
100
AcDbArc
 50
0.0
 51
89.999982013910454
  0
LINE
  5
2D4
100
AcDbEntity
  8
0
  6
CONTINUOUS
 62
               7
100
AcDbLine
 10
52.5
 20
8.4999542236328125
 30
0.0
 11
25.5
 21
8.4999542236328125
 31
0.0
  0
LINE
  5
2D5
100
AcDbEntity
  8
0
  6
CONTINUOUS
 62
               7
100
AcDbLine
 10
53.100006103515625
 20
-39.000045776367188
 30
0.0
 11
53.100006103515625
 21
-44.000045776367188
 31
0.0
  0
LINE
  5
2D6
100
AcDbEntity
  8
0
  6
CONTINUOUS
 62
               7
100
AcDbLine
 10
52.5
 20
-39.000045776367188
 30
0.0
 11
53.100006103515625
 21
-39.000045776367188
 31
0.0
  0
LINE
  5
2D7
100
AcDbEntity
  8
0
  6
CONTINUOUS
 62
               7
100
AcDbLine
 10
52.5
 20
-44.000045776367188
 30
0.0
 11
53.100006103515625
 21
-44.000045776367188
 31
0.0
  0
LINE
  5
2D8
100
AcDbEntity
  8
0
  6
CONTINUOUS
 62
               7
100
AcDbLine
 10
52.499992301405655
 20
-41.0959028581849
 30
0.0
 11
53.09999661587517
 21
-40.749490199493493
 31
0.0
  0
LINE
  5
2D9
100
AcDbEntity
  8
0
  6
CONTINUOUS
 62
               7
100
AcDbLine
 10
52.499995313263753
 20
-42.25060164730462
 30
0.0
 11
53.099999627733268
 21
-41.904188988613214
 31
0.0
  0
LINE
  5
2DA
100
AcDbEntity
  8
0
  6
CONTINUOUS
 62
               4
100
AcDbLine
 10
52.500015258789063
 20
19.499954223632812
 30
0.0
 11
52.500015258789063
 21
43.499954223632812
 31
0.0
  0
LINE
  5
2DB
100
AcDbEntity
  8
0
  6
CONTINUOUS
 62
               4
100
AcDbLine
 10
25.500015258789062
 20
19.499954223632812
 30
0.0
 11
25.500015258789062
 21
43.499954223632812
 31
0.0
  0
LINE
  5
2DC
100
AcDbEntity
  8
0
  6
CONTINUOUS
 62
               4
100
AcDbLine
 10
37.500021371889488
 20
40.499954261971936
 30
0.0
 11
37.500021429398203
 21
22.499954261971936
 31
0.0
  0
LINE
  5
2DD
100
AcDbEntity
  8
0
  6
CONTINUOUS
 62
               4
100
AcDbLine
 10
30.500021371889488
 20
40.499954239607462
 30
0.0
 11
30.500021429398203
 21
22.499954239607462
 31
0.0
  0
LINE
  5
2DE
100
AcDbEntity
  8
0
  6
CONTINUOUS
 62
               4
100
AcDbLine
 10
39.500021371889488
 20
40.499954268361819
 30
0.0
 11
30.500021371889488
 21
40.499954239607462
 31
0.0
  0
LINE
  5
2DF
100
AcDbEntity
  8
0
  6
CONTINUOUS
 62
               4
100
AcDbLine
 10
39.500021429398203
 20
22.499954268361819
 30
0.0
 11
30.500021429398203
 21
22.499954239607462
 31
0.0
  0
LINE
  5
2E0
100
AcDbEntity
  8
0
  6
CONTINUOUS
 62
               4
100
AcDbLine
 10
27.100028991699219
 20
36.499954223632812
 30
0.0
 11
27.100028991699219
 21
43.499954223632812
 31
0.0
  0
LINE
  5
2E1
100
AcDbEntity
  8
0
  6
CONTINUOUS
 62
               4
100
AcDbLine
 10
26.200028991699241
 20
36.499954223632812
 30
0.0
 11
26.200028991699241
 21
43.499954223632812
 31
0.0
  0
LINE
  5
2E2
100
AcDbEntity
  8
0
  6
CONTINUOUS
 62
               4
100
AcDbLine
 10
25.500015258789062
 20
36.499954223632812
 30
0.0
 11
27.100028991699219
 21
36.499954223632812
 31
0.0
  0
LINE
  5
2E3
100
AcDbEntity
  8
0
  6
CONTINUOUS
 62
               4
100
AcDbLine
 10
25.500015258789062
 20
43.499954223632812
 30
0.0
 11
52.500007629394531
 21
43.499954223632812
 31
0.0
  0
LINE
  5
2E4
100
AcDbEntity
  8
0
  6
CONTINUOUS
 62
               4
100
AcDbLine
 10
27.650003051757835
 20
63.499954223632812
 30
0.0
 11
36.650003051757835
 21
63.499954223632812
 31
0.0
  0
LINE
  5
2E5
100
AcDbEntity
  8
0
  6
CONTINUOUS
 62
               4
100
AcDbLine
 10
28.000015258789063
 20
56.999954223632813
 30
0.0
 11
36.650018310546898
 21
56.999954223632813
 31
0.0
  0
LINE
  5
2E6
100
AcDbEntity
  8
0
  6
CONTINUOUS
 62
               4
100
AcDbLine
 10
37.22736511230471
 20
63.499954223632812
 30
0.0
 11
38.650010681152366
 21
63.499954223632812
 31
0.0
  0
LINE
  5
2E7
100
AcDbEntity
  8
0
  6
CONTINUOUS
 62
               4
100
AcDbLine
 10
36.600015258789085
 20
54.4984130859375
 30
0.0
 11
36.650018310546898
 21
54.4984130859375
 31
0.0
  0
LINE
  5
2E8
100
AcDbEntity
  8
0
  6
CONTINUOUS
 62
               4
100
AcDbLine
 10
36.650018310546898
 20
52.9984130859375
 30
0.0
 11
37.650010681152366
 21
52.9984130859375
 31
0.0
  0
LINE
  5
2E9
100
AcDbEntity
  8
0
  6
CONTINUOUS
 62
               4
100
AcDbLine
 10
36.650018310546898
 20
54.4984130859375
 30
0.0
 11
36.650018310546898
 21
56.999954223632813
 31
0.0
  0
LINE
  5
2EA
100
AcDbEntity
  8
0
  6
CONTINUOUS
 62
               4
100
AcDbLine
 10
38.150010681152366
 20
61.999954223632813
 30
0.0
 11
38.650010681152366
 21
61.999954223632813
 31
0.0
  0
LINE
  5
2EB
100
AcDbEntity
  8
0
  6
CONTINUOUS
 62
               4
100
AcDbLine
 10
36.650015468196784
 20
52.998428375502954
 30
0.0
 11
36.599994914890544
 21
53.048448928809194
 31
0.0
  0
LINE
  5
2EC
100
AcDbEntity
  8
0
  6
CONTINUOUS
 62
               4
100
AcDbLine
 10
28.150018310546898
 20
56.999954223632813
 30
0.0
 11
28.150018310546898
 21
62.499954223632813
 31
0.0
  0
LINE
  5
2ED
100
AcDbEntity
  8
0
  6
CONTINUOUS
 62
               4
100
AcDbLine
 10
27.650018310546898
 20
62.499954223632813
 30
0.0
 11
27.650018310546898
 21
63.499954223632812
 31
0.0
  0
LINE
  5
2EE
100
AcDbEntity
  8
0
  6
CONTINUOUS
 62
               4
100
AcDbLine
 10
27.650003051757835
 20
62.499954223632813
 30
0.0
 11
28.150003051757835
 21
62.499954223632813
 31
0.0
  0
LINE
  5
2EF
100
AcDbEntity
  8
0
  6
CONTINUOUS
 62
               4
100
AcDbLine
 10
38.150018310546898
 20
56.556106567382813
 30
0.0
 11
38.150018310546898
 21
61.999954223632813
 31
0.0
  0
LINE
  5
2F0
100
AcDbEntity
  8
0
  6
CONTINUOUS
 62
               4
100
AcDbLine
 10
37.650016561025609
 20
52.998404965392183
 30
0.0
 11
38.1500156699027
 21
56.556093049081028
 31
0.0
  0
LINE
  5
2F1
100
AcDbEntity
  8
0
  6
CONTINUOUS
 62
               4
100
AcDbLine
 10
36.650018310546898
 20
56.999954223632813
 30
0.0
 11
36.650018310546898
 21
63.499954223632812
 31
0.0
  0
LINE
  5
2F2
100
AcDbEntity
  8
0
  6
CONTINUOUS
 62
               4
100
AcDbLine
 10
36.650059770393113
 20
62.499913166534498
 30
0.0
 11
37.227411586157018
 21
63.499921871489278
 31
0.0
  0
LINE
  5
2F3
100
AcDbEntity
  8
0
  6
CONTINUOUS
 62
               4
100
AcDbLine
 10
38.650018310546898
 20
61.999954223632813
 30
0.0
 11
38.650018310546898
 21
63.499954223632812
 31
0.0
  0
LINE
  5
2F4
100
AcDbEntity
  8
0
  6
CONTINUOUS
 62
               4
100
AcDbLine
 10
33.500024414062523
 20
76.499954223632812
 30
0.0
 11
32.70002136230471
 21
76.499954223632812
 31
0.0
  0
LINE
  5
2F5
100
AcDbEntity
  8
0
  6
CONTINUOUS
 62
               4
100
AcDbLine
 10
32.70002136230471
 20
71.499954223632812
 30
0.0
 11
32.70002136230471
 21
76.499954223632812
 31
0.0
  0
LINE
  5
2F6
100
AcDbEntity
  8
0
  6
CONTINUOUS
 62
               4
100
AcDbLine
 10
33.500024414062523
 20
71.499954223632812
 30
0.0
 11
33.500024414062523
 21
76.499954223632812
 31
0.0
  0
LINE
  5
2F7
100
AcDbEntity
  8
0
  6
CONTINUOUS
 62
               4
100
AcDbLine
 10
33.815026855468773
 20
63.499954223632812
 30
0.0
 11
33.815026855468773
 21
68.098358154296875
 31
0.0
  0
LINE
  5
2F8
100
AcDbEntity
  8
0
  6
CONTINUOUS
 62
               4
100
AcDbLine
 10
32.38501892089846
 20
63.499954223632812
 30
0.0
 11
32.38501892089846
 21
67.272750854492188
 31
0.0
  0
LINE
  5
2F9
100
AcDbEntity
  8
0
  6
CONTINUOUS
 62
               4
100
AcDbLine
 10
33.815026855468773
 20
71.499954223632812
 30
0.0
 11
32.38501892089846
 21
71.499954223632812
 31
0.0
  0
LINE
  5
2FA
100
AcDbEntity
  8
0
  6
CONTINUOUS
 62
               4
100
AcDbLine
 10
32.38501892089846
 20
68.427444458007813
 30
0.0
 11
32.38501892089846
 21
71.499954223632812
 31
0.0
  0
LINE
  5
2FB
100
AcDbEntity
  8
0
  6
CONTINUOUS
 62
               4
100
AcDbLine
 10
33.815026855468773
 20
69.253067016601562
 30
0.0
 11
33.815026855468773
 21
71.499954223632812
 31
0.0
  0
LINE
  5
2FC
100
AcDbEntity
  8
0
  6
CONTINUOUS
 62
               4
100
AcDbLine
 10
31.315026855468773
 20
67.8096923828125
 30
0.0
 11
31.315026855468773
 21
71.499954223632812
 31
0.0
  0
LINE
  5
2FD
100
AcDbEntity
  8
0
  6
CONTINUOUS
 62
               4
100
AcDbLine
 10
29.88501892089846
 20
66.98406982421875
 30
0.0
 11
29.88501892089846
 21
71.499954223632812
 31
0.0
  0
LINE
  5
2FE
100
AcDbEntity
  8
0
  6
CONTINUOUS
 62
               4
100
AcDbLine
 10
29.88501892089846
 20
71.499954223632812
 30
0.0
 11
31.315026855468773
 21
71.499954223632812
 31
0.0
  0
LINE
  5
2FF
100
AcDbEntity
  8
0
  6
CONTINUOUS
 62
               4
100
AcDbLine
 10
31.000024414062523
 20
71.499954223632812
 30
0.0
 11
31.000024414062523
 21
76.499954223632812
 31
0.0
  0
LINE
  5
300
100
AcDbEntity
  8
0
  6
CONTINUOUS
 62
               4
100
AcDbLine
 10
30.20002136230471
 20
71.499954223632812
 30
0.0
 11
30.20002136230471
 21
76.49993896484375
 31
0.0
  0
LINE
  5
301
100
AcDbEntity
  8
0
  6
CONTINUOUS
 62
               4
100
AcDbLine
 10
30.20002136230471
 20
76.499954223632812
 30
0.0
 11
31.000024414062523
 21
76.499954223632812
 31
0.0
  0
LINE
  5
302
100
AcDbEntity
  8
0
  6
CONTINUOUS
 62
               4
100
AcDbLine
 10
31.315026855468773
 20
63.499954223632812
 30
0.0
 11
31.315026855468773
 21
66.654983520507812
 31
0.0
  0
LINE
  5
303
100
AcDbEntity
  8
0
  6
CONTINUOUS
 62
               4
100
AcDbLine
 10
29.88501892089846
 20
63.499954223632812
 30
0.0
 11
29.88501892089846
 21
65.829376220703125
 31
0.0
  0
LINE
  5
304
100
AcDbEntity
  8
0
  6
CONTINUOUS
 62
             200
100
AcDbLine
 10
35.315034150261113
 20
70.119060033567621
 30
0.0
 11
28.385005058697629
 21
66.118011469786325
 31
0.0
  0
LINE
  5
305
100
AcDbEntity
  8
0
  6
CONTINUOUS
 62
             200
100
AcDbLine
 10
35.3150096018868
 20
68.96441903871164
 30
0.0
 11
28.384999448367694
 21
64.963367134196233
 31
0.0
  0
ARC
  5
306
100
AcDbEntity
  8
0
  6
CONTINUOUS
 62
               4
100
AcDbCircle
 10
26.000015258789063
 20
51.999954223632812
 30
0.0
 40
0.5
100
AcDbArc
 50
89.999999999999815
 51
179.99999999999963
  0
LINE
  5
307
100
AcDbEntity
  8
0
  6
CONTINUOUS
 62
               4
100
AcDbLine
 10
28.000015258789063
 20
52.499954223632813
 30
0.0
 11
26.000015258789063
 21
52.499954223632813
 31
0.0
  0
LINE
  5
308
100
AcDbEntity
  8
0
  6
CONTINUOUS
 62
               4
100
AcDbLine
 10
28.000015258789063
 20
56.999954223632813
 30
0.0
 11
28.000015258789063
 21
52.499954223632813
 31
0.0
  0
LINE
  5
309
100
AcDbEntity
  8
0
  6
CONTINUOUS
 62
               4
100
AcDbLine
 10
36.600015258789085
 20
56.999954223632813
 30
0.0
 11
36.600015258789085
 21
52.499954223632813
 31
0.0
  0
LINE
  5
30A
100
AcDbEntity
  8
0
  6
CONTINUOUS
 62
               4
100
AcDbLine
 10
47.600015258789085
 20
44.94995422363283
 30
0.0
 11
45.500015258789063
 21
44.94995422363283
 31
0.0
  0
LINE
  5
30B
100
AcDbEntity
  8
0
  6
CONTINUOUS
 62
               4
100
AcDbLine
 10
32.600015258789085
 20
44.94995422363283
 30
0.0
 11
30.500015258789063
 21
44.94995422363283
 31
0.0
  0
LINE
  5
30C
100
AcDbEntity
  8
0
  6
CONTINUOUS
 62
               4
100
AcDbLine
 10
30.500015258789063
 20
45.899954223632818
 30
0.0
 11
30.500015258789063
 21
44.94995422363283
 31
0.0
  0
LINE
  5
30D
100
AcDbEntity
  8
0
  6
CONTINUOUS
 62
               4
100
AcDbLine
 10
47.600015258789085
 20
45.899954223632818
 30
0.0
 11
47.600015258789085
 21
44.94995422363283
 31
0.0
  0
ARC
  5
30E
100
AcDbEntity
  8
0
  6
CONTINUOUS
 62
               4
100
AcDbCircle
 10
51.002035654149608
 20
47.679565127562114
 30
0.0
 40
1.4979796551727449
100
AcDbArc
 50
0.0148824203654679
 51
24.046309772710686
  0
ARC
  5
30F
100
AcDbEntity
  8
0
  6
CONTINUOUS
 62
               4
100
AcDbCircle
 10
50.17403609735311
 20
52.000054161079078
 30
0.0
 40
0.4999010215015999
100
AcDbArc
 50
24.197376208904771
 51
89.887774076864815
  0
LINE
  5
310
100
AcDbEntity
  8
0
  6
CONTINUOUS
 62
               4
100
AcDbLine
 10
50.630015258789058
 20
52.204954223632825
 30
0.0
 11
52.370015258789067
 21
48.289954223632805
 31
0.0
  0
LINE
  5
311
100
AcDbEntity
  8
0
  6
CONTINUOUS
 62
               4
100
AcDbLine
 10
52.500015258789063
 20
47.679954223632819
 30
0.0
 11
52.500015258789063
 21
43.499954223632812
 31
0.0
  0
LINE
  5
312
100
AcDbEntity
  8
0
  6
CONTINUOUS
 62
               4
100
AcDbLine
 10
32.600015258789085
 20
45.899954223632818
 30
0.0
 11
30.500015258789063
 21
45.899954223632818
 31
0.0
  0
LINE
  5
313
100
AcDbEntity
  8
0
  6
CONTINUOUS
 62
               4
100
AcDbLine
 10
47.600015258789085
 20
45.899954223632818
 30
0.0
 11
45.500015258789063
 21
45.899954223632818
 31
0.0
  0
LINE
  5
314
100
AcDbEntity
  8
0
  6
CONTINUOUS
 62
               4
100
AcDbLine
 10
40.250015258789063
 20
43.999954223632813
 30
0.0
 11
37.750015258789063
 21
43.999954223632813
 31
0.0
  0
LINE
  5
315
100
AcDbEntity
  8
0
  6
CONTINUOUS
 62
               4
100
AcDbLine
 10
32.600015258789085
 20
45.899954223632818
 30
0.0
 11
32.600015258789085
 21
44.94995422363283
 31
0.0
  0
LINE
  5
316
100
AcDbEntity
  8
0
  6
CONTINUOUS
 62
               4
100
AcDbLine
 10
45.500015258789063
 20
45.899954223632818
 30
0.0
 11
45.500015258789063
 21
44.94995422363283
 31
0.0
  0
LINE
  5
317
100
AcDbEntity
  8
0
  6
CONTINUOUS
 62
               4
100
AcDbLine
 10
40.250015258789063
 20
43.999954223632813
 30
0.0
 11
40.250015258789063
 21
43.499954223632812
 31
0.0
  0
LINE
  5
318
100
AcDbEntity
  8
0
  6
CONTINUOUS
 62
               4
100
AcDbLine
 10
37.750015258789063
 20
43.999954223632813
 30
0.0
 11
37.750015258789063
 21
43.499954223632812
 31
0.0
  0
LINE
  5
319
100
AcDbEntity
  8
0
  6
CONTINUOUS
 62
               4
100
AcDbLine
 10
25.500015258789062
 20
51.999954223632812
 30
0.0
 11
25.500015258789062
 21
43.499954223632812
 31
0.0
  0
LINE
  5
31A
100
AcDbEntity
  8
0
  6
CONTINUOUS
 62
               4
100
AcDbLine
 10
36.600015258789085
 20
52.499954223632813
 30
0.0
 11
50.175015258789017
 21
52.499954223632813
 31
0.0
  0
LINE
  5
31B
100
AcDbEntity
  8
0
  6
CONTINUOUS
 62
               7
100
AcDbLine
 10
25.500015258789062
 20
19.499954223632812
 30
0.0
 11
52.500015258789063
 21
19.499954223632812
 31
0.0
  0
LINE
  5
31C
100
AcDbEntity
  8
0
  6
CONTINUOUS
 62
               7
100
AcDbLine
 10
25.500013522338648
 20
-48.000019073486257
 30
0.0
 11
25.000007800292749
 21
-48.000019035736884
 31
0.0
  0
LINE
  5
31D
100
AcDbEntity
  8
0
  6
CONTINUOUS
 62
               7
100
AcDbLine
 10
25.500017523725891
 20
4.9999656677245241
 30
0.0
 11
25.000011801679992
 21
4.9999657054739046
 31
0.0
  0
ENDBLK
  5
31E
100
AcDbEntity
  8
0
100
AcDbBlockEnd
  0
BLOCK
  5
31F
100
AcDbEntity
  8
0
100
AcDbBlockBegin
  2
F15T0-9
 70
               0
 10
0.0
 20
0.0
 30
0.0
  3
F15T0-9
  1

  0
LINE
  5
320
100
AcDbEntity
  8
0
  6
CENTER
 62
               2
100
AcDbLine
 10
2.860137939453125
 20
-50.00006103515625
 30
0.0
 11
-2.5398712158203125
 21
-50.00006103515625
 31
0.0
  0
LINE
  5
321
100
AcDbEntity
  8
0
  6
CENTER
 62
               2
100
AcDbLine
 10
2.860076904296875
 20
0.0
 30
0.0
 11
-2.5399322509765625
 21
0.0
 31
0.0
  0
LINE
  5
322
100
AcDbEntity
  8
0
  6
CENTER
 62
               2
100
AcDbLine
 10
-54.500015258789062
 20
16.199966430664063
 30
0.0
 11
-51.800018310546875
 21
16.199966430664063
 31
0.0
  0
LINE
  5
323
100
AcDbEntity
  8
0
  6
CONTINUOUS
 62
               7
100
AcDbLine
 10
-52.500015258789063
 20
19.39996337890625
 30
0.0
 11
-25.500015258789062
 21
19.39996337890625
 31
0.0
  0
LINE
  5
324
100
AcDbEntity
  8
0
  6
CONTINUOUS
 62
               7
100
AcDbLine
 10
-53.500015258789063
 20
14.249969482421875
 30
0.0
 11
-53.500015258789063
 21
15.89996337890625
 31
0.0
  0
LINE
  5
325
100
AcDbEntity
  8
0
  6
CONTINUOUS
 62
               7
100
AcDbLine
 10
-53.500015258789063
 20
14.249969482421875
 30
0.0
 11
-52.500015258789063
 21
14.249969482421875
 31
0.0
  0
LINE
  5
326
100
AcDbEntity
  8
0
  6
CONTINUOUS
 62
               7
100
AcDbLine
 10
-53.500015258789063
 20
18.14996337890625
 30
0.0
 11
-52.500015258789063
 21
18.14996337890625
 31
0.0
  0
LINE
  5
327
100
AcDbEntity
  8
0
  6
CONTINUOUS
 62
               7
100
AcDbLine
 10
-52.900009155273438
 20
15.89996337890625
 30
0.0
 11
-52.900009155273438
 21
16.499969482421875
 31
0.0
  0
LINE
  5
328
100
AcDbEntity
  8
0
  6
CONTINUOUS
 62
               7
100
AcDbLine
 10
-53.500015258789063
 20
15.89996337890625
 30
0.0
 11
-52.900009155273438
 21
15.89996337890625
 31
0.0
  0
LINE
  5
329
100
AcDbEntity
  8
0
  6
CONTINUOUS
 62
               7
100
AcDbLine
 10
-53.500015258789063
 20
16.499969482421875
 30
0.0
 11
-52.900009155273438
 21
16.499969482421875
 31
0.0
  0
LINE
  5
32A
100
AcDbEntity
  8
0
  6
CONTINUOUS
 62
               7
100
AcDbLine
 10
-53.500015258789063
 20
16.499969482421875
 30
0.0
 11
-53.500015258789063
 21
18.14996337890625
 31
0.0
  0
LINE
  5
32B
100
AcDbEntity
  8
0
  6
CONTINUOUS
 62
               7
100
AcDbLine
 10
-52.500015258789063
 20
-2.000030517578125
 30
0.0
 11
-25.500015258789062
 21
-2.000030517578125
 31
0.0
  0
LINE
  5
32C
100
AcDbEntity
  8
0
  6
CONTINUOUS
 62
               7
100
AcDbLine
 10
-52.500015258789063
 20
-48.000030517578125
 30
0.0
 11
-52.500015258789063
 21
19.499969482421875
 31
0.0
  0
LINE
  5
32D
100
AcDbEntity
  8
0
  6
CENTER
 62
               2
100
AcDbLine
 10
-22.864013671875
 20
-25.000026702880859
 30
0.0
 11
-11.136016845703125
 21
-25.000026702880859
 31
0.0
  0
LINE
  5
32E
100
AcDbEntity
  8
0
  6
CONTINUOUS
 62
               7
100
AcDbLine
 10
-55.375747680664063
 20
-2.000030517578125
 30
0.0
 11
-52.500015258789063
 21
-2.000030517578125
 31
0.0
  0
LINE
  5
32F
100
AcDbEntity
  8
0
  6
CONTINUOUS
 62
               7
100
AcDbLine
 10
-57.500015258789063
 20
-4.124298095703125
 30
0.0
 11
-57.500015258789063
 21
-45.875762939453125
 31
0.0
  0
LINE
  5
330
100
AcDbEntity
  8
0
  6
CONTINUOUS
 62
               7
100
AcDbLine
 10
-57.412146318635678
 20
-3.9121255028030646
 30
0.0
 11
-55.587884164154275
 21
-2.0878651936063761
 31
0.0
  0
LINE
  5
331
100
AcDbEntity
  8
0
  6
CONTINUOUS
 62
               7
100
AcDbLine
 10
-57.412170190897996
 20
-46.087893720620741
 30
0.0
 11
-55.587909266606403
 21
-47.912155413780965
 31
0.0
  0
LINE
  5
332
100
AcDbEntity
  8
0
  6
CONTINUOUS
 62
               7
100
AcDbLine
 10
-55.500015258789063
 20
-48.000030517578125
 30
0.0
 11
-25.500015258789062
 21
-48.000030517578125
 31
0.0
  0
LINE
  5
333
100
AcDbEntity
  8
0
  6
CONTINUOUS
 62
               7
100
AcDbLine
 10
-55.000015258789063
 20
-57.000030517578125
 30
0.0
 11
-26.000015258789063
 21
-57.000030517578125
 31
0.0
  0
LINE
  5
334
100
AcDbEntity
  8
0
  6
CONTINUOUS
 62
               7
100
AcDbLine
 10
-25.500015258789062
 20
-56.500030517578125
 30
0.0
 11
-25.500015258789062
 21
19.499969482421875
 31
0.0
  0
LINE
  5
335
100
AcDbEntity
  8
0
  6
CONTINUOUS
 62
               7
100
AcDbLine
 10
-55.500015258789063
 20
-56.500030517578125
 30
0.0
 11
-55.500015258789063
 21
-48.000030517578125
 31
0.0
  0
LINE
  5
336
100
AcDbEntity
  8
0
  6
CONTINUOUS
 62
               7
100
AcDbLine
 10
-31.4000244140625
 20
-54.500030517578125
 30
0.0
 11
-25.800018310546875
 21
-54.500030517578125
 31
0.0
  0
LINE
  5
337
100
AcDbEntity
  8
0
  6
CONTINUOUS
 62
               7
100
AcDbLine
 10
-31.70001220703125
 20
-56.700027465820313
 30
0.0
 11
-31.70001220703125
 21
-54.800033569335938
 31
0.0
  0
LINE
  5
338
100
AcDbEntity
  8
0
  6
CONTINUOUS
 62
               7
100
AcDbLine
 10
-31.250015258789063
 20
-55.000030517578125
 30
0.0
 11
-31.250015258789063
 21
-54.500030517578125
 31
0.0
  0
LINE
  5
339
100
AcDbEntity
  8
0
  6
CONTINUOUS
 62
               7
100
AcDbLine
 10
-25.750015258789063
 20
-55.000030517578125
 30
0.0
 11
-25.750015258789063
 21
-54.500030517578125
 31
0.0
  0
LINE
  5
33A
100
AcDbEntity
  8
0
  6
CONTINUOUS
 62
               7
100
AcDbLine
 10
-29.750015258789062
 20
-56.500030517578125
 30
0.0
 11
-27.250015258789063
 21
-56.500030517578125
 31
0.0
  0
LINE
  5
33B
100
AcDbEntity
  8
0
  6
CONTINUOUS
 62
               7
100
AcDbLine
 10
-57.500015258789063
 20
-40.800018310546875
 30
0.0
 11
-55.500015258789063
 21
-40.800018310546875
 31
0.0
  0
LINE
  5
33C
100
AcDbEntity
  8
0
  6
CONTINUOUS
 62
               7
100
AcDbLine
 10
-57.500015258789063
 20
-5.8000335693359375
 30
0.0
 11
-52.500015258789063
 21
-5.8000335693359375
 31
0.0
  0
LINE
  5
33D
100
AcDbEntity
  8
0
  6
CONTINUOUS
 62
               7
100
AcDbLine
 10
-57.500015258789063
 20
-11.200027465820313
 30
0.0
 11
-52.500015258789063
 21
-11.200027465820313
 31
0.0
  0
LINE
  5
33E
100
AcDbEntity
  8
0
  6
CONTINUOUS
 62
               7
100
AcDbLine
 10
-53.300018310546875
 20
-6.250030517578125
 30
0.0
 11
-53.100021362304687
 21
-6.250030517578125
 31
0.0
  0
LINE
  5
33F
100
AcDbEntity
  8
0
  6
CONTINUOUS
 62
               7
100
AcDbLine
 10
-53.300018310546875
 20
-10.750030517578125
 30
0.0
 11
-53.100021362304687
 21
-10.750030517578125
 31
0.0
  0
LINE
  5
340
100
AcDbEntity
  8
0
  6
CONTINUOUS
 62
               7
100
AcDbLine
 10
-54.800018310546875
 20
-9.250030517578125
 30
0.0
 11
-54.800018310546875
 21
-7.750030517578125
 31
0.0
  0
LINE
  5
341
100
AcDbEntity
  8
0
  6
CONTINUOUS
 62
               7
100
AcDbLine
 10
-55.70001220703125
 20
-45.750015258789063
 30
0.0
 11
-55.500015258789063
 21
-45.750015258789063
 31
0.0
  0
LINE
  5
342
100
AcDbEntity
  8
0
  6
CONTINUOUS
 62
               7
100
AcDbLine
 10
-57.20001220703125
 20
-44.250015258789063
 30
0.0
 11
-57.20001220703125
 21
-42.750015258789063
 31
0.0
  0
LINE
  5
343
100
AcDbEntity
  8
0
  6
CONTINUOUS
 62
               7
100
AcDbLine
 10
-55.70001220703125
 20
-41.250015258789063
 30
0.0
 11
-55.500015258789063
 21
-41.250015258789063
 31
0.0
  0
LINE
  5
344
100
AcDbEntity
  8
0
  6
CONTINUOUS
 62
               7
100
AcDbLine
 10
-25.000015258789063
 20
-56.000015258789063
 30
0.0
 11
-25.000015258789063
 21
5.999969482421875
 31
0.0
  0
LINE
  5
345
100
AcDbEntity
  8
0
  6
CONTINUOUS
 62
               7
100
AcDbLine
 10
-25.000015258789063
 20
-56.000015258789063
 30
0.0
 11
-0.0000152587890625
 21
-56.000015258789063
 31
0.0
  0
LINE
  5
346
100
AcDbEntity
  8
0
  6
CONTINUOUS
 62
               7
100
AcDbLine
 10
-25.000015258789063
 20
5.999969482421875
 30
0.0
 11
0.0
 21
5.999969482421875
 31
0.0
  0
LINE
  5
347
100
AcDbEntity
  8
0
  6
CONTINUOUS
 62
               7
100
AcDbLine
 10
0.0
 20
-56.000030517578125
 30
0.0
 11
0.0
 21
5.999969482421875
 31
0.0
  0
LINE
  5
348
100
AcDbEntity
  8
0
  6
CENTER
 62
               2
100
AcDbLine
 10
-14.864013671875
 20
-10.000030517578125
 30
0.0
 11
-3.136016845703125
 21
-10.000030517578125
 31
0.0
  0
LINE
  5
349
100
AcDbEntity
  8
0
  6
CENTER
 62
               2
100
AcDbLine
 10
-14.924530029296875
 20
-40.000015258789063
 30
0.0
 11
-3.1970367431640625
 21
-40.000015258789063
 31
0.0
  0
LINE
  5
34A
100
AcDbEntity
  8
0
  6
CENTER
 62
               2
100
AcDbLine
 10
-23.500015258789063
 20
0.999969482421875
 30
0.0
 11
-16.5
 21
0.999969482421875
 31
0.0
  0
LINE
  5
34B
100
AcDbEntity
  8
0
  6
CENTER
 62
               2
100
AcDbLine
 10
-20.0
 20
-2.500030517578125
 30
0.0
 11
-20.0
 21
4.499969482421875
 31
0.0
  0
LINE
  5
34C
100
AcDbEntity
  8
0
  6
CENTER
 62
               2
100
AcDbLine
 10
-17.0
 20
-30.864028930664063
 30
0.0
 11
-17.0
 21
-19.136032104492188
 31
0.0
  0
LINE
  5
34D
100
AcDbEntity
  8
0
  6
CENTER
 62
               2
100
AcDbLine
 10
-9.0
 20
-45.813796997070313
 30
0.0
 11
-9.0
 21
-4.1360321044921875
 31
0.0
  0
LINE
  5
34E
100
AcDbEntity
  8
0
  6
CONTINUOUS
 62
               7
100
AcDbLine
 10
-52.500015258789063
 20
6.499969482421875
 30
0.0
 11
-25.500015258789062
 21
6.499969482421875
 31
0.0
  0
LINE
  5
34F
100
AcDbEntity
  8
0
  6
CONTINUOUS
 62
               7
100
AcDbLine
 10
-55.500015258789063
 20
-47.97308349609375
 30
0.0
 11
-55.500015258789063
 21
-40.800018310546875
 31
0.0
  0
LINE
  5
350
100
AcDbEntity
  8
0
  6
CONTINUOUS
 62
               7
100
AcDbLine
 10
-51.500015258789063
 20
8.499969482421875
 30
0.0
 11
-51.500015258789063
 21
9.9999542236328125
 31
0.0
  0
LINE
  5
351
100
AcDbEntity
  8
0
  6
CONTINUOUS
 62
               7
100
AcDbLine
 10
-52.500015258789063
 20
9.9999542236328125
 30
0.0
 11
-51.500015258789063
 21
9.9999542236328125
 31
0.0
  0
LINE
  5
352
100
AcDbEntity
  8
0
  6
CONTINUOUS
 62
               7
100
AcDbLine
 10
-49.500015258789063
 20
9.9999542236328125
 30
0.0
 11
-29.800018310546875
 21
9.9999542236328125
 31
0.0
  0
LINE
  5
353
100
AcDbEntity
  8
0
  6
CONTINUOUS
 62
               7
100
AcDbLine
 10
-49.500015258789063
 20
8.499969482421875
 30
0.0
 11
-49.500015258789063
 21
9.9999542236328125
 31
0.0
  0
LINE
  5
354
100
AcDbEntity
  8
0
  6
CONTINUOUS
 62
               7
100
AcDbLine
 10
-29.800018310546875
 20
8.499969482421875
 30
0.0
 11
-29.800018310546875
 21
9.9999542236328125
 31
0.0
  0
LINE
  5
355
100
AcDbEntity
  8
0
  6
CONTINUOUS
 62
               7
100
AcDbLine
 10
-26.800018310546875
 20
8.499969482421875
 30
0.0
 11
-26.800018310546875
 21
9.9999542236328125
 31
0.0
  0
LINE
  5
356
100
AcDbEntity
  8
0
  6
CONTINUOUS
 62
               7
100
AcDbLine
 10
-26.800018310546875
 20
9.9999542236328125
 30
0.0
 11
-25.500015258789062
 21
9.9999542236328125
 31
0.0
  0
ARC
  5
357
100
AcDbEntity
  8
0
  6
CONTINUOUS
 62
               7
100
AcDbCircle
 10
-57.20001220703125
 20
-45.875747680664062
 30
0.0
 40
0.300000011920929
100
AcDbArc
 50
179.99996402782091
 51
224.99992771401949
  0
ARC
  5
358
100
AcDbEntity
  8
0
  6
CONTINUOUS
 62
               7
100
AcDbCircle
 10
-55.375762939453125
 20
-47.700027465820312
 30
0.0
 40
0.300000011920929
100
AcDbArc
 50
224.99999965837682
 51
270.00001798608872
  0
ARC
  5
359
100
AcDbEntity
  8
0
  6
CONTINUOUS
 62
               7
100
AcDbCircle
 10
-57.20001220703125
 20
-4.124298095703125
 30
0.0
 40
0.300000011920929
100
AcDbArc
 50
135.00000034162235
 51
179.99996402782091
  0
ARC
  5
35A
100
AcDbEntity
  8
0
  6
CONTINUOUS
 62
               7
100
AcDbCircle
 10
-55.375747680664063
 20
-2.3000335693359375
 30
0.0
 40
0.300000011920929
100
AcDbArc
 50
89.999982013910454
 51
135.00000034162235
  0
ARC
  5
35B
100
AcDbEntity
  8
0
  6
CONTINUOUS
 62
               7
100
AcDbCircle
 10
-55.000015258789063
 20
-56.500030517578125
 30
0.0
 40
0.5
100
AcDbArc
 50
179.99996402782091
 51
269.99994604173139
  0
ARC
  5
35C
100
AcDbEntity
  8
0
  6
CONTINUOUS
 62
               7
100
AcDbCircle
 10
-26.000015258789063
 20
-56.500030517578125
 30
0.0
 40
0.5
100
AcDbArc
 50
269.99996334457541
 51
359.99994535848583
  0
ARC
  5
35D
100
AcDbEntity
  8
0
  6
CONTINUOUS
 62
               7
100
AcDbCircle
 10
-31.4000244140625
 20
-54.800033569335938
 30
0.0
 40
0.300000011920929
100
AcDbArc
 50
89.999982013910454
 51
179.99996402782091
  0
ARC
  5
35E
100
AcDbEntity
  8
0
  6
CONTINUOUS
 62
               7
100
AcDbCircle
 10
-32.000015258789063
 20
-56.700027465820313
 30
0.0
 40
0.300000011920929
100
AcDbArc
 50
270.00001798608872
 51
0.00001366037834
  0
ARC
  5
35F
100
AcDbEntity
  8
0
  6
CONTINUOUS
 62
               7
100
AcDbCircle
 10
-25.800018310546875
 20
-54.200027465820313
 30
0.0
 40
0.300000011920929
100
AcDbArc
 50
270.00001798608872
 51
0.00001366037834
  0
ARC
  5
360
100
AcDbEntity
  8
0
  6
CONTINUOUS
 62
               7
100
AcDbCircle
 10
-29.750015258789062
 20
-55.000030517578125
 30
0.0
 40
1.5
100
AcDbArc
 50
179.99996402782091
 51
269.99994604173139
  0
ARC
  5
361
100
AcDbEntity
  8
0
  6
CONTINUOUS
 62
               7
100
AcDbCircle
 10
-27.250015258789063
 20
-55.000030517578125
 30
0.0
 40
1.5
100
AcDbArc
 50
270.00001798608872
 51
0.00001366037834
  0
ARC
  5
362
100
AcDbEntity
  8
0
  6
CONTINUOUS
 62
               7
100
AcDbCircle
 10
-53.300018310546875
 20
-7.750030517578125
 30
0.0
 40
1.5
100
AcDbArc
 50
89.999982013910454
 51
179.99996402782091
  0
ARC
  5
363
100
AcDbEntity
  8
0
  6
CONTINUOUS
 62
               7
100
AcDbCircle
 10
-53.300018310546875
 20
-9.250030517578125
 30
0.0
 40
1.5
100
AcDbArc
 50
179.99996402782091
 51
269.99994604173139
  0
ARC
  5
364
100
AcDbEntity
  8
0
  6
CONTINUOUS
 62
               7
100
AcDbCircle
 10
-55.70001220703125
 20
-44.250015258789063
 30
0.0
 40
1.5
100
AcDbArc
 50
179.99996402782091
 51
269.99994604173139
  0
ARC
  5
365
100
AcDbEntity
  8
0
  6
CONTINUOUS
 62
               7
100
AcDbCircle
 10
-55.70001220703125
 20
-42.750015258789063
 30
0.0
 40
1.5
100
AcDbArc
 50
89.999982013910454
 51
179.99996402782091
  0
CIRCLE
  5
366
100
AcDbEntity
  8
0
  6
CONTINUOUS
 62
               2
100
AcDbCircle
 10
-9.0607757568359375
 20
-39.950180053710938
 30
0.0
 40
4.8639993667602539
  0
CIRCLE
  5
367
100
AcDbEntity
  8
0
  6
CONTINUOUS
 62
               2
100
AcDbCircle
 10
-9.0000152587890625
 20
-10.000030517578125
 30
0.0
 40
4.8639993667602539
  0
CIRCLE
  5
368
100
AcDbEntity
  8
0
  6
CONTINUOUS
 62
               2
100
AcDbCircle
 10
-17.000015258789063
 20
-25.000030517578125
 30
0.0
 40
4.8639993667602539
  0
CIRCLE
  5
369
100
AcDbEntity
  8
0
  6
CONTINUOUS
 62
               2
100
AcDbCircle
 10
-20.0
 20
0.999969482421875
 30
0.0
 40
2.5
  0
CIRCLE
  5
36A
100
AcDbEntity
  8
0
  6
CONTINUOUS
 62
               7
100
AcDbCircle
 10
-9.0607757568359375
 20
-39.950180053710938
 30
0.0
 40
4.2829999923706055
  0
CIRCLE
  5
36B
100
AcDbEntity
  8
0
  6
CONTINUOUS
 62
               7
100
AcDbCircle
 10
-17.000015258789063
 20
-25.000030517578125
 30
0.0
 40
4.2829999923706055
  0
CIRCLE
  5
36C
100
AcDbEntity
  8
0
  6
CONTINUOUS
 62
               7
100
AcDbCircle
 10
-9.0000152587890625
 20
-10.000030517578125
 30
0.0
 40
4.2829999923706055
  0
CIRCLE
  5
36D
100
AcDbEntity
  8
0
  6
CONTINUOUS
 62
               7
100
AcDbCircle
 10
-20.0
 20
0.999969482421875
 30
0.0
 40
2.0669994354248047
  0
ARC
  5
36E
100
AcDbEntity
  8
0
  6
CONTINUOUS
 62
               7
100
AcDbCircle
 10
-49.500015258789063
 20
9.499969482421875
 30
0.0
 40
2.4999990463256836
100
AcDbArc
 50
203.5781768361424
 51
336.42181132471086
  0
LINE
  5
36F
100
AcDbEntity
  8
0
  6
CONTINUOUS
 62
               7
100
AcDbLine
 10
-52.500015258789063
 20
8.499969482421875
 30
0.0
 11
-25.500015258789062
 21
8.499969482421875
 31
0.0
  0
LINE
  5
370
100
AcDbEntity
  8
0
  6
CONTINUOUS
 62
               7
100
AcDbLine
 10
-53.100021362304687
 20
-11.000030517578125
 30
0.0
 11
-53.100021362304687
 21
-6.000030517578125
 31
0.0
  0
LINE
  5
371
100
AcDbEntity
  8
0
  6
CONTINUOUS
 62
               7
100
AcDbLine
 10
-53.100021362304687
 20
-11.000030517578125
 30
0.0
 11
-52.500015258789063
 21
-11.000030517578125
 31
0.0
  0
LINE
  5
372
100
AcDbEntity
  8
0
  6
CONTINUOUS
 62
               7
100
AcDbLine
 10
-53.100021362304687
 20
-6.000030517578125
 30
0.0
 11
-52.500015258789063
 21
-6.000030517578125
 31
0.0
  0
LINE
  5
373
100
AcDbEntity
  8
0
  6
CONTINUOUS
 62
               7
100
AcDbLine
 10
-53.100015643726692
 20
-8.0958958232440636
 30
0.0
 11
-52.500011329257177
 21
-7.7494831645526574
 31
0.0
  0
LINE
  5
374
100
AcDbEntity
  8
0
  6
CONTINUOUS
 62
               7
100
AcDbLine
 10
-53.100025846367316
 20
-9.2506022417583154
 30
0.0
 11
-52.500021531897801
 21
-8.9041895830669091
 31
0.0
  0
LINE
  5
375
100
AcDbEntity
  8
0
  6
CONTINUOUS
 62
               4
100
AcDbLine
 10
-52.500030517578125
 20
19.499969482421875
 30
0.0
 11
-52.500030517578125
 21
43.499969482421875
 31
0.0
  0
LINE
  5
376
100
AcDbEntity
  8
0
  6
CONTINUOUS
 62
               4
100
AcDbLine
 10
-25.500030517578125
 20
19.499969482421875
 30
0.0
 11
-25.500030517578125
 21
43.499969482421875
 31
0.0
  0
LINE
  5
377
100
AcDbEntity
  8
0
  6
CONTINUOUS
 62
               4
100
AcDbLine
 10
-36.600030517578119
 20
52.499969482421875
 30
0.0
 11
-50.175030517578108
 21
52.499969482421875
 31
0.0
  0
LINE
  5
378
100
AcDbEntity
  8
0
  6
CONTINUOUS
 62
               4
100
AcDbLine
 10
-25.500030517578125
 20
51.999969482421875
 30
0.0
 11
-25.500030517578125
 21
43.499969482421875
 31
0.0
  0
LINE
  5
379
100
AcDbEntity
  8
0
  6
CONTINUOUS
 62
               4
100
AcDbLine
 10
-45.500030517578125
 20
45.899969482421881
 30
0.0
 11
-45.500030517578125
 21
44.949969482421892
 31
0.0
  0
LINE
  5
37A
100
AcDbEntity
  8
0
  6
CONTINUOUS
 62
               4
100
AcDbLine
 10
-32.600030517578119
 20
45.899969482421881
 30
0.0
 11
-32.600030517578119
 21
44.949969482421892
 31
0.0
  0
LINE
  5
37B
100
AcDbEntity
  8
0
  6
CONTINUOUS
 62
               4
100
AcDbLine
 10
-47.600030517578119
 20
45.899969482421881
 30
0.0
 11
-45.500030517578125
 21
45.899969482421881
 31
0.0
  0
LINE
  5
37C
100
AcDbEntity
  8
0
  6
CONTINUOUS
 62
               4
100
AcDbLine
 10
-32.600030517578119
 20
45.899969482421881
 30
0.0
 11
-30.500030517578125
 21
45.899969482421881
 31
0.0
  0
LINE
  5
37D
100
AcDbEntity
  8
0
  6
CONTINUOUS
 62
               4
100
AcDbLine
 10
-52.500030517578125
 20
47.679969482421882
 30
0.0
 11
-52.500030517578125
 21
43.499969482421875
 31
0.0
  0
LINE
  5
37E
100
AcDbEntity
  8
0
  6
CONTINUOUS
 62
               4
100
AcDbLine
 10
-50.63003051757812
 20
52.204969482421888
 30
0.0
 11
-52.37003051757813
 21
48.289969482421867
 31
0.0
  0
ARC
  5
37F
100
AcDbEntity
  8
0
  6
CONTINUOUS
 62
               4
100
AcDbCircle
 10
-50.174051356142172
 20
52.00006941986814
 30
0.0
 40
0.4999010215015999
100
AcDbArc
 50
90.112225923134773
 51
155.80262379109485
  0
ARC
  5
380
100
AcDbEntity
  8
0
  6
CONTINUOUS
 62
               4
100
AcDbCircle
 10
-51.002050912938699
 20
47.679580386351176
 30
0.0
 40
1.4979796551727449
100
AcDbArc
 50
155.95369022728892
 51
179.98511757963411
  0
LINE
  5
381
100
AcDbEntity
  8
0
  6
CONTINUOUS
 62
               4
100
AcDbLine
 10
-47.600030517578119
 20
45.899969482421881
 30
0.0
 11
-47.600030517578119
 21
44.949969482421892
 31
0.0
  0
LINE
  5
382
100
AcDbEntity
  8
0
  6
CONTINUOUS
 62
               4
100
AcDbLine
 10
-30.500030517578125
 20
45.899969482421881
 30
0.0
 11
-30.500030517578125
 21
44.949969482421892
 31
0.0
  0
LINE
  5
383
100
AcDbEntity
  8
0
  6
CONTINUOUS
 62
               4
100
AcDbLine
 10
-32.600030517578119
 20
44.949969482421892
 30
0.0
 11
-30.500030517578125
 21
44.949969482421892
 31
0.0
  0
LINE
  5
384
100
AcDbEntity
  8
0
  6
CONTINUOUS
 62
               4
100
AcDbLine
 10
-47.600030517578119
 20
44.949969482421892
 30
0.0
 11
-45.500030517578125
 21
44.949969482421892
 31
0.0
  0
LINE
  5
385
100
AcDbEntity
  8
0
  6
CONTINUOUS
 62
               4
100
AcDbLine
 10
-28.000030517578125
 20
56.999969482421875
 30
0.0
 11
-28.000030517578125
 21
52.499969482421875
 31
0.0
  0
LINE
  5
386
100
AcDbEntity
  8
0
  6
CONTINUOUS
 62
               4
100
AcDbLine
 10
-28.000030517578125
 20
52.499969482421875
 30
0.0
 11
-26.000030517578125
 21
52.499969482421875
 31
0.0
  0
ARC
  5
387
100
AcDbEntity
  8
0
  6
CONTINUOUS
 62
               4
100
AcDbCircle
 10
-26.000030517578125
 20
51.999969482421875
 30
0.0
 40
0.5
100
AcDbArc
 50
0.0
 51
89.999999999999815
  0
LINE
  5
388
100
AcDbEntity
  8
0
  6
CONTINUOUS
 62
               4
100
AcDbLine
 10
-40.250030517578125
 20
43.999969482421875
 30
0.0
 11
-40.250030517578125
 21
43.499969482421875
 31
0.0
  0
LINE
  5
389
100
AcDbEntity
  8
0
  6
CONTINUOUS
 62
               4
100
AcDbLine
 10
-37.750030517578125
 20
43.999969482421875
 30
0.0
 11
-37.750030517578125
 21
43.499969482421875
 31
0.0
  0
LINE
  5
38A
100
AcDbEntity
  8
0
  6
CONTINUOUS
 62
               4
100
AcDbLine
 10
-37.750030517578125
 20
43.999969482421875
 30
0.0
 11
-40.250030517578125
 21
43.999969482421875
 31
0.0
  0
LINE
  5
38B
100
AcDbEntity
  8
0
  6
CONTINUOUS
 62
               4
100
AcDbLine
 10
-38.650033569335932
 20
61.999969482421875
 30
0.0
 11
-38.650033569335932
 21
63.499969482421875
 31
0.0
  0
LINE
  5
38C
100
AcDbEntity
  8
0
  6
CONTINUOUS
 62
               4
100
AcDbLine
 10
-36.650075029182148
 20
62.49992842532356
 30
0.0
 11
-37.227426844946052
 21
63.49993713027834
 31
0.0
  0
LINE
  5
38D
100
AcDbEntity
  8
0
  6
CONTINUOUS
 62
               4
100
AcDbLine
 10
-36.650033569335932
 20
56.999969482421875
 30
0.0
 11
-36.650033569335932
 21
63.499969482421875
 31
0.0
  0
LINE
  5
38E
100
AcDbEntity
  8
0
  6
CONTINUOUS
 62
               4
100
AcDbLine
 10
-37.650031819814643
 20
52.998420224181245
 30
0.0
 11
-38.150030928691734
 21
56.55610830787009
 31
0.0
  0
LINE
  5
38F
100
AcDbEntity
  8
0
  6
CONTINUOUS
 62
               4
100
AcDbLine
 10
-38.150033569335932
 20
56.556121826171875
 30
0.0
 11
-38.150033569335932
 21
61.999969482421875
 31
0.0
  0
LINE
  5
390
100
AcDbEntity
  8
0
  6
CONTINUOUS
 62
               4
100
AcDbLine
 10
-27.650018310546869
 20
62.499969482421875
 30
0.0
 11
-28.150018310546869
 21
62.499969482421875
 31
0.0
  0
LINE
  5
391
100
AcDbEntity
  8
0
  6
CONTINUOUS
 62
               4
100
AcDbLine
 10
-27.650033569335932
 20
62.499969482421875
 30
0.0
 11
-27.650033569335932
 21
63.499969482421875
 31
0.0
  0
LINE
  5
392
100
AcDbEntity
  8
0
  6
CONTINUOUS
 62
               4
100
AcDbLine
 10
-28.150033569335932
 20
56.999969482421875
 30
0.0
 11
-28.150033569335932
 21
62.499969482421875
 31
0.0
  0
LINE
  5
393
100
AcDbEntity
  8
0
  6
CONTINUOUS
 62
               4
100
AcDbLine
 10
-36.650030726985818
 20
52.998443634292016
 30
0.0
 11
-36.600010173679578
 21
53.048464187598256
 31
0.0
  0
LINE
  5
394
100
AcDbEntity
  8
0
  6
CONTINUOUS
 62
               4
100
AcDbLine
 10
-38.150025939941401
 20
61.999969482421875
 30
0.0
 11
-38.650025939941401
 21
61.999969482421875
 31
0.0
  0
LINE
  5
395
100
AcDbEntity
  8
0
  6
CONTINUOUS
 62
               4
100
AcDbLine
 10
-36.650033569335932
 20
54.498428344726563
 30
0.0
 11
-36.650033569335932
 21
56.999969482421875
 31
0.0
  0
LINE
  5
396
100
AcDbEntity
  8
0
  6
CONTINUOUS
 62
               4
100
AcDbLine
 10
-36.650033569335932
 20
52.998428344726563
 30
0.0
 11
-37.650025939941401
 21
52.998428344726563
 31
0.0
  0
LINE
  5
397
100
AcDbEntity
  8
0
  6
CONTINUOUS
 62
               4
100
AcDbLine
 10
-36.600030517578119
 20
54.498428344726563
 30
0.0
 11
-36.650033569335932
 21
54.498428344726563
 31
0.0
  0
LINE
  5
398
100
AcDbEntity
  8
0
  6
CONTINUOUS
 62
               4
100
AcDbLine
 10
-37.227380371093744
 20
63.499969482421875
 30
0.0
 11
-38.650025939941401
 21
63.499969482421875
 31
0.0
  0
LINE
  5
399
100
AcDbEntity
  8
0
  6
CONTINUOUS
 62
               4
100
AcDbLine
 10
-28.000030517578125
 20
56.999969482421875
 30
0.0
 11
-36.650033569335932
 21
56.999969482421875
 31
0.0
  0
LINE
  5
39A
100
AcDbEntity
  8
0
  6
CONTINUOUS
 62
               4
100
AcDbLine
 10
-27.650018310546869
 20
63.499969482421875
 30
0.0
 11
-36.650018310546869
 21
63.499969482421875
 31
0.0
  0
LINE
  5
39B
100
AcDbEntity
  8
0
  6
CONTINUOUS
 62
               4
100
AcDbLine
 10
-36.600030517578119
 20
56.999969482421875
 30
0.0
 11
-36.600030517578119
 21
52.499969482421875
 31
0.0
  0
LINE
  5
39C
100
AcDbEntity
  8
0
  6
CONTINUOUS
 62
               4
100
AcDbLine
 10
-25.500030517578125
 20
43.499969482421875
 30
0.0
 11
-52.500022888183594
 21
43.499969482421875
 31
0.0
  0
LINE
  5
39D
100
AcDbEntity
  8
0
  6
CONTINUOUS
 62
               4
100
AcDbLine
 10
-25.500030517578125
 20
36.499969482421875
 30
0.0
 11
-27.100044250488281
 21
36.499969482421875
 31
0.0
  0
LINE
  5
39E
100
AcDbEntity
  8
0
  6
CONTINUOUS
 62
               4
100
AcDbLine
 10
-26.200044250488304
 20
36.499969482421875
 30
0.0
 11
-26.200044250488304
 21
43.499969482421875
 31
0.0
  0
LINE
  5
39F
100
AcDbEntity
  8
0
  6
CONTINUOUS
 62
               4
100
AcDbLine
 10
-27.100044250488281
 20
36.499969482421875
 30
0.0
 11
-27.100044250488281
 21
43.499969482421875
 31
0.0
  0
LINE
  5
3A0
100
AcDbEntity
  8
0
  6
CONTINUOUS
 62
               4
100
AcDbLine
 10
-39.500036688187237
 20
22.499969527150881
 30
0.0
 11
-30.500036688187237
 21
22.499969498396524
 31
0.0
  0
LINE
  5
3A1
100
AcDbEntity
  8
0
  6
CONTINUOUS
 62
               4
100
AcDbLine
 10
-39.500036630678522
 20
40.499969527150881
 30
0.0
 11
-30.500036630678522
 21
40.499969498396524
 31
0.0
  0
LINE
  5
3A2
100
AcDbEntity
  8
0
  6
CONTINUOUS
 62
               4
100
AcDbLine
 10
-30.500036630678522
 20
40.499969498396524
 30
0.0
 11
-30.500036688187237
 21
22.499969498396524
 31
0.0
  0
LINE
  5
3A3
100
AcDbEntity
  8
0
  6
CONTINUOUS
 62
               4
100
AcDbLine
 10
-37.500036630678522
 20
40.499969520760999
 30
0.0
 11
-37.500036688187237
 21
22.499969520760999
 31
0.0
  0
LINE
  5
3A4
100
AcDbEntity
  8
0
  6
CONTINUOUS
 62
               7
100
AcDbLine
 10
-25.500030517578125
 20
19.499969482421875
 30
0.0
 11
-52.500030517578125
 21
19.499969482421875
 31
0.0
  0
LINE
  5
3A5
100
AcDbEntity
  8
0
  6
CONTINUOUS
 62
               4
100
AcDbLine
 10
-29.885034179687494
 20
63.499969482421875
 30
0.0
 11
-29.885034179687494
 21
68.098373413085937
 31
0.0
  0
LINE
  5
3A6
100
AcDbEntity
  8
0
  6
CONTINUOUS
 62
               4
100
AcDbLine
 10
-31.315042114257807
 20
63.499969482421875
 30
0.0
 11
-31.315042114257807
 21
67.27276611328125
 31
0.0
  0
LINE
  5
3A7
100
AcDbEntity
  8
0
  6
CONTINUOUS
 62
               4
100
AcDbLine
 10
-32.385034179687494
 20
63.499969482421875
 30
0.0
 11
-32.385034179687494
 21
66.654998779296875
 31
0.0
  0
LINE
  5
3A8
100
AcDbEntity
  8
0
  6
CONTINUOUS
 62
               4
100
AcDbLine
 10
-33.815042114257807
 20
63.499969482421875
 30
0.0
 11
-33.815042114257807
 21
65.829391479492187
 31
0.0
  0
LINE
  5
3A9
100
AcDbEntity
  8
0
  6
CONTINUOUS
 62
             200
100
AcDbLine
 10
-28.385051433269467
 20
68.964434297500702
 30
0.0
 11
-35.315061586788573
 21
64.963382392985295
 31
0.0
  0
LINE
  5
3AA
100
AcDbEntity
  8
0
  6
CONTINUOUS
 62
             200
100
AcDbLine
 10
-28.385026884895154
 20
70.119075292356683
 30
0.0
 11
-35.315055976458638
 21
66.118026728575387
 31
0.0
  0
LINE
  5
3AB
100
AcDbEntity
  8
0
  6
CONTINUOUS
 62
               4
100
AcDbLine
 10
-33.500039672851557
 20
76.499969482421875
 30
0.0
 11
-32.700036621093744
 21
76.499969482421875
 31
0.0
  0
LINE
  5
3AC
100
AcDbEntity
  8
0
  6
CONTINUOUS
 62
               4
100
AcDbLine
 10
-33.500039672851557
 20
71.499969482421875
 30
0.0
 11
-33.500039672851557
 21
76.499954223632812
 31
0.0
  0
LINE
  5
3AD
100
AcDbEntity
  8
0
  6
CONTINUOUS
 62
               4
100
AcDbLine
 10
-32.700036621093744
 20
71.499969482421875
 30
0.0
 11
-32.700036621093744
 21
76.499969482421875
 31
0.0
  0
LINE
  5
3AE
100
AcDbEntity
  8
0
  6
CONTINUOUS
 62
               4
100
AcDbLine
 10
-33.815042114257807
 20
71.499969482421875
 30
0.0
 11
-32.385034179687494
 21
71.499969482421875
 31
0.0
  0
LINE
  5
3AF
100
AcDbEntity
  8
0
  6
CONTINUOUS
 62
               4
100
AcDbLine
 10
-33.815042114257807
 20
66.984085083007812
 30
0.0
 11
-33.815042114257807
 21
71.499969482421875
 31
0.0
  0
LINE
  5
3B0
100
AcDbEntity
  8
0
  6
CONTINUOUS
 62
               4
100
AcDbLine
 10
-32.385034179687494
 20
67.809707641601562
 30
0.0
 11
-32.385034179687494
 21
71.499969482421875
 31
0.0
  0
LINE
  5
3B1
100
AcDbEntity
  8
0
  6
CONTINUOUS
 62
               4
100
AcDbLine
 10
-29.885034179687494
 20
69.253082275390625
 30
0.0
 11
-29.885034179687494
 21
71.499969482421875
 31
0.0
  0
LINE
  5
3B2
100
AcDbEntity
  8
0
  6
CONTINUOUS
 62
               4
100
AcDbLine
 10
-31.315042114257807
 20
68.427459716796875
 30
0.0
 11
-31.315042114257807
 21
71.499969482421875
 31
0.0
  0
LINE
  5
3B3
100
AcDbEntity
  8
0
  6
CONTINUOUS
 62
               4
100
AcDbLine
 10
-29.885034179687494
 20
71.499969482421875
 30
0.0
 11
-31.315042114257807
 21
71.499969482421875
 31
0.0
  0
LINE
  5
3B4
100
AcDbEntity
  8
0
  6
CONTINUOUS
 62
               4
100
AcDbLine
 10
-30.200036621093744
 20
71.499969482421875
 30
0.0
 11
-30.200036621093744
 21
76.499969482421875
 31
0.0
  0
LINE
  5
3B5
100
AcDbEntity
  8
0
  6
CONTINUOUS
 62
               4
100
AcDbLine
 10
-31.000039672851557
 20
71.499969482421875
 30
0.0
 11
-31.000039672851557
 21
76.499969482421875
 31
0.0
  0
LINE
  5
3B6
100
AcDbEntity
  8
0
  6
CONTINUOUS
 62
               4
100
AcDbLine
 10
-30.200036621093744
 20
76.499969482421875
 30
0.0
 11
-31.000039672851557
 21
76.499969482421875
 31
0.0
  0
LINE
  5
3B7
100
AcDbEntity
  8
0
  6
CONTINUOUS
 62
               7
100
AcDbLine
 10
-25.500016995239477
 20
-48.000015258788991
 30
0.0
 11
-25.000011273193582
 21
-48.000015296538379
 31
0.0
  0
LINE
  5
3B8
100
AcDbEntity
  8
0
  6
CONTINUOUS
 62
               7
100
AcDbLine
 10
-25.500012993852234
 20
4.9999694824217897
 30
0.0
 11
-25.000007271806339
 21
4.9999694446724092
 31
0.0
  0
ENDBLK
  5
3B9
100
AcDbEntity
  8
0
100
AcDbBlockEnd
  0
BLOCK
  5
3BA
100
AcDbEntity
  8
0
100
AcDbBlockBegin
  2
F15T0-10
 70
               0
 10
0.0
 20
0.0
 30
0.0
  3
F15T0-10
  1

  0
LINE
  5
3BB
100
AcDbEntity
  8
0
  6
CONTINUOUS
 62
               7
100
AcDbLine
 10
-3.5
 20
0.0
 30
0.0
 11
26.5
 21
0.0
 31
0.0
  0
LINE
  5
3BC
100
AcDbEntity
  8
0
  6
CONTINUOUS
 62
               7
100
AcDbLine
 10
-3.5
 20
25.0
 30
0.0
 11
-3.5
 21
0.0
 31
0.0
  0
LINE
  5
3BD
100
AcDbEntity
  8
0
  6
CONTINUOUS
 62
               7
100
AcDbLine
 10
26.5
 20
25.0
 30
0.0
 11
26.5
 21
0.0
 31
0.0
  0
LINE
  5
3BE
100
AcDbEntity
  8
0
  6
CONTINUOUS
 62
               2
100
AcDbLine
 10
0.0
 20
3.0
 30
0.0
 11
0.0
 21
-3.0
 31
0.0
  0
LINE
  5
3BF
100
AcDbEntity
  8
0
  6
CONTINUOUS
 62
               7
100
AcDbLine
 10
-3.5
 20
25.0
 30
0.0
 11
26.5
 21
25.0
 31
0.0
  0
LINE
  5
3C0
100
AcDbEntity
  8
0
  6
CONTINUOUS
 62
               2
100
AcDbLine
 10
11.5
 20
-7.5300000000000002
 30
0.0
 11
11.5
 21
62.920000000000002
 31
0.0
  0
LINE
  5
3C1
100
AcDbEntity
  8
0
  6
CONTINUOUS
 62
               7
100
AcDbLine
 10
4.0
 20
25.5
 30
0.0
 11
4.0
 21
57.0
 31
0.0
  0
LINE
  5
3C2
100
AcDbEntity
  8
0
  6
CONTINUOUS
 62
               7
100
AcDbLine
 10
19.0
 20
25.5
 30
0.0
 11
19.0
 21
57.0
 31
0.0
  0
LINE
  5
3C3
100
AcDbEntity
  8
0
  6
CONTINUOUS
 62
               7
100
AcDbLine
 10
4.0
 20
55.5
 30
0.0
 11
19.0
 21
55.5
 31
0.0
  0
LINE
  5
3C4
100
AcDbEntity
  8
0
  6
CONTINUOUS
 62
               7
100
AcDbLine
 10
4.5
 20
57.5
 30
0.0
 11
18.5
 21
57.5
 31
0.0
  0
LINE
  5
3C5
100
AcDbEntity
  8
0
  6
CONTINUOUS
 62
               7
100
AcDbLine
 10
4.0
 20
56.5
 30
0.0
 11
19.0
 21
56.5
 31
0.0
  0
LINE
  5
3C6
100
AcDbEntity
  8
0
  6
CONTINUOUS
 62
               7
100
AcDbLine
 10
4.0
 20
56.5
 30
0.0
 11
5.0
 21
57.5
 31
0.0
  0
LINE
  5
3C7
100
AcDbEntity
  8
0
  6
CONTINUOUS
 62
               7
100
AcDbLine
 10
18.0
 20
57.5
 30
0.0
 11
19.0
 21
56.5
 31
0.0
  0
LINE
  5
3C8
100
AcDbEntity
  8
0
  6
CONTINUOUS
 62
               7
100
AcDbLine
 10
17.059999999999999
 20
29.559999999999999
 30
0.0
 11
14.93
 21
27.43
 31
0.0
  0
LINE
  5
3C9
100
AcDbEntity
  8
0
  6
CONTINUOUS
 62
               7
100
AcDbLine
 10
14.93
 20
29.559999999999999
 30
0.0
 11
17.059999999999999
 21
27.43
 31
0.0
  0
LINE
  5
3CA
100
AcDbEntity
  8
0
  6
CONTINUOUS
 62
               7
100
AcDbLine
 10
13.0
 20
28.5
 30
0.0
 11
13.0
 21
25.5
 31
0.0
  0
LINE
  5
3CB
100
AcDbEntity
  8
0
  6
CONTINUOUS
 62
               7
100
AcDbLine
 10
16.0
 20
31.5
 30
0.0
 11
19.0
 21
31.5
 31
0.0
  0
LINE
  5
3CC
100
AcDbEntity
  8
0
  6
CONTINUOUS
 62
               7
100
AcDbLine
 10
7.0
 20
46.5
 30
0.0
 11
4.0
 21
46.5
 31
0.0
  0
LINE
  5
3CD
100
AcDbEntity
  8
0
  6
CONTINUOUS
 62
               7
100
AcDbLine
 10
5.9299999999999997
 20
48.43
 30
0.0
 11
8.0600000000000005
 21
50.560000000000002
 31
0.0
  0
LINE
  5
3CE
100
AcDbEntity
  8
0
  6
CONTINUOUS
 62
               7
100
AcDbLine
 10
8.0600000000000005
 20
48.43
 30
0.0
 11
5.9299999999999997
 21
50.560000000000002
 31
0.0
  0
LINE
  5
3CF
100
AcDbEntity
  8
0
  6
CONTINUOUS
 62
               7
100
AcDbLine
 10
7.0
 20
52.5
 30
0.0
 11
4.0
 21
52.5
 31
0.0
  0
LINE
  5
3D0
100
AcDbEntity
  8
0
  6
CONTINUOUS
 62
               7
100
AcDbLine
 10
4.0
 20
25.5
 30
0.0
 11
19.0
 21
25.5
 31
0.0
  0
LINE
  5
3D1
100
AcDbEntity
  8
0
  6
CONTINUOUS
 62
               7
100
AcDbLine
 10
4.0
 20
25.0
 30
0.0
 11
4.0
 21
25.5
 31
0.0
  0
LINE
  5
3D2
100
AcDbEntity
  8
0
  6
CONTINUOUS
 62
               7
100
AcDbLine
 10
19.0
 20
25.0
 30
0.0
 11
19.0
 21
25.5
 31
0.0
  0
ARC
  5
3D3
100
AcDbEntity
  8
0
  6
CONTINUOUS
 62
               7
100
AcDbCircle
 10
4.5
 20
57.0
 30
0.0
 40
0.5
100
AcDbArc
 50
89.999999999999815
 51
179.99999999999963
  0
ARC
  5
3D4
100
AcDbEntity
  8
0
  6
CONTINUOUS
 62
               7
100
AcDbCircle
 10
18.5
 20
57.0
 30
0.0
 40
0.5
100
AcDbArc
 50
0.0
 51
89.999999999999815
  0
CIRCLE
  5
3D5
100
AcDbEntity
  8
0
  6
CONTINUOUS
 62
               7
100
AcDbCircle
 10
16.0
 20
28.5
 30
0.0
 40
2.7999992370605469
  0
ARC
  5
3D6
100
AcDbEntity
  8
0
  6
CONTINUOUS
 62
               7
100
AcDbCircle
 10
16.0
 20
28.5
 30
0.0
 40
3.0
100
AcDbArc
 50
89.999999999999815
 51
179.99999999999963
  0
CIRCLE
  5
3D7
100
AcDbEntity
  8
0
  6
CONTINUOUS
 62
               7
100
AcDbCircle
 10
7.0
 20
49.5
 30
0.0
 40
2.7999992370605469
  0
ARC
  5
3D8
100
AcDbEntity
  8
0
  6
CONTINUOUS
 62
               7
100
AcDbCircle
 10
7.0
 20
49.5
 30
0.0
 40
3.0
100
AcDbArc
 50
269.99999999999937
 51
89.999999999999801
  0
ENDBLK
  5
3D9
100
AcDbEntity
  8
0
100
AcDbBlockEnd
  0
BLOCK
  5
3DA
100
AcDbEntity
  8
0
100
AcDbBlockBegin
  2
F15T0-11
 70
               0
 10
0.0
 20
0.0
 30
0.0
  3
F15T0-11
  1

  0
LINE
  5
3DB
100
AcDbEntity
  8
0
  6
CONTINUOUS
 62
               7
100
AcDbLine
 10
3.5
 20
37.0
 30
0.0
 11
30.5
 21
37.0
 31
0.0
  0
LINE
  5
3DC
100
AcDbEntity
  8
0
  6
CONTINUOUS
 62
               4
100
AcDbLine
 10
14.599999999999994
 20
70.0
 30
0.0
 11
28.174999999999983
 21
70.0
 31
0.0
  0
LINE
  5
3DD
100
AcDbEntity
  8
0
  6
CONTINUOUS
 62
               4
100
AcDbLine
 10
3.5
 20
69.5
 30
0.0
 11
3.5
 21
61.0
 31
0.0
  0
LINE
  5
3DE
100
AcDbEntity
  8
0
  6
CONTINUOUS
 62
               4
100
AcDbLine
 10
15.75
 20
61.5
 30
0.0
 11
15.75
 21
61.0
 31
0.0
  0
LINE
  5
3DF
100
AcDbEntity
  8
0
  6
CONTINUOUS
 62
               4
100
AcDbLine
 10
18.25
 20
61.5
 30
0.0
 11
18.25
 21
61.0
 31
0.0
  0
LINE
  5
3E0
100
AcDbEntity
  8
0
  6
CONTINUOUS
 62
               4
100
AcDbLine
 10
23.5
 20
63.400000000000006
 30
0.0
 11
23.5
 21
62.450000000000017
 31
0.0
  0
LINE
  5
3E1
100
AcDbEntity
  8
0
  6
CONTINUOUS
 62
               4
100
AcDbLine
 10
10.599999999999994
 20
63.400000000000006
 30
0.0
 11
10.599999999999994
 21
62.450000000000017
 31
0.0
  0
LINE
  5
3E2
100
AcDbEntity
  8
0
  6
CONTINUOUS
 62
               4
100
AcDbLine
 10
18.25
 20
61.5
 30
0.0
 11
15.75
 21
61.5
 31
0.0
  0
LINE
  5
3E3
100
AcDbEntity
  8
0
  6
CONTINUOUS
 62
               4
100
AcDbLine
 10
25.599999999999994
 20
63.400000000000006
 30
0.0
 11
23.5
 21
63.400000000000006
 31
0.0
  0
LINE
  5
3E4
100
AcDbEntity
  8
0
  6
CONTINUOUS
 62
               4
100
AcDbLine
 10
10.599999999999994
 20
63.400000000000006
 30
0.0
 11
8.5
 21
63.400000000000006
 31
0.0
  0
LINE
  5
3E5
100
AcDbEntity
  8
0
  6
CONTINUOUS
 62
               4
100
AcDbLine
 10
30.5
 20
65.180000000000007
 30
0.0
 11
30.5
 21
61.0
 31
0.0
  0
LINE
  5
3E6
100
AcDbEntity
  8
0
  6
CONTINUOUS
 62
               4
100
AcDbLine
 10
28.629999999999995
 20
69.705000000000013
 30
0.0
 11
30.370000000000005
 21
65.789999999999992
 31
0.0
  0
ARC
  5
3E7
100
AcDbEntity
  8
0
  6
CONTINUOUS
 62
               4
100
AcDbCircle
 10
28.174020838564047
 20
69.500099937446265
 30
0.0
 40
0.4999010215015999
100
AcDbArc
 50
24.197376208904771
 51
89.887774076864815
  0
ARC
  5
3E8
100
AcDbEntity
  8
0
  6
CONTINUOUS
 62
               4
100
AcDbCircle
 10
29.002020395360574
 20
65.179610903929301
 30
0.0
 40
1.4979796551727449
100
AcDbArc
 50
0.0148824203654679
 51
24.046309772710686
  0
LINE
  5
3E9
100
AcDbEntity
  8
0
  6
CONTINUOUS
 62
               4
100
AcDbLine
 10
25.599999999999994
 20
63.400000000000006
 30
0.0
 11
25.599999999999994
 21
62.450000000000017
 31
0.0
  0
LINE
  5
3EA
100
AcDbEntity
  8
0
  6
CONTINUOUS
 62
               4
100
AcDbLine
 10
8.5
 20
63.400000000000006
 30
0.0
 11
8.5
 21
62.450000000000017
 31
0.0
  0
LINE
  5
3EB
100
AcDbEntity
  8
0
  6
CONTINUOUS
 62
               4
100
AcDbLine
 10
10.599999999999994
 20
62.450000000000017
 30
0.0
 11
8.5
 21
62.450000000000017
 31
0.0
  0
LINE
  5
3EC
100
AcDbEntity
  8
0
  6
CONTINUOUS
 62
               4
100
AcDbLine
 10
25.599999999999994
 20
62.450000000000017
 30
0.0
 11
23.5
 21
62.450000000000017
 31
0.0
  0
LINE
  5
3ED
100
AcDbEntity
  8
0
  6
CONTINUOUS
 62
               4
100
AcDbLine
 10
14.599999999999994
 20
74.5
 30
0.0
 11
14.599999999999994
 21
70.0
 31
0.0
  0
LINE
  5
3EE
100
AcDbEntity
  8
0
  6
CONTINUOUS
 62
               4
100
AcDbLine
 10
6.0
 20
74.5
 30
0.0
 11
6.0
 21
70.0
 31
0.0
  0
LINE
  5
3EF
100
AcDbEntity
  8
0
  6
CONTINUOUS
 62
               4
100
AcDbLine
 10
6.0
 20
70.0
 30
0.0
 11
4.0
 21
70.0
 31
0.0
  0
ARC
  5
3F0
100
AcDbEntity
  8
0
  6
CONTINUOUS
 62
               4
100
AcDbCircle
 10
4.0
 20
69.5
 30
0.0
 40
0.5
100
AcDbArc
 50
89.999999999999815
 51
179.99999999999963
  0
LINE
  5
3F1
100
AcDbEntity
  8
0
  6
CONTINUOUS
 62
             200
100
AcDbLine
 10
13.314994343097709
 20
86.464464815078827
 30
0.0
 11
6.3849841895786028
 21
82.46341291056342
 31
0.0
  0
LINE
  5
3F2
100
AcDbEntity
  8
0
  6
CONTINUOUS
 62
             200
100
AcDbLine
 10
13.315018891472022
 20
87.619105809934808
 30
0.0
 11
6.3849897999085385
 21
83.618057246153512
 31
0.0
  0
LINE
  5
3F3
100
AcDbEntity
  8
0
  6
CONTINUOUS
 62
               4
100
AcDbLine
 10
7.8850036621093693
 20
81.0
 30
0.0
 11
7.8850036621093693
 21
83.329421997070312
 31
0.0
  0
LINE
  5
3F4
100
AcDbEntity
  8
0
  6
CONTINUOUS
 62
               4
100
AcDbLine
 10
9.3150115966796818
 20
81.0
 30
0.0
 11
9.3150115966796818
 21
84.155029296875
 31
0.0
  0
LINE
  5
3F5
100
AcDbEntity
  8
0
  6
CONTINUOUS
 62
               4
100
AcDbLine
 10
8.2000061035156193
 20
94.0
 30
0.0
 11
9.0000091552734318
 21
94.0
 31
0.0
  0
LINE
  5
3F6
100
AcDbEntity
  8
0
  6
CONTINUOUS
 62
               4
100
AcDbLine
 10
8.2000061035156193
 20
89.0
 30
0.0
 11
8.2000061035156193
 21
93.999984741210937
 31
0.0
  0
LINE
  5
3F7
100
AcDbEntity
  8
0
  6
CONTINUOUS
 62
               4
100
AcDbLine
 10
9.0000091552734318
 20
89.0
 30
0.0
 11
9.0000091552734318
 21
94.0
 31
0.0
  0
LINE
  5
3F8
100
AcDbEntity
  8
0
  6
CONTINUOUS
 62
               4
100
AcDbLine
 10
7.8850036621093693
 20
89.0
 30
0.0
 11
9.3150115966796818
 21
89.0
 31
0.0
  0
LINE
  5
3F9
100
AcDbEntity
  8
0
  6
CONTINUOUS
 62
               4
100
AcDbLine
 10
7.8850036621093693
 20
84.484115600585937
 30
0.0
 11
7.8850036621093693
 21
89.0
 31
0.0
  0
LINE
  5
3FA
100
AcDbEntity
  8
0
  6
CONTINUOUS
 62
               4
100
AcDbLine
 10
9.3150115966796818
 20
85.309738159179688
 30
0.0
 11
9.3150115966796818
 21
89.0
 31
0.0
  0
LINE
  5
3FB
100
AcDbEntity
  8
0
  6
CONTINUOUS
 62
               4
100
AcDbLine
 10
11.815011596679682
 20
86.75311279296875
 30
0.0
 11
11.815011596679682
 21
89.0
 31
0.0
  0
LINE
  5
3FC
100
AcDbEntity
  8
0
  6
CONTINUOUS
 62
               4
100
AcDbLine
 10
10.385003662109369
 20
85.927490234375
 30
0.0
 11
10.385003662109369
 21
89.0
 31
0.0
  0
LINE
  5
3FD
100
AcDbEntity
  8
0
  6
CONTINUOUS
 62
               4
100
AcDbLine
 10
11.815011596679682
 20
89.0
 30
0.0
 11
10.385003662109369
 21
89.0
 31
0.0
  0
LINE
  5
3FE
100
AcDbEntity
  8
0
  6
CONTINUOUS
 62
               4
100
AcDbLine
 10
10.385003662109369
 20
81.0
 30
0.0
 11
10.385003662109369
 21
84.772796630859375
 31
0.0
  0
LINE
  5
3FF
100
AcDbEntity
  8
0
  6
CONTINUOUS
 62
               4
100
AcDbLine
 10
11.815011596679682
 20
81.0
 30
0.0
 11
11.815011596679682
 21
85.598403930664063
 31
0.0
  0
LINE
  5
400
100
AcDbEntity
  8
0
  6
CONTINUOUS
 62
               4
100
AcDbLine
 10
11.500009155273432
 20
89.0
 30
0.0
 11
11.500009155273432
 21
94.0
 31
0.0
  0
LINE
  5
401
100
AcDbEntity
  8
0
  6
CONTINUOUS
 62
               4
100
AcDbLine
 10
10.700006103515619
 20
89.0
 30
0.0
 11
10.700006103515619
 21
94.0
 31
0.0
  0
LINE
  5
402
100
AcDbEntity
  8
0
  6
CONTINUOUS
 62
               4
100
AcDbLine
 10
11.500009155273432
 20
94.0
 30
0.0
 11
10.700006103515619
 21
94.0
 31
0.0
  0
LINE
  5
403
100
AcDbEntity
  8
0
  6
CONTINUOUS
 62
               4
100
AcDbLine
 10
16.650003051757807
 20
79.5
 30
0.0
 11
16.650003051757807
 21
81.0
 31
0.0
  0
LINE
  5
404
100
AcDbEntity
  8
0
  6
CONTINUOUS
 62
               4
100
AcDbLine
 10
14.650044511604023
 20
79.999958942901685
 30
0.0
 11
15.227396327367927
 21
80.999967647856465
 31
0.0
  0
LINE
  5
405
100
AcDbEntity
  8
0
  6
CONTINUOUS
 62
               4
100
AcDbLine
 10
14.650003051757807
 20
74.5
 30
0.0
 11
14.650003051757807
 21
81.0
 31
0.0
  0
LINE
  5
406
100
AcDbEntity
  8
0
  6
CONTINUOUS
 62
               4
100
AcDbLine
 10
15.650001302236518
 20
70.49845074175937
 30
0.0
 11
16.150000411113609
 21
74.056138825448215
 31
0.0
  0
LINE
  5
407
100
AcDbEntity
  8
0
  6
CONTINUOUS
 62
               4
100
AcDbLine
 10
16.150003051757807
 20
74.05615234375
 30
0.0
 11
16.150003051757807
 21
79.5
 31
0.0
  0
LINE
  5
408
100
AcDbEntity
  8
0
  6
CONTINUOUS
 62
               4
100
AcDbLine
 10
5.6499877929687443
 20
80.0
 30
0.0
 11
6.1499877929687443
 21
80.0
 31
0.0
  0
LINE
  5
409
100
AcDbEntity
  8
0
  6
CONTINUOUS
 62
               4
100
AcDbLine
 10
5.6500030517578068
 20
80.0
 30
0.0
 11
5.6500030517578068
 21
81.0
 31
0.0
  0
LINE
  5
40A
100
AcDbEntity
  8
0
  6
CONTINUOUS
 62
               4
100
AcDbLine
 10
6.1500030517578068
 20
74.5
 30
0.0
 11
6.1500030517578068
 21
80.0
 31
0.0
  0
LINE
  5
40B
100
AcDbEntity
  8
0
  6
CONTINUOUS
 62
               4
100
AcDbLine
 10
14.650000209407693
 20
70.498474151870141
 30
0.0
 11
14.599979656101453
 21
70.548494705176381
 31
0.0
  0
LINE
  5
40C
100
AcDbEntity
  8
0
  6
CONTINUOUS
 62
               4
100
AcDbLine
 10
16.149995422363276
 20
79.5
 30
0.0
 11
16.649995422363276
 21
79.5
 31
0.0
  0
LINE
  5
40D
100
AcDbEntity
  8
0
  6
CONTINUOUS
 62
               4
100
AcDbLine
 10
14.650003051757807
 20
71.998458862304688
 30
0.0
 11
14.650003051757807
 21
74.5
 31
0.0
  0
LINE
  5
40E
100
AcDbEntity
  8
0
  6
CONTINUOUS
 62
               4
100
AcDbLine
 10
14.650003051757807
 20
70.498458862304688
 30
0.0
 11
15.649995422363276
 21
70.498458862304688
 31
0.0
  0
LINE
  5
40F
100
AcDbEntity
  8
0
  6
CONTINUOUS
 62
               4
100
AcDbLine
 10
14.599999999999994
 20
71.998458862304688
 30
0.0
 11
14.650003051757807
 21
71.998458862304688
 31
0.0
  0
LINE
  5
410
100
AcDbEntity
  8
0
  6
CONTINUOUS
 62
               4
100
AcDbLine
 10
15.227349853515619
 20
81.0
 30
0.0
 11
16.649995422363276
 21
81.0
 31
0.0
  0
LINE
  5
411
100
AcDbEntity
  8
0
  6
CONTINUOUS
 62
               4
100
AcDbLine
 10
6.0
 20
74.5
 30
0.0
 11
14.650003051757807
 21
74.5
 31
0.0
  0
LINE
  5
412
100
AcDbEntity
  8
0
  6
CONTINUOUS
 62
               4
100
AcDbLine
 10
5.6499877929687443
 20
81.0
 30
0.0
 11
14.649987792968744
 21
81.0
 31
0.0
  0
LINE
  5
413
100
AcDbEntity
  8
0
  6
CONTINUOUS
 62
               4
100
AcDbLine
 10
3.5
 20
61.0
 30
0.0
 11
30.499992370605469
 21
61.0
 31
0.0
  0
LINE
  5
414
100
AcDbEntity
  8
0
  6
CONTINUOUS
 62
               4
100
AcDbLine
 10
3.5
 20
54.0
 30
0.0
 11
5.1000137329101562
 21
54.0
 31
0.0
  0
LINE
  5
415
100
AcDbEntity
  8
0
  6
CONTINUOUS
 62
               4
100
AcDbLine
 10
4.200013732910179
 20
54.0
 30
0.0
 11
4.200013732910179
 21
61.0
 31
0.0
  0
LINE
  5
416
100
AcDbEntity
  8
0
  6
CONTINUOUS
 62
               4
100
AcDbLine
 10
5.1000137329101562
 20
54.0
 30
0.0
 11
5.1000137329101562
 21
61.0
 31
0.0
  0
LINE
  5
417
100
AcDbEntity
  8
0
  6
CONTINUOUS
 62
               4
100
AcDbLine
 10
17.500006170609112
 20
40.000000044729006
 30
0.0
 11
8.5000061706091117
 21
40.000000015974649
 31
0.0
  0
LINE
  5
418
100
AcDbEntity
  8
0
  6
CONTINUOUS
 62
               4
100
AcDbLine
 10
17.500006113100397
 20
58.000000044729006
 30
0.0
 11
8.5000061131003974
 21
58.000000015974649
 31
0.0
  0
LINE
  5
419
100
AcDbEntity
  8
0
  6
CONTINUOUS
 62
               4
100
AcDbLine
 10
8.5000061131003974
 20
58.000000015974649
 30
0.0
 11
8.5000061706091117
 21
40.000000015974649
 31
0.0
  0
LINE
  5
41A
100
AcDbEntity
  8
0
  6
CONTINUOUS
 62
               4
100
AcDbLine
 10
15.500006113100397
 20
58.000000038339124
 30
0.0
 11
15.500006170609112
 21
40.000000038339124
 31
0.0
  0
LINE
  5
41B
100
AcDbEntity
  8
0
  6
CONTINUOUS
 62
               4
100
AcDbLine
 10
3.5
 20
37.0
 30
0.0
 11
3.5
 21
61.0
 31
0.0
  0
LINE
  5
41C
100
AcDbEntity
  8
0
  6
CONTINUOUS
 62
               4
100
AcDbLine
 10
30.5
 20
37.0
 30
0.0
 11
30.5
 21
61.0
 31
0.0
  0
LINE
  5
41D
100
AcDbEntity
  8
0
  6
CENTER
 62
               2
100
AcDbLine
 10
32.5
 20
33.699996948242187
 30
0.0
 11
29.800003051757813
 21
33.699996948242187
 31
0.0
  0
LINE
  5
41E
100
AcDbEntity
  8
0
  6
CONTINUOUS
 62
               7
100
AcDbLine
 10
30.5
 20
36.899993896484375
 30
0.0
 11
3.4999847412109375
 21
36.899993896484375
 31
0.0
  0
LINE
  5
41F
100
AcDbEntity
  8
0
  6
CONTINUOUS
 62
               7
100
AcDbLine
 10
31.5
 20
31.75
 30
0.0
 11
31.5
 21
33.400009155273438
 31
0.0
  0
LINE
  5
420
100
AcDbEntity
  8
0
  6
CONTINUOUS
 62
               7
100
AcDbLine
 10
31.5
 20
31.75
 30
0.0
 11
30.5
 21
31.75
 31
0.0
  0
LINE
  5
421
100
AcDbEntity
  8
0
  6
CONTINUOUS
 62
               7
100
AcDbLine
 10
31.5
 20
35.649993896484375
 30
0.0
 11
30.5
 21
35.649993896484375
 31
0.0
  0
LINE
  5
422
100
AcDbEntity
  8
0
  6
CONTINUOUS
 62
               7
100
AcDbLine
 10
30.899993896484375
 20
33.400009155273438
 30
0.0
 11
30.899993896484375
 21
34.0
 31
0.0
  0
LINE
  5
423
100
AcDbEntity
  8
0
  6
CONTINUOUS
 62
               7
100
AcDbLine
 10
31.5
 20
33.399993896484375
 30
0.0
 11
30.900009155273437
 21
33.399993896484375
 31
0.0
  0
LINE
  5
424
100
AcDbEntity
  8
0
  6
CONTINUOUS
 62
               7
100
AcDbLine
 10
31.5
 20
34.0
 30
0.0
 11
30.900009155273437
 21
34.0
 31
0.0
  0
LINE
  5
425
100
AcDbEntity
  8
0
  6
CONTINUOUS
 62
               7
100
AcDbLine
 10
31.5
 20
34.0
 30
0.0
 11
31.5
 21
35.650009155273438
 31
0.0
  0
LINE
  5
426
100
AcDbEntity
  8
0
  6
CONTINUOUS
 62
               7
100
AcDbLine
 10
30.5
 20
15.5
 30
0.0
 11
3.4999847412109375
 21
15.5
 31
0.0
  0
LINE
  5
427
100
AcDbEntity
  8
0
  6
CONTINUOUS
 62
               7
100
AcDbLine
 10
30.5
 20
-30.499992370605469
 30
0.0
 11
30.5
 21
37.0
 31
0.0
  0
LINE
  5
428
100
AcDbEntity
  8
0
  6
CONTINUOUS
 62
               7
100
AcDbLine
 10
33.5
 20
-30.5
 30
0.0
 11
3.5
 21
-30.5
 31
0.0
  0
LINE
  5
429
100
AcDbEntity
  8
0
  6
CONTINUOUS
 62
               7
100
AcDbLine
 10
32.999984741210938
 20
-39.5
 30
0.0
 11
4.0
 21
-39.5
 31
0.0
  0
LINE
  5
42A
100
AcDbEntity
  8
0
  6
CONTINUOUS
 62
               7
100
AcDbLine
 10
3.5
 20
-38.999984741210938
 30
0.0
 11
3.5
 21
37.0
 31
0.0
  0
LINE
  5
42B
100
AcDbEntity
  8
0
  6
CONTINUOUS
 62
               7
100
AcDbLine
 10
33.5
 20
-38.999984741210938
 30
0.0
 11
33.5
 21
-30.499984741210937
 31
0.0
  0
LINE
  5
42C
100
AcDbEntity
  8
0
  6
CONTINUOUS
 62
               7
100
AcDbLine
 10
30.5
 20
24.0
 30
0.0
 11
3.4999847412109375
 21
24.0
 31
0.0
  0
LINE
  5
42D
100
AcDbEntity
  8
0
  6
CONTINUOUS
 62
               7
100
AcDbLine
 10
24.300018310546875
 20
-39.199996948242188
 30
0.0
 11
24.300018310546875
 21
-37.300003051757813
 31
0.0
  0
LINE
  5
42E
100
AcDbEntity
  8
0
  6
CONTINUOUS
 62
               7
100
AcDbLine
 10
4.5
 20
27.499984741210938
 30
0.0
 11
3.5
 21
27.499984741210938
 31
0.0
  0
LINE
  5
42F
100
AcDbEntity
  8
0
  6
CONTINUOUS
 62
               7
100
AcDbLine
 10
4.5
 20
26.0
 30
0.0
 11
4.5
 21
27.499984741210938
 31
0.0
  0
LINE
  5
430
100
AcDbEntity
  8
0
  6
CONTINUOUS
 62
               7
100
AcDbLine
 10
26.199996948242188
 20
27.499984741210938
 30
0.0
 11
7.0
 21
27.499984741210938
 31
0.0
  0
LINE
  5
431
100
AcDbEntity
  8
0
  6
CONTINUOUS
 62
               7
100
AcDbLine
 10
7.0
 20
26.0
 30
0.0
 11
7.0
 21
27.499984741210938
 31
0.0
  0
LINE
  5
432
100
AcDbEntity
  8
0
  6
CONTINUOUS
 62
               7
100
AcDbLine
 10
26.199996948242188
 20
26.0
 30
0.0
 11
26.199996948242188
 21
27.499984741210938
 31
0.0
  0
LINE
  5
433
100
AcDbEntity
  8
0
  6
CONTINUOUS
 62
               7
100
AcDbLine
 10
29.199996948242188
 20
26.0
 30
0.0
 11
29.199996948242188
 21
27.499984741210938
 31
0.0
  0
LINE
  5
434
100
AcDbEntity
  8
0
  6
CONTINUOUS
 62
               7
100
AcDbLine
 10
30.5
 20
27.499984741210938
 30
0.0
 11
29.199996948242188
 21
27.499984741210938
 31
0.0
  0
LINE
  5
435
100
AcDbEntity
  8
0
  6
CENTER
 62
               2
100
AcDbLine
 10
2.4710540771484375
 20
0.0
 30
0.0
 11
-2.58758544921875
 21
0.0
 31
0.0
  0
LINE
  5
436
100
AcDbEntity
  8
0
  6
CENTER
 62
               2
100
AcDbLine
 10
0.0
 20
2.5294189453125
 30
0.0
 11
0.0
 21
-2.3308258056640625
 31
0.0
  0
LINE
  5
437
100
AcDbEntity
  8
0
  6
CONTINUOUS
 62
               7
100
AcDbLine
 10
-6.0
 20
15.499984741210938
 30
0.0
 11
-6.0
 21
-30.5
 31
0.0
  0
LINE
  5
438
100
AcDbEntity
  8
0
  6
CONTINUOUS
 62
               7
100
AcDbLine
 10
3.0
 20
15.499984741210938
 30
0.0
 11
-6.0
 21
15.499984741210938
 31
0.0
  0
LINE
  5
439
100
AcDbEntity
  8
0
  6
CONTINUOUS
 62
               7
100
AcDbLine
 10
3.0
 20
-30.5
 30
0.0
 11
-6.0
 21
-30.5
 31
0.0
  0
LINE
  5
43A
100
AcDbEntity
  8
0
  6
CONTINUOUS
 62
               7
100
AcDbLine
 10
30.400009155273438
 20
-37.0
 30
0.0
 11
24.600021362304688
 21
-37.0
 31
0.0
  0
LINE
  5
43B
100
AcDbEntity
  8
0
  6
CONTINUOUS
 62
               7
100
AcDbLine
 10
30.70001220703125
 20
-39.199996948242188
 30
0.0
 11
30.70001220703125
 21
-37.300003051757813
 31
0.0
  0
LINE
  5
43C
100
AcDbEntity
  8
0
  6
DASHED
 62
               4
100
AcDbLine
 10
-7.0
 20
-49.899993896484375
 30
0.0
 11
-17.0
 21
-49.899993896484375
 31
0.0
  0
LINE
  5
43D
100
AcDbEntity
  8
0
  6
DASHED
 62
               4
100
AcDbLine
 10
-7.0
 20
9.9999847412109375
 30
0.0
 11
-7.0
 21
-51.5
 31
0.0
  0
LINE
  5
43E
100
AcDbEntity
  8
0
  6
DASHED
 62
               4
100
AcDbLine
 10
-17.0
 20
-49.899993896484375
 30
0.0
 11
-17.0
 21
-51.5
 31
0.0
  0
LINE
  5
43F
100
AcDbEntity
  8
0
  6
DASHED
 62
               4
100
AcDbLine
 10
18.000015258789063
 20
9.9999847412109375
 30
0.0
 11
18.000015258789063
 21
-51.5
 31
0.0
  0
LINE
  5
440
100
AcDbEntity
  8
0
  6
DASHED
 62
               4
100
AcDbLine
 10
18.000015258789063
 20
9.9999847412109375
 30
0.0
 11
-7.0
 21
9.9999847412109375
 31
0.0
  0
LINE
  5
441
100
AcDbEntity
  8
0
  6
CONTINUOUS
 62
               7
100
AcDbLine
 10
30.250015258789063
 20
-37.499984741210938
 30
0.0
 11
30.250015258789063
 21
-36.999984741210938
 31
0.0
  0
LINE
  5
442
100
AcDbEntity
  8
0
  6
CONTINUOUS
 62
               7
100
AcDbLine
 10
28.75
 20
-39.0
 30
0.0
 11
26.250015258789063
 21
-39.0
 31
0.0
  0
LINE
  5
443
100
AcDbEntity
  8
0
  6
CONTINUOUS
 62
               7
100
AcDbLine
 10
24.750015258789063
 20
-37.499984741210938
 30
0.0
 11
24.750015258789063
 21
-36.999984741210938
 31
0.0
  0
LINE
  5
444
100
AcDbEntity
  8
0
  6
CENTER
 62
               2
100
AcDbLine
 10
0.0
 20
-17.529436111450195
 30
0.0
 11
0.0
 21
-12.66917610168457
 31
0.0
  0
LINE
  5
445
100
AcDbEntity
  8
0
  6
CENTER
 62
               2
100
AcDbLine
 10
2.4710540771484375
 20
-15.000003814697266
 30
0.0
 11
-2.58758544921875
 21
-15.000003814697266
 31
0.0
  0
ARC
  5
446
100
AcDbEntity
  8
0
  6
CONTINUOUS
 62
               7
100
AcDbCircle
 10
32.999984741210938
 20
-38.999984741210938
 30
0.0
 40
0.5
100
AcDbArc
 50
270.00001798608872
 51
359.99995901886416
  0
ARC
  5
447
100
AcDbEntity
  8
0
  6
CONTINUOUS
 62
               7
100
AcDbCircle
 10
4.0
 20
-38.999984741210938
 30
0.0
 40
0.5
100
AcDbArc
 50
179.99996402782091
 51
269.99994604173139
  0
ARC
  5
448
100
AcDbEntity
  8
0
  6
CONTINUOUS
 62
               7
100
AcDbCircle
 10
6.5
 20
27.0
 30
0.0
 40
2.4999990463256836
100
AcDbArc
 50
203.5781768361424
 51
336.42181132471086
  0
ARC
  5
449
100
AcDbEntity
  8
0
  6
CONTINUOUS
 62
               7
100
AcDbCircle
 10
24.000015258789063
 20
-39.199996948242188
 30
0.0
 40
0.300000011920929
100
AcDbArc
 50
270.00001798608872
 51
0.0
  0
ARC
  5
44A
100
AcDbEntity
  8
0
  6
CONTINUOUS
 62
               7
100
AcDbCircle
 10
24.600021362304688
 20
-37.300003051757813
 30
0.0
 40
0.300000011920929
100
AcDbArc
 50
89.999982013910454
 51
179.99996402782091
  0
CIRCLE
  5
44B
100
AcDbEntity
  8
0
  6
CONTINUOUS
 62
               7
100
AcDbCircle
 10
0.0
 20
0.0
 30
0.0
 40
1.6999998092651367
  0
ARC
  5
44C
100
AcDbEntity
  8
0
  6
CONTINUOUS
 62
               7
100
AcDbCircle
 10
30.400009155273438
 20
-37.300003051757813
 30
0.0
 40
0.300000011920929
100
AcDbArc
 50
0.0
 51
89.999982013910454
  0
ARC
  5
44D
100
AcDbEntity
  8
0
  6
CONTINUOUS
 62
               7
100
AcDbCircle
 10
31.000015258789063
 20
-39.199996948242188
 30
0.0
 40
0.300000011920929
100
AcDbArc
 50
179.99998133066492
 51
270.00001798608872
  0
ARC
  5
44E
100
AcDbEntity
  8
0
  6
CONTINUOUS
 62
               7
100
AcDbCircle
 10
28.75
 20
-37.499984741210938
 30
0.0
 40
1.5
100
AcDbArc
 50
270.00001798608872
 51
359.99995901886416
  0
ARC
  5
44F
100
AcDbEntity
  8
0
  6
CONTINUOUS
 62
               7
100
AcDbCircle
 10
26.250015258789063
 20
-37.499984741210938
 30
0.0
 40
1.5
100
AcDbArc
 50
179.99990938630756
 51
269.99994604173139
  0
CIRCLE
  5
450
100
AcDbEntity
  8
0
  6
CONTINUOUS
 62
               7
100
AcDbCircle
 10
0.0
 20
-15.000003814697266
 30
0.0
 40
1.6999998092651367
  0
LINE
  5
451
100
AcDbEntity
  8
0
  6
CONTINUOUS
 62
               7
100
AcDbLine
 10
30.5
 20
26.0
 30
0.0
 11
3.4999847412109375
 21
26.0
 31
0.0
  0
LINE
  5
452
100
AcDbEntity
  8
0
  6
DASHED
 62
               4
100
AcDbLine
 10
18.000015258789063
 20
-51.5
 30
0.0
 11
-17.0
 21
-51.5
 31
0.0
  0
LINE
  5
453
100
AcDbEntity
  8
0
  6
CENTER
 62
             200
100
AcDbLine
 10
-12.0
 20
-47.457179284021905
 30
0.0
 11
-12.0
 21
-54.23264343559778
 31
0.0
  0
LINE
  5
454
100
AcDbEntity
  8
0
  6
CONTINUOUS
 62
               7
100
AcDbLine
 10
35.5
 20
-26.700004577636719
 30
0.0
 11
30.5
 21
-26.700004577636719
 31
0.0
  0
LINE
  5
455
100
AcDbEntity
  8
0
  6
CONTINUOUS
 62
               7
100
AcDbLine
 10
37.599992370605463
 20
-21.300003051757813
 30
0.0
 11
30.5
 21
-21.300003051757813
 31
0.0
  0
ARC
  5
456
100
AcDbEntity
  8
0
  6
CONTINUOUS
 62
               7
100
AcDbCircle
 10
31.300003051757813
 20
-24.750007629394531
 30
0.0
 40
1.5
100
AcDbArc
 50
270.00007262760209
 51
0.0000409811350201
  0
ARC
  5
457
100
AcDbEntity
  8
0
  6
CONTINUOUS
 62
               7
100
AcDbCircle
 10
31.300003051757813
 20
-23.250007629394531
 30
0.0
 40
1.5
100
AcDbArc
 50
0.0000409811350201
 51
89.999982013910454
  0
LINE
  5
458
100
AcDbEntity
  8
0
  6
CONTINUOUS
 62
               7
100
AcDbLine
 10
33.499992370605469
 20
15.300007629394528
 30
0.0
 11
30.499992370605469
 21
15.300007629394528
 31
0.0
  0
LINE
  5
459
100
AcDbEntity
  8
0
  6
CENTER
 62
               2
100
AcDbLine
 10
60.499992370605469
 20
-15.249992370605476
 30
0.0
 11
29.499992370605469
 21
-15.249992370605469
 31
0.0
  0
LINE
  5
45A
100
AcDbEntity
  8
0
  6
CONTINUOUS
 62
               7
100
AcDbLine
 10
33.499992415308952
 20
-30.299992311000821
 30
0.0
 11
37.599992364645004
 21
-23.198584097623822
 31
0.0
  0
LINE
  5
45B
100
AcDbEntity
  8
0
  6
CENTER
 62
               2
100
AcDbLine
 10
60.499992370605469
 20
0.2500076293945241
 30
0.0
 11
29.499992370605469
 21
0.2500076293945313
 31
0.0
  0
LINE
  5
45C
100
AcDbEntity
  8
0
  6
CONTINUOUS
 62
               7
100
AcDbLine
 10
32.800003051757813
 20
-23.250007629394531
 30
0.0
 11
32.800003051757813
 21
-24.750007629394531
 31
0.0
  0
LINE
  5
45D
100
AcDbEntity
  8
0
  6
CONTINUOUS
 62
               7
100
AcDbLine
 10
33.699981689453125
 20
13.249984741210938
 30
0.0
 11
33.499984741210938
 21
13.249984741210938
 31
0.0
  0
LINE
  5
45E
100
AcDbEntity
  8
0
  6
CONTINUOUS
 62
               7
100
AcDbLine
 10
35.199996948242187
 20
11.749984741210937
 30
0.0
 11
35.199996948242187
 21
10.249984741210937
 31
0.0
  0
LINE
  5
45F
100
AcDbEntity
  8
0
  6
CONTINUOUS
 62
               7
100
AcDbLine
 10
33.699981689453125
 20
8.7499847412109375
 30
0.0
 11
33.499984741210938
 21
8.7499847412109375
 31
0.0
  0
ARC
  5
460
100
AcDbEntity
  8
0
  6
CONTINUOUS
 62
               7
100
AcDbCircle
 10
33.699981689453125
 20
11.749984741210937
 30
0.0
 40
1.5
100
AcDbArc
 50
0.0000409811350201
 51
89.999982013910454
  0
ARC
  5
461
100
AcDbEntity
  8
0
  6
CONTINUOUS
 62
               7
100
AcDbCircle
 10
33.699981689453125
 20
10.249984741210937
 30
0.0
 40
1.5
100
AcDbArc
 50
270.00007262760209
 51
0.0000409811350201
  0
LINE
  5
462
100
AcDbEntity
  8
0
  6
CONTINUOUS
 62
               7
100
AcDbLine
 10
33.499992415308952
 20
15.300007569789884
 30
0.0
 11
37.599992364645004
 21
8.1985993564128847
 31
0.0
  0
LINE
  5
463
100
AcDbEntity
  8
0
  6
CONTINUOUS
 62
               7
100
AcDbLine
 10
55.336038370605479
 20
-7.2499923706054687
 30
0.0
 11
55.336038370605479
 21
7.7500076293945312
 31
0.0
  0
LINE
  5
464
100
AcDbEntity
  8
0
  6
CONTINUOUS
 62
               7
100
AcDbLine
 10
55.79999237060548
 20
-6.4464027706054736
 30
0.0
 11
55.79999237060548
 21
6.9464188954211323
 31
0.0
  0
LINE
  5
465
100
AcDbEntity
  8
0
  6
CONTINUOUS
 62
               7
100
AcDbLine
 10
57.399990970605472
 20
-5.4499923706054716
 30
0.0
 11
57.399990970605472
 21
5.9500072293945152
 31
0.0
  0
LINE
  5
466
100
AcDbEntity
  8
0
  6
CONTINUOUS
 62
               7
100
AcDbLine
 10
53.999997370605456
 20
-7.2499923706054687
 30
0.0
 11
53.999997370605456
 21
7.7500076293945312
 31
0.0
  0
LINE
  5
467
100
AcDbEntity
  8
0
  6
CONTINUOUS
 62
               7
100
AcDbLine
 10
53.799997370605467
 20
-6.549992370605473
 30
0.0
 11
52.999997370605456
 21
-6.549992370605473
 31
0.0
  0
LINE
  5
468
100
AcDbEntity
  8
0
  6
CONTINUOUS
 62
               7
100
AcDbLine
 10
52.899997370605462
 20
-7.2499923706054687
 30
0.0
 11
52.899997370605462
 21
7.7500076293945312
 31
0.0
  0
LINE
  5
469
100
AcDbEntity
  8
0
  6
CONTINUOUS
 62
               7
100
AcDbLine
 10
46.09999737060545
 20
-7.2499923706054687
 30
0.0
 11
46.099997370605479
 21
7.7500076293945312
 31
0.0
  0
LINE
  5
46A
100
AcDbEntity
  8
0
  6
CONTINUOUS
 62
               7
100
AcDbLine
 10
45.899997370605462
 20
7.5500076293945142
 30
0.0
 11
45.699997370605473
 21
7.7500076293945312
 31
0.0
  0
LINE
  5
46B
100
AcDbEntity
  8
0
  6
CONTINUOUS
 62
               7
100
AcDbLine
 10
45.699997370605473
 20
-7.4999923706054759
 30
0.0
 11
45.699997370605473
 21
7.7500076293945312
 31
0.0
  0
LINE
  5
46C
100
AcDbEntity
  8
0
  6
CONTINUOUS
 62
               7
100
AcDbLine
 10
45.699997370605473
 20
-7.2499923706054687
 30
0.0
 11
37.59999737060545
 21
-7.2499923706054687
 31
0.0
  0
LINE
  5
46D
100
AcDbEntity
  8
0
  6
CONTINUOUS
 62
               7
100
AcDbLine
 10
45.899997370605462
 20
-7.0499923706054659
 30
0.0
 11
45.699997370605473
 21
-7.2499923706054687
 31
0.0
  0
LINE
  5
46E
100
AcDbEntity
  8
0
  6
CONTINUOUS
 62
               7
100
AcDbLine
 10
52.899997370605462
 20
7.7500076293945312
 30
0.0
 11
46.099997370605479
 21
7.7500076293945312
 31
0.0
  0
LINE
  5
46F
100
AcDbEntity
  8
0
  6
CONTINUOUS
 62
               7
100
AcDbLine
 10
52.999997370605456
 20
7.6500076293945227
 30
0.0
 11
52.899997370605462
 21
7.7500076293945312
 31
0.0
  0
LINE
  5
470
100
AcDbEntity
  8
0
  6
CONTINUOUS
 62
               7
100
AcDbLine
 10
52.999997370605456
 20
-7.1499923706054744
 30
0.0
 11
52.999997370605456
 21
7.6500076293945227
 31
0.0
  0
LINE
  5
471
100
AcDbEntity
  8
0
  6
CONTINUOUS
 62
               7
100
AcDbLine
 10
52.899997370605462
 20
-7.2499923706054687
 30
0.0
 11
52.999997370605456
 21
-7.1499923706054744
 31
0.0
  0
LINE
  5
472
100
AcDbEntity
  8
0
  6
CONTINUOUS
 62
               7
100
AcDbLine
 10
52.899997370605462
 20
-7.2499923706054687
 30
0.0
 11
46.09999737060545
 21
-7.2499923706054687
 31
0.0
  0
LINE
  5
473
100
AcDbEntity
  8
0
  6
CONTINUOUS
 62
               7
100
AcDbLine
 10
45.899997370605462
 20
-7.0499923706054659
 30
0.0
 11
45.899997370605462
 21
7.5500076293945142
 31
0.0
  0
LINE
  5
474
100
AcDbEntity
  8
0
  6
CONTINUOUS
 62
               7
100
AcDbLine
 10
45.899997370605462
 20
-7.0499923706054659
 30
0.0
 11
46.09999737060545
 21
-7.2499923706054687
 31
0.0
  0
LINE
  5
475
100
AcDbEntity
  8
0
  6
CONTINUOUS
 62
               7
100
AcDbLine
 10
45.899997370605462
 20
7.5500076293945142
 30
0.0
 11
46.099997370605479
 21
7.7500076293945312
 31
0.0
  0
LINE
  5
476
100
AcDbEntity
  8
0
  6
CONTINUOUS
 62
               7
100
AcDbLine
 10
55.336038370605479
 20
7.7500076293945312
 30
0.0
 11
53.999997370605456
 21
7.7500076293945312
 31
0.0
  0
LINE
  5
477
100
AcDbEntity
  8
0
  6
CONTINUOUS
 62
               7
100
AcDbLine
 10
55.336038370605479
 20
-7.2499923706054687
 30
0.0
 11
53.999997370605456
 21
-7.2499923706054687
 31
0.0
  0
LINE
  5
478
100
AcDbEntity
  8
0
  6
CONTINUOUS
 62
               7
100
AcDbLine
 10
53.799997370605467
 20
7.0500076293945142
 30
0.0
 11
52.999997370605456
 21
7.0500076293945142
 31
0.0
  0
LINE
  5
479
100
AcDbEntity
  8
0
  6
CONTINUOUS
 62
               7
100
AcDbLine
 10
55.79999237060548
 20
6.9464180293945219
 30
0.0
 11
56.399992370605474
 21
6.6000076293945256
 31
0.0
  0
LINE
  5
47A
100
AcDbEntity
  8
0
  6
CONTINUOUS
 62
               7
100
AcDbLine
 10
55.79999237060548
 20
-6.4464027706054736
 30
0.0
 11
56.399992370605474
 21
-6.0999923706054631
 31
0.0
  0
LINE
  5
47B
100
AcDbEntity
  8
0
  6
CONTINUOUS
 62
               7
100
AcDbLine
 10
53.799997370605467
 20
-7.0499923706054659
 30
0.0
 11
53.999997370605456
 21
-7.2499923706054687
 31
0.0
  0
LINE
  5
47C
100
AcDbEntity
  8
0
  6
CONTINUOUS
 62
               7
100
AcDbLine
 10
53.799997370605467
 20
7.5500076293945142
 30
0.0
 11
53.999997370605456
 21
7.7500076293945312
 31
0.0
  0
LINE
  5
47D
100
AcDbEntity
  8
0
  6
CONTINUOUS
 62
               7
100
AcDbLine
 10
53.799997370605467
 20
-7.0499923706054659
 30
0.0
 11
53.799997370605467
 21
7.5500076293945142
 31
0.0
  0
LINE
  5
47E
100
AcDbEntity
  8
0
  6
CONTINUOUS
 62
               7
100
AcDbLine
 10
55.336038370605479
 20
-7.2499923706054687
 30
0.0
 11
55.799991370605483
 21
-6.4464027706054736
 31
0.0
  0
LINE
  5
47F
100
AcDbEntity
  8
0
  6
CONTINUOUS
 62
               7
100
AcDbLine
 10
55.799991370605483
 20
6.9464180293945219
 30
0.0
 11
55.336038370605479
 21
7.7500076293945312
 31
0.0
  0
LINE
  5
480
100
AcDbEntity
  8
0
  6
CONTINUOUS
 62
               7
100
AcDbLine
 10
56.399992370605474
 20
-6.0999927706054677
 30
0.0
 11
56.399992370605474
 21
6.6000076293945256
 31
0.0
  0
LINE
  5
481
100
AcDbEntity
  8
0
  6
CONTINUOUS
 62
               7
100
AcDbLine
 10
57.79999237060548
 20
-4.6499923706054744
 30
0.0
 11
57.499991370605471
 21
-4.6499923706054744
 31
0.0
  0
LINE
  5
482
100
AcDbEntity
  8
0
  6
CONTINUOUS
 62
               7
100
AcDbLine
 10
57.499991370605471
 20
-5.3499919706054726
 30
0.0
 11
57.499991370605471
 21
5.8500072293945209
 31
0.0
  0
LINE
  5
483
100
AcDbEntity
  8
0
  6
CONTINUOUS
 62
               7
100
AcDbLine
 10
57.79999237060548
 20
5.1500076293945369
 30
0.0
 11
57.499991370605471
 21
5.1500076293945369
 31
0.0
  0
LINE
  5
484
100
AcDbEntity
  8
0
  6
CONTINUOUS
 62
               7
100
AcDbLine
 10
57.399991370605449
 20
-5.4499919706054669
 30
0.0
 11
57.499991370605471
 21
-5.3499919706054726
 31
0.0
  0
LINE
  5
485
100
AcDbEntity
  8
0
  6
CONTINUOUS
 62
               7
100
AcDbLine
 10
57.399991370605449
 20
-5.4499923706054716
 30
0.0
 11
56.399992370605474
 21
-5.4499923706054716
 31
0.0
  0
LINE
  5
486
100
AcDbEntity
  8
0
  6
CONTINUOUS
 62
               7
100
AcDbLine
 10
57.399991370605449
 20
5.9500072293945152
 30
0.0
 11
57.499991370605471
 21
5.8500072293945209
 31
0.0
  0
LINE
  5
487
100
AcDbEntity
  8
0
  6
CONTINUOUS
 62
               7
100
AcDbLine
 10
57.399991370605449
 20
5.9500076293945199
 30
0.0
 11
56.399992370605474
 21
5.9500076293945199
 31
0.0
  0
LINE
  5
488
100
AcDbEntity
  8
0
  6
CONTINUOUS
 62
               7
100
AcDbLine
 10
59.199989370605465
 20
-6.6499923706054744
 30
0.0
 11
58.29999237060548
 21
-6.6499923706054744
 31
0.0
  0
LINE
  5
489
100
AcDbEntity
  8
0
  6
CONTINUOUS
 62
               7
100
AcDbLine
 10
58.29999237060548
 20
-6.6499923706054744
 30
0.0
 11
58.29999237060548
 21
7.1500076293945227
 31
0.0
  0
LINE
  5
48A
100
AcDbEntity
  8
0
  6
CONTINUOUS
 62
               7
100
AcDbLine
 10
59.499992370605469
 20
6.8500061293945294
 30
0.0
 11
59.499992370605469
 21
-6.3499923706054631
 31
0.0
  0
LINE
  5
48B
100
AcDbEntity
  8
0
  6
CONTINUOUS
 62
               7
100
AcDbLine
 10
59.199989370605465
 20
7.1500076293945227
 30
0.0
 11
58.29999237060548
 21
7.1500076293945227
 31
0.0
  0
ARC
  5
48C
100
AcDbEntity
  8
0
  6
CONTINUOUS
 62
               7
100
AcDbCircle
 10
59.199989370605465
 20
-6.3499908706054669
 30
0.0
 40
0.3
100
AcDbArc
 50
270.0
 51
0.0
  0
ARC
  5
48D
100
AcDbEntity
  8
0
  6
CONTINUOUS
 62
               7
100
AcDbCircle
 10
57.79999237060548
 20
5.6500072293945323
 30
0.0
 40
0.5
100
AcDbArc
 50
270.0
 51
0.0
  0
ARC
  5
48E
100
AcDbEntity
  8
0
  6
CONTINUOUS
 62
               7
100
AcDbCircle
 10
59.199989370605465
 20
6.8500061293945294
 30
0.0
 40
0.3
100
AcDbArc
 50
359.9999999999992
 51
89.99999999999919
  0
LINE
  5
48F
100
AcDbEntity
  8
0
  6
CONTINUOUS
 62
               7
100
AcDbLine
 10
45.699997370605473
 20
7.7500076293945312
 30
0.0
 11
37.599997370605479
 21
7.750007629394517
 31
0.0
  0
LINE
  5
490
100
AcDbEntity
  8
0
  6
CONTINUOUS
 62
               7
100
AcDbLine
 10
37.541444258870627
 20
8.3000076293945284
 30
0.0
 11
33.499992370605469
 21
8.3000076293945284
 31
0.0
  0
LINE
  5
491
100
AcDbEntity
  8
0
  6
CONTINUOUS
 62
               7
100
AcDbLine
 10
33.499992370605469
 20
15.300007629394528
 30
0.0
 11
33.499992370605469
 21
8.3000076293945284
 31
0.0
  0
LINE
  5
492
100
AcDbEntity
  8
0
  6
CONTINUOUS
 62
               7
100
AcDbLine
 10
37.599992370605463
 20
8.1985993251825704
 30
0.0
 11
37.599992370605463
 21
-7.4999923706054687
 31
0.0
  0
LINE
  5
493
100
AcDbEntity
  8
0
  6
CONTINUOUS
 62
               7
100
AcDbLine
 10
45.699997370605473
 20
-7.4999923706054759
 30
0.0
 11
45.699997370605473
 21
-22.749992370605483
 31
0.0
  0
LINE
  5
494
100
AcDbEntity
  8
0
  6
CONTINUOUS
 62
               7
100
AcDbLine
 10
37.599992370605463
 20
-23.198584066393508
 30
0.0
 11
37.599992370605463
 21
-7.4999923706054687
 31
0.0
  0
LINE
  5
495
100
AcDbEntity
  8
0
  6
CONTINUOUS
 62
               7
100
AcDbLine
 10
45.699997370605473
 20
-22.749992370605483
 30
0.0
 11
37.599997370605479
 21
-22.749992370605455
 31
0.0
  0
ARC
  5
496
100
AcDbEntity
  8
0
  6
CONTINUOUS
 62
               7
100
AcDbCircle
 10
59.199989370605465
 20
-21.849990870605481
 30
0.0
 40
0.3
100
AcDbArc
 50
270.0
 51
0.0000000000008142
  0
ARC
  5
497
100
AcDbEntity
  8
0
  6
CONTINUOUS
 62
               7
100
AcDbCircle
 10
57.79999237060548
 20
-20.649991970605484
 30
0.0
 40
0.5
100
AcDbArc
 50
0.0
 51
90.0
  0
ARC
  5
498
100
AcDbEntity
  8
0
  6
CONTINUOUS
 62
               7
100
AcDbCircle
 10
57.79999237060548
 20
-9.849992770605482
 30
0.0
 40
0.5
100
AcDbArc
 50
270.0
 51
0.0000000000008142
  0
ARC
  5
499
100
AcDbEntity
  8
0
  6
CONTINUOUS
 62
               7
100
AcDbCircle
 10
59.199989370605465
 20
-8.6499938706054849
 30
0.0
 40
0.3
100
AcDbArc
 50
0.0
 51
90.0
  0
LINE
  5
49A
100
AcDbEntity
  8
0
  6
CONTINUOUS
 62
               7
100
AcDbLine
 10
59.199989370605465
 20
-22.149992370605474
 30
0.0
 11
58.29999237060548
 21
-22.149992370605474
 31
0.0
  0
LINE
  5
49B
100
AcDbEntity
  8
0
  6
CONTINUOUS
 62
               7
100
AcDbLine
 10
59.499992370605469
 20
-21.849990870605481
 30
0.0
 11
59.499992370605469
 21
-8.6499923706054886
 31
0.0
  0
LINE
  5
49C
100
AcDbEntity
  8
0
  6
CONTINUOUS
 62
               7
100
AcDbLine
 10
58.29999237060548
 20
-8.3499923706054773
 30
0.0
 11
58.29999237060548
 21
-22.149992370605474
 31
0.0
  0
LINE
  5
49D
100
AcDbEntity
  8
0
  6
CONTINUOUS
 62
               7
100
AcDbLine
 10
59.199989370605465
 20
-8.3499923706054773
 30
0.0
 11
58.29999237060548
 21
-8.3499923706054773
 31
0.0
  0
LINE
  5
49E
100
AcDbEntity
  8
0
  6
CONTINUOUS
 62
               7
100
AcDbLine
 10
57.399991370605449
 20
-20.949992370605472
 30
0.0
 11
56.399992370605474
 21
-20.949992370605472
 31
0.0
  0
LINE
  5
49F
100
AcDbEntity
  8
0
  6
CONTINUOUS
 62
               7
100
AcDbLine
 10
57.399991370605449
 20
-20.949991970605467
 30
0.0
 11
57.499991370605471
 21
-20.849991970605473
 31
0.0
  0
LINE
  5
4A0
100
AcDbEntity
  8
0
  6
CONTINUOUS
 62
               7
100
AcDbLine
 10
57.399991370605449
 20
-9.5499923706054801
 30
0.0
 11
56.399992370605474
 21
-9.5499923706054801
 31
0.0
  0
LINE
  5
4A1
100
AcDbEntity
  8
0
  6
CONTINUOUS
 62
               7
100
AcDbLine
 10
57.399991370605449
 20
-9.5499927706054848
 30
0.0
 11
57.499991370605471
 21
-9.6499927706054791
 31
0.0
  0
LINE
  5
4A2
100
AcDbEntity
  8
0
  6
CONTINUOUS
 62
               7
100
AcDbLine
 10
57.79999237060548
 20
-20.149992370605489
 30
0.0
 11
57.499991370605471
 21
-20.149992370605489
 31
0.0
  0
LINE
  5
4A3
100
AcDbEntity
  8
0
  6
CONTINUOUS
 62
               7
100
AcDbLine
 10
57.499991370605471
 20
-9.6499927706054791
 30
0.0
 11
57.499991370605471
 21
-20.849991970605473
 31
0.0
  0
LINE
  5
4A4
100
AcDbEntity
  8
0
  6
CONTINUOUS
 62
               7
100
AcDbLine
 10
57.79999237060548
 20
-10.349992370605477
 30
0.0
 11
57.499991370605471
 21
-10.349992370605477
 31
0.0
  0
LINE
  5
4A5
100
AcDbEntity
  8
0
  6
CONTINUOUS
 62
               7
100
AcDbLine
 10
56.399992370605474
 20
-8.899991970605484
 30
0.0
 11
56.399992370605474
 21
-21.599992370605477
 31
0.0
  0
LINE
  5
4A6
100
AcDbEntity
  8
0
  6
CONTINUOUS
 62
               7
100
AcDbLine
 10
55.799991370605483
 20
-21.946402770605474
 30
0.0
 11
55.336038370605479
 21
-22.749992370605483
 31
0.0
  0
LINE
  5
4A7
100
AcDbEntity
  8
0
  6
CONTINUOUS
 62
               7
100
AcDbLine
 10
55.336038370605479
 20
-7.749992370605483
 30
0.0
 11
55.799991370605483
 21
-8.5535819706054781
 31
0.0
  0
LINE
  5
4A8
100
AcDbEntity
  8
0
  6
CONTINUOUS
 62
               7
100
AcDbLine
 10
53.799997370605467
 20
-7.9499923706054858
 30
0.0
 11
53.799997370605467
 21
-22.549992370605466
 31
0.0
  0
LINE
  5
4A9
100
AcDbEntity
  8
0
  6
CONTINUOUS
 62
               7
100
AcDbLine
 10
53.799997370605467
 20
-22.549992370605466
 30
0.0
 11
53.999997370605456
 21
-22.749992370605483
 31
0.0
  0
LINE
  5
4AA
100
AcDbEntity
  8
0
  6
CONTINUOUS
 62
               7
100
AcDbLine
 10
53.799997370605467
 20
-7.9499923706054858
 30
0.0
 11
53.999997370605456
 21
-7.749992370605483
 31
0.0
  0
LINE
  5
4AB
100
AcDbEntity
  8
0
  6
CONTINUOUS
 62
               7
100
AcDbLine
 10
55.79999237060548
 20
-8.5535819706054781
 30
0.0
 11
56.399992370605474
 21
-8.8999923706054886
 31
0.0
  0
LINE
  5
4AC
100
AcDbEntity
  8
0
  6
CONTINUOUS
 62
               7
100
AcDbLine
 10
55.79999237060548
 20
-21.946402770605474
 30
0.0
 11
56.399992370605474
 21
-21.599992370605477
 31
0.0
  0
LINE
  5
4AD
100
AcDbEntity
  8
0
  6
CONTINUOUS
 62
               7
100
AcDbLine
 10
53.799997370605467
 20
-22.049992370605466
 30
0.0
 11
52.999997370605456
 21
-22.049992370605466
 31
0.0
  0
LINE
  5
4AE
100
AcDbEntity
  8
0
  6
CONTINUOUS
 62
               7
100
AcDbLine
 10
55.336038370605479
 20
-7.749992370605483
 30
0.0
 11
53.999997370605456
 21
-7.749992370605483
 31
0.0
  0
LINE
  5
4AF
100
AcDbEntity
  8
0
  6
CONTINUOUS
 62
               7
100
AcDbLine
 10
55.336038370605479
 20
-22.749992370605483
 30
0.0
 11
53.999997370605456
 21
-22.749992370605483
 31
0.0
  0
LINE
  5
4B0
100
AcDbEntity
  8
0
  6
CONTINUOUS
 62
               7
100
AcDbLine
 10
45.899997370605462
 20
-22.549992370605466
 30
0.0
 11
46.099997370605479
 21
-22.749992370605483
 31
0.0
  0
LINE
  5
4B1
100
AcDbEntity
  8
0
  6
CONTINUOUS
 62
               7
100
AcDbLine
 10
45.899997370605462
 20
-7.9499923706054858
 30
0.0
 11
46.09999737060545
 21
-7.749992370605483
 31
0.0
  0
LINE
  5
4B2
100
AcDbEntity
  8
0
  6
CONTINUOUS
 62
               7
100
AcDbLine
 10
45.899997370605462
 20
-7.9499923706054858
 30
0.0
 11
45.899997370605462
 21
-22.549992370605466
 31
0.0
  0
LINE
  5
4B3
100
AcDbEntity
  8
0
  6
CONTINUOUS
 62
               7
100
AcDbLine
 10
52.899997370605462
 20
-7.749992370605483
 30
0.0
 11
46.09999737060545
 21
-7.749992370605483
 31
0.0
  0
LINE
  5
4B4
100
AcDbEntity
  8
0
  6
CONTINUOUS
 62
               7
100
AcDbLine
 10
52.899997370605462
 20
-7.749992370605483
 30
0.0
 11
52.999997370605456
 21
-7.8499923706054773
 31
0.0
  0
LINE
  5
4B5
100
AcDbEntity
  8
0
  6
CONTINUOUS
 62
               7
100
AcDbLine
 10
52.999997370605456
 20
-7.8499923706054773
 30
0.0
 11
52.999997370605456
 21
-22.649992370605474
 31
0.0
  0
LINE
  5
4B6
100
AcDbEntity
  8
0
  6
CONTINUOUS
 62
               7
100
AcDbLine
 10
52.999997370605456
 20
-22.649992370605474
 30
0.0
 11
52.899997370605462
 21
-22.749992370605483
 31
0.0
  0
LINE
  5
4B7
100
AcDbEntity
  8
0
  6
CONTINUOUS
 62
               7
100
AcDbLine
 10
52.899997370605462
 20
-22.749992370605483
 30
0.0
 11
46.099997370605479
 21
-22.749992370605483
 31
0.0
  0
LINE
  5
4B8
100
AcDbEntity
  8
0
  6
CONTINUOUS
 62
               7
100
AcDbLine
 10
45.899997370605462
 20
-7.9499923706054858
 30
0.0
 11
45.699997370605473
 21
-7.749992370605483
 31
0.0
  0
LINE
  5
4B9
100
AcDbEntity
  8
0
  6
CONTINUOUS
 62
               7
100
AcDbLine
 10
45.699997370605473
 20
-7.749992370605483
 30
0.0
 11
37.59999737060545
 21
-7.7499923706054687
 31
0.0
  0
LINE
  5
4BA
100
AcDbEntity
  8
0
  6
CONTINUOUS
 62
               7
100
AcDbLine
 10
45.899997370605462
 20
-22.549992370605466
 30
0.0
 11
45.699997370605473
 21
-22.749992370605483
 31
0.0
  0
LINE
  5
4BB
100
AcDbEntity
  8
0
  6
CONTINUOUS
 62
               7
100
AcDbLine
 10
46.09999737060545
 20
-7.749992370605483
 30
0.0
 11
46.099997370605479
 21
-22.749992370605483
 31
0.0
  0
LINE
  5
4BC
100
AcDbEntity
  8
0
  6
CONTINUOUS
 62
               7
100
AcDbLine
 10
52.899997370605462
 20
-7.749992370605483
 30
0.0
 11
52.899997370605462
 21
-22.749992370605483
 31
0.0
  0
LINE
  5
4BD
100
AcDbEntity
  8
0
  6
CONTINUOUS
 62
               7
100
AcDbLine
 10
53.799997370605467
 20
-8.4499923706054787
 30
0.0
 11
52.999997370605456
 21
-8.4499923706054787
 31
0.0
  0
LINE
  5
4BE
100
AcDbEntity
  8
0
  6
CONTINUOUS
 62
               7
100
AcDbLine
 10
53.999997370605456
 20
-7.749992370605483
 30
0.0
 11
53.999997370605456
 21
-22.749992370605483
 31
0.0
  0
LINE
  5
4BF
100
AcDbEntity
  8
0
  6
CONTINUOUS
 62
               7
100
AcDbLine
 10
57.399990970605472
 20
-9.5499923706054801
 30
0.0
 11
57.399990970605472
 21
-20.949991970605467
 31
0.0
  0
LINE
  5
4C0
100
AcDbEntity
  8
0
  6
CONTINUOUS
 62
               7
100
AcDbLine
 10
55.79999237060548
 20
-8.5535819706054781
 30
0.0
 11
55.79999237060548
 21
-21.946403636632084
 31
0.0
  0
LINE
  5
4C1
100
AcDbEntity
  8
0
  6
CONTINUOUS
 62
               7
100
AcDbLine
 10
55.336038370605479
 20
-7.749992370605483
 30
0.0
 11
55.336038370605479
 21
-22.749992370605483
 31
0.0
  0
LINE
  5
4C2
100
AcDbEntity
  8
0
  6
CONTINUOUS
 62
               7
100
AcDbLine
 10
30.5
 20
-26.500007629394531
 30
0.0
 11
31.100006103515625
 21
-26.500007629394531
 31
0.0
  0
LINE
  5
4C3
100
AcDbEntity
  8
0
  6
CONTINUOUS
 62
               7
100
AcDbLine
 10
30.5
 20
-21.500007629394531
 30
0.0
 11
31.100006103515625
 21
-21.500007629394531
 31
0.0
  0
LINE
  5
4C4
100
AcDbEntity
  8
0
  6
CONTINUOUS
 62
               7
100
AcDbLine
 10
30.500000567252755
 20
-24.750556693241379
 30
0.0
 11
31.100004881722271
 21
-24.404144034549972
 31
0.0
  0
LINE
  5
4C5
100
AcDbEntity
  8
0
  6
CONTINUOUS
 62
               7
100
AcDbLine
 10
30.499997555394657
 20
-23.595857904121658
 30
0.0
 11
31.100001869864172
 21
-23.249445245430252
 31
0.0
  0
LINE
  5
4C6
100
AcDbEntity
  8
0
  6
CONTINUOUS
 62
               7
100
AcDbLine
 10
31.300003051757813
 20
-26.250003814697266
 30
0.0
 11
31.100006103515625
 21
-26.250003814697266
 31
0.0
  0
LINE
  5
4C7
100
AcDbEntity
  8
0
  6
CONTINUOUS
 62
               7
100
AcDbLine
 10
31.300003051757813
 20
-21.750003814697266
 30
0.0
 11
31.100006103515625
 21
-21.750003814697266
 31
0.0
  0
LINE
  5
4C8
100
AcDbEntity
  8
0
  6
CONTINUOUS
 62
               7
100
AcDbLine
 10
31.100006103515625
 20
-26.500007629394531
 30
0.0
 11
31.100006103515625
 21
-21.500007629394531
 31
0.0
  0
LINE
  5
4C9
100
AcDbEntity
  8
0
  6
CONTINUOUS
 62
               7
100
AcDbLine
 10
33.499992370605469
 20
-30.299992370605466
 30
0.0
 11
30.499992370605469
 21
-30.299992370605466
 31
0.0
  0
LINE
  5
4CA
100
AcDbEntity
  8
0
  6
CONTINUOUS
 62
               7
100
AcDbLine
 10
2.9999925415036879
 20
-30.499969444672427
 30
0.0
 11
2.9999960144045179
 21
15.500000037749313
 31
0.0
  0
LINE
  5
4CB
100
AcDbEntity
  8
0
  6
CONTINUOUS
 62
               7
100
AcDbLine
 10
3.499998263549585
 20
-30.499969482421807
 30
0.0
 11
2.9999925415036879
 21
-30.499969444672427
 31
0.0
  0
LINE
  5
4CC
100
AcDbEntity
  8
0
  6
CONTINUOUS
 62
               7
100
AcDbLine
 10
3.500001736450415
 20
15.499999999999932
 30
0.0
 11
2.9999960144045179
 21
15.500000037749313
 31
0.0
  0
ARC
  5
4CD
100
AcDbEntity
  8
0
  6
CONTINUOUS
 62
               7
100
AcDbCircle
 10
57.79999237060548
 20
-5.1499919706054831
 30
0.0
 40
0.5
100
AcDbArc
 50
0.0
 51
90.0
  0
ENDBLK
  5
4CE
100
AcDbEntity
  8
0
100
AcDbBlockEnd
  0
BLOCK
  5
4CF
100
AcDbEntity
  8
0
100
AcDbBlockBegin
  2
F15T0-12
 70
               0
 10
0.0
 20
0.0
 30
0.0
  3
F15T0-12
  1

  0
LINE
  5
4D0
100
AcDbEntity
  8
0
  6
CONTINUOUS
 62
               4
100
AcDbLine
 10
3.0000152587890625
 20
61.349988034929027
 30
0.0
 11
13.000015258789062
 21
61.349988034929027
 31
0.0
  0
LINE
  5
4D1
100
AcDbEntity
  8
0
  6
CONTINUOUS
 62
               4
100
AcDbLine
 10
3.0500030517578125
 20
61.349972776139964
 30
0.0
 11
3.0500030517578125
 21
81.349972776139964
 31
0.0
  0
LINE
  5
4D2
100
AcDbEntity
  8
0
  6
CONTINUOUS
 62
               4
100
AcDbLine
 10
12.949996948242187
 20
61.349972776139964
 30
0.0
 11
12.949996948242187
 21
81.349972776139964
 31
0.0
  0
LINE
  5
4D3
100
AcDbEntity
  8
0
  6
CONTINUOUS
 62
               4
100
AcDbLine
 10
9.2849884033203125
 20
81.349972776139964
 30
0.0
 11
9.2849884033203125
 21
85.176648191179027
 31
0.0
  0
LINE
  5
4D4
100
AcDbEntity
  8
0
  6
CONTINUOUS
 62
               4
100
AcDbLine
 10
10.715011596679687
 20
81.349972776139964
 30
0.0
 11
10.715011596679687
 21
85.559826902116527
 31
0.0
  0
LINE
  5
4D5
100
AcDbEntity
  8
0
  6
CONTINUOUS
 62
               4
100
AcDbLine
 10
9.5999908447265625
 20
89.349972776139964
 30
0.0
 11
9.5999908447265625
 21
94.349972776139964
 31
0.0
  0
LINE
  5
4D6
100
AcDbEntity
  8
0
  6
CONTINUOUS
 62
               4
100
AcDbLine
 10
10.400009155273437
 20
89.349972776139964
 30
0.0
 11
10.400009155273437
 21
94.349972776139964
 31
0.0
  0
LINE
  5
4D7
100
AcDbEntity
  8
0
  6
CONTINUOUS
 62
               4
100
AcDbLine
 10
9.5999908447265625
 20
94.349972776139964
 30
0.0
 11
10.399993896484375
 21
94.349972776139964
 31
0.0
  0
LINE
  5
4D8
100
AcDbEntity
  8
0
  6
CONTINUOUS
 62
               4
100
AcDbLine
 10
9.2849884033203125
 20
89.349972776139964
 30
0.0
 11
10.714996337890625
 21
89.349972776139964
 31
0.0
  0
LINE
  5
4D9
100
AcDbEntity
  8
0
  6
CONTINUOUS
 62
               4
100
AcDbLine
 10
9.2849884033203125
 20
86.211926511491527
 30
0.0
 11
9.2849884033203125
 21
89.349972776139964
 31
0.0
  0
LINE
  5
4DA
100
AcDbEntity
  8
0
  6
CONTINUOUS
 62
               4
100
AcDbLine
 10
10.715011596679687
 20
86.595105222429027
 30
0.0
 11
10.715011596679687
 21
89.349972776139964
 31
0.0
  0
LINE
  5
4DB
100
AcDbEntity
  8
0
  6
CONTINUOUS
 62
               4
100
AcDbLine
 10
3.0500030517578125
 20
81.349972776139964
 30
0.0
 11
12.949996948242187
 21
81.349972776139964
 31
0.0
  0
LINE
  5
4DC
100
AcDbEntity
  8
0
  6
CONTINUOUS
 62
               4
100
AcDbLine
 10
7.4000091552734375
 20
71.849972776139964
 30
0.0
 11
8.5999908447265625
 21
71.849972776139964
 31
0.0
  0
LINE
  5
4DD
100
AcDbEntity
  8
0
  6
CONTINUOUS
 62
               4
100
AcDbLine
 10
8.5999908447265625
 20
74.849972776139964
 30
0.0
 11
8.5999908447265625
 21
71.849972776139964
 31
0.0
  0
LINE
  5
4DE
100
AcDbEntity
  8
0
  6
CONTINUOUS
 62
               4
100
AcDbLine
 10
7.4000091552734375
 20
74.849972776139964
 30
0.0
 11
7.4000091552734375
 21
71.849972776139964
 31
0.0
  0
LINE
  5
4DF
100
AcDbEntity
  8
0
  6
CONTINUOUS
 62
               4
100
AcDbLine
 10
9.1000608294962149
 20
74.849938507729291
 30
0.0
 11
8.6000586128257055
 21
74.3499396628103
 31
0.0
  0
LINE
  5
4E0
100
AcDbEntity
  8
0
  6
CONTINUOUS
 62
               4
100
AcDbLine
 10
6.8999911610262643
 20
74.849943353802644
 30
0.0
 11
7.399981112957903
 21
74.34995382333085
 31
0.0
  0
LINE
  5
4E1
100
AcDbEntity
  8
0
  6
CONTINUOUS
 62
               4
100
AcDbLine
 10
3.0500030517578125
 20
80.349972776139964
 30
0.0
 11
12.949996948242187
 21
80.349972776139964
 31
0.0
  0
LINE
  5
4E2
100
AcDbEntity
  8
0
  6
CONTINUOUS
 62
               4
100
AcDbLine
 10
3.0500030517578125
 20
74.849972776139964
 30
0.0
 11
7.4000091552734375
 21
74.849972776139964
 31
0.0
  0
LINE
  5
4E3
100
AcDbEntity
  8
0
  6
CONTINUOUS
 62
               4
100
AcDbLine
 10
8.5999908447265625
 20
74.849972776139964
 30
0.0
 11
12.949996948242187
 21
74.849972776139964
 31
0.0
  0
LINE
  5
4E4
100
AcDbEntity
  8
0
  6
CONTINUOUS
 62
             200
100
AcDbLine
 10
8.0
 20
84.832338176800079
 30
0.0
 11
12.049974597447545
 21
85.917525608648191
 31
0.0
  0
LINE
  5
4E5
100
AcDbEntity
  8
0
  6
CONTINUOUS
 62
             200
100
AcDbLine
 10
8.0
 20
85.867614343830724
 30
0.0
 11
12.049969904265708
 21
86.952800518144556
 31
0.0
  0
LINE
  5
4E6
100
AcDbEntity
  8
0
  6
CONTINUOUS
 62
               4
100
AcDbLine
 10
12.949996948242187
 20
70.349972776139964
 30
0.0
 11
3.0500030517578125
 21
70.349972776139964
 31
0.0
  0
LINE
  5
4E7
100
AcDbEntity
  8
0
  6
CONTINUOUS
 62
               4
100
AcDbLine
 10
9.1700000000000017
 20
56.049988034929044
 30
0.0
 11
10.829999999999998
 21
56.049988034929044
 31
0.0
  0
LINE
  5
4E8
100
AcDbEntity
  8
0
  6
CONTINUOUS
 62
               4
100
AcDbLine
 10
5.1700000000000017
 20
56.049988034929044
 30
0.0
 11
6.8299999999999983
 21
56.049988034929044
 31
0.0
  0
LINE
  5
4E9
100
AcDbEntity
  8
0
  6
CONTINUOUS
 62
               4
100
AcDbLine
 10
10.829999999999998
 20
56.049988034929044
 30
0.0
 11
10.829999999999998
 21
61.349988034929027
 31
0.0
  0
LINE
  5
4EA
100
AcDbEntity
  8
0
  6
CONTINUOUS
 62
               4
100
AcDbLine
 10
9.1700000000000017
 20
56.049988034929044
 30
0.0
 11
9.1700000000000017
 21
61.349988034929027
 31
0.0
  0
LINE
  5
4EB
100
AcDbEntity
  8
0
  6
CONTINUOUS
 62
               4
100
AcDbLine
 10
6.8299999999999983
 20
56.049988034929044
 30
0.0
 11
6.8299999999999983
 21
61.349988034929027
 31
0.0
  0
LINE
  5
4EC
100
AcDbEntity
  8
0
  6
CONTINUOUS
 62
               4
100
AcDbLine
 10
5.1700000000000017
 20
56.049988034929044
 30
0.0
 11
5.1700000000000017
 21
61.349988034929027
 31
0.0
  0
LINE
  5
4ED
100
AcDbEntity
  8
0
  6
CONTINUOUS
 62
               4
100
AcDbLine
 10
10.599999999999994
 20
56.049988034929044
 30
0.0
 11
10.599999999999994
 21
61.349988034929027
 31
0.0
  0
LINE
  5
4EE
100
AcDbEntity
  8
0
  6
CONTINUOUS
 62
               4
100
AcDbLine
 10
9.4000000000000057
 20
56.049988034929044
 30
0.0
 11
9.4000000000000057
 21
61.349988034929027
 31
0.0
  0
LINE
  5
4EF
100
AcDbEntity
  8
0
  6
CONTINUOUS
 62
               4
100
AcDbLine
 10
6.5999999999999943
 20
56.049988034929044
 30
0.0
 11
6.5999999999999943
 21
61.349988034929027
 31
0.0
  0
LINE
  5
4F0
100
AcDbEntity
  8
0
  6
CONTINUOUS
 62
               4
100
AcDbLine
 10
5.4000000000000057
 20
56.049988034929044
 30
0.0
 11
5.4000000000000057
 21
61.349988034929027
 31
0.0
  0
LINE
  5
4F1
100
AcDbEntity
  8
0
  6
CONTINUOUS
 62
               4
100
AcDbLine
 10
12.299999999999997
 20
54.349957517350902
 30
0.0
 11
13.0
 21
54.349957517350902
 31
0.0
  0
LINE
  5
4F2
100
AcDbEntity
  8
0
  6
CONTINUOUS
 62
               4
100
AcDbLine
 10
3.6165515765444525
 20
54.349957517350902
 30
0.0
 11
3.6165515765444525
 21
61.349988034929027
 31
0.0
  0
LINE
  5
4F3
100
AcDbEntity
  8
0
  6
CONTINUOUS
 62
               4
100
AcDbLine
 10
12.299999999999997
 20
54.349957517350902
 30
0.0
 11
12.299999999999997
 21
61.349988034929027
 31
0.0
  0
LINE
  5
4F4
100
AcDbEntity
  8
0
  6
CONTINUOUS
 62
               4
100
AcDbLine
 10
3.0
 20
54.349957517350902
 30
0.0
 11
3.6165515780448914
 21
54.349957517350902
 31
0.0
  0
LINE
  5
4F5
100
AcDbEntity
  8
0
  6
CONTINUOUS
 62
               7
100
AcDbLine
 10
3.0
 20
37.349972776139964
 30
0.0
 11
13.0
 21
37.349972776139964
 31
0.0
  0
LINE
  5
4F6
100
AcDbEntity
  8
0
  6
CONTINUOUS
 62
               4
100
AcDbLine
 10
3.0
 20
37.249966672624339
 30
0.0
 11
3.0
 21
61.349972776139964
 31
0.0
  0
LINE
  5
4F7
100
AcDbEntity
  8
0
  6
CONTINUOUS
 62
               4
100
AcDbLine
 10
13.0
 20
37.249966672624339
 30
0.0
 11
13.0
 21
61.349972776139964
 31
0.0
  0
LINE
  5
4F8
100
AcDbEntity
  8
0
  6
CONTINUOUS
 62
               7
100
AcDbLine
 10
3.0
 20
25.849972776139964
 30
0.0
 11
13.0
 21
25.849972776139964
 31
0.0
  0
LINE
  5
4F9
100
AcDbEntity
  8
0
  6
CONTINUOUS
 62
               7
100
AcDbLine
 10
15.5
 20
-38.650027223860036
 30
0.0
 11
15.5
 21
-30.150027223860036
 31
0.0
  0
LINE
  5
4FA
100
AcDbEntity
  8
0
  6
CONTINUOUS
 62
               7
100
AcDbLine
 10
0.5
 20
-38.650027223860036
 30
0.0
 11
0.5
 21
-30.150027223860036
 31
0.0
  0
LINE
  5
4FB
100
AcDbEntity
  8
0
  6
CONTINUOUS
 62
               7
100
AcDbLine
 10
2.5000242030200752
 20
26.349982269134614
 30
0.0
 11
0.5000102787171272
 21
24.349970367893491
 31
0.0
  0
LINE
  5
4FC
100
AcDbEntity
  8
0
  6
CONTINUOUS
 62
               7
100
AcDbLine
 10
13.499976495608507
 20
26.349976579311772
 30
0.0
 11
15.499989239792058
 21
24.349963497951251
 31
0.0
  0
LINE
  5
4FD
100
AcDbEntity
  8
0
  6
CONTINUOUS
 62
               7
100
AcDbLine
 10
0.9999847412109375
 20
-39.150027223860036
 30
0.0
 11
15.0
 21
-39.150027223860036
 31
0.0
  0
LINE
  5
4FE
100
AcDbEntity
  8
0
  6
CONTINUOUS
 62
               7
100
AcDbLine
 10
0.5
 20
15.849957517350902
 30
0.0
 11
0.5
 21
24.349972776139964
 31
0.0
  0
LINE
  5
4FF
100
AcDbEntity
  8
0
  6
CONTINUOUS
 62
               7
100
AcDbLine
 10
15.5
 20
15.849957517350902
 30
0.0
 11
15.5
 21
24.349972776139964
 31
0.0
  0
LINE
  5
500
100
AcDbEntity
  8
0
  6
CONTINUOUS
 62
               7
100
AcDbLine
 10
6.25
 20
-37.150027223860036
 30
0.0
 11
6.25
 21
-36.650027223860036
 31
0.0
  0
LINE
  5
501
100
AcDbEntity
  8
0
  6
CONTINUOUS
 62
               7
100
AcDbLine
 10
0.7500152587890625
 20
-37.150027223860036
 30
0.0
 11
0.7500152587890625
 21
-36.650027223860036
 31
0.0
  0
LINE
  5
502
100
AcDbEntity
  8
0
  6
CONTINUOUS
 62
               7
100
AcDbLine
 10
4.75
 20
-38.650027223860036
 30
0.0
 11
2.25
 21
-38.650027223860036
 31
0.0
  0
LINE
  5
503
100
AcDbEntity
  8
0
  6
CONTINUOUS
 62
               7
100
AcDbLine
 10
6.6999969482421875
 20
-38.850024172102223
 30
0.0
 11
6.6999969482421875
 21
-36.950030275617848
 31
0.0
  0
LINE
  5
504
100
AcDbEntity
  8
0
  6
CONTINUOUS
 62
               7
100
AcDbLine
 10
6.399993896484375
 20
-36.650027223860036
 30
0.0
 11
0.5
 21
-36.650027223860036
 31
0.0
  0
LINE
  5
505
100
AcDbEntity
  8
0
  6
CONTINUOUS
 62
               7
100
AcDbLine
 10
3.0
 20
37.249966672624339
 30
0.0
 11
13.0
 21
37.249966672624339
 31
0.0
  0
LINE
  5
506
100
AcDbEntity
  8
0
  6
CONTINUOUS
 62
               7
100
AcDbLine
 10
3.0
 20
27.849972776139964
 30
0.0
 11
13.0
 21
27.849972776139964
 31
0.0
  0
LINE
  5
507
100
AcDbEntity
  8
0
  6
CONTINUOUS
 62
               7
100
AcDbLine
 10
13.0
 20
25.849972776139964
 30
0.0
 11
13.0
 21
37.249966672624339
 31
0.0
  0
LINE
  5
508
100
AcDbEntity
  8
0
  6
CONTINUOUS
 62
               7
100
AcDbLine
 10
3.0
 20
25.849972776139964
 30
0.0
 11
3.0
 21
37.249966672624339
 31
0.0
  0
LINE
  5
509
100
AcDbEntity
  8
0
  6
CONTINUOUS
 62
               2
100
AcDbLine
 10
8.0
 20
-52.452898927961598
 30
0.0
 11
8.0
 21
83.105038694108714
 31
0.0
  0
LINE
  5
50A
100
AcDbEntity
  8
0
  6
CONTINUOUS
 62
               7
100
AcDbLine
 10
0.0
 20
15.849957517350902
 30
0.0
 11
16.0
 21
15.849957517350902
 31
0.0
  0
LINE
  5
50B
100
AcDbEntity
  8
0
  6
CONTINUOUS
 62
               7
100
AcDbLine
 10
0.0
 20
-30.150027223860036
 30
0.0
 11
16.0
 21
-30.150027223860036
 31
0.0
  0
LINE
  5
50C
100
AcDbEntity
  8
0
  6
CONTINUOUS
 62
               2
100
AcDbLine
 10
13.019912719726563
 20
-21.650019594465505
 30
0.0
 11
1.1851043701171875
 21
-21.650019594465505
 31
0.0
  0
LINE
  5
50D
100
AcDbEntity
  8
0
  6
CONTINUOUS
 62
               2
100
AcDbLine
 10
9.0
 20
12.908215573991527
 30
0.0
 11
9.0
 21
1.4094667946946515
 31
0.0
  0
LINE
  5
50E
100
AcDbEntity
  8
0
  6
CONTINUOUS
 62
               2
100
AcDbLine
 10
7.0
 20
-27.208289095197927
 30
0.0
 11
7.0
 21
-15.709520288740407
 31
0.0
  0
LINE
  5
50F
100
AcDbEntity
  8
0
  6
CONTINUOUS
 62
               7
100
AcDbLine
 10
0.0
 20
15.849957517350902
 30
0.0
 11
0.0
 21
-30.150027223860036
 31
0.0
  0
LINE
  5
510
100
AcDbEntity
  8
0
  6
CONTINUOUS
 62
               7
100
AcDbLine
 10
16.0
 20
15.849957517350902
 30
0.0
 11
16.0
 21
-30.150027223860036
 31
0.0
  0
LINE
  5
511
100
AcDbEntity
  8
0
  6
DASHED
 62
               4
100
AcDbLine
 10
-2.699981689453125
 20
-0.900027223860036
 30
0.0
 11
-2.699981689453125
 21
1.599972776139964
 31
0.0
  0
LINE
  5
512
100
AcDbEntity
  8
0
  6
DASHED
 62
               4
100
AcDbLine
 10
-1.199981689453125
 20
-2.400027223860036
 30
0.0
 11
-0.699981689453125
 21
-2.400027223860036
 31
0.0
  0
LINE
  5
513
100
AcDbEntity
  8
0
  6
DASHED
 62
               4
100
AcDbLine
 10
-1.199981689453125
 20
3.0999575173509015
 30
0.0
 11
-0.699981689453125
 21
3.0999575173509015
 31
0.0
  0
LINE
  5
514
100
AcDbEntity
  8
0
  6
CONTINUOUS
 62
               2
100
AcDbLine
 10
2.9800872802734375
 20
7.3499575173509015
 30
0.0
 11
14.814910888671875
 21
7.3499575173509015
 31
0.0
  0
LINE
  5
515
100
AcDbEntity
  8
0
  6
CONTINUOUS
 62
               2
100
AcDbLine
 10
-1.037139892578125
 20
-7.150027223860036
 30
0.0
 11
16.957107543945313
 21
-7.150027223860036
 31
0.0
  0
LINE
  5
516
100
AcDbEntity
  8
0
  6
DASHED
 62
               4
100
AcDbLine
 10
17.600006103515625
 20
10.349957517350902
 30
0.0
 11
17.600006103515625
 21
-49.550021120344411
 31
0.0
  0
LINE
  5
517
100
AcDbEntity
  8
0
  6
DASHED
 62
               4
100
AcDbLine
 10
0.0
 20
-49.550021120344411
 30
0.0
 11
0.0
 21
-51.150027223860036
 31
0.0
  0
LINE
  5
518
100
AcDbEntity
  8
0
  6
DASHED
 62
               4
100
AcDbLine
 10
16.0
 20
-30.150027223860036
 30
0.0
 11
16.0
 21
-51.150027223860036
 31
0.0
  0
LINE
  5
519
100
AcDbEntity
  8
0
  6
DASHED
 62
               4
100
AcDbLine
 10
16.0
 20
-49.550021120344411
 30
0.0
 11
0.0
 21
-49.550021120344411
 31
0.0
  0
LINE
  5
51A
100
AcDbEntity
  8
0
  6
DASHED
 62
               4
100
AcDbLine
 10
16.0
 20
-51.150027223860036
 30
0.0
 11
0.0
 21
-51.150027223860036
 31
0.0
  0
LINE
  5
51B
100
AcDbEntity
  8
0
  6
DASHED
 62
               4
100
AcDbLine
 10
17.600006103515625
 20
10.349957517350902
 30
0.0
 11
16.0
 21
10.349957517350902
 31
0.0
  0
LINE
  5
51C
100
AcDbEntity
  8
0
  6
DASHED
 62
               4
100
AcDbLine
 10
-2.699981689453125
 20
-15.90002340916277
 30
0.0
 11
-2.699981689453125
 21
-13.400031038557302
 31
0.0
  0
LINE
  5
51D
100
AcDbEntity
  8
0
  6
DASHED
 62
               4
100
AcDbLine
 10
-1.199981689453125
 20
-11.900038667951833
 30
0.0
 11
-0.699981689453125
 21
-11.900038667951833
 31
0.0
  0
LINE
  5
51E
100
AcDbEntity
  8
0
  6
DASHED
 62
               4
100
AcDbLine
 10
-1.199981689453125
 20
-17.400031038557302
 30
0.0
 11
-0.699981689453125
 21
-17.400031038557302
 31
0.0
  0
LINE
  5
51F
100
AcDbEntity
  8
0
  6
CENTER
 62
               2
100
AcDbLine
 10
9.5
 20
19.349957517350902
 30
0.0
 11
6.5
 21
19.349957517350902
 31
0.0
  0
ARC
  5
520
100
AcDbEntity
  8
0
  6
CONTINUOUS
 62
               7
100
AcDbCircle
 10
1.0
 20
-38.650027223860036
 30
0.0
 40
0.5
100
AcDbArc
 50
179.99996402782091
 51
269.99994604173139
  0
ARC
  5
521
100
AcDbEntity
  8
0
  6
CONTINUOUS
 62
               7
100
AcDbCircle
 10
15.0
 20
-38.650027223860036
 30
0.0
 40
0.5
100
AcDbArc
 50
270.00001798608872
 51
0.00001366037834
  0
ARC
  5
522
100
AcDbEntity
  8
0
  6
CONTINUOUS
 62
               7
100
AcDbCircle
 10
4.75
 20
-37.150027223860036
 30
0.0
 40
1.5
100
AcDbArc
 50
270.00001798608872
 51
359.99995901886416
  0
ARC
  5
523
100
AcDbEntity
  8
0
  6
CONTINUOUS
 62
               7
100
AcDbCircle
 10
2.25
 20
-37.150027223860036
 30
0.0
 40
1.5
100
AcDbArc
 50
179.99990938630756
 51
269.99994604173139
  0
ARC
  5
524
100
AcDbEntity
  8
0
  6
CONTINUOUS
 62
               7
100
AcDbCircle
 10
7.0
 20
-38.850024172102223
 30
0.0
 40
0.300000011920929
100
AcDbArc
 50
179.99998133066492
 51
270.00001798608872
  0
ARC
  5
525
100
AcDbEntity
  8
0
  6
CONTINUOUS
 62
               7
100
AcDbCircle
 10
6.399993896484375
 20
-36.950030275617848
 30
0.0
 40
0.300000011920929
100
AcDbArc
 50
0.0
 51
89.999982013910454
  0
CIRCLE
  5
526
100
AcDbEntity
  8
0
  6
CONTINUOUS
 62
               2
100
AcDbCircle
 10
9.0
 20
7.3499575173509015
 30
0.0
 40
5.0
  0
CIRCLE
  5
527
100
AcDbEntity
  8
0
  6
CONTINUOUS
 62
               7
100
AcDbCircle
 10
9.0
 20
7.3499575173509015
 30
0.0
 40
4.25
  0
CIRCLE
  5
528
100
AcDbEntity
  8
0
  6
CONTINUOUS
 62
               2
100
AcDbCircle
 10
7.0
 20
-21.650027223860036
 30
0.0
 40
5.0
  0
CIRCLE
  5
529
100
AcDbEntity
  8
0
  6
CONTINUOUS
 62
               7
100
AcDbCircle
 10
7.0
 20
-21.650027223860036
 30
0.0
 40
4.25
  0
CIRCLE
  5
52A
100
AcDbEntity
  8
0
  6
CONTINUOUS
 62
               2
100
AcDbCircle
 10
8.0
 20
-7.150027223860036
 30
0.0
 40
5.0
  0
CIRCLE
  5
52B
100
AcDbEntity
  8
0
  6
CONTINUOUS
 62
               7
100
AcDbCircle
 10
8.0
 20
-7.150027223860036
 30
0.0
 40
4.25
  0
ARC
  5
52C
100
AcDbEntity
  8
0
  6
DASHED
 62
               4
100
AcDbCircle
 10
-1.199981689453125
 20
1.599972776139964
 30
0.0
 40
1.5
100
AcDbArc
 50
89.999927372397096
 51
179.99990938630756
  0
ARC
  5
52D
100
AcDbEntity
  8
0
  6
DASHED
 62
               4
100
AcDbCircle
 10
-1.199981689453125
 20
-0.900027223860036
 30
0.0
 40
1.5
100
AcDbArc
 50
179.99998133066492
 51
269.99996334457541
  0
ARC
  5
52E
100
AcDbEntity
  8
0
  6
DASHED
 62
               4
100
AcDbCircle
 10
16.0
 20
-49.550021120344411
 30
0.0
 40
1.5999994277954102
100
AcDbArc
 50
270.00001798608872
 51
0.0
  0
ARC
  5
52F
100
AcDbEntity
  8
0
  6
DASHED
 62
               4
100
AcDbCircle
 10
-1.199981689453125
 20
-13.400031038557302
 30
0.0
 40
1.5
100
AcDbArc
 50
89.999927372397096
 51
179.99990938630756
  0
ARC
  5
530
100
AcDbEntity
  8
0
  6
DASHED
 62
               4
100
AcDbCircle
 10
-1.199981689453125
 20
-15.90002340916277
 30
0.0
 40
1.5
100
AcDbArc
 50
179.99998133066492
 51
269.99996334457541
  0
CIRCLE
  5
531
100
AcDbEntity
  8
0
  6
CONTINUOUS
 62
               7
100
AcDbCircle
 10
8.0
 20
19.349957517350902
 30
0.0
 40
0.6000000238418579
  0
LINE
  5
532
100
AcDbEntity
  8
0
  6
CONTINUOUS
 62
               7
100
AcDbLine
 10
2.5000152587890625
 20
26.349972776139964
 30
0.0
 11
3.0
 21
26.349972776139964
 31
0.0
  0
LINE
  5
533
100
AcDbEntity
  8
0
  6
CONTINUOUS
 62
               7
100
AcDbLine
 10
13.0
 20
26.349972776139964
 30
0.0
 11
13.499984741210937
 21
26.349972776139964
 31
0.0
  0
LINE
  5
534
100
AcDbEntity
  8
0
  6
DASHED
 62
               4
100
AcDbLine
 10
-0.699981689453125
 20
3.2999697243821799
 30
0.0
 11
-0.699981689453125
 21
-2.6000394308912576
 31
0.0
  0
LINE
  5
535
100
AcDbEntity
  8
0
  6
DASHED
 62
               4
100
AcDbLine
 10
0.0000232462043641
 20
-0.0000402635169507
 30
0.0
 11
-0.6999840863973077
 21
-0.187606664555517
 31
0.0
  0
LINE
  5
536
100
AcDbEntity
  8
0
  6
DASHED
 62
               4
100
AcDbLine
 10
-0.6999816247871422
 20
0.6999585312550494
 30
0.0
 11
0.0000110121509351
 21
0.8875209398337915
 31
0.0
  0
LINE
  5
537
100
AcDbEntity
  8
0
  6
DASHED
 62
               4
100
AcDbLine
 10
-0.699981689453125
 20
3.2999697243821799
 30
0.0
 11
0.0000152587890625
 21
3.2999697243821799
 31
0.0
  0
LINE
  5
538
100
AcDbEntity
  8
0
  6
DASHED
 62
               4
100
AcDbLine
 10
-0.699981689453125
 20
-2.6000394308912576
 30
0.0
 11
0.0000152587890625
 21
-2.6000394308912576
 31
0.0
  0
LINE
  5
539
100
AcDbEntity
  8
0
  6
DASHED
 62
               4
100
AcDbLine
 10
-0.699981689453125
 20
-11.700035043989402
 30
0.0
 11
-0.699981689453125
 21
-17.600034662519676
 31
0.0
  0
LINE
  5
53A
100
AcDbEntity
  8
0
  6
DASHED
 62
               4
100
AcDbLine
 10
0.0000166153440659
 20
-15.000046202038959
 30
0.0
 11
-0.6999759783993795
 21
-15.187608653812333
 31
0.0
  0
LINE
  5
53B
100
AcDbEntity
  8
0
  6
DASHED
 62
               4
100
AcDbLine
 10
-0.6999893506554145
 20
-14.300048039469459
 30
0.0
 11
0.0000180251417987
 21
-14.112481681626434
 31
0.0
  0
LINE
  5
53C
100
AcDbEntity
  8
0
  6
DASHED
 62
               4
100
AcDbLine
 10
-0.699981689453125
 20
-11.700035043989402
 30
0.0
 11
0.0000152587890625
 21
-11.700035043989402
 31
0.0
  0
LINE
  5
53D
100
AcDbEntity
  8
0
  6
DASHED
 62
               4
100
AcDbLine
 10
-0.699981689453125
 20
-17.600034662519676
 30
0.0
 11
0.0000152587890625
 21
-17.600034662519676
 31
0.0
  0
LINE
  5
53E
100
AcDbEntity
  8
0
  6
DASHED
 62
               4
100
AcDbLine
 10
19.199996948242187
 20
-1.650027223860036
 30
0.0
 11
19.199996948242187
 21
2.349972776139964
 31
0.0
  0
LINE
  5
53F
100
AcDbEntity
  8
0
  6
DASHED
 62
               4
100
AcDbLine
 10
18.100006103515625
 20
-1.650027223860036
 30
0.0
 11
19.199996948242187
 21
-1.650027223860036
 31
0.0
  0
LINE
  5
540
100
AcDbEntity
  8
0
  6
DASHED
 62
               4
100
AcDbLine
 10
18.100006103515625
 20
2.349972776139964
 30
0.0
 11
19.199996948242187
 21
2.349972776139964
 31
0.0
  0
ARC
  5
541
100
AcDbEntity
  8
0
  6
DASHED
 62
               4
100
AcDbCircle
 10
18.100006103515625
 20
2.849972776139964
 30
0.0
 40
0.5
100
AcDbArc
 50
179.99998133066492
 51
270.00001798608872
  0
ARC
  5
542
100
AcDbEntity
  8
0
  6
DASHED
 62
               4
100
AcDbCircle
 10
18.100006103515625
 20
-2.150027223860036
 30
0.0
 40
0.5
100
AcDbArc
 50
89.999982013910454
 51
179.99996402782091
  0
LINE
  5
543
100
AcDbEntity
  8
0
  6
DASHED
 62
               4
100
AcDbLine
 10
19.199996948242187
 20
-16.650034853254567
 30
0.0
 11
19.199996948242187
 21
-12.650034853254567
 31
0.0
  0
LINE
  5
544
100
AcDbEntity
  8
0
  6
DASHED
 62
               4
100
AcDbLine
 10
18.100006103515625
 20
-16.650034853254567
 30
0.0
 11
19.199996948242187
 21
-16.650034853254567
 31
0.0
  0
LINE
  5
545
100
AcDbEntity
  8
0
  6
DASHED
 62
               4
100
AcDbLine
 10
18.100006103515625
 20
-12.650034853254567
 30
0.0
 11
19.199996948242187
 21
-12.650034853254567
 31
0.0
  0
ARC
  5
546
100
AcDbEntity
  8
0
  6
DASHED
 62
               4
100
AcDbCircle
 10
18.100006103515625
 20
-12.150034853254567
 30
0.0
 40
0.5
100
AcDbArc
 50
179.99998133066492
 51
270.00001798608872
  0
ARC
  5
547
100
AcDbEntity
  8
0
  6
DASHED
 62
               4
100
AcDbCircle
 10
18.100006103515625
 20
-17.150034853254567
 30
0.0
 40
0.5
100
AcDbArc
 50
89.999982013910454
 51
179.99996402782091
  0
ENDBLK
  5
548
100
AcDbEntity
  8
0
100
AcDbBlockEnd
  0
BLOCK
  5
549
100
AcDbEntity
  8
0
100
AcDbBlockBegin
  2
F15T0-13
 70
               0
 10
0.0
 20
0.0
 30
0.0
  3
F15T0-13
  1

  0
LINE
  5
54A
100
AcDbEntity
  8
0
  6
CONTINUOUS
 62
               7
100
AcDbLine
 10
-13.0
 20
37.000003051757801
 30
0.0
 11
-12.404023247206249
 21
37.000003051757801
 31
0.0
  0
LINE
  5
54B
100
AcDbEntity
  8
0
  6
CONTINUOUS
 62
               4
100
AcDbLine
 10
-13.0
 20
61.000003051757801
 30
0.0
 11
-3.0
 21
61.000003051757801
 31
0.0
  0
LINE
  5
54C
100
AcDbEntity
  8
0
  6
CONTINUOUS
 62
               4
100
AcDbLine
 10
-12.95001220703125
 20
61.000018310546864
 30
0.0
 11
-12.95001220703125
 21
74.500018310546864
 31
0.0
  0
LINE
  5
54D
100
AcDbEntity
  8
0
  6
CONTINUOUS
 62
               4
100
AcDbLine
 10
-3.5
 20
70.000003051757801
 30
0.0
 11
-12.5
 21
70.000003051757801
 31
0.0
  0
LINE
  5
54E
100
AcDbEntity
  8
0
  6
CONTINUOUS
 62
               4
100
AcDbLine
 10
-3.0500030517578125
 20
65.500003051757801
 30
0.0
 11
-12.95001220703125
 21
65.500003051757801
 31
0.0
  0
LINE
  5
54F
100
AcDbEntity
  8
0
  6
CONTINUOUS
 62
               4
100
AcDbLine
 10
-3.0500030517578125
 20
61.000003051757801
 30
0.0
 11
-3.0500030517578125
 21
74.500018310546864
 31
0.0
  0
LINE
  5
550
100
AcDbEntity
  8
0
  6
CONTINUOUS
 62
               4
100
AcDbLine
 10
-12.949996948242187
 20
74.500003051757801
 30
0.0
 11
-11.5
 21
74.500003051757801
 31
0.0
  0
LINE
  5
551
100
AcDbEntity
  8
0
  6
CONTINUOUS
 62
               4
100
AcDbLine
 10
-12.050003051757813
 20
70.000018310546864
 30
0.0
 11
-12.050003051757813
 21
72.500018310546864
 31
0.0
  0
LINE
  5
552
100
AcDbEntity
  8
0
  6
CONTINUOUS
 62
               4
100
AcDbLine
 10
-3.9499969482421875
 20
70.000003051757801
 30
0.0
 11
-3.9499969482421875
 21
72.500018310546864
 31
0.0
  0
LINE
  5
553
100
AcDbEntity
  8
0
  6
CONTINUOUS
 62
               4
100
AcDbLine
 10
-4.5
 20
70.498461914062489
 30
0.0
 11
-4.5
 21
81.000003051757801
 31
0.0
  0
LINE
  5
554
100
AcDbEntity
  8
0
  6
CONTINUOUS
 62
               4
100
AcDbLine
 10
-11.5
 20
70.498461914062489
 30
0.0
 11
-11.5
 21
81.000003051757801
 31
0.0
  0
LINE
  5
555
100
AcDbEntity
  8
0
  6
CONTINUOUS
 62
               4
100
AcDbLine
 10
-11.5
 20
70.498461914062489
 30
0.0
 11
-4.5
 21
70.498461914062489
 31
0.0
  0
LINE
  5
556
100
AcDbEntity
  8
0
  6
CONTINUOUS
 62
               4
100
AcDbLine
 10
-11.5
 20
74.056155395507801
 30
0.0
 11
-4.5
 21
74.056155395507801
 31
0.0
  0
LINE
  5
557
100
AcDbEntity
  8
0
  6
CONTINUOUS
 62
               4
100
AcDbLine
 10
-11.5
 20
79.500003051757801
 30
0.0
 11
-4.5
 21
79.500003051757801
 31
0.0
  0
LINE
  5
558
100
AcDbEntity
  8
0
  6
CONTINUOUS
 62
               4
100
AcDbLine
 10
-12.899993896484375
 20
81.000003051757801
 30
0.0
 11
-3.100006103515625
 21
81.000003051757801
 31
0.0
  0
LINE
  5
559
100
AcDbEntity
  8
0
  6
CONTINUOUS
 62
               4
100
AcDbLine
 10
-4.5
 20
74.500003051757801
 30
0.0
 11
-3.0500030517578125
 21
74.500003051757801
 31
0.0
  0
LINE
  5
55A
100
AcDbEntity
  8
0
  6
CONTINUOUS
 62
               4
100
AcDbLine
 10
-4.5
 20
73.500003051757801
 30
0.0
 11
-3.9499969482421875
 21
73.500003051757801
 31
0.0
  0
LINE
  5
55B
100
AcDbEntity
  8
0
  6
CONTINUOUS
 62
               4
100
AcDbLine
 10
-4.5
 20
72.500003051757801
 30
0.0
 11
-3.9499969482421875
 21
72.500003051757801
 31
0.0
  0
LINE
  5
55C
100
AcDbEntity
  8
0
  6
CONTINUOUS
 62
               4
100
AcDbLine
 10
-12.050003051757813
 20
73.500003051757801
 30
0.0
 11
-11.5
 21
73.500003051757801
 31
0.0
  0
LINE
  5
55D
100
AcDbEntity
  8
0
  6
CONTINUOUS
 62
               4
100
AcDbLine
 10
-12.050003051757813
 20
72.500003051757801
 30
0.0
 11
-11.5
 21
72.500003051757801
 31
0.0
  0
LINE
  5
55E
100
AcDbEntity
  8
0
  6
CONTINUOUS
 62
               4
100
AcDbLine
 10
-12.050003051757813
 20
73.500018310546864
 30
0.0
 11
-12.050003051757813
 21
74.500018310546864
 31
0.0
  0
LINE
  5
55F
100
AcDbEntity
  8
0
  6
CONTINUOUS
 62
               4
100
AcDbLine
 10
-3.9499969482421875
 20
73.500018310546864
 30
0.0
 11
-3.9499969482421875
 21
74.500018310546864
 31
0.0
  0
LINE
  5
560
100
AcDbEntity
  8
0
  6
CONTINUOUS
 62
               4
100
AcDbLine
 10
-9.2849884033203125
 20
85.173327636718739
 30
0.0
 11
-9.2849884033203125
 21
89.000003051757801
 31
0.0
  0
LINE
  5
561
100
AcDbEntity
  8
0
  6
CONTINUOUS
 62
               4
100
AcDbLine
 10
-10.714996337890625
 20
84.790164184570301
 30
0.0
 11
-10.714996337890625
 21
89.000003051757801
 31
0.0
  0
LINE
  5
562
100
AcDbEntity
  8
0
  6
CONTINUOUS
 62
               4
100
AcDbLine
 10
-10.715011596679687
 20
89.000003051757801
 30
0.0
 11
-9.285003662109375
 21
89.000003051757801
 31
0.0
  0
LINE
  5
563
100
AcDbEntity
  8
0
  6
CONTINUOUS
 62
               4
100
AcDbLine
 10
-9.5999908447265625
 20
89.000003051757801
 30
0.0
 11
-9.5999908447265625
 21
94.000003051757801
 31
0.0
  0
LINE
  5
564
100
AcDbEntity
  8
0
  6
CONTINUOUS
 62
               4
100
AcDbLine
 10
-10.399993896484375
 20
89.000003051757801
 30
0.0
 11
-10.399993896484375
 21
94.000003051757801
 31
0.0
  0
LINE
  5
565
100
AcDbEntity
  8
0
  6
CONTINUOUS
 62
               4
100
AcDbLine
 10
-10.400009155273437
 20
94.000003051757801
 30
0.0
 11
-9.600006103515625
 21
94.000003051757801
 31
0.0
  0
LINE
  5
566
100
AcDbEntity
  8
0
  6
CONTINUOUS
 62
               4
100
AcDbLine
 10
-9.2849884033203125
 20
81.000003051757801
 30
0.0
 11
-9.2849884033203125
 21
84.138049316406239
 31
0.0
  0
LINE
  5
567
100
AcDbEntity
  8
0
  6
CONTINUOUS
 62
               4
100
AcDbLine
 10
-10.714996337890625
 20
81.000003051757801
 30
0.0
 11
-10.714996337890625
 21
83.754885864257801
 31
0.0
  0
LINE
  5
568
100
AcDbEntity
  8
0
  6
CONTINUOUS
 62
               4
100
AcDbLine
 10
-3.100006103515625
 20
74.500018310546864
 30
0.0
 11
-3.100006103515625
 21
81.000003051757801
 31
0.0
  0
LINE
  5
569
100
AcDbEntity
  8
0
  6
CONTINUOUS
 62
               4
100
AcDbLine
 10
-12.899993896484375
 20
74.500018310546864
 30
0.0
 11
-12.899993896484375
 21
81.000003051757801
 31
0.0
  0
LINE
  5
56A
100
AcDbEntity
  8
0
  6
CONTINUOUS
 62
               4
100
AcDbLine
 10
-12.0
 20
74.500018310546864
 30
0.0
 11
-12.0
 21
81.000003051757801
 31
0.0
  0
LINE
  5
56B
100
AcDbEntity
  8
0
  6
CONTINUOUS
 62
               4
100
AcDbLine
 10
-4.0
 20
74.500018310546864
 30
0.0
 11
-4.0
 21
81.000003051757801
 31
0.0
  0
ARC
  5
56C
100
AcDbEntity
  8
0
  6
CONTINUOUS
 62
               4
100
AcDbCircle
 10
-3.5500030517578125
 20
69.500003051757801
 30
0.0
 40
0.5
100
AcDbArc
 50
359.99995901886416
 51
89.999982013910454
  0
ARC
  5
56D
100
AcDbEntity
  8
0
  6
CONTINUOUS
 62
               4
100
AcDbCircle
 10
-12.449996948242188
 20
69.500018310546864
 30
0.0
 40
0.5
100
AcDbArc
 50
89.999982013910454
 51
179.99996402782091
  0
LINE
  5
56E
100
AcDbEntity
  8
0
  6
CONTINUOUS
 62
             200
100
AcDbLine
 10
-12.000007620978977
 20
83.410567375350354
 30
0.0
 11
-8.0
 21
84.482366196093267
 31
0.0
  0
LINE
  5
56F
100
AcDbEntity
  8
0
  6
CONTINUOUS
 62
             200
100
AcDbLine
 10
-11.999997575302586
 20
84.445846234111912
 30
0.0
 11
-8.0
 21
85.517642363123912
 31
0.0
  0
LINE
  5
570
100
AcDbEntity
  8
0
  6
CONTINUOUS
 62
               7
100
AcDbLine
 10
-13.0
 20
25.500003051757801
 30
0.0
 11
-13.0
 21
37.000003051757801
 31
0.0
  0
LINE
  5
571
100
AcDbEntity
  8
0
  6
CONTINUOUS
 62
               7
100
AcDbLine
 10
-3.0
 20
25.500003051757801
 30
0.0
 11
-3.0
 21
37.000003051757801
 31
0.0
  0
LINE
  5
572
100
AcDbEntity
  8
0
  6
CONTINUOUS
 62
               7
100
AcDbLine
 10
-13.0
 20
36.899996948242176
 30
0.0
 11
-3.0
 21
36.899996948242176
 31
0.0
  0
LINE
  5
573
100
AcDbEntity
  8
0
  6
CONTINUOUS
 62
               7
100
AcDbLine
 10
-13.0
 20
27.500003051757801
 30
0.0
 11
-3.0
 21
27.500003051757801
 31
0.0
  0
LINE
  5
574
100
AcDbEntity
  8
0
  6
CENTER
 62
               2
100
AcDbLine
 10
-10.5
 20
33.699999999999989
 30
0.0
 11
-5.5
 21
33.699999999999989
 31
0.0
  0
LINE
  5
575
100
AcDbEntity
  8
0
  6
CENTER
 62
               2
100
AcDbLine
 10
-8.0
 20
-52.166653442382824
 30
0.0
 11
-8.0
 21
82.755084228515614
 31
0.0
  0
LINE
  5
576
100
AcDbEntity
  8
0
  6
CONTINUOUS
 62
               7
100
AcDbLine
 10
-9.926788330078125
 20
33.399996948242176
 30
0.0
 11
-6.073211669921875
 21
33.399996948242176
 31
0.0
  0
LINE
  5
577
100
AcDbEntity
  8
0
  6
CONTINUOUS
 62
               7
100
AcDbLine
 10
-9.926788330078125
 20
34.000003051757801
 30
0.0
 11
-6.073211669921875
 21
34.000003051757801
 31
0.0
  0
LINE
  5
578
100
AcDbEntity
  8
0
  6
CONTINUOUS
 62
               7
100
AcDbLine
 10
-0.5
 20
-38.999996948242199
 30
0.0
 11
-0.5
 21
-27.030773925781261
 31
0.0
  0
LINE
  5
579
100
AcDbEntity
  8
0
  6
CONTINUOUS
 62
               7
100
AcDbLine
 10
-15.5
 20
-38.999996948242199
 30
0.0
 11
-15.5
 21
-25.499981689453136
 31
0.0
  0
LINE
  5
57A
100
AcDbEntity
  8
0
  6
CONTINUOUS
 62
               7
100
AcDbLine
 10
-15.000015258789063
 20
-39.499996948242199
 30
0.0
 11
-1.0
 21
-39.499996948242199
 31
0.0
  0
LINE
  5
57B
100
AcDbEntity
  8
0
  6
CONTINUOUS
 62
               7
100
AcDbLine
 10
-15.5
 20
12.030749511718739
 30
0.0
 11
-15.5
 21
24.000003051757801
 31
0.0
  0
LINE
  5
57C
100
AcDbEntity
  8
0
  6
CONTINUOUS
 62
               7
100
AcDbLine
 10
-0.5
 20
10.500018310546864
 30
0.0
 11
-0.5
 21
24.000003051757801
 31
0.0
  0
LINE
  5
57D
100
AcDbEntity
  8
0
  6
CONTINUOUS
 62
               7
100
AcDbLine
 10
-13.50003677067707
 20
26.000001114551367
 30
0.0
 11
-15.500018326184545
 21
24.000021582072975
 31
0.0
  0
LINE
  5
57E
100
AcDbEntity
  8
0
  6
CONTINUOUS
 62
               7
100
AcDbLine
 10
-13.0
 20
25.500003051757801
 30
0.0
 11
-3.0
 21
25.500003051757801
 31
0.0
  0
LINE
  5
57F
100
AcDbEntity
  8
0
  6
CONTINUOUS
 62
               7
100
AcDbLine
 10
-2.5000015331406757
 20
25.999996183344763
 30
0.0
 11
-0.4999995785492502
 21
23.999993891578185
 31
0.0
  0
LINE
  5
580
100
AcDbEntity
  8
0
  6
CONTINUOUS
 62
               7
100
AcDbLine
 10
-16.0
 20
-30.499996948242199
 30
0.0
 11
0.0
 21
-30.499996948242199
 31
0.0
  0
LINE
  5
581
100
AcDbEntity
  8
0
  6
CONTINUOUS
 62
               7
100
AcDbLine
 10
-16.0
 20
15.500003051757801
 30
0.0
 11
0.0
 21
15.500003051757801
 31
0.0
  0
LINE
  5
582
100
AcDbEntity
  8
0
  6
CONTINUOUS
 62
               7
100
AcDbLine
 10
0.0
 20
15.499987792968739
 30
0.0
 11
0.0
 21
-30.499996948242199
 31
0.0
  0
LINE
  5
583
100
AcDbEntity
  8
0
  6
CONTINUOUS
 62
               7
100
AcDbLine
 10
-16.0
 20
15.499987792968739
 30
0.0
 11
-16.0
 21
-30.499996948242199
 31
0.0
  0
LINE
  5
584
100
AcDbEntity
  8
0
  6
DASHED
 62
               4
100
AcDbLine
 10
-17.600006103515625
 20
9.9999877929687386
 30
0.0
 11
-17.600006103515625
 21
-49.899990844726574
 31
0.0
  0
LINE
  5
585
100
AcDbEntity
  8
0
  6
DASHED
 62
               4
100
AcDbLine
 10
-17.600006103515625
 20
9.9999877929687386
 30
0.0
 11
-16.0
 21
9.9999877929687386
 31
0.0
  0
LINE
  5
586
100
AcDbEntity
  8
0
  6
DASHED
 62
               4
100
AcDbLine
 10
-16.0
 20
-49.899990844726574
 30
0.0
 11
0.0
 21
-49.899990844726574
 31
0.0
  0
LINE
  5
587
100
AcDbEntity
  8
0
  6
DASHED
 62
               4
100
AcDbLine
 10
-16.0
 20
-30.499996948242199
 30
0.0
 11
-16.0
 21
-49.899990844726574
 31
0.0
  0
LINE
  5
588
100
AcDbEntity
  8
0
  6
DASHED
 62
               4
100
AcDbLine
 10
-16.0
 20
-51.499996948242199
 30
0.0
 11
0.0
 21
-51.499996948242199
 31
0.0
  0
LINE
  5
589
100
AcDbEntity
  8
0
  6
DASHED
 62
               4
100
AcDbLine
 10
0.0
 20
-49.899990844726574
 30
0.0
 11
0.0
 21
-51.499996948242199
 31
0.0
  0
LINE
  5
58A
100
AcDbEntity
  8
0
  6
DASHED
 62
               4
100
AcDbLine
 10
2.6999969482421875
 20
-1.2499969482421989
 30
0.0
 11
2.6999969482421875
 21
1.2500030517578011
 31
0.0
  0
LINE
  5
58B
100
AcDbEntity
  8
0
  6
DASHED
 62
               4
100
AcDbLine
 10
1.1999969482421875
 20
-2.7499969482421989
 30
0.0
 11
0.6999969482421875
 21
-2.7499969482421989
 31
0.0
  0
LINE
  5
58C
100
AcDbEntity
  8
0
  6
DASHED
 62
               4
100
AcDbLine
 10
1.1999969482421875
 20
2.7499877929687386
 30
0.0
 11
0.6999969482421875
 21
2.7499877929687386
 31
0.0
  0
LINE
  5
58D
100
AcDbEntity
  8
0
  6
DASHED
 62
               4
100
AcDbLine
 10
2.6999969482421875
 20
-16.249993133544933
 30
0.0
 11
2.6999969482421875
 21
-13.750000762939464
 31
0.0
  0
LINE
  5
58E
100
AcDbEntity
  8
0
  6
DASHED
 62
               4
100
AcDbLine
 10
1.1999969482421875
 20
-17.750000762939464
 30
0.0
 11
0.6999969482421875
 21
-17.750000762939464
 31
0.0
  0
LINE
  5
58F
100
AcDbEntity
  8
0
  6
DASHED
 62
               4
100
AcDbLine
 10
1.1999969482421875
 20
-12.250008392333996
 30
0.0
 11
0.6999969482421875
 21
-12.250008392333996
 31
0.0
  0
CIRCLE
  5
590
100
AcDbEntity
  8
0
  6
CONTINUOUS
 62
               7
100
AcDbCircle
 10
-8.0
 20
33.699999999999989
 30
0.0
 40
2.0
  0
CIRCLE
  5
591
100
AcDbEntity
  8
0
  6
CONTINUOUS
 62
               7
100
AcDbCircle
 10
-8.0
 20
33.699999999999989
 30
0.0
 40
1.9499998092651367
  0
ARC
  5
592
100
AcDbEntity
  8
0
  6
CONTINUOUS
 62
               7
100
AcDbCircle
 10
-1.0
 20
-38.999996948242199
 30
0.0
 40
0.5
100
AcDbArc
 50
270.00001798608872
 51
0.00001366037834
  0
ARC
  5
593
100
AcDbEntity
  8
0
  6
CONTINUOUS
 62
               7
100
AcDbCircle
 10
-15.0
 20
-38.999996948242199
 30
0.0
 40
0.5
100
AcDbArc
 50
179.99996402782091
 51
269.99994604173139
  0
ARC
  5
594
100
AcDbEntity
  8
0
  6
DASHED
 62
               4
100
AcDbCircle
 10
-16.0
 20
-49.899990844726574
 30
0.0
 40
1.5999994277954102
100
AcDbArc
 50
179.99996402782091
 51
269.99994604173139
  0
ARC
  5
595
100
AcDbEntity
  8
0
  6
DASHED
 62
               4
100
AcDbCircle
 10
1.1999969482421875
 20
-16.249993133544933
 30
0.0
 40
1.5
100
AcDbArc
 50
270.00001798608872
 51
0.0
  0
ARC
  5
596
100
AcDbEntity
  8
0
  6
DASHED
 62
               4
100
AcDbCircle
 10
1.1999969482421875
 20
1.2500030517578011
 30
0.0
 40
1.5
100
AcDbArc
 50
0.00001366037834
 51
90.000036655423813
  0
ARC
  5
597
100
AcDbEntity
  8
0
  6
DASHED
 62
               4
100
AcDbCircle
 10
1.1999969482421875
 20
-1.2499969482421989
 30
0.0
 40
1.5
100
AcDbArc
 50
270.00001798608872
 51
0.0
  0
ARC
  5
598
100
AcDbEntity
  8
0
  6
DASHED
 62
               4
100
AcDbCircle
 10
1.1999969482421875
 20
-13.750000762939464
 30
0.0
 40
1.5
100
AcDbArc
 50
0.00001366037834
 51
90.000036655423813
  0
LINE
  5
599
100
AcDbEntity
  8
0
  6
CONTINUOUS
 62
               7
100
AcDbLine
 10
-13.500030517578125
 20
26.000003051757801
 30
0.0
 11
-13.0
 21
26.000003051757801
 31
0.0
  0
LINE
  5
59A
100
AcDbEntity
  8
0
  6
CONTINUOUS
 62
               7
100
AcDbLine
 10
-3.0
 20
26.000003051757801
 30
0.0
 11
-2.4999847412109375
 21
26.000003051757801
 31
0.0
  0
LINE
  5
59B
100
AcDbEntity
  8
0
  6
DASHED
 62
               4
100
AcDbLine
 10
0.6999969482421875
 20
-2.9500091552734489
 30
0.0
 11
0.6999969482421875
 21
2.9499999999999886
 31
0.0
  0
LINE
  5
59C
100
AcDbEntity
  8
0
  6
DASHED
 62
               4
100
AcDbLine
 10
0.0000054341044233
 20
0.349989361584619
 30
0.0
 11
0.7000127667060951
 21
0.5375557626231853
 31
0.0
  0
LINE
  5
59D
100
AcDbEntity
  8
0
  6
DASHED
 62
               4
100
AcDbLine
 10
0.7000168637387105
 20
-0.3500138810111935
 30
0.0
 11
0.0000094879414974
 21
-0.5375802388542184
 31
0.0
  0
LINE
  5
59E
100
AcDbEntity
  8
0
  6
DASHED
 62
               4
100
AcDbLine
 10
0.6999969482421875
 20
-2.9500091552734489
 30
0.0
 11
0.0
 21
-2.9500091552734489
 31
0.0
  0
LINE
  5
59F
100
AcDbEntity
  8
0
  6
DASHED
 62
               4
100
AcDbLine
 10
0.6999969482421875
 20
2.9499999999999886
 30
0.0
 11
0.0
 21
2.9499999999999886
 31
0.0
  0
LINE
  5
5A0
100
AcDbEntity
  8
0
  6
DASHED
 62
               4
100
AcDbLine
 10
0.6999969482421875
 20
-17.950004386901867
 30
0.0
 11
0.6999969482421875
 21
-12.050004768371593
 31
0.0
  0
LINE
  5
5A1
100
AcDbEntity
  8
0
  6
DASHED
 62
               4
100
AcDbLine
 10
0.0000135421023515
 20
-14.650012627672197
 30
0.0
 11
0.700006135845797
 21
-14.462450175898823
 31
0.0
  0
LINE
  5
5A2
100
AcDbEntity
  8
0
  6
DASHED
 62
               4
100
AcDbLine
 10
0.7000199274652914
 20
-15.350001763612283
 30
0.0
 11
0.0000125516680782
 21
-15.537568121455308
 31
0.0
  0
LINE
  5
5A3
100
AcDbEntity
  8
0
  6
DASHED
 62
               4
100
AcDbLine
 10
0.6999969482421875
 20
-17.950004386901867
 30
0.0
 11
0.0
 21
-17.950004386901867
 31
0.0
  0
LINE
  5
5A4
100
AcDbEntity
  8
0
  6
DASHED
 62
               4
100
AcDbLine
 10
0.6999969482421875
 20
-12.050004768371593
 30
0.0
 11
0.0
 21
-12.050004768371593
 31
0.0
  0
LINE
  5
5A5
100
AcDbEntity
  8
0
  6
DASHED
 62
               4
100
AcDbLine
 10
-19.199996948242187
 20
-13.000004577636759
 30
0.0
 11
-19.199996948242187
 21
-17.000004577636759
 31
0.0
  0
LINE
  5
5A6
100
AcDbEntity
  8
0
  6
DASHED
 62
               4
100
AcDbLine
 10
-18.100006103515625
 20
-13.000004577636759
 30
0.0
 11
-19.199996948242187
 21
-13.000004577636759
 31
0.0
  0
LINE
  5
5A7
100
AcDbEntity
  8
0
  6
DASHED
 62
               4
100
AcDbLine
 10
-18.100006103515625
 20
-17.000004577636759
 30
0.0
 11
-19.199996948242187
 21
-17.000004577636759
 31
0.0
  0
ARC
  5
5A8
100
AcDbEntity
  8
0
  6
DASHED
 62
               4
100
AcDbCircle
 10
-18.100006103515625
 20
-17.50000457763673
 30
0.0
 40
0.5
100
AcDbArc
 50
359.9999813306639
 51
90.000036655423813
  0
ARC
  5
5A9
100
AcDbEntity
  8
0
  6
DASHED
 62
               4
100
AcDbCircle
 10
-18.100006103515625
 20
-12.50000457763673
 30
0.0
 40
0.5
100
AcDbArc
 50
269.99996334457541
 51
359.99996402782114
  0
LINE
  5
5AA
100
AcDbEntity
  8
0
  6
DASHED
 62
               4
100
AcDbLine
 10
-19.199996948242187
 20
2.0000030517577727
 30
0.0
 11
-19.199996948242187
 21
-1.9999969482422273
 31
0.0
  0
LINE
  5
5AB
100
AcDbEntity
  8
0
  6
DASHED
 62
               4
100
AcDbLine
 10
-18.100006103515625
 20
2.0000030517577727
 30
0.0
 11
-19.199996948242187
 21
2.0000030517577727
 31
0.0
  0
LINE
  5
5AC
100
AcDbEntity
  8
0
  6
DASHED
 62
               4
100
AcDbLine
 10
-18.100006103515625
 20
-1.9999969482422273
 30
0.0
 11
-19.199996948242187
 21
-1.9999969482422273
 31
0.0
  0
ARC
  5
5AD
100
AcDbEntity
  8
0
  6
DASHED
 62
               4
100
AcDbCircle
 10
-18.100006103515625
 20
-2.4999969482421989
 30
0.0
 40
0.5
100
AcDbArc
 50
359.9999813306639
 51
90.000036655423813
  0
ARC
  5
5AE
100
AcDbEntity
  8
0
  6
DASHED
 62
               4
100
AcDbCircle
 10
-18.100006103515625
 20
2.5000030517578011
 30
0.0
 40
0.5
100
AcDbArc
 50
269.99996334457541
 51
359.99996402782114
  0
LINE
  5
5AF
100
AcDbEntity
  8
0
  6
CONTINUOUS
 62
               4
100
AcDbLine
 10
-3.0
 20
37.000003051757801
 30
0.0
 11
-3.0
 21
61.000003051757801
 31
0.0
  0
LINE
  5
5B0
100
AcDbEntity
  8
0
  6
CONTINUOUS
 62
               7
100
AcDbLine
 10
-3.4849108994189635
 20
37.000003051757801
 30
0.0
 11
-3.0
 21
37.000003051757801
 31
0.0
  0
LINE
  5
5B1
100
AcDbEntity
  8
0
  6
CONTINUOUS
 62
               4
100
AcDbLine
 10
-13.0
 20
37.000003051757801
 30
0.0
 11
-13.0
 21
61.000018310546864
 31
0.0
  0
LINE
  5
5B2
100
AcDbEntity
  8
0
  6
CONTINUOUS
 62
               7
100
AcDbLine
 10
-12.404023247206249
 20
37.000003051757801
 30
0.0
 11
-3.4849108994189635
 21
37.000003051757801
 31
0.0
  0
LINE
  5
5B3
100
AcDbEntity
  8
0
  6
CONTINUOUS
 62
               2
100
AcDbLine
 10
-8.0
 20
-52.166653442382824
 30
0.0
 11
-8.0
 21
82.755084228515614
 31
0.0
  0
LINE
  5
5B4
100
AcDbEntity
  8
0
  6
CONTINUOUS
 62
               7
100
AcDbLine
 10
-2.5
 20
-23.29999237060548
 30
0.0
 11
-0.5
 21
-23.29999237060548
 31
0.0
  0
LINE
  5
5B5
100
AcDbEntity
  8
0
  6
CONTINUOUS
 62
               7
100
AcDbLine
 10
-5.1999969482421875
 20
-25.999996948242199
 30
0.0
 11
-5.1999969482421875
 21
-30.29999237060548
 31
0.0
  0
LINE
  5
5B6
100
AcDbEntity
  8
0
  6
CONTINUOUS
 62
               2
100
AcDbLine
 10
-17.037139892578125
 20
-15.250000762939464
 30
0.0
 11
0.9571075439453125
 21
-15.250000762939464
 31
0.0
  0
LINE
  5
5B7
100
AcDbEntity
  8
0
  6
CONTINUOUS
 62
               2
100
AcDbLine
 10
-17.037139892578125
 20
0.2500030517578011
 30
0.0
 11
0.9571075439453125
 21
0.2500030517578011
 31
0.0
  0
CIRCLE
  5
5B8
100
AcDbEntity
  8
0
  6
CONTINUOUS
 62
               7
100
AcDbCircle
 10
-2.5
 20
9.0000183105468636
 30
0.0
 40
2.25
  0
ARC
  5
5B9
100
AcDbEntity
  8
0
  6
CONTINUOUS
 62
               7
100
AcDbCircle
 10
-0.79998779296875
 20
11.999987792968739
 30
0.0
 40
0.300000011920929
100
AcDbArc
 50
270.00001798608872
 51
0.0
  0
ARC
  5
5BA
100
AcDbEntity
  8
0
  6
CONTINUOUS
 62
               7
100
AcDbCircle
 10
-0.79998779296875
 20
6.0000030517578011
 30
0.0
 40
0.300000011920929
100
AcDbArc
 50
0.0
 51
89.999982013910454
  0
ARC
  5
5BB
100
AcDbEntity
  8
0
  6
CONTINUOUS
 62
               7
100
AcDbCircle
 10
-0.79998779296875
 20
15.000003051757801
 30
0.0
 40
0.300000011920929
100
AcDbArc
 50
0.0
 51
89.999982013910454
  0
ARC
  5
5BC
100
AcDbEntity
  8
0
  6
CONTINUOUS
 62
               7
100
AcDbCircle
 10
-15.199996948242187
 20
-29.999989318847668
 30
0.0
 40
0.300000011920929
100
AcDbArc
 50
179.99996402782091
 51
270.00000068324471
  0
CIRCLE
  5
5BD
100
AcDbEntity
  8
0
  6
CONTINUOUS
 62
               7
100
AcDbCircle
 10
-2.5
 20
-25.999996948242199
 30
0.0
 40
2.25
  0
CIRCLE
  5
5BE
100
AcDbEntity
  8
0
  6
CONTINUOUS
 62
               7
100
AcDbCircle
 10
-2.5
 20
9.0000183105468636
 30
0.0
 40
2.5
  0
CIRCLE
  5
5BF
100
AcDbEntity
  8
0
  6
CONTINUOUS
 62
               7
100
AcDbCircle
 10
-13.5
 20
-23.999981689453136
 30
0.0
 40
2.5
  0
CIRCLE
  5
5C0
100
AcDbEntity
  8
0
  6
CONTINUOUS
 62
               7
100
AcDbCircle
 10
-8.0
 20
0.2500030517578011
 30
0.0
 40
7.4500000000000002
  0
CIRCLE
  5
5C1
100
AcDbEntity
  8
0
  6
CONTINUOUS
 62
               7
100
AcDbCircle
 10
-8.0
 20
-15.249996948242199
 30
0.0
 40
7.4500000000000002
  0
LINE
  5
5C2
100
AcDbEntity
  8
0
  6
CONTINUOUS
 62
               7
100
AcDbLine
 10
-10.921677911281563
 20
-23.198592458727511
 30
0.0
 11
-0.4999999940395128
 21
-23.198592458727511
 31
0.0
  0
LINE
  5
5C3
100
AcDbEntity
  8
0
  6
CONTINUOUS
 62
               7
100
AcDbLine
 10
-5.1076809620810479
 20
8.2999992370605327
 30
0.0
 11
-15.50000000596043
 21
8.2999992370605327
 31
0.0
  0
LINE
  5
5C4
100
AcDbEntity
  8
0
  6
CONTINUOUS
 62
               7
100
AcDbLine
 10
-1.5999999999999659
 20
-0.5499969482422031
 30
0.0
 11
-1.1792710802142778
 21
-0.7929049033363427
 31
0.0
  0
LINE
  5
5C5
100
AcDbEntity
  8
0
  6
CONTINUOUS
 62
               7
100
AcDbLine
 10
-1.5999999999999659
 20
-0.5499969482422031
 30
0.0
 11
-1.5999999999999659
 21
1.0500030457973324
 31
0.0
  0
LINE
  5
5C6
100
AcDbEntity
  8
0
  6
CONTINUOUS
 62
               7
100
AcDbLine
 10
-1.5999999999999659
 20
1.0500030517578054
 30
0.0
 11
-1.1792710802142778
 21
1.2929110068519449
 31
0.0
  0
LINE
  5
5C7
100
AcDbEntity
  8
0
  6
CONTINUOUS
 62
               7
100
AcDbLine
 10
-14.399999999999977
 20
1.0500030517578054
 30
0.0
 11
-14.820728919785722
 21
1.2929110068519449
 31
0.0
  0
LINE
  5
5C8
100
AcDbEntity
  8
0
  6
CONTINUOUS
 62
               7
100
AcDbLine
 10
-14.399999999999977
 20
-0.5499969482422031
 30
0.0
 11
-14.820728919785722
 21
-0.7929049033363427
 31
0.0
  0
LINE
  5
5C9
100
AcDbEntity
  8
0
  6
CONTINUOUS
 62
               7
100
AcDbLine
 10
-14.399999999999977
 20
-0.5499969482422031
 30
0.0
 11
-14.399999999999977
 21
1.0500030457973324
 31
0.0
  0
LINE
  5
5CA
100
AcDbEntity
  8
0
  6
CONTINUOUS
 62
               7
100
AcDbLine
 10
-1.5999999999999659
 20
-16.0499969482422
 30
0.0
 11
-1.1792710802142778
 21
-16.292904903336343
 31
0.0
  0
LINE
  5
5CB
100
AcDbEntity
  8
0
  6
CONTINUOUS
 62
               7
100
AcDbLine
 10
-1.5999999999999659
 20
-14.449996948242198
 30
0.0
 11
-1.1792710802142778
 21
-14.207088993148055
 31
0.0
  0
LINE
  5
5CC
100
AcDbEntity
  8
0
  6
CONTINUOUS
 62
               7
100
AcDbLine
 10
-1.5999999999999659
 20
-16.0499969482422
 30
0.0
 11
-1.5999999999999659
 21
-14.449996954202664
 31
0.0
  0
LINE
  5
5CD
100
AcDbEntity
  8
0
  6
CONTINUOUS
 62
               7
100
AcDbLine
 10
-14.399999999999977
 20
-16.0499969482422
 30
0.0
 11
-14.820728919785722
 21
-16.292904903336343
 31
0.0
  0
LINE
  5
5CE
100
AcDbEntity
  8
0
  6
CONTINUOUS
 62
               7
100
AcDbLine
 10
-14.399999999999977
 20
-14.449996948242198
 30
0.0
 11
-14.820728919785722
 21
-14.207088993148055
 31
0.0
  0
LINE
  5
5CF
100
AcDbEntity
  8
0
  6
CONTINUOUS
 62
               7
100
AcDbLine
 10
-14.399999999999977
 20
-16.0499969482422
 30
0.0
 11
-14.399999999999977
 21
-14.449996954202664
 31
0.0
  0
ARC
  5
5D0
100
AcDbEntity
  8
0
  6
CONTINUOUS
 62
               7
100
AcDbCircle
 10
-8.0
 20
-15.249996948242199
 30
0.0
 40
6.9000000000000004
100
AcDbArc
 50
188.69334942994371
 51
351.30665057005507
  0
CIRCLE
  5
5D1
100
AcDbEntity
  8
0
  6
CONTINUOUS
 62
               7
100
AcDbCircle
 10
-8.0
 20
-15.249996948242199
 30
0.0
 40
3.0499999999999998
  0
CIRCLE
  5
5D2
100
AcDbEntity
  8
0
  6
CONTINUOUS
 62
               7
100
AcDbCircle
 10
-8.0
 20
-15.249996948242199
 30
0.0
 40
4.0499999999999998
  0
ARC
  5
5D3
100
AcDbEntity
  8
0
  6
CONTINUOUS
 62
               7
100
AcDbCircle
 10
-6.9499999999999886
 20
-7.428538476423185
 30
0.0
 40
0.3
100
AcDbArc
 50
97.786600724137088
 51
179.99999999999963
  0
ARC
  5
5D4
100
AcDbEntity
  8
0
  6
CONTINUOUS
 62
               7
100
AcDbCircle
 10
-6.9499999999999886
 20
-7.5714554200612127
 30
0.0
 40
0.3
100
AcDbArc
 50
179.99999999999963
 51
262.21339927586212
  0
ARC
  5
5D5
100
AcDbEntity
  8
0
  6
CONTINUOUS
 62
               7
100
AcDbCircle
 10
-9.0499999999999829
 20
-7.428538476423185
 30
0.0
 40
0.3
100
AcDbArc
 50
0.0
 51
82.213399275863864
  0
ARC
  5
5D6
100
AcDbEntity
  8
0
  6
CONTINUOUS
 62
               7
100
AcDbCircle
 10
-9.0499999999999829
 20
-7.5714554200612127
 30
0.0
 40
0.3
100
AcDbArc
 50
277.78660072413879
 51
0.0
  0
LINE
  5
5D7
100
AcDbEntity
  8
0
  6
CONTINUOUS
 62
               7
100
AcDbLine
 10
-7.25
 20
-7.5714554200612127
 30
0.0
 11
-7.25
 21
-7.428538476423185
 31
0.0
  0
LINE
  5
5D8
100
AcDbEntity
  8
0
  6
CONTINUOUS
 62
               7
100
AcDbLine
 10
-8.75
 20
-7.5714554200612127
 30
0.0
 11
-8.75
 21
-7.428538476423185
 31
0.0
  0
ARC
  5
5D9
100
AcDbEntity
  8
0
  6
CONTINUOUS
 62
               7
100
AcDbCircle
 10
-8.0
 20
-15.249996948242199
 30
0.0
 40
6.9000000000000004
100
AcDbArc
 50
8.6933494299441101
 51
171.3066505700555
  0
ARC
  5
5DA
100
AcDbEntity
  8
0
  6
CONTINUOUS
 62
               7
100
AcDbCircle
 10
-8.0
 20
0.2500030517578011
 30
0.0
 40
6.9000000000000004
100
AcDbArc
 50
188.69334942994371
 51
351.30665057005507
  0
CIRCLE
  5
5DB
100
AcDbEntity
  8
0
  6
CONTINUOUS
 62
               7
100
AcDbCircle
 10
-8.0
 20
0.2500030517578011
 30
0.0
 40
3.0499999999999998
  0
CIRCLE
  5
5DC
100
AcDbEntity
  8
0
  6
CONTINUOUS
 62
               7
100
AcDbCircle
 10
-8.0
 20
0.2500030517578011
 30
0.0
 40
4.0499999999999998
  0
ARC
  5
5DD
100
AcDbEntity
  8
0
  6
CONTINUOUS
 62
               7
100
AcDbCircle
 10
-8.0
 20
0.2500030517578011
 30
0.0
 40
6.9000000000000004
100
AcDbArc
 50
8.6933494299441101
 51
171.3066505700555
  0
CIRCLE
  5
5DE
100
AcDbEntity
  8
0
  6
CONTINUOUS
 62
               7
100
AcDbCircle
 10
-13.5
 20
-23.999981689453136
 30
0.0
 40
2.25
  0
CIRCLE
  5
5DF
100
AcDbEntity
  8
0
  6
CONTINUOUS
 62
               7
100
AcDbCircle
 10
-13.5
 20
10.999987792968739
 30
0.0
 40
2.25
  0
ARC
  5
5E0
100
AcDbEntity
  8
0
  6
CONTINUOUS
 62
               7
100
AcDbCircle
 10
-2.5
 20
-25.999996948242199
 30
0.0
 40
2.6999998092651367
100
AcDbArc
 50
89.999982013910454
 51
179.99996402782091
  0
ARC
  5
5E1
100
AcDbEntity
  8
0
  6
CONTINUOUS
 62
               7
100
AcDbCircle
 10
-15.20001220703125
 20
15.000018310546864
 30
0.0
 40
0.300000011920929
100
AcDbArc
 50
89.999982013910454
 51
179.99996402782091
  0
ARC
  5
5E2
100
AcDbEntity
  8
0
  6
CONTINUOUS
 62
               7
100
AcDbCircle
 10
-15.199996948242187
 20
-26.999989318847668
 30
0.0
 40
0.300000011920929
100
AcDbArc
 50
89.999982013910454
 51
179.99996402782091
  0
ARC
  5
5E3
100
AcDbEntity
  8
0
  6
CONTINUOUS
 62
               7
100
AcDbCircle
 10
-15.199996948242187
 20
-21.000000762939464
 30
0.0
 40
0.300000011920929
100
AcDbArc
 50
179.99996402782091
 51
270.00000068324471
  0
ARC
  5
5E4
100
AcDbEntity
  8
0
  6
CONTINUOUS
 62
               7
100
AcDbCircle
 10
-13.5
 20
11.000003051757801
 30
0.0
 40
2.6999998092651367
100
AcDbArc
 50
270.00001798608872
 51
0.0
  0
ARC
  5
5E5
100
AcDbEntity
  8
0
  6
CONTINUOUS
 62
               7
100
AcDbCircle
 10
-13.5
 20
-23.999996948242199
 30
0.0
 40
2.6999998092651367
100
AcDbArc
 50
270.00001798608872
 51
89.999982013910454
  0
ARC
  5
5E6
100
AcDbEntity
  8
0
  6
CONTINUOUS
 62
               7
100
AcDbCircle
 10
-2.5000152587890625
 20
9.0000030517578011
 30
0.0
 40
2.6999998092651367
100
AcDbArc
 50
89.999982013910454
 51
270.00000068324471
  0
LINE
  5
5E7
100
AcDbEntity
  8
0
  6
CONTINUOUS
 62
               7
100
AcDbLine
 10
-14.419198291683642
 20
-24.919237052817891
 30
0.0
 11
-12.580727010847113
 21
-23.080765926952893
 31
0.0
  0
LINE
  5
5E8
100
AcDbEntity
  8
0
  6
CONTINUOUS
 62
               7
100
AcDbLine
 10
-12.580738250437207
 20
-24.919227775326192
 30
0.0
 11
-14.419209221330675
 21
-23.080756339518132
 31
0.0
  0
LINE
  5
5E9
100
AcDbEntity
  8
0
  6
CONTINUOUS
 62
               7
100
AcDbLine
 10
-15.5
 20
-22.499981689453136
 30
0.0
 11
-15.5
 21
9.9692413330078011
 31
0.0
  0
LINE
  5
5EA
100
AcDbEntity
  8
0
  6
CONTINUOUS
 62
               7
100
AcDbLine
 10
-1.580726362218229
 20
-26.919231373646483
 30
0.0
 11
-3.4191973331116969
 21
-25.080759937838423
 31
0.0
  0
LINE
  5
5EB
100
AcDbEntity
  8
0
  6
CONTINUOUS
 62
               7
100
AcDbLine
 10
-3.4192078140649755
 20
-26.919261303092583
 30
0.0
 11
-1.5807257436345026
 21
-25.08077938763455
 31
0.0
  0
LINE
  5
5EC
100
AcDbEntity
  8
0
  6
CONTINUOUS
 62
               7
100
AcDbLine
 10
-3.4192063389236864
 20
8.0807773276812327
 30
0.0
 11
-1.5807350580871571
 21
9.9192484535462313
 31
0.0
  0
LINE
  5
5ED
100
AcDbEntity
  8
0
  6
CONTINUOUS
 62
               7
100
AcDbLine
 10
-14.419196816544172
 20
10.080758419581969
 30
0.0
 11
-12.580725535707643
 21
11.919229545446967
 31
0.0
  0
LINE
  5
5EE
100
AcDbEntity
  8
0
  6
CONTINUOUS
 62
               7
100
AcDbLine
 10
-12.580723035426672
 20
10.080756907478815
 30
0.0
 11
-14.419204795912265
 21
11.919239132881728
 31
0.0
  0
LINE
  5
5EF
100
AcDbEntity
  8
0
  6
CONTINUOUS
 62
               7
100
AcDbLine
 10
-1.5807327263892148
 20
8.0807964675352082
 30
0.0
 11
-3.4192036972826827
 21
9.9192679033432682
 31
0.0
  0
LINE
  5
5F0
100
AcDbEntity
  8
0
  6
CONTINUOUS
 62
               7
100
AcDbLine
 10
-10.79998779296875
 20
15.299990844726551
 30
0.0
 11
-10.79998779296875
 21
10.999987792968739
 31
0.0
  0
LINE
  5
5F1
100
AcDbEntity
  8
0
  6
CONTINUOUS
 62
               7
100
AcDbLine
 10
-13.500015258789063
 20
8.3000061035156136
 30
0.0
 11
-15.500015258789063
 21
8.3000061035156136
 31
0.0
  0
LINE
  5
5F2
100
AcDbEntity
  8
0
  6
CONTINUOUS
 62
               7
100
AcDbLine
 10
-0.79998779296875
 20
15.299990844726551
 30
0.0
 11
-15.20001220703125
 21
15.299990844726551
 31
0.0
  0
LINE
  5
5F3
100
AcDbEntity
  8
0
  6
CONTINUOUS
 62
               7
100
AcDbLine
 10
-2.5000152587890625
 20
6.3000061035156136
 30
0.0
 11
-0.79998779296875
 21
6.3000061035156136
 31
0.0
  0
LINE
  5
5F4
100
AcDbEntity
  8
0
  6
CONTINUOUS
 62
               7
100
AcDbLine
 10
-13.5
 20
-21.299996185302746
 30
0.0
 11
-15.20001220703125
 21
-21.299996185302746
 31
0.0
  0
LINE
  5
5F5
100
AcDbEntity
  8
0
  6
CONTINUOUS
 62
               7
100
AcDbLine
 10
-13.5
 20
-26.699990081787121
 30
0.0
 11
-15.20001220703125
 21
-26.699990081787121
 31
0.0
  0
LINE
  5
5F6
100
AcDbEntity
  8
0
  6
CONTINUOUS
 62
               7
100
AcDbLine
 10
-2.5
 20
11.699999999999989
 30
0.0
 11
-0.79998779296875
 21
11.699999999999989
 31
0.0
  0
LINE
  5
5F7
100
AcDbEntity
  8
0
  6
CONTINUOUS
 62
               7
100
AcDbLine
 10
-0.5
 20
-24.969219970703136
 30
0.0
 11
-0.5
 21
7.5000183105468636
 31
0.0
  0
ARC
  5
5F8
100
AcDbEntity
  8
0
  6
CONTINUOUS
 62
               7
100
AcDbCircle
 10
-0.79998779296875
 20
-29.999989318847668
 30
0.0
 40
0.300000011920929
100
AcDbArc
 50
270.00001798608872
 51
0.0
  0
LINE
  5
5F9
100
AcDbEntity
  8
0
  6
CONTINUOUS
 62
               7
100
AcDbLine
 10
-0.79998779296875
 20
-30.29999237060548
 30
0.0
 11
-15.20001220703125
 21
-30.29999237060548
 31
0.0
  0
ENDBLK
  5
5FA
100
AcDbEntity
  8
0
100
AcDbBlockEnd
  0
BLOCK
  5
5FB
100
AcDbEntity
  8
0
100
AcDbBlockBegin
  2
F15T0-14
 70
               0
 10
0.0
 20
0.0
 30
0.0
  3
F15T0-14
  1

  0
LINE
  5
5FC
100
AcDbEntity
  8
0
  6
CENTER
 62
             200
100
AcDbLine
 10
-9.5289489746093636
 20
-13.0
 30
0.0
 11
-14.587603759765614
 21
-13.0
 31
0.0
  0
LINE
  5
5FD
100
AcDbEntity
  8
0
  6
CENTER
 62
             200
100
AcDbLine
 10
-12.000003051757801
 20
-15.529434204101563
 30
0.0
 11
-12.000003051757801
 21
-10.669174194335937
 31
0.0
  0
LINE
  5
5FE
100
AcDbEntity
  8
0
  6
CONTINUOUS
 62
               2
100
AcDbLine
 10
-19.540225219726551
 20
-8.0
 30
0.0
 11
62.226788566210644
 21
-8.0
 31
0.0
  0
LINE
  5
5FF
100
AcDbEntity
  8
0
  6
DASHED
 62
               4
100
AcDbLine
 10
-17.000003051757801
 20
0.0
 30
0.0
 11
-6.0000030517578011
 21
0.0
 31
0.0
  0
LINE
  5
600
100
AcDbEntity
  8
0
  6
DASHED
 62
               4
100
AcDbLine
 10
-17.000003051757801
 20
-16.0
 30
0.0
 11
-6.0000030517578011
 21
-16.0
 31
0.0
  0
LINE
  5
601
100
AcDbEntity
  8
0
  6
CONTINUOUS
 62
               7
100
AcDbLine
 10
2.9999969482421989
 20
-0.5
 30
0.0
 11
45.699978689453147
 21
-0.5000000000000142
 31
0.0
  0
LINE
  5
602
100
AcDbEntity
  8
0
  6
CONTINUOUS
 62
               7
100
AcDbLine
 10
2.9999969482421989
 20
-15.5
 30
0.0
 11
45.699978689453147
 21
-15.500000000000014
 31
0.0
  0
LINE
  5
603
100
AcDbEntity
  8
0
  6
DASHED
 62
               4
100
AcDbLine
 10
-7.0000030517578011
 20
1.600006103515625
 30
0.0
 11
-7.0000030517578011
 21
0.0
 31
0.0
  0
LINE
  5
604
100
AcDbEntity
  8
0
  6
CONTINUOUS
 62
               7
100
AcDbLine
 10
33.499981689453136
 20
-0.5
 30
0.0
 11
33.499981689453136
 21
-15.5
 31
0.0
  0
LINE
  5
605
100
AcDbEntity
  8
0
  6
CONTINUOUS
 62
               7
100
AcDbLine
 10
2.9999969482421989
 20
0.0
 30
0.0
 11
2.9999969482421989
 21
-16.0
 31
0.0
  0
LINE
  5
606
100
AcDbEntity
  8
0
  6
CONTINUOUS
 62
               7
100
AcDbLine
 10
7.5605608605301882
 20
-13.560732547976954
 30
0.0
 11
5.4392409109032656
 21
-11.43941170428036
 31
0.0
  0
LINE
  5
607
100
AcDbEntity
  8
0
  6
CONTINUOUS
 62
               7
100
AcDbLine
 10
7.5606226733954713
 20
-11.439329206328182
 30
0.0
 11
5.4392957605512606
 21
-13.560655225100163
 31
0.0
  0
LINE
  5
608
100
AcDbEntity
  8
0
  6
CONTINUOUS
 62
               7
100
AcDbLine
 10
6.4999664306640739
 20
-9.5
 30
0.0
 11
3.4999664306640739
 21
-9.5
 31
0.0
  0
LINE
  5
609
100
AcDbEntity
  8
0
  6
CONTINUOUS
 62
               7
100
AcDbLine
 10
9.4999511718750114
 20
-12.499984741210938
 30
0.0
 11
9.4999511718750114
 21
-15.499984741210938
 31
0.0
  0
LINE
  5
60A
100
AcDbEntity
  8
0
  6
CONTINUOUS
 62
               7
100
AcDbLine
 10
24.500012207031261
 20
-3.5
 30
0.0
 11
24.500012207031261
 21
-0.5
 31
0.0
  0
LINE
  5
60B
100
AcDbEntity
  8
0
  6
CONTINUOUS
 62
               7
100
AcDbLine
 10
26.439309913225145
 20
-2.439385281022453
 30
0.0
 11
28.560629505224199
 21
-4.5607064823469159
 31
0.0
  0
LINE
  5
60C
100
AcDbEntity
  8
0
  6
CONTINUOUS
 62
               7
100
AcDbLine
 10
26.439330687765789
 20
-4.5606625193184414
 30
0.0
 11
28.560651889090252
 21
-2.4393429273193874
 31
0.0
  0
LINE
  5
60D
100
AcDbEntity
  8
0
  6
CONTINUOUS
 62
               7
100
AcDbLine
 10
30.499981689453136
 20
-3.5
 30
0.0
 11
30.499981689453136
 21
-0.5
 31
0.0
  0
LINE
  5
60E
100
AcDbEntity
  8
0
  6
DASHED
 62
               4
100
AcDbLine
 10
1.2499969482421989
 20
-18.699981689453125
 30
0.0
 11
-1.2500030517578011
 21
-18.699981689453125
 31
0.0
  0
LINE
  5
60F
100
AcDbEntity
  8
0
  6
DASHED
 62
               4
100
AcDbLine
 10
2.7499969482421989
 20
-17.199996948242187
 30
0.0
 11
2.7499969482421989
 21
-16.699996948242188
 31
0.0
  0
LINE
  5
610
100
AcDbEntity
  8
0
  6
DASHED
 62
               4
100
AcDbLine
 10
-2.7499877929687386
 20
-17.199996948242187
 30
0.0
 11
-2.7499877929687386
 21
-16.699996948242188
 31
0.0
  0
LINE
  5
611
100
AcDbEntity
  8
0
  6
DASHED
 62
               4
100
AcDbLine
 10
-7.0000030517578011
 20
1.600006103515625
 30
0.0
 11
17.999996948242199
 21
1.600006103515625
 31
0.0
  0
LINE
  5
612
100
AcDbEntity
  8
0
  6
DASHED
 62
               4
100
AcDbLine
 10
2.9999969482421989
 20
-16.0
 30
0.0
 11
17.999996948242199
 21
-16.0
 31
0.0
  0
LINE
  5
613
100
AcDbEntity
  8
0
  6
DASHED
 62
               4
100
AcDbLine
 10
2.9999969482421989
 20
0.0
 30
0.0
 11
17.999996948242199
 21
0.0
 31
0.0
  0
LINE
  5
614
100
AcDbEntity
  8
0
  6
CONTINUOUS
 62
               7
100
AcDbLine
 10
-6.0000030517578011
 20
0.0
 30
0.0
 11
2.9999969482421989
 21
0.0
 31
0.0
  0
LINE
  5
615
100
AcDbEntity
  8
0
  6
CONTINUOUS
 62
               7
100
AcDbLine
 10
-6.0000030517578011
 20
-16.0
 30
0.0
 11
2.9999969482421989
 21
-16.0
 31
0.0
  0
LINE
  5
616
100
AcDbEntity
  8
0
  6
CONTINUOUS
 62
               7
100
AcDbLine
 10
-6.0000030517578011
 20
0.0
 30
0.0
 11
-6.0000030517578011
 21
-16.0
 31
0.0
  0
LINE
  5
617
100
AcDbEntity
  8
0
  6
DASHED
 62
               4
100
AcDbLine
 10
17.999996948242199
 20
1.600006103515625
 30
0.0
 11
17.999996948242199
 21
-16.0
 31
0.0
  0
LINE
  5
618
100
AcDbEntity
  8
0
  6
DASHED
 62
               4
100
AcDbLine
 10
-17.000003051757801
 20
0.0
 30
0.0
 11
-17.000003051757801
 21
-16.0
 31
0.0
  0
LINE
  5
619
100
AcDbEntity
  8
0
  6
CENTER
 62
             200
100
AcDbLine
 10
-12.000003051757801
 20
-5.5294342041015625
 30
0.0
 11
-12.000003051757801
 21
-0.6691741943359375
 31
0.0
  0
LINE
  5
61A
100
AcDbEntity
  8
0
  6
CENTER
 62
             200
100
AcDbLine
 10
-9.5289489746093636
 20
-3.0
 30
0.0
 11
-14.587603759765614
 21
-3.0
 31
0.0
  0
CIRCLE
  5
61B
100
AcDbEntity
  8
0
  6
DASHED
 62
               4
100
AcDbCircle
 10
-12.000003051757801
 20
-13.0
 30
0.0
 40
1.6999998092651367
  0
CIRCLE
  5
61C
100
AcDbEntity
  8
0
  6
CONTINUOUS
 62
               7
100
AcDbCircle
 10
6.4999664306640739
 20
-12.499984741210938
 30
0.0
 40
2.7999992370605469
  0
ARC
  5
61D
100
AcDbEntity
  8
0
  6
CONTINUOUS
 62
               7
100
AcDbCircle
 10
6.4999664306640739
 20
-12.499984741210938
 30
0.0
 40
3.0
100
AcDbArc
 50
0.0
 51
89.999982013910454
  0
CIRCLE
  5
61E
100
AcDbEntity
  8
0
  6
CONTINUOUS
 62
               7
100
AcDbCircle
 10
27.499996948242199
 20
-3.5
 30
0.0
 40
2.7999992370605469
  0
ARC
  5
61F
100
AcDbEntity
  8
0
  6
CONTINUOUS
 62
               7
100
AcDbCircle
 10
27.500012207031261
 20
-3.5
 30
0.0
 40
3.0
100
AcDbArc
 50
179.99996402782091
 51
0.0000919801827092
  0
ARC
  5
620
100
AcDbEntity
  8
0
  6
DASHED
 62
               4
100
AcDbCircle
 10
-1.2500030517578011
 20
-17.199981689453125
 30
0.0
 40
1.5
100
AcDbArc
 50
179.99990938630756
 51
269.99994604173139
  0
ARC
  5
621
100
AcDbEntity
  8
0
  6
DASHED
 62
               4
100
AcDbCircle
 10
1.2499816894531364
 20
-17.199981689453125
 30
0.0
 40
1.5
100
AcDbArc
 50
270.00001798608872
 51
359.99995901886416
  0
CIRCLE
  5
622
100
AcDbEntity
  8
0
  6
DASHED
 62
               4
100
AcDbCircle
 10
-12.000003051757801
 20
-3.0
 30
0.0
 40
1.6999998092651367
  0
LINE
  5
623
100
AcDbEntity
  8
0
  6
DASHED
 62
               4
100
AcDbLine
 10
-2.9499999999999886
 20
-16.699996948242188
 30
0.0
 11
2.9499938964843864
 21
-16.699996948242188
 31
0.0
  0
LINE
  5
624
100
AcDbEntity
  8
0
  6
DASHED
 62
               4
100
AcDbLine
 10
0.3499835342552728
 20
-15.999994514660102
 30
0.0
 11
0.5375459860286469
 21
-16.699987108403548
 31
0.0
  0
LINE
  5
625
100
AcDbEntity
  8
0
  6
DASHED
 62
               4
100
AcDbLine
 10
-0.350008574735682
 20
-16.700018189950242
 30
0.0
 11
-0.5375749325787069
 21
-16.000010814153029
 31
0.0
  0
LINE
  5
626
100
AcDbEntity
  8
0
  6
DASHED
 62
               4
100
AcDbLine
 10
-2.9499999999999886
 20
-16.699996948242188
 30
0.0
 11
-2.9499999999999886
 21
-16.0
 31
0.0
  0
LINE
  5
627
100
AcDbEntity
  8
0
  6
DASHED
 62
               4
100
AcDbLine
 10
2.9499938964843864
 20
-16.699996948242188
 30
0.0
 11
2.9499938964843864
 21
-16.0
 31
0.0
  0
LINE
  5
628
100
AcDbEntity
  8
0
  6
DASHED
 62
               4
100
AcDbLine
 10
1.9999969482421989
 20
3.1999969482421804
 30
0.0
 11
-2.0000030517578011
 21
3.1999969482421804
 31
0.0
  0
LINE
  5
629
100
AcDbEntity
  8
0
  6
DASHED
 62
               4
100
AcDbLine
 10
1.9999969482421989
 20
2.1000061035156179
 30
0.0
 11
1.9999969482421989
 21
3.1999969482421804
 31
0.0
  0
LINE
  5
62A
100
AcDbEntity
  8
0
  6
DASHED
 62
               4
100
AcDbLine
 10
-2.0000030517578011
 20
2.1000061035156179
 30
0.0
 11
-2.0000030517578011
 21
3.1999969482421804
 31
0.0
  0
ARC
  5
62B
100
AcDbEntity
  8
0
  6
DASHED
 62
               4
100
AcDbCircle
 10
-2.5000030517578011
 20
2.100006103515625
 30
0.0
 40
0.5
100
AcDbArc
 50
269.99996334457541
 51
0.0000179860890374
  0
ARC
  5
62C
100
AcDbEntity
  8
0
  6
DASHED
 62
               4
100
AcDbCircle
 10
2.4999969482421989
 20
2.100006103515625
 30
0.0
 40
0.5
100
AcDbArc
 50
179.99996402782091
 51
269.99994604173139
  0
ARC
  5
62D
100
AcDbEntity
  8
0
  6
CONTINUOUS
 62
               7
100
AcDbCircle
 10
33.847297213369814
 20
-13.777284254648833
 30
0.0
 40
3.7629117474124989
100
AcDbArc
 50
4.2258845932262368
 51
6.1527320581776372
  0
ARC
  5
62E
100
AcDbEntity
  8
0
  6
CONTINUOUS
 62
               7
100
AcDbCircle
 10
33.52320891157283
 20
-13.812230427155527
 30
0.0
 40
4.0888787123857897
100
AcDbArc
 50
6.1528632145365769
 51
8.2184785901149038
  0
ARC
  5
62F
100
AcDbEntity
  8
0
  6
CONTINUOUS
 62
               7
100
AcDbCircle
 10
33.251060308359712
 20
-13.851299615215623
 30
0.0
 40
4.3638172725416116
100
AcDbArc
 50
8.2153907061555227
 51
10.252030923277148
  0
ARC
  5
630
100
AcDbEntity
  8
0
  6
CONTINUOUS
 62
               7
100
AcDbCircle
 10
33.062377751208849
 20
-13.885186444355142
 30
0.0
 40
4.5555185280978989
100
AcDbArc
 50
10.249067486419207
 51
12.29035129179965
  0
ARC
  5
631
100
AcDbEntity
  8
0
  6
CONTINUOUS
 62
               7
100
AcDbCircle
 10
32.970534479381072
 20
-13.90496056804038
 30
0.0
 40
4.649466125201223
100
AcDbArc
 50
12.287524785731456
 51
14.323832351812483
  0
ARC
  5
632
100
AcDbEntity
  8
0
  6
CONTINUOUS
 62
               7
100
AcDbCircle
 10
32.974638989431604
 20
-13.903692291349159
 30
0.0
 40
4.6451754430736036
100
AcDbArc
 50
14.321200355521613
 51
16.385446585992153
  0
ARC
  5
633
100
AcDbEntity
  8
0
  6
CONTINUOUS
 62
               7
100
AcDbCircle
 10
33.062935792909848
 20
-13.877555594342809
 30
0.0
 40
4.5530916549443816
100
AcDbArc
 50
16.383347079526359
 51
18.413205839849123
  0
ARC
  5
634
100
AcDbEntity
  8
0
  6
CONTINUOUS
 62
               7
100
AcDbCircle
 10
33.216719137504334
 20
-13.826190091404584
 30
0.0
 40
4.3909568183558054
100
AcDbArc
 50
18.411110768756906
 51
20.474410854072399
  0
ARC
  5
635
100
AcDbEntity
  8
0
  6
CONTINUOUS
 62
               7
100
AcDbCircle
 10
33.414843254857509
 20
-13.752085157102883
 30
0.0
 40
4.179427407790862
100
AcDbArc
 50
20.472738699495643
 51
22.53789510812695
  0
ARC
  5
636
100
AcDbEntity
  8
0
  6
CONTINUOUS
 62
               7
100
AcDbCircle
 10
33.637100088854446
 20
-13.65974657370748
 30
0.0
 40
3.9387523065594494
100
AcDbArc
 50
22.536490800113032
 51
24.61235399434327
  0
ARC
  5
637
100
AcDbEntity
  8
0
  6
CONTINUOUS
 62
               7
100
AcDbCircle
 10
33.863698471706847
 20
-13.555929554765441
 30
0.0
 40
3.6895038353855494
100
AcDbArc
 50
24.612169418243386
 51
26.644213698148139
  0
ARC
  5
638
100
AcDbEntity
  8
0
  6
CONTINUOUS
 62
               7
100
AcDbCircle
 10
34.084860160671383
 20
-13.444956462640548
 30
0.0
 40
3.4420618830909504
100
AcDbArc
 50
26.64406455646521
 51
28.683700025493394
  0
ARC
  5
639
100
AcDbEntity
  8
0
  6
CONTINUOUS
 62
               7
100
AcDbCircle
 10
34.294782403587639
 20
-13.330113753697674
 30
0.0
 40
3.2027792138376987
100
AcDbArc
 50
28.683837398246926
 51
30.726475630672464
  0
ARC
  5
63A
100
AcDbEntity
  8
0
  6
CONTINUOUS
 62
               7
100
AcDbCircle
 10
34.488517487143653
 20
-13.214985861619496
 30
0.0
 40
2.9774179180260334
100
AcDbArc
 50
30.726884204431748
 51
32.764455242535007
  0
ARC
  5
63B
100
AcDbEntity
  8
0
  6
CONTINUOUS
 62
               7
100
AcDbCircle
 10
34.667267516108062
 20
-13.099907711660478
 30
0.0
 40
2.7648278140138127
100
AcDbArc
 50
32.763784300571402
 51
34.860332643969642
  0
ARC
  5
63C
100
AcDbEntity
  8
0
  6
CONTINUOUS
 62
               7
100
AcDbCircle
 10
34.827361120859834
 20
-12.988386735081647
 30
0.0
 40
2.5697204320578275
100
AcDbArc
 50
34.860280900172633
 51
36.935311601635426
  0
ARC
  5
63D
100
AcDbEntity
  8
0
  6
CONTINUOUS
 62
               7
100
AcDbCircle
 10
34.968533957975389
 20
-12.882237078044724
 30
0.0
 40
2.3930922366681844
100
AcDbArc
 50
36.934967577747663
 51
39.054750865241566
  0
ARC
  5
63E
100
AcDbEntity
  8
0
  6
CONTINUOUS
 62
               7
100
AcDbCircle
 10
35.092839301367967
 20
-12.781442287125159
 30
0.0
 40
2.2330565976797208
100
AcDbArc
 50
39.055996559595627
 51
41.128048153047196
  0
ARC
  5
63F
100
AcDbEntity
  8
0
  6
CONTINUOUS
 62
               7
100
AcDbCircle
 10
35.201007171099086
 20
-12.686984819533166
 30
0.0
 40
2.0894512314174238
100
AcDbArc
 50
41.127979318430661
 51
43.225860683954721
  0
ARC
  5
640
100
AcDbEntity
  8
0
  6
CONTINUOUS
 62
               7
100
AcDbCircle
 10
35.294063308119327
 20
-12.599522558899594
 30
0.0
 40
1.9617441773085496
100
AcDbArc
 50
43.225910519069139
 51
45.33953495864754
  0
ARC
  5
641
100
AcDbEntity
  8
0
  6
CONTINUOUS
 62
               7
100
AcDbCircle
 10
35.375669389884997
 20
-12.516950629504493
 30
0.0
 40
1.8456507835321854
100
AcDbArc
 50
45.339690439252934
 51
47.461563965274721
  0
ARC
  5
642
100
AcDbEntity
  8
0
  6
CONTINUOUS
 62
               7
100
AcDbCircle
 10
35.444343501883196
 20
-12.442118037924715
 30
0.0
 40
1.7440828242107302
100
AcDbArc
 50
47.461812485366671
 51
49.579289434050878
  0
ARC
  5
643
100
AcDbEntity
  8
0
  6
CONTINUOUS
 62
               7
100
AcDbCircle
 10
35.503454858779406
 20
-12.372728637950033
 30
0.0
 40
1.6529288816836427
100
AcDbArc
 50
49.579634764233944
 51
51.683014485892457
  0
ARC
  5
644
100
AcDbEntity
  8
0
  6
CONTINUOUS
 62
               7
100
AcDbCircle
 10
35.552137880102272
 20
-12.31114033850524
 30
0.0
 40
1.5744231171216525
100
AcDbArc
 50
51.683410240941399
 51
53.758457133662361
  0
ARC
  5
645
100
AcDbEntity
  8
0
  6
CONTINUOUS
 62
               7
100
AcDbCircle
 10
35.594029499071873
 20
-12.253990531338417
 30
0.0
 40
1.5035640443162497
100
AcDbArc
 50
53.758476066696922
 51
55.915352172414408
  0
ARC
  5
646
100
AcDbEntity
  8
0
  6
CONTINUOUS
 62
               7
100
AcDbCircle
 10
35.629599878111065
 20
-12.2014473010952
 30
0.0
 40
1.440112939399137
100
AcDbArc
 50
55.915894755207312
 51
58.028898891463079
  0
ARC
  5
647
100
AcDbEntity
  8
0
  6
CONTINUOUS
 62
               7
100
AcDbCircle
 10
35.657785552249173
 20
-12.156314279036906
 30
0.0
 40
1.3869018340082298
100
AcDbArc
 50
58.029427194731319
 51
60.083289245956443
  0
ARC
  5
648
100
AcDbEntity
  8
0
  6
CONTINUOUS
 62
               7
100
AcDbCircle
 10
35.681220336340147
 20
-12.115596786402605
 30
0.0
 40
1.3399220161149226
100
AcDbArc
 50
60.083488734298534
 51
62.199906680707045
  0
ARC
  5
649
100
AcDbEntity
  8
0
  6
CONTINUOUS
 62
               7
100
AcDbCircle
 10
35.700739780300488
 20
-12.078588155310968
 30
0.0
 40
1.2980812772469721
100
AcDbArc
 50
62.200177229995269
 51
64.377030950383286
  0
ARC
  5
64A
100
AcDbEntity
  8
0
  6
CONTINUOUS
 62
               7
100
AcDbCircle
 10
35.716596887719994
 20
-12.045543438151796
 30
0.0
 40
1.2614288403806175
100
AcDbArc
 50
64.377376627482064
 51
66.611741226542037
  0
ARC
  5
64B
100
AcDbEntity
  8
0
  6
CONTINUOUS
 62
               7
100
AcDbCircle
 10
35.728846051173193
 20
-12.017259115320755
 30
0.0
 40
1.2306060453551306
100
AcDbArc
 50
66.612438846551299
 51
68.756554612491442
  0
ARC
  5
64C
100
AcDbEntity
  8
0
  6
CONTINUOUS
 62
               7
100
AcDbCircle
 10
35.737465538086603
 20
-11.995120355421463
 30
0.0
 40
1.206848518289146
100
AcDbArc
 50
68.757134705399224
 51
70.797086133308056
  0
ARC
  5
64D
100
AcDbEntity
  8
0
  6
CONTINUOUS
 62
               7
100
AcDbCircle
 10
35.743739094326251
 20
-11.977131794293925
 30
0.0
 40
1.1877973824267298
100
AcDbArc
 50
70.797461977520783
 51
72.871661381619532
  0
ARC
  5
64E
100
AcDbEntity
  8
0
  6
CONTINUOUS
 62
               7
100
AcDbCircle
 10
35.748137218279766
 20
-11.962889579628737
 30
0.0
 40
1.172891541321601
100
AcDbArc
 50
72.872078475841278
 51
74.976441978120732
  0
ARC
  5
64F
100
AcDbEntity
  8
0
  6
CONTINUOUS
 62
               7
100
AcDbCircle
 10
35.750920480356911
 20
-11.95255491134975
 30
0.0
 40
1.1621886524346294
100
AcDbArc
 50
74.976896281260665
 51
77.106891749058079
  0
ARC
  5
650
100
AcDbEntity
  8
0
  6
CONTINUOUS
 62
               7
100
AcDbCircle
 10
35.752365250326072
 20
-11.94628717380354
 30
0.0
 40
1.1557565612105893
100
AcDbArc
 50
77.10737788627813
 51
79.258073020553965
  0
ARC
  5
651
100
AcDbEntity
  8
0
  6
CONTINUOUS
 62
               7
100
AcDbCircle
 10
35.7527633511856
 20
-11.944243946841979
 30
0.0
 40
1.1536749381666052
100
AcDbArc
 50
79.258584393433608
 51
81.42470890125874
  0
ARC
  5
652
100
AcDbEntity
  8
0
  6
CONTINUOUS
 62
               7
100
AcDbCircle
 10
35.75251562182396
 20
-11.945915595853776
 30
0.0
 40
1.1553648381076536
100
AcDbArc
 50
81.42492203625423
 51
82.667146876277556
  0
ARC
  5
653
100
AcDbEntity
  8
0
  6
CONTINUOUS
 62
               7
100
AcDbCircle
 10
39.573353476933164
 20
-2.5083544630635259
 30
0.0
 40
4.0733803549498431
100
AcDbArc
 50
179.88248683709224
 51
180.26370356081804
  0
ARC
  5
654
100
AcDbEntity
  8
0
  6
CONTINUOUS
 62
               7
100
AcDbCircle
 10
39.895319262112693
 20
-2.5053173252544099
 30
0.0
 40
4.3953569835635475
100
AcDbArc
 50
180.28397725260618
 51
182.349599834971
  0
ARC
  5
655
100
AcDbEntity
  8
0
  6
CONTINUOUS
 62
               7
100
AcDbCircle
 10
40.348315759226551
 20
-2.487204593224682
 30
0.0
 40
4.8487152236888873
100
AcDbArc
 50
182.34400008633639
 51
184.38093799339808
  0
ARC
  5
656
100
AcDbEntity
  8
0
  6
CONTINUOUS
 62
               7
100
AcDbCircle
 10
40.638861078635401
 20
-2.4654152163795544
 30
0.0
 40
5.1400760871097102
100
AcDbArc
 50
184.37571833400145
 51
186.40560716991033
  0
ARC
  5
657
100
AcDbEntity
  8
0
  6
CONTINUOUS
 62
               7
100
AcDbCircle
 10
40.740626882126392
 20
-2.4544202991919164
 30
0.0
 40
5.2424332456517222
100
AcDbArc
 50
186.40093659987494
 51
188.44471158718153
  0
ARC
  5
658
100
AcDbEntity
  8
0
  6
CONTINUOUS
 62
               7
100
AcDbCircle
 10
40.665946803958732
 20
-2.4658645696607451
 30
0.0
 40
5.1668822103566283
100
AcDbArc
 50
188.44079659032496
 51
190.47216274009324
  0
ARC
  5
659
100
AcDbEntity
  8
0
  6
CONTINUOUS
 62
               7
100
AcDbCircle
 10
40.456404460854898
 20
-2.5048514142447331
 30
0.0
 40
4.9537439884679388
100
AcDbArc
 50
190.46925384142801
 51
192.48318221304518
  0
ARC
  5
65A
100
AcDbEntity
  8
0
  6
CONTINUOUS
 62
               7
100
AcDbCircle
 10
40.160501513483027
 20
-2.5705952073000518
 30
0.0
 40
4.6506256211513239
100
AcDbArc
 50
192.48035777535409
 51
194.54147221332278
  0
ARC
  5
65B
100
AcDbEntity
  8
0
  6
CONTINUOUS
 62
               7
100
AcDbCircle
 10
39.822550449123398
 20
-2.6583503084118405
 30
0.0
 40
4.3014668167016694
100
AcDbArc
 50
194.54026042390231
 51
196.57103213195174
  0
ARC
  5
65C
100
AcDbEntity
  8
0
  6
CONTINUOUS
 62
               7
100
AcDbCircle
 10
39.480242490604155
 20
-2.7602685964154503
 30
0.0
 40
3.944308487307179
100
AcDbArc
 50
196.57019298143391
 51
198.61352744566284
  0
ARC
  5
65D
100
AcDbEntity
  8
0
  6
CONTINUOUS
 62
               7
100
AcDbCircle
 10
39.147529117332112
 20
-2.872351148774591
 30
0.0
 40
3.5932234738173441
100
AcDbArc
 50
198.61315457467981
 51
200.66446039759532
  0
ARC
  5
65E
100
AcDbEntity
  8
0
  6
CONTINUOUS
 62
               7
100
AcDbCircle
 10
38.843517518194346
 20
-2.9870014579238031
 30
0.0
 40
3.2683115693123259
100
AcDbArc
 50
200.66463514086291
 51
202.70909159173189
  0
ARC
  5
65F
100
AcDbEntity
  8
0
  6
CONTINUOUS
 62
               7
100
AcDbCircle
 10
38.566933091359061
 20
-3.1027462534811434
 30
0.0
 40
2.9684852815271552
100
AcDbArc
 50
202.70917255837679
 51
204.79589951618007
  0
ARC
  5
660
100
AcDbEntity
  8
0
  6
CONTINUOUS
 62
               7
100
AcDbCircle
 10
38.321418047002354
 20
-3.216117497564241
 30
0.0
 40
2.6980584455748691
100
AcDbArc
 50
204.79688870518282
 51
206.84449975495659
  0
ARC
  5
661
100
AcDbEntity
  8
0
  6
CONTINUOUS
 62
               7
100
AcDbCircle
 10
38.11014602613696
 20
-3.3230591480235248
 30
0.0
 40
2.4612623661697048
100
AcDbArc
 50
206.84419992855368
 51
208.90029755576097
  0
ARC
  5
662
100
AcDbEntity
  8
0
  6
CONTINUOUS
 62
               7
100
AcDbCircle
 10
37.927141030157145
 20
-3.4240867859967281
 30
0.0
 40
2.2522231062592284
100
AcDbArc
 50
208.90024827716297
 51
210.94710659439673
  0
ARC
  5
663
100
AcDbEntity
  8
0
  6
CONTINUOUS
 62
               7
100
AcDbCircle
 10
37.76869155357781
 20
-3.5191124406518455
 30
0.0
 40
2.0674635019234326
100
AcDbArc
 50
210.94666501632599
 51
213.05272129209064
  0
ARC
  5
664
100
AcDbEntity
  8
0
  6
CONTINUOUS
 62
               7
100
AcDbCircle
 10
37.631236978277812
 20
-3.6084931106318265
 30
0.0
 40
1.9035041734933467
100
AcDbArc
 50
213.0543183714538
 51
215.11808218074967
  0
ARC
  5
665
100
AcDbEntity
  8
0
  6
CONTINUOUS
 62
               7
100
AcDbCircle
 10
37.513166932964239
 20
-3.6915338941230971
 30
0.0
 40
1.7591563044023779
100
AcDbArc
 50
215.11797332770689
 51
217.21729964211741
  0
ARC
  5
666
100
AcDbEntity
  8
0
  6
CONTINUOUS
 62
               7
100
AcDbCircle
 10
37.412732491904038
 20
-3.7678142180721395
 30
0.0
 40
1.6330382455386463
100
AcDbArc
 50
217.21733800905426
 51
219.33960577266524
  0
ARC
  5
667
100
AcDbEntity
  8
0
  6
CONTINUOUS
 62
               7
100
AcDbCircle
 10
37.325255309411631
 20
-3.8395087845797917
 30
0.0
 40
1.519934893233972
100
AcDbArc
 50
219.33977233769167
 51
221.47581497566
  0
ARC
  5
668
100
AcDbEntity
  8
0
  6
CONTINUOUS
 62
               7
100
AcDbCircle
 10
37.252267358155393
 20
-3.9040187416512211
 30
0.0
 40
1.4225245470859771
100
AcDbArc
 50
221.4760993620246
 51
223.61010722300441
  0
ARC
  5
669
100
AcDbEntity
  8
0
  6
CONTINUOUS
 62
               7
100
AcDbCircle
 10
37.189667217507093
 20
-3.9636400721813345
 30
0.0
 40
1.336075252302974
100
AcDbArc
 50
223.61051206819275
 51
225.73058613787501
  0
ARC
  5
66A
100
AcDbEntity
  8
0
  6
CONTINUOUS
 62
               7
100
AcDbCircle
 10
37.138422372191997
 20
-4.0161939585334494
 30
0.0
 40
1.262672629532426
100
AcDbArc
 50
225.73105398546483
 51
227.81941212471548
  0
ARC
  5
66B
100
AcDbEntity
  8
0
  6
CONTINUOUS
 62
               7
100
AcDbCircle
 10
37.094234919673667
 20
-4.064960286861961
 30
0.0
 40
1.1968646836743488
100
AcDbArc
 50
227.81937465147001
 51
230.00052406292571
  0
ARC
  5
66C
100
AcDbEntity
  8
0
  6
CONTINUOUS
 62
               7
100
AcDbCircle
 10
37.056561583729163
 20
-4.109838491243778
 30
0.0
 40
1.1382700312170682
100
AcDbArc
 50
230.00116996618092
 51
232.13187306362511
  0
ARC
  5
66D
100
AcDbEntity
  8
0
  6
CONTINUOUS
 62
               7
100
AcDbCircle
 10
37.026749219263309
 20
-4.1481588009364856
 30
0.0
 40
1.0897187895978158
100
AcDbArc
 50
232.13249726452804
 51
234.19376978971061
  0
ARC
  5
66E
100
AcDbEntity
  8
0
  6
CONTINUOUS
 62
               7
100
AcDbCircle
 10
37.001728678874841
 20
-4.1828371094123966
 30
0.0
 40
1.0469565105542151
100
AcDbArc
 50
234.19394833181494
 51
236.32521446265287
  0
ARC
  5
66F
100
AcDbEntity
  8
0
  6
CONTINUOUS
 62
               7
100
AcDbCircle
 10
36.980558191044253
 20
-4.2146029812582171
 30
0.0
 40
1.0087824336491014
100
AcDbArc
 50
236.32547329285086
 51
238.52479050684599
  0
ARC
  5
670
100
AcDbEntity
  8
0
  6
CONTINUOUS
 62
               7
100
AcDbCircle
 10
36.963011286174449
 20
-4.243253503290056
 30
0.0
 40
0.9751856146405591
100
AcDbArc
 50
238.52513572890268
 51
240.7896493550252
  0
ARC
  5
671
100
AcDbEntity
  8
0
  6
CONTINUOUS
 62
               7
100
AcDbCircle
 10
36.949140927813076
 20
-4.2680332268872192
 30
0.0
 40
0.9467880557216587
100
AcDbArc
 50
240.79047142950321
 51
242.94899039172853
  0
ARC
  5
672
100
AcDbEntity
  8
0
  6
CONTINUOUS
 62
               7
100
AcDbCircle
 10
36.939175966193147
 20
-4.2875238723829199
 30
0.0
 40
0.9248977473007884
100
AcDbArc
 50
242.94965877027008
 51
244.98510585905697
  0
ARC
  5
673
100
AcDbEntity
  8
0
  6
CONTINUOUS
 62
               7
100
AcDbCircle
 10
36.931610178860666
 20
-4.3037236413469415
 30
0.0
 40
0.9070183285139883
100
AcDbArc
 50
244.98548272674878
 51
247.05916177659881
  0
ARC
  5
674
100
AcDbEntity
  8
0
  6
CONTINUOUS
 62
               7
100
AcDbCircle
 10
36.925951180602823
 20
-4.317076848889279
 30
0.0
 40
0.8925154884911465
100
AcDbArc
 50
247.05958525577
 51
249.16737004731678
  0
ARC
  5
675
100
AcDbEntity
  8
0
  6
CONTINUOUS
 62
               7
100
AcDbCircle
 10
36.921994850573768
 20
-4.3274539479068963
 30
0.0
 40
0.8814097836866593
100
AcDbArc
 50
249.16783639663885
 51
251.30509574346664
  0
ARC
  5
676
100
AcDbEntity
  8
0
  6
CONTINUOUS
 62
               7
100
AcDbCircle
 10
36.91952631138895
 20
-4.3347250937714534
 30
0.0
 40
0.8737310345492286
100
AcDbArc
 50
251.30559968152713
 51
253.46724331822648
  0
ARC
  5
677
100
AcDbEntity
  8
0
  6
CONTINUOUS
 62
               7
100
AcDbCircle
 10
36.918320098082091
 20
-4.3387601483362417
 30
0.0
 40
0.8695195562227179
100
AcDbArc
 50
253.46777810802979
 51
255.64831897789253
  0
ARC
  5
678
100
AcDbEntity
  8
0
  6
CONTINUOUS
 62
               7
100
AcDbCircle
 10
36.918140320188243
 20
-4.339428682876239
 30
0.0
 40
0.8688273229065229
100
AcDbArc
 50
255.64887660776731
 51
257.84250821435177
  0
ARC
  5
679
100
AcDbEntity
  8
0
  6
CONTINUOUS
 62
               7
100
AcDbCircle
 10
36.918740817333827
 20
-4.3365999794415231
 30
0.0
 40
0.8717190498304943
100
AcDbArc
 50
257.84307966954913
 51
260.04376613556292
  0
ARC
  5
67A
100
AcDbEntity
  8
0
  6
CONTINUOUS
 62
               7
100
AcDbCircle
 10
36.919886645173818
 20
-4.3300142356289228
 30
0.0
 40
0.8784037220175889
100
AcDbArc
 50
260.04442337093076
 51
262.31067627383635
  0
ARC
  5
67B
100
AcDbEntity
  8
0
  6
CONTINUOUS
 62
               7
100
AcDbCircle
 10
36.925097836451599
 20
-4.2904039228980224
 30
0.0
 40
0.9183551400777058
100
AcDbArc
 50
262.3191355074793
 51
264.37917307806055
  0
ARC
  5
67C
100
AcDbEntity
  8
0
  6
CONTINUOUS
 62
               7
100
AcDbCircle
 10
36.931497042365621
 20
-4.2253493061742233
 30
0.0
 40
0.9837237333251888
100
AcDbArc
 50
264.37936612442098
 51
266.41084465247422
  0
ARC
  5
67D
100
AcDbEntity
  8
0
  6
CONTINUOUS
 62
               7
100
AcDbCircle
 10
36.936254049631884
 20
-4.1491709922463613
 30
0.0
 40
1.0600504273031055
100
AcDbArc
 50
266.41199098827923
 51
268.48545062568104
  0
ARC
  5
67E
100
AcDbEntity
  8
0
  6
CONTINUOUS
 62
               7
100
AcDbCircle
 10
36.93859992006341
 20
-4.0605187632561766
 30
0.0
 40
1.1487336884614059
100
AcDbArc
 50
268.48535575865156
 51
270.49783724623398
  0
ARC
  5
67F
100
AcDbEntity
  8
0
  6
CONTINUOUS
 62
               7
100
AcDbCircle
 10
36.937690909960367
 20
-3.9579877134910006
 30
0.0
 40
1.2512687661879294
100
AcDbArc
 50
270.49866627933261
 51
272.51254030422649
  0
ARC
  5
680
100
AcDbEntity
  8
0
  6
CONTINUOUS
 62
               7
100
AcDbCircle
 10
36.932367597003406
 20
-3.8371542881934673
 30
0.0
 40
1.3722193921649677
100
AcDbArc
 50
272.51342106276621
 51
274.53854321699731
  0
ARC
  5
681
100
AcDbEntity
  8
0
  6
CONTINUOUS
 62
               7
100
AcDbCircle
 10
36.920861078024544
 20
-3.6924878910812424
 30
0.0
 40
1.5173426706314583
100
AcDbArc
 50
274.53941277685004
 51
276.57563328073826
  0
ARC
  5
682
100
AcDbEntity
  8
0
  6
CONTINUOUS
 62
               7
100
AcDbCircle
 10
36.900927883160122
 20
-3.5197038422875266
 30
0.0
 40
1.6912727127528326
100
AcDbArc
 50
276.57616703707532
 51
278.58908144665446
  0
ARC
  5
683
100
AcDbEntity
  8
0
  6
CONTINUOUS
 62
               7
100
AcDbCircle
 10
36.869346759503387
 20
-3.3109292806447428
 30
0.0
 40
1.9024223823912618
100
AcDbArc
 50
278.59049995328968
 51
280.62121446048343
  0
ARC
  5
684
100
AcDbEntity
  8
0
  6
CONTINUOUS
 62
               7
100
AcDbCircle
 10
36.820907927472192
 20
-3.0528553591724261
 30
0.0
 40
2.1650027850202194
100
AcDbArc
 50
280.62232518402698
 51
282.63980934195735
  0
ARC
  5
685
100
AcDbEntity
  8
0
  6
CONTINUOUS
 62
               7
100
AcDbCircle
 10
36.74778663181722
 20
-2.727270607247263
 30
0.0
 40
2.4986974735198264
100
AcDbArc
 50
282.64220171457441
 51
284.66400385668629
  0
ARC
  5
686
100
AcDbEntity
  8
0
  6
CONTINUOUS
 62
               7
100
AcDbCircle
 10
36.635765956651241
 20
-2.2998200341795041
 30
0.0
 40
2.9405827545696739
100
AcDbArc
 50
284.66717248183664
 51
286.68715822034466
  0
ARC
  5
687
100
AcDbEntity
  8
0
  6
CONTINUOUS
 62
               7
100
AcDbCircle
 10
36.452035496196231
 20
-1.688114625785893
 30
0.0
 40
3.5792847910051169
100
AcDbArc
 50
286.69267023136581
 51
288.70638809068248
  0
LINE
  5
688
100
AcDbEntity
  8
0
  6
CONTINUOUS
 62
               7
100
AcDbLine
 10
45.699978689453147
 20
-0.5000000000000142
 30
0.0
 11
45.699978689453147
 21
-15.500000000000014
 31
0.0
  0
LINE
  5
689
100
AcDbEntity
  8
0
  6
CONTINUOUS
 62
               7
100
AcDbLine
 10
55.336019689453153
 20
-0.5000000000000142
 30
0.0
 11
55.799972689453156
 21
-1.3035896000000093
 31
0.0
  0
LINE
  5
68A
100
AcDbEntity
  8
0
  6
CONTINUOUS
 62
               7
100
AcDbLine
 10
53.799978689453141
 20
-0.7000000000000171
 30
0.0
 11
53.799978689453141
 21
-15.299999999999997
 31
0.0
  0
LINE
  5
68B
100
AcDbEntity
  8
0
  6
CONTINUOUS
 62
               7
100
AcDbLine
 10
45.899978689453135
 20
-0.7000000000000171
 30
0.0
 11
45.899978689453135
 21
-15.299999999999997
 31
0.0
  0
LINE
  5
68C
100
AcDbEntity
  8
0
  6
CONTINUOUS
 62
               7
100
AcDbLine
 10
52.99997868945313
 20
-0.6000000000000085
 30
0.0
 11
52.99997868945313
 21
-15.400000000000006
 31
0.0
  0
LINE
  5
68D
100
AcDbEntity
  8
0
  6
CONTINUOUS
 62
               7
100
AcDbLine
 10
46.099978689453124
 20
-0.5000000000000142
 30
0.0
 11
46.099978689453152
 21
-15.500000000000014
 31
0.0
  0
LINE
  5
68E
100
AcDbEntity
  8
0
  6
CONTINUOUS
 62
               7
100
AcDbLine
 10
52.899978689453135
 20
-0.5000000000000142
 30
0.0
 11
52.899978689453135
 21
-15.500000000000014
 31
0.0
  0
LINE
  5
68F
100
AcDbEntity
  8
0
  6
CONTINUOUS
 62
               7
100
AcDbLine
 10
53.99997868945313
 20
-0.5000000000000142
 30
0.0
 11
53.99997868945313
 21
-15.500000000000014
 31
0.0
  0
LINE
  5
690
100
AcDbEntity
  8
0
  6
CONTINUOUS
 62
               7
100
AcDbLine
 10
55.336019689453153
 20
-0.5000000000000142
 30
0.0
 11
55.336019689453153
 21
-15.500000000000014
 31
0.0
  0
LINE
  5
691
100
AcDbEntity
  8
0
  6
CONTINUOUS
 62
               7
100
AcDbLine
 10
55.799973689453154
 20
-1.3035896000000093
 30
0.0
 11
55.799973689453154
 21
-14.696411266026615
 31
0.0
  0
LINE
  5
692
100
AcDbEntity
  8
0
  6
CONTINUOUS
 62
               7
100
AcDbLine
 10
57.399972289453146
 20
-2.3000000000000114
 30
0.0
 11
57.399972289453146
 21
-13.699999599999998
 31
0.0
  0
LINE
  5
693
100
AcDbEntity
  8
0
  6
CONTINUOUS
 62
               7
100
AcDbLine
 10
53.799978689453141
 20
-1.2000000000000099
 30
0.0
 11
52.99997868945313
 21
-1.2000000000000099
 31
0.0
  0
LINE
  5
694
100
AcDbEntity
  8
0
  6
CONTINUOUS
 62
               7
100
AcDbLine
 10
45.899978689453135
 20
-15.299999999999997
 30
0.0
 11
45.699978689453147
 21
-15.500000000000014
 31
0.0
  0
LINE
  5
695
100
AcDbEntity
  8
0
  6
CONTINUOUS
 62
               7
100
AcDbLine
 10
52.899978689453135
 20
-15.500000000000014
 30
0.0
 11
46.099978689453152
 21
-15.500000000000014
 31
0.0
  0
LINE
  5
696
100
AcDbEntity
  8
0
  6
CONTINUOUS
 62
               7
100
AcDbLine
 10
52.99997868945313
 20
-15.400000000000006
 30
0.0
 11
52.899978689453135
 21
-15.500000000000014
 31
0.0
  0
LINE
  5
697
100
AcDbEntity
  8
0
  6
CONTINUOUS
 62
               7
100
AcDbLine
 10
45.899978689453135
 20
-15.299999999999997
 30
0.0
 11
46.099978689453152
 21
-15.500000000000014
 31
0.0
  0
LINE
  5
698
100
AcDbEntity
  8
0
  6
CONTINUOUS
 62
               7
100
AcDbLine
 10
55.336019689453153
 20
-15.500000000000014
 30
0.0
 11
53.99997868945313
 21
-15.500000000000014
 31
0.0
  0
LINE
  5
699
100
AcDbEntity
  8
0
  6
CONTINUOUS
 62
               7
100
AcDbLine
 10
53.799978689453141
 20
-14.799999999999997
 30
0.0
 11
52.99997868945313
 21
-14.799999999999997
 31
0.0
  0
LINE
  5
69A
100
AcDbEntity
  8
0
  6
CONTINUOUS
 62
               7
100
AcDbLine
 10
55.799973689453154
 20
-14.696410400000005
 30
0.0
 11
56.399973689453148
 21
-14.350000000000009
 31
0.0
  0
LINE
  5
69B
100
AcDbEntity
  8
0
  6
CONTINUOUS
 62
               7
100
AcDbLine
 10
55.799973689453154
 20
-1.3035896000000093
 30
0.0
 11
56.399973689453148
 21
-1.6500000000000199
 31
0.0
  0
LINE
  5
69C
100
AcDbEntity
  8
0
  6
CONTINUOUS
 62
               7
100
AcDbLine
 10
53.799978689453141
 20
-15.299999999999997
 30
0.0
 11
53.99997868945313
 21
-15.500000000000014
 31
0.0
  0
LINE
  5
69D
100
AcDbEntity
  8
0
  6
CONTINUOUS
 62
               7
100
AcDbLine
 10
55.799972689453156
 20
-14.696410400000005
 30
0.0
 11
55.336019689453153
 21
-15.500000000000014
 31
0.0
  0
LINE
  5
69E
100
AcDbEntity
  8
0
  6
CONTINUOUS
 62
               7
100
AcDbLine
 10
56.399973689453148
 20
-1.6499996000000152
 30
0.0
 11
56.399973689453148
 21
-14.350000000000009
 31
0.0
  0
LINE
  5
69F
100
AcDbEntity
  8
0
  6
CONTINUOUS
 62
               7
100
AcDbLine
 10
57.799973689453154
 20
-3.1000000000000085
 30
0.0
 11
57.499972689453145
 21
-3.1000000000000085
 31
0.0
  0
LINE
  5
6A0
100
AcDbEntity
  8
0
  6
CONTINUOUS
 62
               7
100
AcDbLine
 10
57.499972689453145
 20
-2.4000004000000104
 30
0.0
 11
57.499972689453145
 21
-13.599999600000004
 31
0.0
  0
LINE
  5
6A1
100
AcDbEntity
  8
0
  6
CONTINUOUS
 62
               7
100
AcDbLine
 10
57.799973689453154
 20
-12.90000000000002
 30
0.0
 11
57.499972689453145
 21
-12.90000000000002
 31
0.0
  0
LINE
  5
6A2
100
AcDbEntity
  8
0
  6
CONTINUOUS
 62
               7
100
AcDbLine
 10
57.399972689453122
 20
-2.300000400000016
 30
0.0
 11
57.499972689453145
 21
-2.4000004000000104
 31
0.0
  0
LINE
  5
6A3
100
AcDbEntity
  8
0
  6
CONTINUOUS
 62
               7
100
AcDbLine
 10
57.399972689453122
 20
-2.3000000000000114
 30
0.0
 11
56.399973689453148
 21
-2.3000000000000114
 31
0.0
  0
LINE
  5
6A4
100
AcDbEntity
  8
0
  6
CONTINUOUS
 62
               7
100
AcDbLine
 10
57.399972689453122
 20
-13.699999599999998
 30
0.0
 11
57.499972689453145
 21
-13.599999600000004
 31
0.0
  0
LINE
  5
6A5
100
AcDbEntity
  8
0
  6
CONTINUOUS
 62
               7
100
AcDbLine
 10
57.399972689453122
 20
-13.700000000000003
 30
0.0
 11
56.399973689453148
 21
-13.700000000000003
 31
0.0
  0
LINE
  5
6A6
100
AcDbEntity
  8
0
  6
CONTINUOUS
 62
               7
100
AcDbLine
 10
59.199970689453139
 20
-1.1000000000000085
 30
0.0
 11
58.299973689453154
 21
-1.1000000000000085
 31
0.0
  0
LINE
  5
6A7
100
AcDbEntity
  8
0
  6
CONTINUOUS
 62
               7
100
AcDbLine
 10
58.299973689453154
 20
-1.1000000000000085
 30
0.0
 11
58.299973689453154
 21
-14.900000000000006
 31
0.0
  0
LINE
  5
6A8
100
AcDbEntity
  8
0
  6
CONTINUOUS
 62
               7
100
AcDbLine
 10
59.499973689453142
 20
-14.599998500000012
 30
0.0
 11
59.499973689453142
 21
-1.4000000000000199
 31
0.0
  0
LINE
  5
6A9
100
AcDbEntity
  8
0
  6
CONTINUOUS
 62
               7
100
AcDbLine
 10
59.199970689453139
 20
-14.900000000000006
 30
0.0
 11
58.299973689453154
 21
-14.900000000000006
 31
0.0
  0
ARC
  5
6AA
100
AcDbEntity
  8
0
  6
CONTINUOUS
 62
               7
100
AcDbCircle
 10
59.199970689453139
 20
-1.4000015000000161
 30
0.0
 40
0.3
100
AcDbArc
 50
0.0
 51
90.0
  0
ARC
  5
6AB
100
AcDbEntity
  8
0
  6
CONTINUOUS
 62
               7
100
AcDbCircle
 10
57.799973689453154
 20
-2.6000004000000132
 30
0.0
 40
0.5
100
AcDbArc
 50
270.0
 51
0.0000000000008142
  0
ARC
  5
6AC
100
AcDbEntity
  8
0
  6
CONTINUOUS
 62
               7
100
AcDbCircle
 10
57.799973689453154
 20
-13.399999600000015
 30
0.0
 40
0.5
100
AcDbArc
 50
0.0
 51
90.0
  0
ARC
  5
6AD
100
AcDbEntity
  8
0
  6
CONTINUOUS
 62
               7
100
AcDbCircle
 10
59.199970689453139
 20
-14.599998500000012
 30
0.0
 40
0.3
100
AcDbArc
 50
270.0
 51
0.0000000000008142
  0
LINE
  5
6AE
100
AcDbEntity
  8
0
  6
CONTINUOUS
 62
               7
100
AcDbLine
 10
52.899978689453135
 20
-0.5000000000000142
 30
0.0
 11
46.099978689453124
 21
-0.5000000000000142
 31
0.0
  0
LINE
  5
6AF
100
AcDbEntity
  8
0
  6
CONTINUOUS
 62
               7
100
AcDbLine
 10
45.899978689453135
 20
-0.7000000000000171
 30
0.0
 11
45.699978689453147
 21
-0.5000000000000142
 31
0.0
  0
LINE
  5
6B0
100
AcDbEntity
  8
0
  6
CONTINUOUS
 62
               7
100
AcDbLine
 10
45.899978689453135
 20
-0.7000000000000171
 30
0.0
 11
46.099978689453124
 21
-0.5000000000000142
 31
0.0
  0
LINE
  5
6B1
100
AcDbEntity
  8
0
  6
CONTINUOUS
 62
               7
100
AcDbLine
 10
52.899978689453135
 20
-0.5000000000000142
 30
0.0
 11
52.99997868945313
 21
-0.6000000000000085
 31
0.0
  0
LINE
  5
6B2
100
AcDbEntity
  8
0
  6
CONTINUOUS
 62
               7
100
AcDbLine
 10
55.336019689453153
 20
-0.5000000000000142
 30
0.0
 11
53.99997868945313
 21
-0.5000000000000142
 31
0.0
  0
LINE
  5
6B3
100
AcDbEntity
  8
0
  6
CONTINUOUS
 62
               7
100
AcDbLine
 10
53.799978689453141
 20
-0.7000000000000171
 30
0.0
 11
53.99997868945313
 21
-0.5000000000000142
 31
0.0
  0
LINE
  5
6B4
100
AcDbEntity
  8
0
  6
CONTINUOUS
 62
               7
100
AcDbLine
 10
37.599978689453124
 20
-0.5
 30
0.0
 11
37.599978689453124
 21
-15.499999999999986
 31
0.0
  0
LINE
  5
6B5
100
AcDbEntity
  8
0
  6
CONTINUOUS
 62
               7
100
AcDbLine
 10
35.899978689453121
 20
-10.799999999999997
 30
0.0
 11
35.499981689453136
 21
-10.799999999999997
 31
0.0
  0
LINE
  5
6B6
100
AcDbEntity
  8
0
  6
CONTINUOUS
 62
               7
100
AcDbLine
 10
35.499981689453136
 20
-0.5
 30
0.0
 11
35.499981689453136
 21
-15.5
 31
0.0
  0
ENDBLK
  5
6B7
100
AcDbEntity
  8
0
100
AcDbBlockEnd
  0
BLOCK
  5
6B8
100
AcDbEntity
  8
0
100
AcDbBlockBegin
  2
F15T0-15
 70
               0
 10
0.0
 20
0.0
 30
0.0
  3
F15T0-15
  1

  0
LINE
  5
6B9
100
AcDbEntity
  8
0
  6
CENTER
 62
               2
100
AcDbLine
 10
32.5
 20
33.699996948242187
 30
0.0
 11
29.800003051757813
 21
33.699996948242187
 31
0.0
  0
LINE
  5
6BA
100
AcDbEntity
  8
0
  6
CONTINUOUS
 62
               7
100
AcDbLine
 10
30.5
 20
36.899993896484375
 30
0.0
 11
3.4999847412109375
 21
36.899993896484375
 31
0.0
  0
LINE
  5
6BB
100
AcDbEntity
  8
0
  6
CONTINUOUS
 62
               7
100
AcDbLine
 10
31.5
 20
31.75
 30
0.0
 11
31.5
 21
33.400009155273438
 31
0.0
  0
LINE
  5
6BC
100
AcDbEntity
  8
0
  6
CONTINUOUS
 62
               7
100
AcDbLine
 10
31.5
 20
31.75
 30
0.0
 11
30.5
 21
31.75
 31
0.0
  0
LINE
  5
6BD
100
AcDbEntity
  8
0
  6
CONTINUOUS
 62
               7
100
AcDbLine
 10
31.5
 20
35.649993896484375
 30
0.0
 11
30.5
 21
35.649993896484375
 31
0.0
  0
LINE
  5
6BE
100
AcDbEntity
  8
0
  6
CONTINUOUS
 62
               7
100
AcDbLine
 10
30.899993896484375
 20
33.400009155273438
 30
0.0
 11
30.899993896484375
 21
34.0
 31
0.0
  0
LINE
  5
6BF
100
AcDbEntity
  8
0
  6
CONTINUOUS
 62
               7
100
AcDbLine
 10
31.5
 20
33.399993896484375
 30
0.0
 11
30.900009155273437
 21
33.399993896484375
 31
0.0
  0
LINE
  5
6C0
100
AcDbEntity
  8
0
  6
CONTINUOUS
 62
               7
100
AcDbLine
 10
31.5
 20
34.0
 30
0.0
 11
30.900009155273437
 21
34.0
 31
0.0
  0
LINE
  5
6C1
100
AcDbEntity
  8
0
  6
CONTINUOUS
 62
               7
100
AcDbLine
 10
31.5
 20
34.0
 30
0.0
 11
31.5
 21
35.650009155273438
 31
0.0
  0
LINE
  5
6C2
100
AcDbEntity
  8
0
  6
CONTINUOUS
 62
               7
100
AcDbLine
 10
30.5
 20
15.5
 30
0.0
 11
3.4999847412109375
 21
15.5
 31
0.0
  0
LINE
  5
6C3
100
AcDbEntity
  8
0
  6
CONTINUOUS
 62
               7
100
AcDbLine
 10
30.5
 20
-30.499992370605469
 30
0.0
 11
30.5
 21
37.0
 31
0.0
  0
LINE
  5
6C4
100
AcDbEntity
  8
0
  6
CONTINUOUS
 62
               7
100
AcDbLine
 10
32.999984741210938
 20
-39.5
 30
0.0
 11
4.0
 21
-39.5
 31
0.0
  0
LINE
  5
6C5
100
AcDbEntity
  8
0
  6
CONTINUOUS
 62
               7
100
AcDbLine
 10
3.5
 20
-38.999984741210938
 30
0.0
 11
3.5
 21
37.0
 31
0.0
  0
LINE
  5
6C6
100
AcDbEntity
  8
0
  6
CONTINUOUS
 62
               7
100
AcDbLine
 10
33.5
 20
-38.999984741210938
 30
0.0
 11
33.5
 21
-30.499984741210937
 31
0.0
  0
LINE
  5
6C7
100
AcDbEntity
  8
0
  6
CONTINUOUS
 62
               7
100
AcDbLine
 10
30.5
 20
24.0
 30
0.0
 11
3.4999847412109375
 21
24.0
 31
0.0
  0
LINE
  5
6C8
100
AcDbEntity
  8
0
  6
CONTINUOUS
 62
               7
100
AcDbLine
 10
24.300018310546875
 20
-39.199996948242188
 30
0.0
 11
24.300018310546875
 21
-37.300003051757813
 31
0.0
  0
LINE
  5
6C9
100
AcDbEntity
  8
0
  6
CONTINUOUS
 62
               7
100
AcDbLine
 10
4.5
 20
27.499984741210938
 30
0.0
 11
3.5
 21
27.499984741210938
 31
0.0
  0
LINE
  5
6CA
100
AcDbEntity
  8
0
  6
CONTINUOUS
 62
               7
100
AcDbLine
 10
4.5
 20
26.0
 30
0.0
 11
4.5
 21
27.499984741210938
 31
0.0
  0
LINE
  5
6CB
100
AcDbEntity
  8
0
  6
CONTINUOUS
 62
               7
100
AcDbLine
 10
26.199996948242188
 20
27.499984741210938
 30
0.0
 11
7.0
 21
27.499984741210938
 31
0.0
  0
LINE
  5
6CC
100
AcDbEntity
  8
0
  6
CONTINUOUS
 62
               7
100
AcDbLine
 10
7.0
 20
26.0
 30
0.0
 11
7.0
 21
27.499984741210938
 31
0.0
  0
LINE
  5
6CD
100
AcDbEntity
  8
0
  6
CONTINUOUS
 62
               7
100
AcDbLine
 10
26.199996948242188
 20
26.0
 30
0.0
 11
26.199996948242188
 21
27.499984741210938
 31
0.0
  0
LINE
  5
6CE
100
AcDbEntity
  8
0
  6
CONTINUOUS
 62
               7
100
AcDbLine
 10
29.199996948242188
 20
26.0
 30
0.0
 11
29.199996948242188
 21
27.499984741210938
 31
0.0
  0
LINE
  5
6CF
100
AcDbEntity
  8
0
  6
CONTINUOUS
 62
               7
100
AcDbLine
 10
30.5
 20
27.499984741210938
 30
0.0
 11
29.199996948242188
 21
27.499984741210938
 31
0.0
  0
LINE
  5
6D0
100
AcDbEntity
  8
0
  6
CENTER
 62
               2
100
AcDbLine
 10
2.4710540771484375
 20
0.0
 30
0.0
 11
-2.58758544921875
 21
0.0
 31
0.0
  0
LINE
  5
6D1
100
AcDbEntity
  8
0
  6
CENTER
 62
               2
100
AcDbLine
 10
0.0
 20
2.5294189453125
 30
0.0
 11
0.0
 21
-2.3308258056640625
 31
0.0
  0
LINE
  5
6D2
100
AcDbEntity
  8
0
  6
CONTINUOUS
 62
               7
100
AcDbLine
 10
-6.0
 20
15.499984741210938
 30
0.0
 11
-6.0
 21
-30.5
 31
0.0
  0
LINE
  5
6D3
100
AcDbEntity
  8
0
  6
CONTINUOUS
 62
               7
100
AcDbLine
 10
3.0
 20
15.499984741210938
 30
0.0
 11
-6.0
 21
15.499984741210938
 31
0.0
  0
LINE
  5
6D4
100
AcDbEntity
  8
0
  6
CONTINUOUS
 62
               7
100
AcDbLine
 10
3.0
 20
-30.5
 30
0.0
 11
-6.0
 21
-30.5
 31
0.0
  0
LINE
  5
6D5
100
AcDbEntity
  8
0
  6
CONTINUOUS
 62
               7
100
AcDbLine
 10
30.400009155273438
 20
-37.0
 30
0.0
 11
24.600021362304688
 21
-37.0
 31
0.0
  0
LINE
  5
6D6
100
AcDbEntity
  8
0
  6
CONTINUOUS
 62
               7
100
AcDbLine
 10
30.70001220703125
 20
-39.199996948242188
 30
0.0
 11
30.70001220703125
 21
-37.300003051757813
 31
0.0
  0
LINE
  5
6D7
100
AcDbEntity
  8
0
  6
DASHED
 62
               4
100
AcDbLine
 10
-7.0
 20
-49.899993896484375
 30
0.0
 11
-17.0
 21
-49.899993896484375
 31
0.0
  0
LINE
  5
6D8
100
AcDbEntity
  8
0
  6
DASHED
 62
               4
100
AcDbLine
 10
-7.0
 20
9.9999847412109375
 30
0.0
 11
-7.0
 21
-51.5
 31
0.0
  0
LINE
  5
6D9
100
AcDbEntity
  8
0
  6
DASHED
 62
               4
100
AcDbLine
 10
-17.0
 20
-49.899993896484375
 30
0.0
 11
-17.0
 21
-51.5
 31
0.0
  0
LINE
  5
6DA
100
AcDbEntity
  8
0
  6
DASHED
 62
               4
100
AcDbLine
 10
18.000015258789063
 20
9.9999847412109375
 30
0.0
 11
18.000015258789063
 21
-51.5
 31
0.0
  0
LINE
  5
6DB
100
AcDbEntity
  8
0
  6
DASHED
 62
               4
100
AcDbLine
 10
18.000015258789063
 20
9.9999847412109375
 30
0.0
 11
-7.0
 21
9.9999847412109375
 31
0.0
  0
LINE
  5
6DC
100
AcDbEntity
  8
0
  6
CONTINUOUS
 62
               7
100
AcDbLine
 10
30.250015258789063
 20
-37.499984741210938
 30
0.0
 11
30.250015258789063
 21
-36.999984741210938
 31
0.0
  0
LINE
  5
6DD
100
AcDbEntity
  8
0
  6
CONTINUOUS
 62
               7
100
AcDbLine
 10
28.75
 20
-39.0
 30
0.0
 11
26.250015258789063
 21
-39.0
 31
0.0
  0
LINE
  5
6DE
100
AcDbEntity
  8
0
  6
CONTINUOUS
 62
               7
100
AcDbLine
 10
24.750015258789063
 20
-37.499984741210938
 30
0.0
 11
24.750015258789063
 21
-36.999984741210938
 31
0.0
  0
LINE
  5
6DF
100
AcDbEntity
  8
0
  6
CENTER
 62
               2
100
AcDbLine
 10
0.0
 20
-17.529436111450195
 30
0.0
 11
0.0
 21
-12.66917610168457
 31
0.0
  0
LINE
  5
6E0
100
AcDbEntity
  8
0
  6
CENTER
 62
               2
100
AcDbLine
 10
2.4710540771484375
 20
-15.000003814697266
 30
0.0
 11
-2.58758544921875
 21
-15.000003814697266
 31
0.0
  0
ARC
  5
6E1
100
AcDbEntity
  8
0
  6
CONTINUOUS
 62
               7
100
AcDbCircle
 10
32.999984741210938
 20
-38.999984741210938
 30
0.0
 40
0.5
100
AcDbArc
 50
270.00001798608872
 51
359.99995901886416
  0
ARC
  5
6E2
100
AcDbEntity
  8
0
  6
CONTINUOUS
 62
               7
100
AcDbCircle
 10
4.0
 20
-38.999984741210938
 30
0.0
 40
0.5
100
AcDbArc
 50
179.99996402782091
 51
269.99994604173139
  0
ARC
  5
6E3
100
AcDbEntity
  8
0
  6
CONTINUOUS
 62
               7
100
AcDbCircle
 10
6.5
 20
27.0
 30
0.0
 40
2.4999990463256836
100
AcDbArc
 50
203.5781768361424
 51
336.42181132471086
  0
ARC
  5
6E4
100
AcDbEntity
  8
0
  6
CONTINUOUS
 62
               7
100
AcDbCircle
 10
24.000015258789063
 20
-39.199996948242188
 30
0.0
 40
0.300000011920929
100
AcDbArc
 50
270.00001798608872
 51
0.0
  0
ARC
  5
6E5
100
AcDbEntity
  8
0
  6
CONTINUOUS
 62
               7
100
AcDbCircle
 10
24.600021362304688
 20
-37.300003051757813
 30
0.0
 40
0.300000011920929
100
AcDbArc
 50
89.999982013910454
 51
179.99996402782091
  0
CIRCLE
  5
6E6
100
AcDbEntity
  8
0
  6
CONTINUOUS
 62
               7
100
AcDbCircle
 10
0.0
 20
0.0
 30
0.0
 40
1.6999998092651367
  0
ARC
  5
6E7
100
AcDbEntity
  8
0
  6
CONTINUOUS
 62
               7
100
AcDbCircle
 10
30.400009155273438
 20
-37.300003051757813
 30
0.0
 40
0.300000011920929
100
AcDbArc
 50
0.0
 51
89.999982013910454
  0
ARC
  5
6E8
100
AcDbEntity
  8
0
  6
CONTINUOUS
 62
               7
100
AcDbCircle
 10
31.000015258789063
 20
-39.199996948242188
 30
0.0
 40
0.300000011920929
100
AcDbArc
 50
179.99998133066492
 51
270.00001798608872
  0
ARC
  5
6E9
100
AcDbEntity
  8
0
  6
CONTINUOUS
 62
               7
100
AcDbCircle
 10
28.75
 20
-37.499984741210938
 30
0.0
 40
1.5
100
AcDbArc
 50
270.00001798608872
 51
359.99995901886416
  0
ARC
  5
6EA
100
AcDbEntity
  8
0
  6
CONTINUOUS
 62
               7
100
AcDbCircle
 10
26.250015258789063
 20
-37.499984741210938
 30
0.0
 40
1.5
100
AcDbArc
 50
179.99990938630756
 51
269.99994604173139
  0
CIRCLE
  5
6EB
100
AcDbEntity
  8
0
  6
CONTINUOUS
 62
               7
100
AcDbCircle
 10
0.0
 20
-15.000003814697266
 30
0.0
 40
1.6999998092651367
  0
LINE
  5
6EC
100
AcDbEntity
  8
0
  6
CONTINUOUS
 62
               7
100
AcDbLine
 10
30.5
 20
26.0
 30
0.0
 11
3.4999847412109375
 21
26.0
 31
0.0
  0
LINE
  5
6ED
100
AcDbEntity
  8
0
  6
DASHED
 62
               4
100
AcDbLine
 10
18.000015258789063
 20
-51.5
 30
0.0
 11
-17.0
 21
-51.5
 31
0.0
  0
LINE
  5
6EE
100
AcDbEntity
  8
0
  6
CONTINUOUS
 62
               4
100
AcDbLine
 10
14.599999999999994
 20
70.0
 30
0.0
 11
28.174999999999983
 21
70.0
 31
0.0
  0
LINE
  5
6EF
100
AcDbEntity
  8
0
  6
CONTINUOUS
 62
               4
100
AcDbLine
 10
30.5
 20
37.0
 30
0.0
 11
30.5
 21
61.0
 31
0.0
  0
LINE
  5
6F0
100
AcDbEntity
  8
0
  6
CONTINUOUS
 62
               4
100
AcDbLine
 10
3.5
 20
37.0
 30
0.0
 11
3.5
 21
61.0
 31
0.0
  0
LINE
  5
6F1
100
AcDbEntity
  8
0
  6
CONTINUOUS
 62
               4
100
AcDbLine
 10
3.5
 20
69.5
 30
0.0
 11
3.5
 21
61.0
 31
0.0
  0
LINE
  5
6F2
100
AcDbEntity
  8
0
  6
CONTINUOUS
 62
               4
100
AcDbLine
 10
23.5
 20
63.400000000000006
 30
0.0
 11
23.5
 21
62.450000000000017
 31
0.0
  0
LINE
  5
6F3
100
AcDbEntity
  8
0
  6
CONTINUOUS
 62
               4
100
AcDbLine
 10
10.599999999999994
 20
63.400000000000006
 30
0.0
 11
10.599999999999994
 21
62.450000000000017
 31
0.0
  0
LINE
  5
6F4
100
AcDbEntity
  8
0
  6
CONTINUOUS
 62
               4
100
AcDbLine
 10
25.599999999999994
 20
63.400000000000006
 30
0.0
 11
23.5
 21
63.400000000000006
 31
0.0
  0
LINE
  5
6F5
100
AcDbEntity
  8
0
  6
CONTINUOUS
 62
               4
100
AcDbLine
 10
10.599999999999994
 20
63.400000000000006
 30
0.0
 11
8.5
 21
63.400000000000006
 31
0.0
  0
LINE
  5
6F6
100
AcDbEntity
  8
0
  6
CONTINUOUS
 62
               4
100
AcDbLine
 10
30.5
 20
65.180000000000007
 30
0.0
 11
30.5
 21
61.0
 31
0.0
  0
LINE
  5
6F7
100
AcDbEntity
  8
0
  6
CONTINUOUS
 62
               4
100
AcDbLine
 10
28.629999999999995
 20
69.705000000000013
 30
0.0
 11
30.370000000000005
 21
65.789999999999992
 31
0.0
  0
ARC
  5
6F8
100
AcDbEntity
  8
0
  6
CONTINUOUS
 62
               4
100
AcDbCircle
 10
28.174020838564047
 20
69.500099937446265
 30
0.0
 40
0.4999010215015999
100
AcDbArc
 50
24.197376208904771
 51
89.887774076864815
  0
ARC
  5
6F9
100
AcDbEntity
  8
0
  6
CONTINUOUS
 62
               4
100
AcDbCircle
 10
29.002020395360574
 20
65.179610903929301
 30
0.0
 40
1.4979796551727449
100
AcDbArc
 50
0.0148824203654679
 51
24.046309772710686
  0
LINE
  5
6FA
100
AcDbEntity
  8
0
  6
CONTINUOUS
 62
               4
100
AcDbLine
 10
25.599999999999994
 20
63.400000000000006
 30
0.0
 11
25.599999999999994
 21
62.450000000000017
 31
0.0
  0
LINE
  5
6FB
100
AcDbEntity
  8
0
  6
CONTINUOUS
 62
               4
100
AcDbLine
 10
8.5
 20
63.400000000000006
 30
0.0
 11
8.5
 21
62.450000000000017
 31
0.0
  0
LINE
  5
6FC
100
AcDbEntity
  8
0
  6
CONTINUOUS
 62
               4
100
AcDbLine
 10
10.599999999999994
 20
62.450000000000017
 30
0.0
 11
8.5
 21
62.450000000000017
 31
0.0
  0
LINE
  5
6FD
100
AcDbEntity
  8
0
  6
CONTINUOUS
 62
               4
100
AcDbLine
 10
25.599999999999994
 20
62.450000000000017
 30
0.0
 11
23.5
 21
62.450000000000017
 31
0.0
  0
LINE
  5
6FE
100
AcDbEntity
  8
0
  6
CONTINUOUS
 62
               4
100
AcDbLine
 10
6.0
 20
74.5
 30
0.0
 11
6.0
 21
70.0
 31
0.0
  0
LINE
  5
6FF
100
AcDbEntity
  8
0
  6
CONTINUOUS
 62
               4
100
AcDbLine
 10
6.0
 20
70.0
 30
0.0
 11
4.0
 21
70.0
 31
0.0
  0
ARC
  5
700
100
AcDbEntity
  8
0
  6
CONTINUOUS
 62
               4
100
AcDbCircle
 10
4.0
 20
69.5
 30
0.0
 40
0.5
100
AcDbArc
 50
89.999999999999815
 51
179.99999999999963
  0
LINE
  5
701
100
AcDbEntity
  8
0
  6
CONTINUOUS
 62
               4
100
AcDbLine
 10
18.25
 20
61.5
 30
0.0
 11
18.25
 21
61.0
 31
0.0
  0
LINE
  5
702
100
AcDbEntity
  8
0
  6
CONTINUOUS
 62
               4
100
AcDbLine
 10
15.75
 20
61.5
 30
0.0
 11
15.75
 21
61.0
 31
0.0
  0
LINE
  5
703
100
AcDbEntity
  8
0
  6
CONTINUOUS
 62
               4
100
AcDbLine
 10
15.75
 20
61.5
 30
0.0
 11
18.25
 21
61.5
 31
0.0
  0
LINE
  5
704
100
AcDbEntity
  8
0
  6
CONTINUOUS
 62
             200
100
AcDbLine
 10
13.314994343097709
 20
86.464464815078827
 30
0.0
 11
6.3849841895786028
 21
82.46341291056342
 31
0.0
  0
LINE
  5
705
100
AcDbEntity
  8
0
  6
CONTINUOUS
 62
             200
100
AcDbLine
 10
13.315018891472022
 20
87.619105809934808
 30
0.0
 11
6.3849897999085385
 21
83.618057246153512
 31
0.0
  0
LINE
  5
706
100
AcDbEntity
  8
0
  6
CONTINUOUS
 62
               4
100
AcDbLine
 10
7.8850036621093693
 20
81.0
 30
0.0
 11
7.8850036621093693
 21
83.329421997070312
 31
0.0
  0
LINE
  5
707
100
AcDbEntity
  8
0
  6
CONTINUOUS
 62
               4
100
AcDbLine
 10
9.3150115966796818
 20
81.0
 30
0.0
 11
9.3150115966796818
 21
84.155029296875
 31
0.0
  0
LINE
  5
708
100
AcDbEntity
  8
0
  6
CONTINUOUS
 62
               4
100
AcDbLine
 10
8.2000061035156193
 20
94.0
 30
0.0
 11
9.0000091552734318
 21
94.0
 31
0.0
  0
LINE
  5
709
100
AcDbEntity
  8
0
  6
CONTINUOUS
 62
               4
100
AcDbLine
 10
8.2000061035156193
 20
89.0
 30
0.0
 11
8.2000061035156193
 21
93.999984741210937
 31
0.0
  0
LINE
  5
70A
100
AcDbEntity
  8
0
  6
CONTINUOUS
 62
               4
100
AcDbLine
 10
9.0000091552734318
 20
89.0
 30
0.0
 11
9.0000091552734318
 21
94.0
 31
0.0
  0
LINE
  5
70B
100
AcDbEntity
  8
0
  6
CONTINUOUS
 62
               4
100
AcDbLine
 10
7.8850036621093693
 20
89.0
 30
0.0
 11
9.3150115966796818
 21
89.0
 31
0.0
  0
LINE
  5
70C
100
AcDbEntity
  8
0
  6
CONTINUOUS
 62
               4
100
AcDbLine
 10
7.8850036621093693
 20
84.484115600585937
 30
0.0
 11
7.8850036621093693
 21
89.0
 31
0.0
  0
LINE
  5
70D
100
AcDbEntity
  8
0
  6
CONTINUOUS
 62
               4
100
AcDbLine
 10
9.3150115966796818
 20
85.309738159179688
 30
0.0
 11
9.3150115966796818
 21
89.0
 31
0.0
  0
LINE
  5
70E
100
AcDbEntity
  8
0
  6
CONTINUOUS
 62
               7
100
AcDbLine
 10
3.5
 20
37.0
 30
0.0
 11
30.5
 21
37.0
 31
0.0
  0
LINE
  5
70F
100
AcDbEntity
  8
0
  6
CONTINUOUS
 62
               4
100
AcDbLine
 10
11.815011596679682
 20
86.75311279296875
 30
0.0
 11
11.815011596679682
 21
89.0
 31
0.0
  0
LINE
  5
710
100
AcDbEntity
  8
0
  6
CONTINUOUS
 62
               4
100
AcDbLine
 10
10.385003662109369
 20
85.927490234375
 30
0.0
 11
10.385003662109369
 21
89.0
 31
0.0
  0
LINE
  5
711
100
AcDbEntity
  8
0
  6
CONTINUOUS
 62
               4
100
AcDbLine
 10
11.815011596679682
 20
89.0
 30
0.0
 11
10.385003662109369
 21
89.0
 31
0.0
  0
LINE
  5
712
100
AcDbEntity
  8
0
  6
CONTINUOUS
 62
               4
100
AcDbLine
 10
10.385003662109369
 20
81.0
 30
0.0
 11
10.385003662109369
 21
84.772796630859375
 31
0.0
  0
LINE
  5
713
100
AcDbEntity
  8
0
  6
CONTINUOUS
 62
               4
100
AcDbLine
 10
11.815011596679682
 20
81.0
 30
0.0
 11
11.815011596679682
 21
85.598403930664063
 31
0.0
  0
LINE
  5
714
100
AcDbEntity
  8
0
  6
CONTINUOUS
 62
               4
100
AcDbLine
 10
11.500009155273432
 20
89.0
 30
0.0
 11
11.500009155273432
 21
94.0
 31
0.0
  0
LINE
  5
715
100
AcDbEntity
  8
0
  6
CONTINUOUS
 62
               4
100
AcDbLine
 10
10.700006103515619
 20
89.0
 30
0.0
 11
10.700006103515619
 21
94.0
 31
0.0
  0
LINE
  5
716
100
AcDbEntity
  8
0
  6
CONTINUOUS
 62
               4
100
AcDbLine
 10
11.500009155273432
 20
94.0
 30
0.0
 11
10.700006103515619
 21
94.0
 31
0.0
  0
LINE
  5
717
100
AcDbEntity
  8
0
  6
CONTINUOUS
 62
               4
100
AcDbLine
 10
16.650003051757807
 20
79.5
 30
0.0
 11
16.650003051757807
 21
81.0
 31
0.0
  0
LINE
  5
718
100
AcDbEntity
  8
0
  6
CONTINUOUS
 62
               4
100
AcDbLine
 10
14.650044511604023
 20
79.999958942901685
 30
0.0
 11
15.227396327367927
 21
80.999967647856465
 31
0.0
  0
LINE
  5
719
100
AcDbEntity
  8
0
  6
CONTINUOUS
 62
               4
100
AcDbLine
 10
14.650003051757807
 20
74.5
 30
0.0
 11
14.650003051757807
 21
81.0
 31
0.0
  0
LINE
  5
71A
100
AcDbEntity
  8
0
  6
CONTINUOUS
 62
               4
100
AcDbLine
 10
15.650001302236518
 20
70.49845074175937
 30
0.0
 11
16.150000411113609
 21
74.056138825448215
 31
0.0
  0
LINE
  5
71B
100
AcDbEntity
  8
0
  6
CONTINUOUS
 62
               4
100
AcDbLine
 10
16.150003051757807
 20
74.05615234375
 30
0.0
 11
16.150003051757807
 21
79.5
 31
0.0
  0
LINE
  5
71C
100
AcDbEntity
  8
0
  6
CONTINUOUS
 62
               4
100
AcDbLine
 10
5.6499877929687443
 20
80.0
 30
0.0
 11
6.1499877929687443
 21
80.0
 31
0.0
  0
LINE
  5
71D
100
AcDbEntity
  8
0
  6
CONTINUOUS
 62
               4
100
AcDbLine
 10
5.6500030517578068
 20
80.0
 30
0.0
 11
5.6500030517578068
 21
81.0
 31
0.0
  0
LINE
  5
71E
100
AcDbEntity
  8
0
  6
CONTINUOUS
 62
               4
100
AcDbLine
 10
6.1500030517578068
 20
74.5
 30
0.0
 11
6.1500030517578068
 21
80.0
 31
0.0
  0
LINE
  5
71F
100
AcDbEntity
  8
0
  6
CONTINUOUS
 62
               4
100
AcDbLine
 10
14.650000209407693
 20
70.498474151870141
 30
0.0
 11
14.599979656101453
 21
70.548494705176381
 31
0.0
  0
LINE
  5
720
100
AcDbEntity
  8
0
  6
CONTINUOUS
 62
               4
100
AcDbLine
 10
16.149995422363276
 20
79.5
 30
0.0
 11
16.649995422363276
 21
79.5
 31
0.0
  0
LINE
  5
721
100
AcDbEntity
  8
0
  6
CONTINUOUS
 62
               4
100
AcDbLine
 10
14.650003051757807
 20
71.998458862304688
 30
0.0
 11
14.650003051757807
 21
74.5
 31
0.0
  0
LINE
  5
722
100
AcDbEntity
  8
0
  6
CONTINUOUS
 62
               4
100
AcDbLine
 10
14.650003051757807
 20
70.498458862304688
 30
0.0
 11
15.649995422363276
 21
70.498458862304688
 31
0.0
  0
LINE
  5
723
100
AcDbEntity
  8
0
  6
CONTINUOUS
 62
               4
100
AcDbLine
 10
14.599999999999994
 20
71.998458862304688
 30
0.0
 11
14.650003051757807
 21
71.998458862304688
 31
0.0
  0
LINE
  5
724
100
AcDbEntity
  8
0
  6
CONTINUOUS
 62
               4
100
AcDbLine
 10
15.227349853515619
 20
81.0
 30
0.0
 11
16.649995422363276
 21
81.0
 31
0.0
  0
LINE
  5
725
100
AcDbEntity
  8
0
  6
CONTINUOUS
 62
               4
100
AcDbLine
 10
6.0
 20
74.5
 30
0.0
 11
14.650003051757807
 21
74.5
 31
0.0
  0
LINE
  5
726
100
AcDbEntity
  8
0
  6
CONTINUOUS
 62
               4
100
AcDbLine
 10
5.6499877929687443
 20
81.0
 30
0.0
 11
14.649987792968744
 21
81.0
 31
0.0
  0
LINE
  5
727
100
AcDbEntity
  8
0
  6
CONTINUOUS
 62
               4
100
AcDbLine
 10
14.599999999999994
 20
74.5
 30
0.0
 11
14.599999999999994
 21
70.0
 31
0.0
  0
LINE
  5
728
100
AcDbEntity
  8
0
  6
CONTINUOUS
 62
               4
100
AcDbLine
 10
3.5
 20
61.0
 30
0.0
 11
30.499992370605469
 21
61.0
 31
0.0
  0
LINE
  5
729
100
AcDbEntity
  8
0
  6
CONTINUOUS
 62
               4
100
AcDbLine
 10
3.5
 20
54.0
 30
0.0
 11
5.1000137329101562
 21
54.0
 31
0.0
  0
LINE
  5
72A
100
AcDbEntity
  8
0
  6
CONTINUOUS
 62
               4
100
AcDbLine
 10
4.200013732910179
 20
54.0
 30
0.0
 11
4.200013732910179
 21
61.0
 31
0.0
  0
LINE
  5
72B
100
AcDbEntity
  8
0
  6
CONTINUOUS
 62
               4
100
AcDbLine
 10
5.1000137329101562
 20
54.0
 30
0.0
 11
5.1000137329101562
 21
61.0
 31
0.0
  0
LINE
  5
72C
100
AcDbEntity
  8
0
  6
CONTINUOUS
 62
               4
100
AcDbLine
 10
17.500006170609112
 20
40.000000044728992
 30
0.0
 11
8.5000061706091117
 21
40.000000015974649
 31
0.0
  0
LINE
  5
72D
100
AcDbEntity
  8
0
  6
CONTINUOUS
 62
               4
100
AcDbLine
 10
17.500006113100397
 20
58.000000044728992
 30
0.0
 11
8.5000061131003974
 21
58.000000015974649
 31
0.0
  0
LINE
  5
72E
100
AcDbEntity
  8
0
  6
CONTINUOUS
 62
               4
100
AcDbLine
 10
8.5000061131003974
 20
58.000000015974649
 30
0.0
 11
8.5000061706091117
 21
40.000000015974649
 31
0.0
  0
LINE
  5
72F
100
AcDbEntity
  8
0
  6
CONTINUOUS
 62
               4
100
AcDbLine
 10
15.500006113100397
 20
58.000000038339138
 30
0.0
 11
15.500006170609112
 21
40.000000038339138
 31
0.0
  0
LINE
  5
730
100
AcDbEntity
  8
0
  6
CONTINUOUS
 62
               7
100
AcDbLine
 10
35.375732802152243
 20
15.499992370605469
 30
0.0
 11
30.5
 21
15.499992370605469
 31
0.0
  0
LINE
  5
731
100
AcDbEntity
  8
0
  6
CONTINUOUS
 62
               7
100
AcDbLine
 10
37.412136429980819
 20
-28.587884153427694
 30
0.0
 11
35.587873045309607
 21
-30.412143386208299
 31
0.0
  0
LINE
  5
732
100
AcDbEntity
  8
0
  6
CONTINUOUS
 62
               7
100
AcDbLine
 10
37.5
 20
-26.70001220703125
 30
0.0
 11
30.5
 21
-26.70001220703125
 31
0.0
  0
LINE
  5
733
100
AcDbEntity
  8
0
  6
CONTINUOUS
 62
               7
100
AcDbLine
 10
37.5
 20
-21.300010681152344
 30
0.0
 11
30.5
 21
-21.300010681152344
 31
0.0
  0
LINE
  5
734
100
AcDbEntity
  8
0
  6
CONTINUOUS
 62
               7
100
AcDbLine
 10
30.5
 20
-21.500011444091797
 30
0.0
 11
31.100006103515625
 21
-21.500011444091797
 31
0.0
  0
LINE
  5
735
100
AcDbEntity
  8
0
  6
CONTINUOUS
 62
               7
100
AcDbLine
 10
30.5
 20
-26.500011444091797
 30
0.0
 11
31.100006103515625
 21
-26.500011444091797
 31
0.0
  0
LINE
  5
736
100
AcDbEntity
  8
0
  6
CONTINUOUS
 62
               7
100
AcDbLine
 10
30.499992021019352
 20
-23.595868573353073
 30
0.0
 11
31.10000954998759
 21
-23.249448285267135
 31
0.0
  0
LINE
  5
737
100
AcDbEntity
  8
0
  6
CONTINUOUS
 62
               7
100
AcDbLine
 10
30.49999503287745
 20
-24.750567362472793
 30
0.0
 11
31.099999347346966
 21
-24.404154703781387
 31
0.0
  0
LINE
  5
738
100
AcDbEntity
  8
0
  6
CONTINUOUS
 62
               7
100
AcDbLine
 10
35.5
 20
-15.250019073486328
 30
0.0
 11
37.5
 21
-15.250019073486328
 31
0.0
  0
LINE
  5
739
100
AcDbEntity
  8
0
  6
CONTINUOUS
 62
               7
100
AcDbLine
 10
35.5
 20
0.2499923706054688
 30
0.0
 11
37.5
 21
0.2499923706054688
 31
0.0
  0
LINE
  5
73A
100
AcDbEntity
  8
0
  6
CONTINUOUS
 62
               7
100
AcDbLine
 10
37.5
 20
-15.250019073486328
 30
0.0
 11
37.5
 21
-28.375736236572266
 31
0.0
  0
LINE
  5
73B
100
AcDbEntity
  8
0
  6
CONTINUOUS
 62
               7
100
AcDbLine
 10
35.5
 20
0.2499923706054688
 30
0.0
 11
35.5
 21
-15.250019073486328
 31
0.0
  0
ARC
  5
73C
100
AcDbEntity
  8
0
  6
CONTINUOUS
 62
               7
100
AcDbCircle
 10
40.0
 20
-8.2500152587890625
 30
0.0
 40
0.5
100
AcDbArc
 50
0.0
 51
89.999999999999815
  0
ARC
  5
73D
100
AcDbEntity
  8
0
  6
CONTINUOUS
 62
               7
100
AcDbCircle
 10
40.0
 20
-6.7500076293945313
 30
0.0
 40
0.5
100
AcDbArc
 50
270.00000000000023
 51
0.0
  0
LINE
  5
73E
100
AcDbEntity
  8
0
  6
CONTINUOUS
 62
               7
100
AcDbLine
 10
40.5
 20
-6.7500076293945313
 30
0.0
 11
40.5
 21
7.2499771118164062
 31
0.0
  0
LINE
  5
73F
100
AcDbEntity
  8
0
  6
CONTINUOUS
 62
               7
100
AcDbLine
 10
35.5
 20
-7.7500152587890625
 30
0.0
 11
40.0
 21
-7.7500152587890625
 31
0.0
  0
LINE
  5
740
100
AcDbEntity
  8
0
  6
CONTINUOUS
 62
               7
100
AcDbLine
 10
35.5
 20
-7.2500076293945313
 30
0.0
 11
40.0
 21
-7.2500076293945313
 31
0.0
  0
LINE
  5
741
100
AcDbEntity
  8
0
  6
CONTINUOUS
 62
               7
100
AcDbLine
 10
31.100006103515625
 20
-26.500011444091797
 30
0.0
 11
31.100006103515625
 21
-21.500011444091797
 31
0.0
  0
ARC
  5
742
100
AcDbEntity
  8
0
  6
CONTINUOUS
 62
               7
100
AcDbCircle
 10
40.0
 20
-22.250015258789063
 30
0.0
 40
0.5
100
AcDbArc
 50
270.00001798608872
 51
0.0
  0
ARC
  5
743
100
AcDbEntity
  8
0
  6
CONTINUOUS
 62
               7
100
AcDbCircle
 10
40.0
 20
7.2499771118164062
 30
0.0
 40
0.5
100
AcDbArc
 50
0.0
 51
89.999982013910454
  0
ARC
  5
744
100
AcDbEntity
  8
0
  6
CONTINUOUS
 62
               7
100
AcDbCircle
 10
33.699981689453125
 20
10.249977111816406
 30
0.0
 40
1.5
100
AcDbArc
 50
270.00007262760209
 51
0.0000409811350201
  0
ARC
  5
745
100
AcDbEntity
  8
0
  6
CONTINUOUS
 62
               7
100
AcDbCircle
 10
33.699981689453125
 20
11.749977111816406
 30
0.0
 40
1.5
100
AcDbArc
 50
0.0000409811350201
 51
89.999982013910454
  0
ARC
  5
746
100
AcDbEntity
  8
0
  6
CONTINUOUS
 62
               7
100
AcDbCircle
 10
31.300003051757813
 20
-23.250015258789063
 30
0.0
 40
1.5
100
AcDbArc
 50
0.0000409811350201
 51
89.999982013910454
  0
ARC
  5
747
100
AcDbEntity
  8
0
  6
CONTINUOUS
 62
               7
100
AcDbCircle
 10
31.300003051757813
 20
-24.750015258789063
 30
0.0
 40
1.5
100
AcDbArc
 50
270.00007262760209
 51
0.0000409811350201
  0
ARC
  5
748
100
AcDbEntity
  8
0
  6
CONTINUOUS
 62
               7
100
AcDbCircle
 10
35.375732421875
 20
15.200004577636719
 30
0.0
 40
0.300000011920929
100
AcDbArc
 50
44.999936365441869
 51
89.999927372397096
  0
ARC
  5
749
100
AcDbEntity
  8
0
  6
CONTINUOUS
 62
               7
100
AcDbCircle
 10
37.199996948242188
 20
13.375740051269531
 30
0.0
 40
0.300000011920929
100
AcDbArc
 50
359.99997267924249
 51
44.999936365441869
  0
ARC
  5
74A
100
AcDbEntity
  8
0
  6
CONTINUOUS
 62
               7
100
AcDbCircle
 10
37.199981689453125
 20
-28.375732421875
 30
0.0
 40
0.300000011920929
100
AcDbArc
 50
315.00000899304399
 51
359.99997267924249
  0
LINE
  5
74B
100
AcDbEntity
  8
0
  6
CENTER
 62
               2
100
AcDbLine
 10
34.320953369140625
 20
-15.250019073486328
 30
0.0
 11
42.078445434570313
 21
-15.250019073486328
 31
0.0
  0
LINE
  5
74C
100
AcDbEntity
  8
0
  6
CONTINUOUS
 62
               7
100
AcDbLine
 10
40.5
 20
-22.250015258789063
 30
0.0
 11
40.5
 21
-8.2500152587890625
 31
0.0
  0
LINE
  5
74D
100
AcDbEntity
  8
0
  6
CONTINUOUS
 62
               7
100
AcDbLine
 10
37.5
 20
-22.750015258789063
 30
0.0
 11
40.0
 21
-22.750015258789063
 31
0.0
  0
LINE
  5
74E
100
AcDbEntity
  8
0
  6
CONTINUOUS
 62
               7
100
AcDbLine
 10
37.5
 20
7.7499771118164063
 30
0.0
 11
40.0
 21
7.7499771118164063
 31
0.0
  0
LINE
  5
74F
100
AcDbEntity
  8
0
  6
CENTER
 62
               2
100
AcDbLine
 10
34.320953369140625
 20
0.2499923706054688
 30
0.0
 11
42.078445434570313
 21
0.2499923706054688
 31
0.0
  0
LINE
  5
750
100
AcDbEntity
  8
0
  6
CONTINUOUS
 62
               7
100
AcDbLine
 10
33.5
 20
8.2999801635742187
 30
0.0
 11
33.5
 21
15.499977111816406
 31
0.0
  0
LINE
  5
751
100
AcDbEntity
  8
0
  6
CONTINUOUS
 62
               7
100
AcDbLine
 10
33.699981689453125
 20
8.7499771118164062
 30
0.0
 11
33.499984741210938
 21
8.7499771118164062
 31
0.0
  0
LINE
  5
752
100
AcDbEntity
  8
0
  6
CONTINUOUS
 62
               7
100
AcDbLine
 10
35.199996948242187
 20
11.749977111816406
 30
0.0
 11
35.199996948242187
 21
10.249977111816406
 31
0.0
  0
LINE
  5
753
100
AcDbEntity
  8
0
  6
CONTINUOUS
 62
               7
100
AcDbLine
 10
33.699981689453125
 20
13.249977111816406
 30
0.0
 11
33.499984741210938
 21
13.249977111816406
 31
0.0
  0
LINE
  5
754
100
AcDbEntity
  8
0
  6
CONTINUOUS
 62
               7
100
AcDbLine
 10
32.800003051757813
 20
-23.250015258789063
 30
0.0
 11
32.800003051757813
 21
-24.750015258789063
 31
0.0
  0
LINE
  5
755
100
AcDbEntity
  8
0
  6
CONTINUOUS
 62
               7
100
AcDbLine
 10
31.300003051757813
 20
-21.750011444091797
 30
0.0
 11
31.100006103515625
 21
-21.750011444091797
 31
0.0
  0
LINE
  5
756
100
AcDbEntity
  8
0
  6
CONTINUOUS
 62
               7
100
AcDbLine
 10
31.300003051757813
 20
-26.250011444091797
 30
0.0
 11
31.100006103515625
 21
-26.250011444091797
 31
0.0
  0
LINE
  5
757
100
AcDbEntity
  8
0
  6
CONTINUOUS
 62
               7
100
AcDbLine
 10
37.5
 20
8.2999801635742187
 30
0.0
 11
33.5
 21
8.2999801635742187
 31
0.0
  0
LINE
  5
758
100
AcDbEntity
  8
0
  6
CONTINUOUS
 62
               7
100
AcDbLine
 10
37.412123379240256
 20
13.587872824259648
 30
0.0
 11
35.587860302116496
 21
15.412132364587706
 31
0.0
  0
LINE
  5
759
100
AcDbEntity
  8
0
  6
CONTINUOUS
 62
               7
100
AcDbLine
 10
37.5
 20
13.375740051269531
 30
0.0
 11
37.5
 21
0.2499923706054688
 31
0.0
  0
ARC
  5
75A
100
AcDbEntity
  8
0
  6
CONTINUOUS
 62
               7
100
AcDbCircle
 10
35.375732421875
 20
-30.199996948242188
 30
0.0
 40
0.300000011920929
100
AcDbArc
 50
269.99996334457541
 51
314.99995435153068
  0
LINE
  5
75B
100
AcDbEntity
  8
0
  6
CENTER
 62
             200
100
AcDbLine
 10
-11.999954223632812
 20
-45.280061035156251
 30
0.0
 11
-11.999954223632812
 21
-55.900061035156256
 31
0.0
  0
LINE
  5
75C
100
AcDbEntity
  8
0
  6
CONTINUOUS
 62
               7
100
AcDbLine
 10
2.9999925415036879
 20
-30.499969444672427
 30
0.0
 11
2.9999960144045179
 21
15.500000037749313
 31
0.0
  0
LINE
  5
75D
100
AcDbEntity
  8
0
  6
CONTINUOUS
 62
               7
100
AcDbLine
 10
3.499998263549585
 20
-30.499969482421807
 30
0.0
 11
2.9999925415036879
 21
-30.499969444672427
 31
0.0
  0
LINE
  5
75E
100
AcDbEntity
  8
0
  6
CONTINUOUS
 62
               7
100
AcDbLine
 10
3.500001736450415
 20
15.499999999999932
 30
0.0
 11
2.9999960144045179
 21
15.500000037749313
 31
0.0
  0
LINE
  5
75F
100
AcDbEntity
  8
0
  6
CONTINUOUS
 62
               7
100
AcDbLine
 10
35.375732421875
 20
-30.499992370605469
 30
0.0
 11
3.5
 21
-30.5
 31
0.0
  0
ENDBLK
  5
760
100
AcDbEntity
  8
0
100
AcDbBlockEnd
  0
ENDSEC
  0
SECTION
  2
ENTITIES
  0
INSERT
  5
761
100
AcDbEntity
  8
0
  6
ByBlock
100
AcDbBlockReference
  2
F15T0-10
 10
-212.23750305175781
 20
-54.4920654296875
 30
0.0
  0
INSERT
  5
762
100
AcDbEntity
  8
0
  6
ByBlock
100
AcDbBlockReference
  2
F15T0-1
 10
-212.23739624023437
 20
138.68838500976562
 30
0.0
 50
0.0000571254412257
  0
INSERT
  5
763
100
AcDbEntity
  8
0
  6
ByBlock
100
AcDbBlockReference
  2
F15T0-8
 10
-344.8974609375
 20
138.68843078613281
 30
0.0
 50
0.0000333053033809
  0
INSERT
  5
764
100
AcDbEntity
  8
0
  6
ByBlock
100
AcDbBlockReference
  2
F15T0-9
 10
-61.237548828125
 20
138.6884765625
 30
0.0
 50
359.99973772073508
  0
INSERT
  5
765
100
AcDbEntity
  8
0
  6
ByBlock
100
AcDbBlockReference
  2
F15T0-11
 10
170.43902587890625
 20
148.68832397460937
 30
0.0
 50
359.9998265935771
  0
INSERT
  5
766
100
AcDbEntity
  8
0
  6
ByBlock
100
AcDbBlockReference
  2
F15T0-12
 10
56.339187622070312
 20
148.33823752734375
 30
0.0
 50
0.0002294102872433
  0
INSERT
  5
767
100
AcDbEntity
  8
0
  6
ByBlock
100
AcDbBlockReference
  2
F15T0-13
 10
321.0390625
 20
148.68841552734375
 30
0.0
 50
359.99982514715646
  0
INSERT
  5
768
100
AcDbEntity
  8
0
  6
ByBlock
100
AcDbBlockReference
  2
F15T0-14
 10
170.43916320800781
 20
45.229095458984375
 30
0.0
 50
359.99997109867377
  0
INSERT
  5
769
100
AcDbEntity
  8
0
  6
ByBlock
100
AcDbBlockReference
  2
F15T0-15
 10
180.43911743164062
 20
-128.69355773925781
 30
0.0
 50
0.0001079337722203
  0
INSERT
  5
76A
100
AcDbEntity
  8
0
  6
ByBlock
100
AcDbBlockReference
  2
F15T0-2
 10
60.939178466796875
 20
-128.69357299804687
 30
0.0
 50
0.0005464161758052
  0
INSERT
  5
76B
100
AcDbEntity
  8
0
  6
ByBlock
100
AcDbBlockReference
  2
F15T0-3
 10
321.0390625
 20
-128.693603515625
 30
0.0
 50
359.99982514715646
  0
INSERT
  5
76C
100
AcDbEntity
  8
0
  6
ByBlock
100
AcDbBlockReference
  2
F15T0-4
 10
180.43916320800781
 20
-234.55523681640625
 30
0.0
 50
0.0001295206730615
  0
INSERT
  5
76D
100
AcDbEntity
  8
0
  6
ByBlock
100
AcDbBlockReference
  2
F15T0-5
 10
-207.08015441894531
 20
-189.75079345703125
 30
0.0
  0
INSERT
  5
76E
100
AcDbEntity
  8
0
  6
ByBlock
100
AcDbBlockReference
  2
F15T0-6
 10
-305.580078125
 20
-189.750732421875
 30
0.0
  0
INSERT
  5
76F
100
AcDbEntity
  8
0
  6
ByBlock
100
AcDbBlockReference
  2
F15T0-7
 10
-98.580307006835938
 20
-189.75094604492187
 30
0.0
 50
359.99895090535387
  0
LINE
  5
770
100
AcDbEntity
  8
0
  6
CONTINUOUS
 62
               7
100
AcDbLine
 10
399.80000000000001
 20
276.25
 30
0.0
 11
399.80000000000001
 21
-276.75
 31
0.0
  0
LINE
  5
771
100
AcDbEntity
  8
0
  6
CONTINUOUS
 62
               7
100
AcDbLine
 10
-399.25
 20
276.25
 30
0.0
 11
-399.25
 21
-276.75
 31
0.0
  0
LINE
  5
772
100
AcDbEntity
  8
0
  6
CONTINUOUS
 62
               7
100
AcDbLine
 10
-399.25
 20
276.25
 30
0.0
 11
399.80000000000001
 21
276.25
 31
0.0
  0
LINE
  5
773
100
AcDbEntity
  8
0
  6
CONTINUOUS
 62
               7
100
AcDbLine
 10
-399.25
 20
-276.75
 30
0.0
 11
399.80000000000001
 21
-276.75
 31
0.0
  0
LINE
  5
774
100
AcDbEntity
  8
0
  6
CONTINUOUS
 62
               7
100
AcDbLine
 10
239.80000000000001
 20
-251.75
 30
0.0
 11
399.80000000000001
 21
-251.75
 31
0.0
  0
LINE
  5
775
100
AcDbEntity
  8
0
  6
CONTINUOUS
 62
               7
100
AcDbLine
 10
239.80000000000001
 20
251.25
 30
0.0
 11
399.80000000000001
 21
251.25
 31
0.0
  0
LINE
  5
776
100
AcDbEntity
  8
0
  6
CONTINUOUS
 62
               7
100
AcDbLine
 10
-399.25
 20
251.25
 30
0.0
 11
-239.25
 21
251.25
 31
0.0
  0
LINE
  5
777
100
AcDbEntity
  8
0
  6
CONTINUOUS
 62
               7
100
AcDbLine
 10
239.80000000000001
 20
-251.75
 30
0.0
 11
239.80000000000001
 21
-276.75
 31
0.0
  0
LINE
  5
778
100
AcDbEntity
  8
0
  6
CONTINUOUS
 62
               7
100
AcDbLine
 10
239.80000000000001
 20
251.25
 30
0.0
 11
239.80000000000001
 21
276.25
 31
0.0
  0
LINE
  5
779
100
AcDbEntity
  8
0
  6
CONTINUOUS
 62
               7
100
AcDbLine
 10
-239.25
 20
276.25
 30
0.0
 11
-239.25
 21
251.25
 31
0.0
  0
LINE
  5
77A
100
AcDbEntity
  8
0
  6
CONTINUOUS
 62
               7
100
AcDbLine
 10
0.27
 20
276.25
 30
0.0
 11
0.27
 21
-276.75
 31
0.0
  0
LINE
  5
77B
100
AcDbEntity
  8
0
  6
CONTINUOUS
 62
               7
100
AcDbLine
 10
0.27
 20
-0.25
 30
0.0
 11
399.80000000000001
 21
-0.25
 31
0.0
  0
LINE
  5
77C
100
AcDbEntity
  8
0
  6
CONTINUOUS
 62
               7
100
AcDbLine
 10
-399.25
 20
-92.409999999999997
 30
0.0
 11
0.27
 21
-92.409999999999997
 31
0.0
  0
MTEXT
  5
77D
100
AcDbEntity
  8
0
  6
CONTINUOUS
 62
               7
100
AcDbMText
 10
245.88456269755227
 20
-264.25
 30
0.0
 40
12.5
 41
0.0
 71
               4
 72
               1
  1
\W1.121;\A1;KOGANEI CORP.
  0
MTEXT
  5
77E
100
AcDbEntity
  8
0
  6
CONTINUOUS
 62
               7
100
AcDbMText
 10
290.20888922989093
 20
263.75
 30
0.0
 40
9.0
 41
0.0
 71
               4
 72
               1
  1
\W1.273;\A1;Ver.1.0
  0
MTEXT
  5
77F
100
AcDbEntity
  8
0
  6
CONTINUOUS
 62
               7
100
AcDbMText
 10
-382.13947423898645
 20
231.25
 30
0.0
 40
9.0
 41
0.0
 71
               4
 72
               1
  1
\W1.074;\A1;MODEL:F15T0-A2-PS
  0
MTEXT
  5
780
100
AcDbEntity
  8
0
  6
CONTINUOUS
 62
               7
100
AcDbMText
 10
-362.57090654372104
 20
263.75
 30
0.0
 40
9.0
 41
0.0
 71
               4
 72
               1
  1
\W1.119;\A1;F15 SERIES
  0
MTEXT
  5
781
100
AcDbEntity
  8
0
  6
CONTINUOUS
 62
               7
100
AcDbMText
 10
17.385519657497955
 20
256.25
 30
0.0
 40
9.0
 41
0.0
 71
               4
 72
               1
  1
\W1.074;\A1;MODEL:F15T0-F3-PS
  0
MTEXT
  5
782
100
AcDbEntity
  8
0
  6
CONTINUOUS
 62
               7
100
AcDbMText
 10
17.385519657497955
 20
-20.25
 30
0.0
 40
9.0
 41
0.0
 71
               4
 72
               1
  1
\W1.074;\A1;MODEL:F15T0-F4-PS
  0
MTEXT
  5
783
100
AcDbEntity
  8
0
  6
CONTINUOUS
 62
               7
100
AcDbMText
 10
-382.13000067858695
 20
-112.41665649414062
 30
0.0
 40
9.0
 41
0.0
 71
               4
 72
               1
  1
\W1.080;\A1;MODEL:-PL
  0
LINE
  5
784
100
AcDbEntity
  8
0
  6
CONTINUOUS
 62
               7
100
AcDbLine
 10
-207.08015441894531
 20
-189.75079345703125
 30
0.0
 11
-197.08015441894531
 21
-189.75079345703125
 31
0.0
  0
LINE
  5
785
100
AcDbEntity
  8
0
  6
CONTINUOUS
 62
               7
100
AcDbLine
 10
-125.58030700683594
 20
-189.75045667071728
 30
0.0
 11
-98.580306997873862
 21
-189.75045667071728
 31
0.0
  0
ENDSEC
  0
SECTION
  2
OBJECTS
  0
DICTIONARY
  5
19
100
AcDbDictionary
  3
ACAD_GROUP
350
1A
  3
ACAD_MLINESTYLE
350
1B
  0
DICTIONARY
  5
1A
102
{ACAD_REACTORS
330
19
102
}
100
AcDbDictionary
  0
DICTIONARY
  5
1B
102
{ACAD_REACTORS
330
19
102
}
100
AcDbDictionary
  3
STANDARD
350
1C
  0
MLINESTYLE
  5
1C
102
{ACAD_REACTORS
330
1B
102
}
100
AcDbMlineStyle
  2
Standard
 70
               0
  3

 62
               0
 51
90.0
 52
90.0
 71
               2
 49
0.5
 62
             256
  6
ByLayer
 49
-0.5
 62
             256
  6
ByLayer
  0
ENDSEC
  0
EOF
