  0
SECTION
  2
HEADER
  9
$ACADVER
  1
AC1012
  9
$DWGCODEPAGE
  3
dos932
  9
$INSBASE
 10
0.0
 20
0.0
 30
0.0
  9
$EXTMIN
 10
-399.25
 20
-276.75
 30
0.0
  9
$EXTMAX
 10
406.09414987197181
 20
276.25
 30
0.0
  9
$LIMMIN
 10
-399.25
 20
-276.75
  9
$LIMMAX
 10
406.09414987197181
 20
276.25
  9
$ORTHOMODE
 70
               0
  9
$REGENMODE
 70
               1
  9
$FILLMODE
 70
               1
  9
$QTEXTMODE
 70
               0
  9
$MIRRTEXT
 70
               1
  9
$DRAGMODE
 70
               2
  9
$LTSCALE
 40
1.0
  9
$OSMODE
 70
               0
  9
$ATTMODE
 70
               1
  9
$TEXTSIZE
 40
3.2000000476837158
  9
$TRACEWID
 40
0.05
  9
$TEXTSTYLE
  7
MX_NOTE_STANDARD
  9
$CLAYER
  8
0
  9
$CELTYPE
  6
CONTINUOUS
  9
$CECOLOR
 62
             256
  9
$CELTSCALE
 40
1.0
  9
$DELOBJ
 70
               1
  9
$DISPSILH
 70
               0
  9
$DIMSCALE
 40
1.0
  9
$DIMASZ
 40
2.5
  9
$DIMEXO
 40
1.5
  9
$DIMDLI
 40
3.75
  9
$DIMRND
 40
0.0
  9
$DIMDLE
 40
0.0
  9
$DIMEXE
 40
1.5
  9
$DIMTP
 40
0.0
  9
$DIMTM
 40
0.0
  9
$DIMTXT
 40
3.2000000476837158
  9
$DIMCEN
 40
2.5
  9
$DIMTSZ
 40
0.0
  9
$DIMTOL
 70
               0
  9
$DIMLIM
 70
               0
  9
$DIMTIH
 70
               0
  9
$DIMTOH
 70
               0
  9
$DIMSE1
 70
               0
  9
$DIMSE2
 70
               0
  9
$DIMTAD
 70
               1
  9
$DIMZIN
 70
               8
  9
$DIMBLK
  1

  9
$DIMASO
 70
               1
  9
$DIMSHO
 70
               1
  9
$DIMPOST
  1

  9
$DIMAPOST
  1

  9
$DIMALT
 70
               0
  9
$DIMALTD
 70
               4
  9
$DIMALTF
 40
0.03937007874016
  9
$DIMLFAC
 40
1.0
  9
$DIMTOFL
 70
               1
  9
$DIMTVP
 40
0.0
  9
$DIMTIX
 70
               0
  9
$DIMSOXD
 70
               0
  9
$DIMSAH
 70
               0
  9
$DIMBLK1
  1

  9
$DIMBLK2
  1

  9
$DIMSTYLE
  2
MXDIMSTYLE
  9
$DIMCLRD
 70
               0
  9
$DIMCLRE
 70
               0
  9
$DIMCLRT
 70
               0
  9
$DIMTFAC
 40
1.0
  9
$DIMGAP
 40
1.0
  9
$DIMJUST
 70
               0
  9
$DIMSD1
 70
               0
  9
$DIMSD2
 70
               0
  9
$DIMTOLJ
 70
               1
  9
$DIMTZIN
 70
               0
  9
$DIMALTZ
 70
               0
  9
$DIMALTTZ
 70
               0
  9
$DIMFIT
 70
               3
  9
$DIMUPT
 70
               1
  9
$DIMUNIT
 70
               2
  9
$DIMDEC
 70
               4
  9
$DIMTDEC
 70
               4
  9
$DIMALTU
 70
               2
  9
$DIMALTTD
 70
               4
  9
$DIMTXSTY
  7
MX_NOTE_STANDARD
  9
$DIMAUNIT
 70
               0
  9
$LUNITS
 70
               2
  9
$LUPREC
 70
               4
  9
$SKETCHINC
 40
0.1
  9
$FILLETRAD
 40
0.0
  9
$AUNITS
 70
               0
  9
$AUPREC
 70
               0
  9
$MENU
  1
acad
  9
$ELEVATION
 40
0.0
  9
$PELEVATION
 40
0.0
  9
$THICKNESS
 40
0.0
  9
$LIMCHECK
 70
               0
  9
$BLIPMODE
 70
               1
  9
$CHAMFERA
 40
0.0
  9
$CHAMFERB
 40
0.0
  9
$CHAMFERC
 40
0.0
  9
$CHAMFERD
 40
0.0
  9
$SKPOLY
 70
               0
  9
$TDCREATE
 40
2453378.356516204
  9
$TDUPDATE
 40
2453378.356516204
  9
$TDINDWG
 40
0.0000000000
  9
$TDUSRTIMER
 40
0.0000000000
  9
$USRTIMER
 70
               1
  9
$ANGBASE
 50
0.0
  9
$ANGDIR
 70
               0
  9
$PDMODE
 70
               0
  9
$PDSIZE
 40
0.0
  9
$PLINEWID
 40
0.0
  9
$COORDS
 70
               1
  9
$SPLFRAME
 70
               0
  9
$SPLINETYPE
 70
               6
  9
$SPLINESEGS
 70
               8
  9
$ATTDIA
 70
               0
  9
$ATTREQ
 70
               1
  9
$HANDLING
 70
               1
  9
$HANDSEED
  5
5C5
  9
$SURFTAB1
 70
               6
  9
$SURFTAB2
 70
               6
  9
$SURFTYPE
 70
               6
  9
$SURFU
 70
               6
  9
$SURFV
 70
               6
  9
$UCSNAME
  2

  9
$UCSORG
 10
0.0
 20
0.0
 30
0.0
  9
$UCSXDIR
 10
1.0
 20
0.0
 30
0.0
  9
$UCSYDIR
 10
0.0
 20
1.0
 30
0.0
  9
$PUCSNAME
  2

  9
$PUCSORG
 10
0.0
 20
0.0
 30
0.0
  9
$PUCSXDIR
 10
1.0
 20
0.0
 30
0.0
  9
$PUCSYDIR
 10
0.0
 20
1.0
 30
0.0
  9
$USERI1
 70
               0
  9
$USERI2
 70
               0
  9
$USERI3
 70
               0
  9
$USERI4
 70
               0
  9
$USERI5
 70
               0
  9
$USERR1
 40
0.0
  9
$USERR2
 40
0.0
  9
$USERR3
 40
0.0
  9
$USERR4
 40
0.0
  9
$USERR5
 40
0.0
  9
$WORLDVIEW
 70
               1
  9
$SHADEDGE
 70
               3
  9
$SHADEDIF
 70
              70
  9
$TILEMODE
 70
               1
  9
$MAXACTVP
 70
              16
  9
$PINSBASE
 10
0.0
 20
0.0
 30
0.0
  9
$PLIMCHECK
 70
               0
  9
$PEXTMIN
 10
1.0000000000000000E+20
 20
1.0000000000000000E+20
 30
1.0000000000000000E+20
  9
$PEXTMAX
 10
-1.0000000000000000E+20
 20
-1.0000000000000000E+20
 30
-1.0000000000000000E+20
  9
$PLIMMIN
 10
0.0
 20
0.0
  9
$PLIMMAX
 10
12.0
 20
9.0
  9
$UNITMODE
 70
               0
  9
$VISRETAIN
 70
               0
  9
$PLINEGEN
 70
               1
  9
$PSLTSCALE
 70
               0
  9
$TREEDEPTH
 70
            3020
  9
$PICKSTYLE
 70
               1
  9
$CMLSTYLE
  2
Standard
  9
$CMLJUST
 70
               0
  9
$CMLSCALE
 40
1.0
  9
$SAVEIMAGES
 70
               0
  0
ENDSEC
  0
SECTION
  2
CLASSES
  0
CLASS
  1
LWPOLYLINE
  2
AcDbPolyline
  3
"AutoCAD"
 90
        0
280
               0
281
               1
  0
CLASS
  1
IMAGE
  2
AcDbRasterImage
  3
ISM
 90
      127
280
               0
281
               1
  0
CLASS
  1
OLE2FRAME
  2
AcDbOle2Frame
  3
""
 90
        0
280
               0
281
               1
  0
CLASS
  1
HATCH
  2
AcDbHatch
  3
"ACAD_SEDONA"
 90
        0
280
               0
281
               1
  0
CLASS
  1
DICTIONARYVAR
  2
AcDbDictionaryVar
  3
"AutoCAD"
 90
        0
280
               0
281
               0
  0
CLASS
  1
RASTERVARIABLES
  2
AcDbRasterVariables
  3
ISM
 90
        0
280
               0
281
               0
  0
CLASS
  1
IMAGEDEF
  2
AcDbRasterImageDef
  3
ISM
 90
        0
280
               0
281
               0
  0
CLASS
  1
IMAGEDEF_REACTOR
  2
AcDbRasterImageDefReactor
  3
ISM
 90
        1
280
               0
281
               0
  0
CLASS
  1
IDBUFFER
  2
AcDbIdBuffer
  3
"Acad"
 90
        0
280
               0
281
               0
  0
CLASS
  1
SPATIAL_FILTER
  2
AcDbSpatialFilter
  3
"Acad"
 90
        0
280
               0
281
               0
  0
CLASS
  1
XRECORD
  2
AcDbXrecord
  3
"<Built In>"
 90
        0
280
               0
281
               0
  0
CLASS
  1
SORTENTSTABLE
  2
AcDbSortentsTable
  3
"AutoCAD"
 90
        0
280
               0
281
               0
  0
CLASS
  1
LAYER_INDEX
  2
AcDbLayerIndex
  3
"Acad"
 90
        0
280
               0
281
               0
  0
CLASS
  1
SPATIAL_INDEX
  2
AcDbSpatialIndex
  3
"Acad"
 90
        0
280
               0
281
               0
  0
CLASS
  1
OBJECT_PTR
  2
CAseDLPNTableRecord
  3
"ASE-LPNTableRecord"
 90
        1
280
               0
281
               0
  0
CLASS
  1
LAYOUT
  2
AcDbLayout
  3
"AutoCAD 2000"
 90
        1
280
               0
281
               0
  0
CLASS
  1
PLOTSETTINGS
  2
AcDbPlotSettings
  3
"AutoCAD 2000"
 90
        1
280
               0
281
               0
  0
CLASS
  1
ACDBDICTIONARYWDFLT
  2
AcDbDictionaryWithDefault
  3
"AutoCAD 2000"
 90
        1
280
               0
281
               0
  0
CLASS
  1
ACDBPLACEHOLDER
  2
AcDbPlaceHolder
  3
"AutoCAD 2000"
 90
        1
280
               0
281
               0
  0
ENDSEC
  0
SECTION
  2
TABLES
  0
TABLE
  2
VPORT
  5
7
100
AcDbSymbolTable
 70
               1
  0
VPORT
  5
15
100
AcDbSymbolTableRecord
100
AcDbViewportTableRecord
  2
*ACTIVE
 70
               0
 10
0.0
 20
0.0
 11
1.0
 21
1.0
 12
3.4220749359859042
 22
-0.25
 13
0.0
 23
0.0
 14
1.0
 24
1.0
 15
0.0
 25
0.0
 16
0.0
 26
0.0
 36
1.0
 17
0.0
 27
0.0
 37
0.0
 40
558.52999999999997
 41
1.7320508075688772
 42
50.0
 43
0.0
 44
0.0
 50
0.0
 51
0.0
 71
               0
 72
             100
 73
               1
 74
               1
 75
               0
 76
               0
 77
               0
 78
               0
  0
ENDTAB
  0
TABLE
  2
LTYPE
  5
4
100
AcDbSymbolTable
 70
               4
  0
LTYPE
  5
11
100
AcDbSymbolTableRecord
100
AcDbLinetypeTableRecord
  2
BYBLOCK
 70
              64
  3

 72
              65
 73
               0
 40
0.0
  0
LTYPE
  5
12
100
AcDbSymbolTableRecord
100
AcDbLinetypeTableRecord
  2
BYLAYER
 70
              64
  3

 72
              65
 73
               0
 40
0.0
  0
LTYPE
  5
13
100
AcDbSymbolTableRecord
100
AcDbLinetypeTableRecord
  2
CONTINUOUS
 70
              64
  3
Solid line
 72
              65
 73
               0
 40
0.0
  0
LTYPE
  5
578
100
AcDbSymbolTableRecord
100
AcDbLinetypeTableRecord
  2
DASHED
 70
              64
  3
Dashed __ __ __ __ __ __ __ __ __ __ __ __ __ _
 72
              65
 73
               2
 40
4.0
 49
2.0
 74
               0
 49
-2.0
 74
               0
  0
ENDTAB
  0
TABLE
  2
LAYER
  5
2
100
AcDbSymbolTable
 70
               2
  0
LAYER
  5
14
100
AcDbSymbolTableRecord
100
AcDbLayerTableRecord
  2
0
 70
               0
 62
               7
  6
CONTINUOUS
  0
LAYER
  5
1D
100
AcDbSymbolTableRecord
100
AcDbLayerTableRecord
  2
DEFPOINTS
 70
               0
 62
               7
  6
CONTINUOUS
  0
ENDTAB
  0
TABLE
  2
STYLE
  5
3
100
AcDbSymbolTable
 70
               1
  0
STYLE
  5
17
100
AcDbSymbolTableRecord
100
AcDbTextStyleTableRecord
  2
MX_NOTE_STANDARD
 70
               0
 40
0.0
 41
1.0
 50
0.0
 71
               0
 42
3.2000000476837158
  3
txt.shx
  4
extfont.shx
  0
ENDTAB
  0
TABLE
  2
VIEW
  5
5
100
AcDbSymbolTable
 70
               0
  0
ENDTAB
  0
TABLE
  2
UCS
  5
6
100
AcDbSymbolTable
 70
               0
  0
ENDTAB
  0
TABLE
  2
APPID
  5
8
100
AcDbSymbolTable
 70
               1
  0
APPID
  5
16
100
AcDbSymbolTableRecord
100
AcDbRegAppTableRecord
  2
ACAD
 70
               0
  0
ENDTAB
  0
TABLE
  2
DIMSTYLE
  5
9
100
AcDbSymbolTable
 70
               1
  0
DIMSTYLE
105
18
100
AcDbSymbolTableRecord
100
AcDbDimStyleTableRecord
  2
MXDIMSTYLE
 70
               0
  3

  4

  5

  6

  7

 40
1.0
 41
2.5
 42
1.5
 43
3.75
 44
1.5
 45
0.0
 46
0.0
 47
0.0
 48
0.0
 71
               0
 72
               0
 73
               0
 74
               0
 75
               0
 76
               0
 77
               1
 78
               8
140
3.2000000476837158
141
2.5
142
0.0
143
0.03937007874016
144
1.0
145
0.0
146
1.0
147
1.0
170
               0
171
               4
172
               1
173
               0
174
               0
175
               0
176
               0
177
               0
178
               0
270
               2
271
               4
272
               4
273
               2
274
               4
275
               0
280
               0
281
               0
282
               0
283
               1
284
               0
285
               0
286
               0
287
               3
288
               1
340
17
  0
ENDTAB
  0
TABLE
  2
BLOCK_RECORD
  5
1
100
AcDbSymbolTable
 70
              18
  0
BLOCK_RECORD
  5
A
100
AcDbSymbolTableRecord
100
AcDbBlockTableRecord
  2
*MODEL_SPACE
  0
BLOCK_RECORD
  5
B
100
AcDbSymbolTableRecord
100
AcDbBlockTableRecord
  2
*PAPER_SPACE
  0
BLOCK_RECORD
  5
1E
100
AcDbSymbolTableRecord
100
AcDbBlockTableRecord
  2
F18MP-1
  0
BLOCK_RECORD
  5
1F
100
AcDbSymbolTableRecord
100
AcDbBlockTableRecord
  2
F18MP-2
  0
BLOCK_RECORD
  5
20
100
AcDbSymbolTableRecord
100
AcDbBlockTableRecord
  2
F18MP-3
  0
BLOCK_RECORD
  5
21
100
AcDbSymbolTableRecord
100
AcDbBlockTableRecord
  2
F18MP-4
  0
BLOCK_RECORD
  5
22
100
AcDbSymbolTableRecord
100
AcDbBlockTableRecord
  2
F18MP-5
  0
BLOCK_RECORD
  5
23
100
AcDbSymbolTableRecord
100
AcDbBlockTableRecord
  2
F18MP-6
  0
BLOCK_RECORD
  5
24
100
AcDbSymbolTableRecord
100
AcDbBlockTableRecord
  2
F18MP-7
  0
BLOCK_RECORD
  5
25
100
AcDbSymbolTableRecord
100
AcDbBlockTableRecord
  2
F18MP-8
  0
BLOCK_RECORD
  5
26
100
AcDbSymbolTableRecord
100
AcDbBlockTableRecord
  2
F18MP-9
  0
BLOCK_RECORD
  5
27
100
AcDbSymbolTableRecord
100
AcDbBlockTableRecord
  2
F18MP-10
  0
BLOCK_RECORD
  5
28
100
AcDbSymbolTableRecord
100
AcDbBlockTableRecord
  2
F18MP-11
  0
BLOCK_RECORD
  5
29
100
AcDbSymbolTableRecord
100
AcDbBlockTableRecord
  2
F18MP-12
  0
BLOCK_RECORD
  5
2A
100
AcDbSymbolTableRecord
100
AcDbBlockTableRecord
  2
F18MP-13
  0
BLOCK_RECORD
  5
2B
100
AcDbSymbolTableRecord
100
AcDbBlockTableRecord
  2
F18MP-14
  0
BLOCK_RECORD
  5
2C
100
AcDbSymbolTableRecord
100
AcDbBlockTableRecord
  2
F18MP-15
  0
BLOCK_RECORD
  5
2D
100
AcDbSymbolTableRecord
100
AcDbBlockTableRecord
  2
F18MP-16
  0
BLOCK_RECORD
  5
2E
100
AcDbSymbolTableRecord
100
AcDbBlockTableRecord
  2
F18MP-17
  0
BLOCK_RECORD
  5
2F
100
AcDbSymbolTableRecord
100
AcDbBlockTableRecord
  2
F18MP-18
  0
ENDTAB
  0
ENDSEC
  0
SECTION
  2
BLOCKS
  0
BLOCK
  5
D
100
AcDbEntity
  8
0
100
AcDbBlockBegin
  2
*MODEL_SPACE
 70
               0
 10
0.0
 20
0.0
 30
0.0
  3
*MODEL_SPACE
  1

  0
ENDBLK
  5
E
100
AcDbEntity
  8
0
100
AcDbBlockEnd
  0
BLOCK
  5
F
100
AcDbEntity
 67
               1
  8
0
100
AcDbBlockBegin
  2
*PAPER_SPACE
 70
               0
 10
0.0
 20
0.0
 30
0.0
  3
*PAPER_SPACE
  1

  0
ENDBLK
  5
10
100
AcDbEntity
 67
               1
  8
0
100
AcDbBlockEnd
  0
BLOCK
  5
30
100
AcDbEntity
  8
0
100
AcDbBlockBegin
  2
F18MP-1
 70
               0
 10
0.0
 20
0.0
 30
0.0
  3
F18MP-1
  1

  0
LINE
  5
31
100
AcDbEntity
  8
0
  6
CONTINUOUS
 62
               2
100
AcDbLine
 10
-16.5
 20
-69.5
 30
0.0
 11
153.5
 21
-69.5
 31
0.0
  0
LINE
  5
32
100
AcDbEntity
  8
0
  6
CONTINUOUS
 62
               2
100
AcDbLine
 10
-16.5
 20
-11.5
 30
0.0
 11
153.5
 21
-11.5
 31
0.0
  0
LINE
  5
33
100
AcDbEntity
  8
0
  6
CONTINUOUS
 62
               7
100
AcDbLine
 10
-6.5
 20
5.5
 30
0.0
 11
9.5
 21
5.5
 31
0.0
  0
LINE
  5
34
100
AcDbEntity
  8
0
  6
CONTINUOUS
 62
               7
100
AcDbLine
 10
127.5
 20
-84.5
 30
0.0
 11
127.5
 21
38.5
 31
0.0
  0
LINE
  5
35
100
AcDbEntity
  8
0
  6
CONTINUOUS
 62
               7
100
AcDbLine
 10
127.5
 20
-84.5
 30
0.0
 11
143.5
 21
-84.5
 31
0.0
  0
LINE
  5
36
100
AcDbEntity
  8
0
  6
CONTINUOUS
 62
               7
100
AcDbLine
 10
130.5
 20
-73.5
 30
0.0
 11
143.5
 21
-73.5
 31
0.0
  0
LINE
  5
37
100
AcDbEntity
  8
0
  6
CONTINUOUS
 62
               7
100
AcDbLine
 10
143.5
 20
-84.5
 30
0.0
 11
143.5
 21
5.5
 31
0.0
  0
LINE
  5
38
100
AcDbEntity
  8
0
  6
CONTINUOUS
 62
               7
100
AcDbLine
 10
130.5
 20
-84.5
 30
0.0
 11
130.5
 21
-73.5
 31
0.0
  0
LINE
  5
39
100
AcDbEntity
  8
0
  6
CONTINUOUS
 62
               2
100
AcDbLine
 10
132.21000000000001
 20
-79.0
 30
0.0
 11
142.05000000000001
 21
-79.0
 31
0.0
  0
LINE
  5
3A
100
AcDbEntity
  8
0
  6
CONTINUOUS
 62
               7
100
AcDbLine
 10
136.0
 20
-76.799999999999997
 30
0.0
 11
138.0
 21
-76.799999999999997
 31
0.0
  0
LINE
  5
3B
100
AcDbEntity
  8
0
  6
CONTINUOUS
 62
               7
100
AcDbLine
 10
136.0
 20
-81.200000000000003
 30
0.0
 11
138.0
 21
-81.200000000000003
 31
0.0
  0
LINE
  5
3C
100
AcDbEntity
  8
0
  6
CONTINUOUS
 62
               2
100
AcDbLine
 10
137.0
 20
-83.010000000000005
 30
0.0
 11
137.0
 21
-75.209999999999994
 31
0.0
  0
LINE
  5
3D
100
AcDbEntity
  8
0
  6
CONTINUOUS
 62
               7
100
AcDbLine
 10
130.5
 20
-5.5
 30
0.0
 11
143.5
 21
-5.5
 31
0.0
  0
LINE
  5
3E
100
AcDbEntity
  8
0
  6
CONTINUOUS
 62
               7
100
AcDbLine
 10
130.5
 20
5.5
 30
0.0
 11
130.5
 21
-5.5
 31
0.0
  0
LINE
  5
3F
100
AcDbEntity
  8
0
  6
CONTINUOUS
 62
               2
100
AcDbLine
 10
132.21000000000001
 20
0.0
 30
0.0
 11
142.05000000000001
 21
0.0
 31
0.0
  0
LINE
  5
40
100
AcDbEntity
  8
0
  6
CONTINUOUS
 62
               7
100
AcDbLine
 10
136.0
 20
-2.1999999999999886
 30
0.0
 11
138.0
 21
-2.1999999999999886
 31
0.0
  0
LINE
  5
41
100
AcDbEntity
  8
0
  6
CONTINUOUS
 62
               7
100
AcDbLine
 10
136.0
 20
2.1999999999999886
 30
0.0
 11
138.0
 21
2.1999999999999886
 31
0.0
  0
LINE
  5
42
100
AcDbEntity
  8
0
  6
CONTINUOUS
 62
               7
100
AcDbLine
 10
6.5
 20
-73.5
 30
0.0
 11
-6.5
 21
-73.5
 31
0.0
  0
LINE
  5
43
100
AcDbEntity
  8
0
  6
CONTINUOUS
 62
               7
100
AcDbLine
 10
-6.5
 20
-84.5
 30
0.0
 11
-6.5
 21
5.5
 31
0.0
  0
LINE
  5
44
100
AcDbEntity
  8
0
  6
CONTINUOUS
 62
               7
100
AcDbLine
 10
6.5
 20
-84.5
 30
0.0
 11
6.5
 21
-73.5
 31
0.0
  0
LINE
  5
45
100
AcDbEntity
  8
0
  6
CONTINUOUS
 62
               2
100
AcDbLine
 10
4.789999999999992
 20
-79.0
 30
0.0
 11
-5.0500000000000114
 21
-79.0
 31
0.0
  0
LINE
  5
46
100
AcDbEntity
  8
0
  6
CONTINUOUS
 62
               7
100
AcDbLine
 10
1.0
 20
-76.799999999999997
 30
0.0
 11
-1.0
 21
-76.799999999999997
 31
0.0
  0
LINE
  5
47
100
AcDbEntity
  8
0
  6
CONTINUOUS
 62
               7
100
AcDbLine
 10
1.0
 20
-81.200000000000003
 30
0.0
 11
-1.0
 21
-81.200000000000003
 31
0.0
  0
LINE
  5
48
100
AcDbEntity
  8
0
  6
CONTINUOUS
 62
               2
100
AcDbLine
 10
0.0
 20
-83.010000000000005
 30
0.0
 11
0.0
 21
-75.209999999999994
 31
0.0
  0
LINE
  5
49
100
AcDbEntity
  8
0
  6
CONTINUOUS
 62
               7
100
AcDbLine
 10
6.5
 20
-5.5
 30
0.0
 11
-6.5
 21
-5.5
 31
0.0
  0
LINE
  5
4A
100
AcDbEntity
  8
0
  6
CONTINUOUS
 62
               7
100
AcDbLine
 10
6.5
 20
5.5
 30
0.0
 11
6.5
 21
-5.5
 31
0.0
  0
LINE
  5
4B
100
AcDbEntity
  8
0
  6
CONTINUOUS
 62
               2
100
AcDbLine
 10
4.789999999999992
 20
0.0
 30
0.0
 11
-5.0500000000000114
 21
0.0
 31
0.0
  0
LINE
  5
4C
100
AcDbEntity
  8
0
  6
CONTINUOUS
 62
               7
100
AcDbLine
 10
1.0
 20
-2.1999999999999886
 30
0.0
 11
-1.0
 21
-2.1999999999999886
 31
0.0
  0
LINE
  5
4D
100
AcDbEntity
  8
0
  6
CONTINUOUS
 62
               7
100
AcDbLine
 10
1.0
 20
2.1999999999999886
 30
0.0
 11
-1.0
 21
2.1999999999999886
 31
0.0
  0
LINE
  5
4E
100
AcDbEntity
  8
0
  6
CONTINUOUS
 62
               2
100
AcDbLine
 10
0.0
 20
4.0099999999999909
 30
0.0
 11
0.0
 21
-3.7800000000000011
 31
0.0
  0
LINE
  5
4F
100
AcDbEntity
  8
0
  6
CONTINUOUS
 62
               7
100
AcDbLine
 10
9.5
 20
-84.5
 30
0.0
 11
9.5
 21
38.5
 31
0.0
  0
LINE
  5
50
100
AcDbEntity
  8
0
  6
CONTINUOUS
 62
               7
100
AcDbLine
 10
4.5
 20
38.5
 30
0.0
 11
9.5
 21
38.5
 31
0.0
  0
LINE
  5
51
100
AcDbEntity
  8
0
  6
CONTINUOUS
 62
               2
100
AcDbLine
 10
137.0
 20
4.0099999999999909
 30
0.0
 11
137.0
 21
-3.7800000000000011
 31
0.0
  0
LINE
  5
52
100
AcDbEntity
  8
0
  6
CONTINUOUS
 62
               7
100
AcDbLine
 10
4.5
 20
5.5
 30
0.0
 11
4.5
 21
38.5
 31
0.0
  0
LINE
  5
53
100
AcDbEntity
  8
0
  6
CONTINUOUS
 62
               7
100
AcDbLine
 10
132.5
 20
5.5
 30
0.0
 11
132.5
 21
38.5
 31
0.0
  0
LINE
  5
54
100
AcDbEntity
  8
0
  6
CONTINUOUS
 62
               7
100
AcDbLine
 10
9.5
 20
-84.5
 30
0.0
 11
-6.5
 21
-84.5
 31
0.0
  0
LINE
  5
55
100
AcDbEntity
  8
0
  6
CONTINUOUS
 62
               7
100
AcDbLine
 10
127.5
 20
38.5
 30
0.0
 11
132.5
 21
38.5
 31
0.0
  0
LINE
  5
56
100
AcDbEntity
  8
0
  6
CONTINUOUS
 62
               7
100
AcDbLine
 10
127.5
 20
5.5
 30
0.0
 11
143.5
 21
5.5
 31
0.0
  0
ARC
  5
57
100
AcDbEntity
  8
0
  6
CONTINUOUS
 62
               7
100
AcDbCircle
 10
138.0
 20
-79.0
 30
0.0
 40
2.2000000000000028
100
AcDbArc
 50
270.0
 51
90.0
  0
ARC
  5
58
100
AcDbEntity
  8
0
  6
CONTINUOUS
 62
               7
100
AcDbCircle
 10
136.0
 20
-79.0
 30
0.0
 40
2.2000000000000028
100
AcDbArc
 50
90.0
 51
270.0
  0
ARC
  5
59
100
AcDbEntity
  8
0
  6
CONTINUOUS
 62
               7
100
AcDbCircle
 10
138.0
 20
0.0
 30
0.0
 40
2.2000000000000002
100
AcDbArc
 50
270.0
 51
90.0
  0
ARC
  5
5A
100
AcDbEntity
  8
0
  6
CONTINUOUS
 62
               7
100
AcDbCircle
 10
136.0
 20
0.0
 30
0.0
 40
2.2000000000000002
100
AcDbArc
 50
90.0
 51
270.0
  0
ARC
  5
5B
100
AcDbEntity
  8
0
  6
CONTINUOUS
 62
               7
100
AcDbCircle
 10
-1.0
 20
-79.0
 30
0.0
 40
2.2000000000000028
100
AcDbArc
 50
90.0
 51
270.0
  0
ARC
  5
5C
100
AcDbEntity
  8
0
  6
CONTINUOUS
 62
               7
100
AcDbCircle
 10
1.0
 20
-79.0
 30
0.0
 40
2.2000000000000028
100
AcDbArc
 50
270.0
 51
90.0
  0
ARC
  5
5D
100
AcDbEntity
  8
0
  6
CONTINUOUS
 62
               7
100
AcDbCircle
 10
-1.0
 20
0.0
 30
0.0
 40
2.2000000000000002
100
AcDbArc
 50
90.0
 51
270.0
  0
ARC
  5
5E
100
AcDbEntity
  8
0
  6
CONTINUOUS
 62
               7
100
AcDbCircle
 10
1.0
 20
0.0
 30
0.0
 40
2.2000000000000002
100
AcDbArc
 50
270.0
 51
90.0
  0
ENDBLK
  5
5F
100
AcDbEntity
  8
0
100
AcDbBlockEnd
  0
BLOCK
  5
60
100
AcDbEntity
  8
0
100
AcDbBlockBegin
  2
F18MP-2
 70
               0
 10
0.0
 20
0.0
 30
0.0
  3
F18MP-2
  1

  0
LINE
  5
61
100
AcDbEntity
  8
0
  6
CONTINUOUS
 62
               2
100
AcDbLine
 10
9.5
 20
-81.808237304687509
 30
0.0
 11
9.5
 21
56.371762695312505
 31
0.0
  0
LINE
  5
62
100
AcDbEntity
  8
0
  6
CONTINUOUS
 62
               7
100
AcDbLine
 10
0.0
 20
-68.008237304687498
 30
0.0
 11
0.5
 21
-68.008237304687498
 31
0.0
  0
LINE
  5
63
100
AcDbEntity
  8
0
  6
CONTINUOUS
 62
               7
100
AcDbLine
 10
14.5
 20
16.991762695312502
 30
0.0
 11
19.0
 21
16.991762695312502
 31
0.0
  0
LINE
  5
64
100
AcDbEntity
  8
0
  6
CONTINUOUS
 62
               7
100
AcDbLine
 10
18.5
 20
-68.008237304687498
 30
0.0
 11
19.0
 21
-68.008237304687498
 31
0.0
  0
LINE
  5
65
100
AcDbEntity
  8
0
  6
CONTINUOUS
 62
               7
100
AcDbLine
 10
19.0
 20
-68.008237304687498
 30
0.0
 11
19.0
 21
49.991762695312502
 31
0.0
  0
LINE
  5
66
100
AcDbEntity
  8
0
  6
CONTINUOUS
 62
               7
100
AcDbLine
 10
0.0
 20
-68.008237304687498
 30
0.0
 11
0.0
 21
49.991762695312502
 31
0.0
  0
LINE
  5
67
100
AcDbEntity
  8
0
  6
CONTINUOUS
 62
               7
100
AcDbLine
 10
0.0
 20
16.991762695312502
 30
0.0
 11
4.5
 21
16.991762695312502
 31
0.0
  0
LINE
  5
68
100
AcDbEntity
  8
0
  6
CONTINUOUS
 62
               7
100
AcDbLine
 10
14.5
 20
46.991762695312502
 30
0.0
 11
19.0
 21
46.991762695312502
 31
0.0
  0
LINE
  5
69
100
AcDbEntity
  8
0
  6
CONTINUOUS
 62
               7
100
AcDbLine
 10
0.0
 20
46.991762695312502
 30
0.0
 11
4.5
 21
46.991762695312502
 31
0.0
  0
LINE
  5
6A
100
AcDbEntity
  8
0
  6
CONTINUOUS
 62
               7
100
AcDbLine
 10
14.5
 20
18.991762695312502
 30
0.0
 11
19.0
 21
18.991762695312502
 31
0.0
  0
LINE
  5
6B
100
AcDbEntity
  8
0
  6
CONTINUOUS
 62
               7
100
AcDbLine
 10
0.0
 20
18.991762695312502
 30
0.0
 11
4.5
 21
18.991762695312502
 31
0.0
  0
LINE
  5
6C
100
AcDbEntity
  8
0
  6
CONTINUOUS
 62
               7
100
AcDbLine
 10
4.0
 20
36.991762695312502
 30
0.0
 11
4.5
 21
36.991762695312502
 31
0.0
  0
LINE
  5
6D
100
AcDbEntity
  8
0
  6
CONTINUOUS
 62
               7
100
AcDbLine
 10
4.0
 20
36.991762695312502
 30
0.0
 11
4.0
 21
46.991762695312502
 31
0.0
  0
LINE
  5
6E
100
AcDbEntity
  8
0
  6
CONTINUOUS
 62
               7
100
AcDbLine
 10
14.5
 20
36.991762695312502
 30
0.0
 11
15.0
 21
36.991762695312502
 31
0.0
  0
LINE
  5
6F
100
AcDbEntity
  8
0
  6
CONTINUOUS
 62
               7
100
AcDbLine
 10
15.0
 20
36.991762695312502
 30
0.0
 11
15.0
 21
46.991762695312502
 31
0.0
  0
LINE
  5
70
100
AcDbEntity
  8
0
  6
CONTINUOUS
 62
               2
100
AcDbLine
 10
7.0
 20
17.691762695312505
 30
0.0
 11
12.0
 21
17.691762695312505
 31
0.0
  0
LINE
  5
71
100
AcDbEntity
  8
0
  6
CONTINUOUS
 62
               4
100
AcDbLine
 10
4.5
 20
44.991762695312502
 30
0.0
 11
14.5
 21
44.991762695312502
 31
0.0
  0
LINE
  5
72
100
AcDbEntity
  8
0
  6
CONTINUOUS
 62
               7
100
AcDbLine
 10
4.5
 20
20.991762695312502
 30
0.0
 11
14.5
 21
20.991762695312502
 31
0.0
  0
LINE
  5
73
100
AcDbEntity
  8
0
  6
CONTINUOUS
 62
               7
100
AcDbLine
 10
7.5700000000000003
 20
17.391762695312501
 30
0.0
 11
11.420000000000002
 21
17.391762695312501
 31
0.0
  0
LINE
  5
74
100
AcDbEntity
  8
0
  6
CONTINUOUS
 62
               7
100
AcDbLine
 10
7.5700000000000003
 20
17.991762695312502
 30
0.0
 11
11.420000000000002
 21
17.991762695312502
 31
0.0
  0
LINE
  5
75
100
AcDbEntity
  8
0
  6
CONTINUOUS
 62
               4
100
AcDbLine
 10
4.5499999999999972
 20
44.991762695312502
 30
0.0
 11
4.5499999999999972
 21
53.491762695312502
 31
0.0
  0
LINE
  5
76
100
AcDbEntity
  8
0
  6
CONTINUOUS
 62
               4
100
AcDbLine
 10
13.950000000000003
 20
53.991762695312502
 30
0.0
 11
5.0499999999999972
 21
53.991762695312502
 31
0.0
  0
LINE
  5
77
100
AcDbEntity
  8
0
  6
CONTINUOUS
 62
               4
100
AcDbLine
 10
14.450000000000003
 20
49.491762695312502
 30
0.0
 11
4.5499999999999972
 21
49.491762695312502
 31
0.0
  0
LINE
  5
78
100
AcDbEntity
  8
0
  6
CONTINUOUS
 62
               4
100
AcDbLine
 10
14.450000000000003
 20
44.991762695312502
 30
0.0
 11
14.450000000000003
 21
53.491762695312502
 31
0.0
  0
LINE
  5
79
100
AcDbEntity
  8
0
  6
CONTINUOUS
 62
               7
100
AcDbLine
 10
14.5
 20
9.9917626953125023
 30
0.0
 11
14.5
 21
20.991762695312502
 31
0.0
  0
LINE
  5
7A
100
AcDbEntity
  8
0
  6
CONTINUOUS
 62
               7
100
AcDbLine
 10
4.5
 20
9.9917626953125023
 30
0.0
 11
4.5
 21
20.991762695312502
 31
0.0
  0
LINE
  5
7B
100
AcDbEntity
  8
0
  6
CONTINUOUS
 62
               7
100
AcDbLine
 10
0.5
 20
-2.5082373046874977
 30
0.0
 11
18.5
 21
-2.5082373046874977
 31
0.0
  0
LINE
  5
7C
100
AcDbEntity
  8
0
  6
CONTINUOUS
 62
               7
100
AcDbLine
 10
0.5
 20
7.4917626953125023
 30
0.0
 11
18.5
 21
7.4917626953125023
 31
0.0
  0
LINE
  5
7D
100
AcDbEntity
  8
0
  6
CONTINUOUS
 62
               7
100
AcDbLine
 10
0.5
 20
-55.508237304687498
 30
0.0
 11
18.5
 21
-55.508237304687498
 31
0.0
  0
LINE
  5
7E
100
AcDbEntity
  8
0
  6
CONTINUOUS
 62
               7
100
AcDbLine
 10
0.5
 20
-67.508237304687498
 30
0.0
 11
18.5
 21
-67.508237304687498
 31
0.0
  0
LINE
  5
7F
100
AcDbEntity
  8
0
  6
CONTINUOUS
 62
               7
100
AcDbLine
 10
1.0
 20
-78.508237304687498
 30
0.0
 11
18.0
 21
-78.508237304687498
 31
0.0
  0
LINE
  5
80
100
AcDbEntity
  8
0
  6
CONTINUOUS
 62
               7
100
AcDbLine
 10
17.0
 20
-66.508237304687498
 30
0.0
 11
2.0
 21
-66.508237304687498
 31
0.0
  0
LINE
  5
81
100
AcDbEntity
  8
0
  6
CONTINUOUS
 62
               7
100
AcDbLine
 10
17.0
 20
-66.508237304687498
 30
0.0
 11
17.0
 21
-56.508237304687498
 31
0.0
  0
LINE
  5
82
100
AcDbEntity
  8
0
  6
CONTINUOUS
 62
               7
100
AcDbLine
 10
2.0
 20
-66.508237304687498
 30
0.0
 11
2.0
 21
-56.508237304687498
 31
0.0
  0
LINE
  5
83
100
AcDbEntity
  8
0
  6
CONTINUOUS
 62
               7
100
AcDbLine
 10
2.0
 20
-56.508237304687498
 30
0.0
 11
17.0
 21
-56.508237304687498
 31
0.0
  0
LINE
  5
84
100
AcDbEntity
  8
0
  6
CONTINUOUS
 62
               7
100
AcDbLine
 10
16.0
 20
-65.508237304687498
 30
0.0
 11
3.0
 21
-65.508237304687498
 31
0.0
  0
LINE
  5
85
100
AcDbEntity
  8
0
  6
CONTINUOUS
 62
               7
100
AcDbLine
 10
3.0
 20
-57.508237304687498
 30
0.0
 11
16.0
 21
-57.508237304687498
 31
0.0
  0
LINE
  5
86
100
AcDbEntity
  8
0
  6
CONTINUOUS
 62
               7
100
AcDbLine
 10
16.0
 20
-65.508237304687498
 30
0.0
 11
16.0
 21
-57.508237304687498
 31
0.0
  0
LINE
  5
87
100
AcDbEntity
  8
0
  6
CONTINUOUS
 62
               7
100
AcDbLine
 10
3.0
 20
-65.508237304687498
 30
0.0
 11
3.0
 21
-57.508237304687498
 31
0.0
  0
LINE
  5
88
100
AcDbEntity
  8
0
  6
CONTINUOUS
 62
               7
100
AcDbLine
 10
17.0
 20
-66.508237304687498
 30
0.0
 11
16.0
 21
-65.508237304687498
 31
0.0
  0
LINE
  5
89
100
AcDbEntity
  8
0
  6
CONTINUOUS
 62
               7
100
AcDbLine
 10
16.0
 20
-57.508237304687498
 30
0.0
 11
17.0
 21
-56.508237304687498
 31
0.0
  0
LINE
  5
8A
100
AcDbEntity
  8
0
  6
CONTINUOUS
 62
               7
100
AcDbLine
 10
2.0
 20
-56.508237304687498
 30
0.0
 11
3.0
 21
-57.508237304687498
 31
0.0
  0
LINE
  5
8B
100
AcDbEntity
  8
0
  6
CONTINUOUS
 62
               7
100
AcDbLine
 10
3.0
 20
-65.508237304687498
 30
0.0
 11
2.0
 21
-66.508237304687498
 31
0.0
  0
LINE
  5
8C
100
AcDbEntity
  8
0
  6
CONTINUOUS
 62
               7
100
AcDbLine
 10
3.0
 20
-67.508237304687498
 30
0.0
 11
3.0
 21
-66.508237304687498
 31
0.0
  0
LINE
  5
8D
100
AcDbEntity
  8
0
  6
CONTINUOUS
 62
               7
100
AcDbLine
 10
3.0
 20
-56.508237304687498
 30
0.0
 11
3.0
 21
-55.508237304687498
 31
0.0
  0
LINE
  5
8E
100
AcDbEntity
  8
0
  6
CONTINUOUS
 62
               7
100
AcDbLine
 10
16.0
 20
-56.508237304687498
 30
0.0
 11
16.0
 21
-55.508237304687498
 31
0.0
  0
LINE
  5
8F
100
AcDbEntity
  8
0
  6
CONTINUOUS
 62
               7
100
AcDbLine
 10
16.0
 20
-67.508237304687498
 30
0.0
 11
16.0
 21
-66.508237304687498
 31
0.0
  0
LINE
  5
90
100
AcDbEntity
  8
0
  6
CONTINUOUS
 62
               7
100
AcDbLine
 10
0.5
 20
-78.008237304687498
 30
0.0
 11
0.5
 21
-55.308237304687495
 31
0.0
  0
LINE
  5
91
100
AcDbEntity
  8
0
  6
CONTINUOUS
 62
               7
100
AcDbLine
 10
18.5
 20
-78.008237304687498
 30
0.0
 11
18.5
 21
-55.308237304687495
 31
0.0
  0
LINE
  5
92
100
AcDbEntity
  8
0
  6
CONTINUOUS
 62
               7
100
AcDbLine
 10
2.5
 20
9.9917626953125023
 30
0.0
 11
16.5
 21
9.9917626953125023
 31
0.0
  0
LINE
  5
93
100
AcDbEntity
  8
0
  6
CONTINUOUS
 62
               7
100
AcDbLine
 10
2.5
 20
9.9917626953125023
 30
0.0
 11
0.5
 21
7.4917626953125023
 31
0.0
  0
LINE
  5
94
100
AcDbEntity
  8
0
  6
CONTINUOUS
 62
               7
100
AcDbLine
 10
16.5
 20
9.9917626953125023
 30
0.0
 11
18.5
 21
7.4917626953125023
 31
0.0
  0
LINE
  5
95
100
AcDbEntity
  8
0
  6
CONTINUOUS
 62
               4
100
AcDbLine
 10
4.5
 20
20.991762695312502
 30
0.0
 11
4.5
 21
44.991762695312502
 31
0.0
  0
LINE
  5
96
100
AcDbEntity
  8
0
  6
CONTINUOUS
 62
               4
100
AcDbLine
 10
14.5
 20
20.991762695312502
 30
0.0
 11
14.5
 21
44.991762695312502
 31
0.0
  0
LINE
  5
97
100
AcDbEntity
  8
0
  6
CONTINUOUS
 62
               7
100
AcDbLine
 10
0.0
 20
49.991762695312502
 30
0.0
 11
4.5499999999999972
 21
49.991762695312502
 31
0.0
  0
LINE
  5
98
100
AcDbEntity
  8
0
  6
CONTINUOUS
 62
               4
100
AcDbLine
 10
0.5
 20
-2.7082373046875006
 30
0.0
 11
18.5
 21
-2.7082373046875006
 31
0.0
  0
LINE
  5
99
100
AcDbEntity
  8
0
  6
CONTINUOUS
 62
               4
100
AcDbLine
 10
0.5
 20
-55.308237304687495
 30
0.0
 11
18.5
 21
-55.308237304687495
 31
0.0
  0
LINE
  5
9A
100
AcDbEntity
  8
0
  6
CONTINUOUS
 62
               4
100
AcDbLine
 10
16.0
 20
-6.0082373046874977
 30
0.0
 11
18.5
 21
-6.0082373046874977
 31
0.0
  0
LINE
  5
9B
100
AcDbEntity
  8
0
  6
CONTINUOUS
 62
               4
100
AcDbLine
 10
16.0
 20
-12.008237304687498
 30
0.0
 11
18.5
 21
-12.008237304687498
 31
0.0
  0
LINE
  5
9C
100
AcDbEntity
  8
0
  6
CONTINUOUS
 62
               4
100
AcDbLine
 10
0.5
 20
-52.008237304687498
 30
0.0
 11
3.0
 21
-52.008237304687498
 31
0.0
  0
LINE
  5
9D
100
AcDbEntity
  8
0
  6
CONTINUOUS
 62
               4
100
AcDbLine
 10
0.5
 20
-46.008237304687498
 30
0.0
 11
3.0
 21
-46.008237304687498
 31
0.0
  0
LINE
  5
9E
100
AcDbEntity
  8
0
  6
CONTINUOUS
 62
               4
100
AcDbLine
 10
6.0
 20
-7.0082373046874977
 30
0.0
 11
6.0
 21
-2.7082373046875006
 31
0.0
  0
LINE
  5
9F
100
AcDbEntity
  8
0
  6
CONTINUOUS
 62
               4
100
AcDbLine
 10
3.0
 20
-10.008237304687498
 30
0.0
 11
0.5
 21
-10.008237304687498
 31
0.0
  0
LINE
  5
A0
100
AcDbEntity
  8
0
  6
CONTINUOUS
 62
               4
100
AcDbLine
 10
0.5
 20
-53.308237304687495
 30
0.0
 11
13.0
 21
-53.308237304687495
 31
0.0
  0
LINE
  5
A1
100
AcDbEntity
  8
0
  6
CONTINUOUS
 62
               4
100
AcDbLine
 10
6.0
 20
-4.7082373046875006
 30
0.0
 11
18.5
 21
-4.7082373046875006
 31
0.0
  0
LINE
  5
A2
100
AcDbEntity
  8
0
  6
CONTINUOUS
 62
               4
100
AcDbLine
 10
18.5
 20
-55.308237304687495
 30
0.0
 11
18.5
 21
-52.268237304687489
 31
0.0
  0
LINE
  5
A3
100
AcDbEntity
  8
0
  6
CONTINUOUS
 62
               4
100
AcDbLine
 10
0.5
 20
-55.308237304687495
 30
0.0
 11
0.5
 21
-50.268237304687489
 31
0.0
  0
LINE
  5
A4
100
AcDbEntity
  8
0
  6
CONTINUOUS
 62
             200
100
AcDbLine
 10
-0.5
 20
-19.508237304687498
 30
0.0
 11
19.5
 21
-19.508237304687498
 31
0.0
  0
LINE
  5
A5
100
AcDbEntity
  8
0
  6
CONTINUOUS
 62
             200
100
AcDbLine
 10
-0.5
 20
-38.508237304687498
 30
0.0
 11
19.5
 21
-38.508237304687498
 31
0.0
  0
LINE
  5
A6
100
AcDbEntity
  8
0
  6
CONTINUOUS
 62
               4
100
AcDbLine
 10
16.0
 20
-48.008237304687498
 30
0.0
 11
18.5
 21
-48.008237304687498
 31
0.0
  0
LINE
  5
A7
100
AcDbEntity
  8
0
  6
CONTINUOUS
 62
               4
100
AcDbLine
 10
13.0
 20
-51.008237304687498
 30
0.0
 11
13.0
 21
-55.308237304687495
 31
0.0
  0
LINE
  5
A8
100
AcDbEntity
  8
0
  6
CONTINUOUS
 62
               4
100
AcDbLine
 10
1.9299999999999997
 20
-50.0682373046875
 30
0.0
 11
4.0600000000000023
 21
-47.938237304687505
 31
0.0
  0
LINE
  5
A9
100
AcDbEntity
  8
0
  6
CONTINUOUS
 62
               4
100
AcDbLine
 10
1.9299999999999997
 20
-47.938237304687505
 30
0.0
 11
4.0600000000000023
 21
-50.0682373046875
 31
0.0
  0
LINE
  5
AA
100
AcDbEntity
  8
0
  6
CONTINUOUS
 62
               4
100
AcDbLine
 10
14.93
 20
-52.0682373046875
 30
0.0
 11
17.060000000000002
 21
-49.948237304687495
 31
0.0
  0
LINE
  5
AB
100
AcDbEntity
  8
0
  6
CONTINUOUS
 62
               4
100
AcDbLine
 10
14.93
 20
-49.938237304687505
 30
0.0
 11
17.060000000000002
 21
-52.0682373046875
 31
0.0
  0
LINE
  5
AC
100
AcDbEntity
  8
0
  6
CONTINUOUS
 62
               4
100
AcDbLine
 10
14.93
 20
-10.0682373046875
 30
0.0
 11
17.060000000000002
 21
-7.9382373046875045
 31
0.0
  0
LINE
  5
AD
100
AcDbEntity
  8
0
  6
CONTINUOUS
 62
               4
100
AcDbLine
 10
14.93
 20
-7.9382373046875045
 30
0.0
 11
17.060000000000002
 21
-10.0682373046875
 31
0.0
  0
LINE
  5
AE
100
AcDbEntity
  8
0
  6
CONTINUOUS
 62
               4
100
AcDbLine
 10
1.9299999999999997
 20
-8.0682373046875
 30
0.0
 11
4.0600000000000023
 21
-5.9382373046875045
 31
0.0
  0
LINE
  5
AF
100
AcDbEntity
  8
0
  6
CONTINUOUS
 62
               4
100
AcDbLine
 10
1.9299999999999997
 20
-5.9382373046875045
 30
0.0
 11
4.0600000000000023
 21
-8.0682373046875
 31
0.0
  0
LINE
  5
B0
100
AcDbEntity
  8
0
  6
CONTINUOUS
 62
               4
100
AcDbLine
 10
0.5
 20
-47.738237304687487
 30
0.0
 11
0.5
 21
-8.2682373046875028
 31
0.0
  0
LINE
  5
B1
100
AcDbEntity
  8
0
  6
CONTINUOUS
 62
               4
100
AcDbLine
 10
18.5
 20
-7.7382373046875017
 30
0.0
 11
18.5
 21
-2.7082373046875006
 31
0.0
  0
LINE
  5
B2
100
AcDbEntity
  8
0
  6
CONTINUOUS
 62
               4
100
AcDbLine
 10
0.5
 20
-5.7382373046875017
 30
0.0
 11
0.5
 21
-2.7082373046875006
 31
0.0
  0
LINE
  5
B3
100
AcDbEntity
  8
0
  6
CONTINUOUS
 62
               4
100
AcDbLine
 10
18.5
 20
-49.738237304687487
 30
0.0
 11
18.5
 21
-10.268237304687503
 31
0.0
  0
LINE
  5
B4
100
AcDbEntity
  8
0
  6
CONTINUOUS
 62
               7
100
AcDbLine
 10
0.5
 20
-2.7082373046875006
 30
0.0
 11
0.5
 21
7.4917626953125023
 31
0.0
  0
LINE
  5
B5
100
AcDbEntity
  8
0
  6
CONTINUOUS
 62
               7
100
AcDbLine
 10
18.5
 20
-2.7082373046875006
 30
0.0
 11
18.5
 21
7.4917626953125023
 31
0.0
  0
CIRCLE
  5
B6
100
AcDbEntity
  8
0
  6
CONTINUOUS
 62
               7
100
AcDbCircle
 10
9.4999847412109375
 20
17.691713867187502
 30
0.0
 40
1.9499998092651367
  0
ARC
  5
B7
100
AcDbEntity
  8
0
  6
CONTINUOUS
 62
               7
100
AcDbCircle
 10
0.9999923706636764
 20
-78.008244934023821
 30
0.0
 40
0.4999923707218841
100
AcDbArc
 50
179.9991257291162
 51
270.00087427088374
  0
ARC
  5
B8
100
AcDbEntity
  8
0
  6
CONTINUOUS
 62
               7
100
AcDbCircle
 10
18.000007628870662
 20
-78.00824493355816
 30
0.0
 40
0.4999923711875383
100
AcDbArc
 50
269.99912578247864
 51
0.000874217521336
  0
ARC
  5
B9
100
AcDbEntity
  8
0
  6
CONTINUOUS
 62
               7
100
AcDbCircle
 10
15.501560915392773
 20
10.491399847488204
 30
0.0
 40
2.5019568752709702
100
AcDbArc
 50
191.51933142951913
 51
319.35691242171265
  0
ARC
  5
BA
100
AcDbEntity
  8
0
  6
CONTINUOUS
 62
               4
100
AcDbCircle
 10
5.0500015267194271
 20
53.491761168593079
 30
0.0
 40
0.5000015267217559
100
AcDbArc
 50
90.000174948624888
 51
179.99982505137535
  0
ARC
  5
BB
100
AcDbEntity
  8
0
  6
CONTINUOUS
 62
               4
100
AcDbCircle
 10
13.94998321514344
 20
53.49174591045594
 30
0.0
 40
0.5000167851382832
100
AcDbArc
 50
0.0019233383148808
 51
89.998076661685332
  0
ARC
  5
BC
100
AcDbEntity
  8
0
  6
CONTINUOUS
 62
               4
100
AcDbCircle
 10
16.0
 20
-9.0082373046874977
 30
0.0
 40
3.000000000038805
100
AcDbArc
 50
90.0
 51
270.0
  0
ARC
  5
BD
100
AcDbEntity
  8
0
  6
CONTINUOUS
 62
               4
100
AcDbCircle
 10
3.0
 20
-49.008237304687498
 30
0.0
 40
3.000000000038805
100
AcDbArc
 50
270.0
 51
90.0
  0
ARC
  5
BE
100
AcDbEntity
  8
0
  6
CONTINUOUS
 62
               4
100
AcDbCircle
 10
3.0000076293072198
 20
-7.0082449339947175
 30
0.0
 40
2.9999923707024814
100
AcDbArc
 50
269.99985429059467
 51
0.0001457094053058
  0
CIRCLE
  5
BF
100
AcDbEntity
  8
0
  6
CONTINUOUS
 62
               4
100
AcDbCircle
 10
9.4949999999999974
 20
-19.508297147176123
 30
0.0
 40
8.9965657365078933
  0
CIRCLE
  5
C0
100
AcDbEntity
  8
0
  6
CONTINUOUS
 62
               4
100
AcDbCircle
 10
9.4949999999999974
 20
-38.508299531747213
 30
0.0
 40
9.0053091705349857
  0
CIRCLE
  5
C1
100
AcDbEntity
  8
0
  6
CONTINUOUS
 62
               4
100
AcDbCircle
 10
9.4999847412109375
 20
-19.508298339843748
 30
0.0
 40
5.6799993515014648
  0
CIRCLE
  5
C2
100
AcDbEntity
  8
0
  6
CONTINUOUS
 62
             200
100
AcDbCircle
 10
9.4999847412109375
 20
-19.508298339843748
 30
0.0
 40
6.5
  0
CIRCLE
  5
C3
100
AcDbEntity
  8
0
  6
CONTINUOUS
 62
             200
100
AcDbCircle
 10
9.4999847412109375
 20
-38.508298339843748
 30
0.0
 40
6.5
  0
CIRCLE
  5
C4
100
AcDbEntity
  8
0
  6
CONTINUOUS
 62
               4
100
AcDbCircle
 10
9.4999847412109375
 20
-38.508298339843748
 30
0.0
 40
5.6799993515014648
  0
ARC
  5
C5
100
AcDbEntity
  8
0
  6
CONTINUOUS
 62
               4
100
AcDbCircle
 10
16.000007629481843
 20
-51.00824493416934
 30
0.0
 40
3.0000076294915443
100
AcDbArc
 50
90.000145711999266
 51
179.99985428800076
  0
CIRCLE
  5
C6
100
AcDbEntity
  8
0
  6
CONTINUOUS
 62
               4
100
AcDbCircle
 10
2.9999847412109375
 20
-49.008267822265623
 30
0.0
 40
2.7999992370605469
  0
CIRCLE
  5
C7
100
AcDbEntity
  8
0
  6
CONTINUOUS
 62
               4
100
AcDbCircle
 10
15.999984741210938
 20
-51.00825256347656
 30
0.0
 40
2.7999992370605469
  0
CIRCLE
  5
C8
100
AcDbEntity
  8
0
  6
CONTINUOUS
 62
               4
100
AcDbCircle
 10
15.999984741210938
 20
-9.0082830810546852
 30
0.0
 40
2.7999992370605469
  0
CIRCLE
  5
C9
100
AcDbEntity
  8
0
  6
CONTINUOUS
 62
               4
100
AcDbCircle
 10
2.9999847412109375
 20
-7.0082678222656227
 30
0.0
 40
2.7999992370605469
  0
LINE
  5
CA
100
AcDbEntity
  8
0
  6
CONTINUOUS
 62
               7
100
AcDbLine
 10
14.450000000000003
 20
49.991762695312502
 30
0.0
 11
19.0
 21
49.991762695312502
 31
0.0
  0
ENDBLK
  5
CB
100
AcDbEntity
  8
0
100
AcDbBlockEnd
  0
BLOCK
  5
CC
100
AcDbEntity
  8
0
100
AcDbBlockBegin
  2
F18MP-3
 70
               0
 10
0.0
 20
0.0
 30
0.0
  3
F18MP-3
  1

  0
LINE
  5
CD
100
AcDbEntity
  8
0
  6
CONTINUOUS
 62
               7
100
AcDbLine
 10
61.494240112304681
 20
19.641762695312501
 30
0.0
 11
60.494240112304681
 21
19.641762695312501
 31
0.0
  0
LINE
  5
CE
100
AcDbEntity
  8
0
  6
CONTINUOUS
 62
               7
100
AcDbLine
 10
60.894240112304686
 20
17.391762695312501
 30
0.0
 11
60.894240112304686
 21
17.991762695312502
 31
0.0
  0
LINE
  5
CF
100
AcDbEntity
  8
0
  6
CONTINUOUS
 62
               7
100
AcDbLine
 10
61.494240112304681
 20
17.391762695312501
 30
0.0
 11
60.894240112304686
 21
17.391762695312501
 31
0.0
  0
LINE
  5
D0
100
AcDbEntity
  8
0
  6
CONTINUOUS
 62
               7
100
AcDbLine
 10
61.494240112304681
 20
17.991762695312502
 30
0.0
 11
60.894240112304686
 21
17.991762695312502
 31
0.0
  0
LINE
  5
D1
100
AcDbEntity
  8
0
  6
CONTINUOUS
 62
               7
100
AcDbLine
 10
61.494240112304681
 20
17.991762695312502
 30
0.0
 11
61.494240112304681
 21
19.641762695312501
 31
0.0
  0
LINE
  5
D2
100
AcDbEntity
  8
0
  6
CONTINUOUS
 62
               7
100
AcDbLine
 10
33.494240112304681
 20
20.991762695312502
 30
0.0
 11
60.494240112304681
 21
20.991762695312502
 31
0.0
  0
LINE
  5
D3
100
AcDbEntity
  8
0
  6
CONTINUOUS
 62
               7
100
AcDbLine
 10
60.494240112304681
 20
9.9917626953125023
 30
0.0
 11
60.494240112304681
 21
20.991762695312502
 31
0.0
  0
LINE
  5
D4
100
AcDbEntity
  8
0
  6
CONTINUOUS
 62
               7
100
AcDbLine
 10
33.494240112304681
 20
9.9917626953125023
 30
0.0
 11
33.494240112304681
 21
20.991762695312502
 31
0.0
  0
LINE
  5
D5
100
AcDbEntity
  8
0
  6
CONTINUOUS
 62
               7
100
AcDbLine
 10
64.994240112304681
 20
-64.608237304687492
 30
0.0
 11
64.994240112304681
 21
-58.408237304687503
 31
0.0
  0
LINE
  5
D6
100
AcDbEntity
  8
0
  6
CONTINUOUS
 62
               7
100
AcDbLine
 10
66.994240112304681
 20
-65.508237304687498
 30
0.0
 11
66.994240112304681
 21
-57.508237304687498
 31
0.0
  0
LINE
  5
D7
100
AcDbEntity
  8
0
  6
CONTINUOUS
 62
               7
100
AcDbLine
 10
65.994240112304681
 20
-56.508237304687498
 30
0.0
 11
66.994240112304681
 21
-57.508237304687498
 31
0.0
  0
LINE
  5
D8
100
AcDbEntity
  8
0
  6
CONTINUOUS
 62
               7
100
AcDbLine
 10
65.994240112304681
 20
-66.508237304687498
 30
0.0
 11
66.994240112304681
 21
-65.508237304687498
 31
0.0
  0
LINE
  5
D9
100
AcDbEntity
  8
0
  6
CONTINUOUS
 62
               7
100
AcDbLine
 10
65.794240112304678
 20
-64.608237304687492
 30
0.0
 11
65.794240112304678
 21
-58.408237304687503
 31
0.0
  0
LINE
  5
DA
100
AcDbEntity
  8
0
  6
CONTINUOUS
 62
               7
100
AcDbLine
 10
65.994240112304681
 20
-66.508237304687498
 30
0.0
 11
65.994240112304681
 21
-56.508237304687498
 31
0.0
  0
LINE
  5
DB
100
AcDbEntity
  8
0
  6
CONTINUOUS
 62
               7
100
AcDbLine
 10
64.994240112304681
 20
-64.508237304687498
 30
0.0
 11
62.994240112304681
 21
-64.508237304687498
 31
0.0
  0
LINE
  5
DC
100
AcDbEntity
  8
0
  6
CONTINUOUS
 62
               7
100
AcDbLine
 10
64.994240112304681
 20
-58.508237304687498
 30
0.0
 11
62.994240112304681
 21
-58.508237304687498
 31
0.0
  0
LINE
  5
DD
100
AcDbEntity
  8
0
  6
CONTINUOUS
 62
               7
100
AcDbLine
 10
63.994240112304681
 20
-67.508237304687498
 30
0.0
 11
63.994240112304681
 21
-66.508237304687498
 31
0.0
  0
LINE
  5
DE
100
AcDbEntity
  8
0
  6
CONTINUOUS
 62
               7
100
AcDbLine
 10
62.994240112304681
 20
-67.508237304687498
 30
0.0
 11
62.994240112304681
 21
-64.508237304687498
 31
0.0
  0
LINE
  5
DF
100
AcDbEntity
  8
0
  6
CONTINUOUS
 62
               7
100
AcDbLine
 10
63.994240112304681
 20
-58.508237304687498
 30
0.0
 11
63.994240112304681
 21
-58.408237304687503
 31
0.0
  0
LINE
  5
E0
100
AcDbEntity
  8
0
  6
CONTINUOUS
 62
               7
100
AcDbLine
 10
63.094240112304675
 20
-66.508237304687498
 30
0.0
 11
63.094240112304675
 21
-64.608237304687492
 31
0.0
  0
LINE
  5
E1
100
AcDbEntity
  8
0
  6
CONTINUOUS
 62
               7
100
AcDbLine
 10
65.794240112304678
 20
-58.408237304687503
 30
0.0
 11
63.094240112304675
 21
-58.408237304687503
 31
0.0
  0
LINE
  5
E2
100
AcDbEntity
  8
0
  6
CONTINUOUS
 62
               7
100
AcDbLine
 10
65.794240112304678
 20
-64.608237304687492
 30
0.0
 11
63.094240112304675
 21
-64.608237304687492
 31
0.0
  0
LINE
  5
E3
100
AcDbEntity
  8
0
  6
CONTINUOUS
 62
               7
100
AcDbLine
 10
63.094240112304675
 20
-58.408237304687503
 30
0.0
 11
63.094240112304675
 21
-56.508237304687498
 31
0.0
  0
LINE
  5
E4
100
AcDbEntity
  8
0
  6
CONTINUOUS
 62
               7
100
AcDbLine
 10
65.994240112304681
 20
-66.508237304687498
 30
0.0
 11
63.094240112304675
 21
-66.508237304687498
 31
0.0
  0
LINE
  5
E5
100
AcDbEntity
  8
0
  6
CONTINUOUS
 62
               7
100
AcDbLine
 10
65.994240112304681
 20
-56.508237304687498
 30
0.0
 11
63.094240112304675
 21
-56.508237304687498
 31
0.0
  0
LINE
  5
E6
100
AcDbEntity
  8
0
  6
CONTINUOUS
 62
               7
100
AcDbLine
 10
64.994240112304681
 20
-56.508237304687498
 30
0.0
 11
64.994240112304681
 21
-55.508237304687498
 31
0.0
  0
LINE
  5
E7
100
AcDbEntity
  8
0
  6
CONTINUOUS
 62
               7
100
AcDbLine
 10
63.994240112304681
 20
-64.608237304687492
 30
0.0
 11
63.994240112304681
 21
-64.508237304687498
 31
0.0
  0
LINE
  5
E8
100
AcDbEntity
  8
0
  6
CONTINUOUS
 62
               7
100
AcDbLine
 10
63.994240112304681
 20
-56.508237304687498
 30
0.0
 11
63.994240112304681
 21
-55.508237304687498
 31
0.0
  0
LINE
  5
E9
100
AcDbEntity
  8
0
  6
CONTINUOUS
 62
               7
100
AcDbLine
 10
62.994240112304681
 20
7.4917626953125023
 30
0.0
 11
30.994240112304681
 21
7.4917626953125023
 31
0.0
  0
LINE
  5
EA
100
AcDbEntity
  8
0
  6
CONTINUOUS
 62
               7
100
AcDbLine
 10
63.194240112304684
 20
-78.508237304687498
 30
0.0
 11
63.194240112304684
 21
-76.008237304687498
 31
0.0
  0
LINE
  5
EB
100
AcDbEntity
  8
0
  6
CONTINUOUS
 62
               7
100
AcDbLine
 10
56.794240112304678
 20
-78.508237304687498
 30
0.0
 11
56.794240112304678
 21
-76.008237304687498
 31
0.0
  0
LINE
  5
EC
100
AcDbEntity
  8
0
  6
CONTINUOUS
 62
               7
100
AcDbLine
 10
63.194240112304684
 20
-76.008237304687498
 30
0.0
 11
56.794240112304678
 21
-76.008237304687498
 31
0.0
  0
LINE
  5
ED
100
AcDbEntity
  8
0
  6
CONTINUOUS
 62
               7
100
AcDbLine
 10
61.244240112304681
 20
-78.008237304687498
 30
0.0
 11
58.744240112304681
 21
-78.008237304687498
 31
0.0
  0
LINE
  5
EE
100
AcDbEntity
  8
0
  6
CONTINUOUS
 62
               7
100
AcDbLine
 10
62.744240112304681
 20
-76.508237304687498
 30
0.0
 11
62.744240112304681
 21
-76.008237304687498
 31
0.0
  0
LINE
  5
EF
100
AcDbEntity
  8
0
  6
CONTINUOUS
 62
               7
100
AcDbLine
 10
57.244240112304681
 20
-76.508237304687498
 30
0.0
 11
57.244240112304681
 21
-76.008237304687498
 31
0.0
  0
LINE
  5
F0
100
AcDbEntity
  8
0
  6
CONTINUOUS
 62
               7
100
AcDbLine
 10
60.994240112304681
 20
9.9917626953125023
 30
0.0
 11
32.994240112304681
 21
9.9917626953125023
 31
0.0
  0
LINE
  5
F1
100
AcDbEntity
  8
0
  6
CONTINUOUS
 62
               7
100
AcDbLine
 10
30.994240112304681
 20
7.4917626953125023
 30
0.0
 11
32.994240112304681
 21
9.9917626953125023
 31
0.0
  0
LINE
  5
F2
100
AcDbEntity
  8
0
  6
CONTINUOUS
 62
               7
100
AcDbLine
 10
60.994240112304681
 20
9.9917626953125023
 30
0.0
 11
62.994240112304681
 21
7.4917626953125023
 31
0.0
  0
LINE
  5
F3
100
AcDbEntity
  8
0
  6
CONTINUOUS
 62
               7
100
AcDbLine
 10
62.994240112304681
 20
-2.5082373046874977
 30
0.0
 11
30.994240112304681
 21
-2.5082373046874977
 31
0.0
  0
LINE
  5
F4
100
AcDbEntity
  8
0
  6
CONTINUOUS
 62
               7
100
AcDbLine
 10
62.994240112304681
 20
-58.508237304687498
 30
0.0
 11
62.994240112304681
 21
7.4917626953125023
 31
0.0
  0
LINE
  5
F5
100
AcDbEntity
  8
0
  6
CONTINUOUS
 62
               7
100
AcDbLine
 10
64.994240112304681
 20
-55.508237304687498
 30
0.0
 11
30.994240112304681
 21
-55.508237304687498
 31
0.0
  0
LINE
  5
F6
100
AcDbEntity
  8
0
  6
CONTINUOUS
 62
               7
100
AcDbLine
 10
64.994240112304681
 20
-67.508237304687498
 30
0.0
 11
30.994240112304681
 21
-67.508237304687498
 31
0.0
  0
LINE
  5
F7
100
AcDbEntity
  8
0
  6
CONTINUOUS
 62
               7
100
AcDbLine
 10
64.994240112304681
 20
-78.008237304687498
 30
0.0
 11
64.994240112304681
 21
-66.508237304687498
 31
0.0
  0
LINE
  5
F8
100
AcDbEntity
  8
0
  6
CONTINUOUS
 62
               7
100
AcDbLine
 10
64.494240112304681
 20
-78.508237304687498
 30
0.0
 11
31.494240112304681
 21
-78.508237304687498
 31
0.0
  0
LINE
  5
F9
100
AcDbEntity
  8
0
  6
CONTINUOUS
 62
               2
100
AcDbLine
 10
62.494240112304681
 20
17.691762695312505
 30
0.0
 11
59.794240112304678
 21
17.691762695312505
 31
0.0
  0
LINE
  5
FA
100
AcDbEntity
  8
0
  6
CONTINUOUS
 62
               7
100
AcDbLine
 10
61.494240112304681
 20
15.741762695312502
 30
0.0
 11
61.494240112304681
 21
17.391762695312501
 31
0.0
  0
LINE
  5
FB
100
AcDbEntity
  8
0
  6
CONTINUOUS
 62
               7
100
AcDbLine
 10
61.494240112304681
 20
15.741762695312502
 30
0.0
 11
60.494240112304681
 21
15.741762695312502
 31
0.0
  0
LINE
  5
FC
100
AcDbEntity
  8
0
  6
CONTINUOUS
 62
               7
100
AcDbLine
 10
30.994240112304681
 20
-73.008237304687498
 30
0.0
 11
30.994240112304681
 21
-78.008237304687498
 31
0.0
  0
ARC
  5
FD
100
AcDbEntity
  8
0
  6
CONTINUOUS
 62
               7
100
AcDbCircle
 10
31.494224853748449
 20
-78.00825256324373
 30
0.0
 40
0.4999847416765988
100
AcDbArc
 50
179.99825144489262
 51
270.00174855510738
  0
ARC
  5
FE
100
AcDbEntity
  8
0
  6
CONTINUOUS
 62
               7
100
AcDbCircle
 10
64.494255370860913
 20
-78.00825256324373
 30
0.0
 40
0.4999847416765988
100
AcDbArc
 50
269.99825144489256
 51
0.0017485551073899
  0
ARC
  5
FF
100
AcDbEntity
  8
0
  6
CONTINUOUS
 62
               7
100
AcDbCircle
 10
58.744209595037006
 20
-76.508267821955201
 30
0.0
 40
1.4999694830427566
100
AcDbArc
 50
179.99883430252368
 51
270.00116569747604
  0
ARC
  5
100
100
AcDbEntity
  8
0
  6
CONTINUOUS
 62
               7
100
AcDbCircle
 10
61.244270629572355
 20
-76.508267821955201
 30
0.0
 40
1.4999694830427566
100
AcDbArc
 50
269.9988343025239
 51
0.0011656974763557
  0
ARC
  5
101
100
AcDbEntity
  8
0
  6
CONTINUOUS
 62
               7
100
AcDbCircle
 10
33.987398073009274
 20
10.490032120570916
 30
0.0
 40
2.4970599483013167
100
AcDbArc
 50
220.69820282105132
 51
348.48979677411893
  0
LINE
  5
102
100
AcDbEntity
  8
0
  6
CONTINUOUS
 62
               4
100
AcDbLine
 10
60.494240112304681
 20
44.991762609049459
 30
0.0
 11
60.494240112304681
 21
20.991762609049459
 31
0.0
  0
LINE
  5
103
100
AcDbEntity
  8
0
  6
CONTINUOUS
 62
               4
100
AcDbLine
 10
33.494240112304681
 20
37.991762609049459
 30
0.0
 11
33.494240112304681
 21
20.99176769531249
 31
0.0
  0
LINE
  5
104
100
AcDbEntity
  8
0
  6
CONTINUOUS
 62
               4
100
AcDbLine
 10
34.894240112304658
 20
37.991762609049459
 30
0.0
 11
34.894240112304658
 21
46.491762604757923
 31
0.0
  0
LINE
  5
105
100
AcDbEntity
  8
0
  6
CONTINUOUS
 62
               4
100
AcDbLine
 10
30.994240112304681
 20
46.491762609049459
 30
0.0
 11
34.894240112304658
 21
46.491762609049459
 31
0.0
  0
LINE
  5
106
100
AcDbEntity
  8
0
  6
CONTINUOUS
 62
               4
100
AcDbLine
 10
30.994240112304681
 20
37.991762609049459
 30
0.0
 11
34.894240112304658
 21
37.991762609049459
 31
0.0
  0
LINE
  5
107
100
AcDbEntity
  8
0
  6
CONTINUOUS
 62
               4
100
AcDbLine
 10
60.494240112304681
 20
44.991762609049459
 30
0.0
 11
34.894240112304658
 21
44.991762609049459
 31
0.0
  0
LINE
  5
108
100
AcDbEntity
  8
0
  6
CONTINUOUS
 62
               4
100
AcDbLine
 10
34.994240112304681
 20
46.591762609049454
 30
0.0
 11
30.994240112304681
 21
46.591762609049454
 31
0.0
  0
ARC
  5
109
100
AcDbEntity
  8
0
  6
CONTINUOUS
 62
               4
100
AcDbCircle
 10
30.992699662286384
 20
53.493303059067728
 30
0.0
 40
0.4984619302958243
100
AcDbArc
 50
89.822932465398097
 51
180.17706753460234
  0
LINE
  5
10A
100
AcDbEntity
  8
0
  6
CONTINUOUS
 62
               4
100
AcDbLine
 10
30.494240112304681
 20
53.491762609049459
 30
0.0
 11
30.494240112304681
 21
49.991762609049459
 31
0.0
  0
LINE
  5
10B
100
AcDbEntity
  8
0
  6
CONTINUOUS
 62
               4
100
AcDbLine
 10
34.994240112304681
 20
46.591762609049454
 30
0.0
 11
34.994240112304681
 21
44.991762609049459
 31
0.0
  0
ARC
  5
10C
100
AcDbEntity
  8
0
  6
CONTINUOUS
 62
               4
100
AcDbCircle
 10
58.99536406061857
 20
49.171157011166486
 30
0.0
 40
1.4988865337462252
100
AcDbArc
 50
0.2142776266259147
 51
24.039904443234679
  0
ARC
  5
10D
100
AcDbEntity
  8
0
  6
CONTINUOUS
 62
               4
100
AcDbCircle
 10
58.169927976179181
 20
53.494433721127052
 30
0.0
 40
0.4973293636201366
100
AcDbArc
 50
24.005903588636848
 51
90.079246697133883
  0
LINE
  5
10E
100
AcDbEntity
  8
0
  6
CONTINUOUS
 62
               4
100
AcDbLine
 10
58.624240112304676
 20
53.696762609049443
 30
0.0
 11
60.364240112304685
 21
49.781762609049451
 31
0.0
  0
LINE
  5
10F
100
AcDbEntity
  8
0
  6
CONTINUOUS
 62
               4
100
AcDbLine
 10
58.169240112304678
 20
53.991762609049459
 30
0.0
 11
30.991159212271384
 21
53.991762609049459
 31
0.0
  0
LINE
  5
110
100
AcDbEntity
  8
0
  6
CONTINUOUS
 62
               4
100
AcDbLine
 10
60.494240112304681
 20
49.176762609049433
 30
0.0
 11
60.494240112304681
 21
44.991762609049459
 31
0.0
  0
LINE
  5
111
100
AcDbEntity
  8
0
  6
CONTINUOUS
 62
               4
100
AcDbLine
 10
67.994240112304681
 20
-38.508237304687498
 30
0.0
 11
69.994240112304681
 21
-38.508237304687498
 31
0.0
  0
LINE
  5
112
100
AcDbEntity
  8
0
  6
CONTINUOUS
 62
               4
100
AcDbLine
 10
67.994240112304681
 20
-19.508237304687498
 30
0.0
 11
69.994240112304681
 21
-19.508237304687498
 31
0.0
  0
LINE
  5
113
100
AcDbEntity
  8
0
  6
CONTINUOUS
 62
               4
100
AcDbLine
 10
67.994240112304681
 20
-5.7582640075683571
 30
0.0
 11
67.994240112304681
 21
-8.2582640075683571
 31
0.0
  0
LINE
  5
114
100
AcDbEntity
  8
0
  6
CONTINUOUS
 62
               4
100
AcDbLine
 10
67.994240112304681
 20
-38.508237304687498
 30
0.0
 11
67.994240112304681
 21
-19.508237304687498
 31
0.0
  0
LINE
  5
115
100
AcDbEntity
  8
0
  6
CONTINUOUS
 62
               4
100
AcDbLine
 10
69.994240112304681
 20
-19.508237304687498
 30
0.0
 11
69.994240112304681
 21
-4.7082456970214821
 31
0.0
  0
ARC
  5
116
100
AcDbEntity
  8
0
  6
CONTINUOUS
 62
               4
100
AcDbCircle
 10
74.494255371093743
 20
-30.008237304687498
 30
0.0
 40
0.5
100
AcDbArc
 50
0.0
 51
90.0
  0
ARC
  5
117
100
AcDbEntity
  8
0
  6
CONTINUOUS
 62
               4
100
AcDbCircle
 10
74.494255371093743
 20
-28.008237304687498
 30
0.0
 40
0.5
100
AcDbArc
 50
270.0
 51
0.0
  0
LINE
  5
118
100
AcDbEntity
  8
0
  6
CONTINUOUS
 62
               4
100
AcDbLine
 10
74.994255371093743
 20
-28.008237304687498
 30
0.0
 11
74.994255371093743
 21
-11.008248748779295
 31
0.0
  0
LINE
  5
119
100
AcDbEntity
  8
0
  6
CONTINUOUS
 62
               4
100
AcDbLine
 10
67.994240112304681
 20
-29.508237304687498
 30
0.0
 11
74.494255371093743
 21
-29.508237304687498
 31
0.0
  0
LINE
  5
11A
100
AcDbEntity
  8
0
  6
CONTINUOUS
 62
               4
100
AcDbLine
 10
67.994240112304681
 20
-28.508237304687498
 30
0.0
 11
74.494255371093743
 21
-28.508237304687498
 31
0.0
  0
LINE
  5
11B
100
AcDbEntity
  8
0
  6
CONTINUOUS
 62
               4
100
AcDbLine
 10
63.694237060546868
 20
-46.058236541748059
 30
0.0
 11
62.994240112304681
 21
-46.058236541748059
 31
0.0
  0
LINE
  5
11C
100
AcDbEntity
  8
0
  6
CONTINUOUS
 62
               4
100
AcDbLine
 10
63.694237060546868
 20
-51.958230438232434
 30
0.0
 11
62.994240112304681
 21
-51.958230438232434
 31
0.0
  0
LINE
  5
11D
100
AcDbEntity
  8
0
  6
CONTINUOUS
 62
               4
100
AcDbLine
 10
63.694237060546868
 20
-51.958230438232434
 30
0.0
 11
63.694237060546868
 21
-46.058236541748059
 31
0.0
  0
ARC
  5
11E
100
AcDbEntity
  8
0
  6
CONTINUOUS
 62
               4
100
AcDbCircle
 10
64.194221801757806
 20
-47.758248748779295
 30
0.0
 40
1.5
100
AcDbArc
 50
0.0000179860890374
 51
89.999982013910653
  0
ARC
  5
11F
100
AcDbEntity
  8
0
  6
CONTINUOUS
 62
               4
100
AcDbCircle
 10
64.194221801757806
 20
-50.258233489990232
 30
0.0
 40
1.5
100
AcDbArc
 50
269.9999087030626
 51
359.99994604173287
  0
LINE
  5
120
100
AcDbEntity
  8
0
  6
CONTINUOUS
 62
               4
100
AcDbLine
 10
64.194237060546868
 20
-51.758218231201184
 30
0.0
 11
63.694237060546868
 21
-51.758218231201184
 31
0.0
  0
LINE
  5
121
100
AcDbEntity
  8
0
  6
CONTINUOUS
 62
               4
100
AcDbLine
 10
64.194237060546868
 20
-46.258233489990246
 30
0.0
 11
63.694237060546868
 21
-46.258233489990246
 31
0.0
  0
LINE
  5
122
100
AcDbEntity
  8
0
  6
CONTINUOUS
 62
               4
100
AcDbLine
 10
65.694221801757806
 20
-47.758233489990246
 30
0.0
 11
65.694221801757806
 21
-50.258233489990246
 31
0.0
  0
ARC
  5
123
100
AcDbEntity
  8
0
  6
CONTINUOUS
 62
               4
100
AcDbCircle
 10
66.494240112304681
 20
-8.2582640075683571
 30
0.0
 40
1.5
100
AcDbArc
 50
270.00001798608935
 51
0.0
  0
ARC
  5
124
100
AcDbEntity
  8
0
  6
CONTINUOUS
 62
               4
100
AcDbCircle
 10
66.494240112304681
 20
-5.7582640075683571
 30
0.0
 40
1.5
100
AcDbArc
 50
0.0
 51
89.999982013910653
  0
ARC
  5
125
100
AcDbEntity
  8
0
  6
CONTINUOUS
 62
               4
100
AcDbCircle
 10
74.494255371093743
 20
-47.008233489990232
 30
0.0
 40
0.5
100
AcDbArc
 50
269.99996334457597
 51
0.0
  0
ARC
  5
126
100
AcDbEntity
  8
0
  6
CONTINUOUS
 62
               4
100
AcDbCircle
 10
74.494255371093743
 20
-11.008248748779295
 30
0.0
 40
0.5
100
AcDbArc
 50
0.0
 51
89.999982013910653
  0
LINE
  5
127
100
AcDbEntity
  8
0
  6
CONTINUOUS
 62
               4
100
AcDbLine
 10
66.494240112304681
 20
-4.2582640075683571
 30
0.0
 11
65.994240112304681
 21
-4.2582640075683571
 31
0.0
  0
LINE
  5
128
100
AcDbEntity
  8
0
  6
CONTINUOUS
 62
               4
100
AcDbLine
 10
66.494240112304681
 20
-9.7582640075683571
 30
0.0
 11
65.994240112304681
 21
-9.7582640075683571
 31
0.0
  0
LINE
  5
129
100
AcDbEntity
  8
0
  6
CONTINUOUS
 62
               4
100
AcDbLine
 10
65.994240112304681
 20
-10.008248748779295
 30
0.0
 11
65.994240112304681
 21
-2.7082456970214821
 31
0.0
  0
LINE
  5
12A
100
AcDbEntity
  8
0
  6
CONTINUOUS
 62
               4
100
AcDbLine
 10
69.994240112304681
 20
-52.008233489990232
 30
0.0
 11
62.994240112304681
 21
-52.008233489990232
 31
0.0
  0
LINE
  5
12B
100
AcDbEntity
  8
0
  6
CONTINUOUS
 62
               4
100
AcDbLine
 10
69.994240112304681
 20
-46.008233489990232
 30
0.0
 11
62.994240112304681
 21
-46.008233489990232
 31
0.0
  0
LINE
  5
12C
100
AcDbEntity
  8
0
  6
CONTINUOUS
 62
               4
100
AcDbLine
 10
69.994240112304681
 20
-10.008248748779295
 30
0.0
 11
65.994240112304681
 21
-10.008248748779295
 31
0.0
  0
LINE
  5
12D
100
AcDbEntity
  8
0
  6
CONTINUOUS
 62
               4
100
AcDbLine
 10
69.994229901238498
 20
-53.308221649301629
 30
0.0
 11
67.994213110931298
 21
-55.308230684538501
 31
0.0
  0
LINE
  5
12E
100
AcDbEntity
  8
0
  6
CONTINUOUS
 62
               4
100
AcDbLine
 10
69.994243666707291
 20
-4.7082194265807971
 30
0.0
 11
67.994258233654648
 21
-2.7082220238748391
 31
0.0
  0
LINE
  5
12F
100
AcDbEntity
  8
0
  6
CONTINUOUS
 62
               4
100
AcDbLine
 10
67.994258233654648
 20
-2.7082456970214821
 30
0.0
 11
62.994240112304681
 21
-2.7082456970214821
 31
0.0
  0
LINE
  5
130
100
AcDbEntity
  8
0
  6
CONTINUOUS
 62
               4
100
AcDbLine
 10
67.994222512547282
 20
-55.308221282958982
 30
0.0
 11
62.994240112304681
 21
-55.308221282958982
 31
0.0
  0
LINE
  5
131
100
AcDbEntity
  8
0
  6
CONTINUOUS
 62
               4
100
AcDbLine
 10
69.994240112304681
 20
-53.308221282958982
 30
0.0
 11
69.994240112304681
 21
-38.508237304687498
 31
0.0
  0
LINE
  5
132
100
AcDbEntity
  8
0
  6
CONTINUOUS
 62
             200
100
AcDbLine
 10
76.779884643554681
 20
-19.508237304687498
 30
0.0
 11
66.091652221679681
 21
-19.508237304687498
 31
0.0
  0
LINE
  5
133
100
AcDbEntity
  8
0
  6
CONTINUOUS
 62
             200
100
AcDbLine
 10
76.779884643554681
 20
-38.508237304687498
 30
0.0
 11
66.091652221679681
 21
-38.508237304687498
 31
0.0
  0
LINE
  5
134
100
AcDbEntity
  8
0
  6
CONTINUOUS
 62
               4
100
AcDbLine
 10
74.494255371093743
 20
-47.508233489990232
 30
0.0
 11
69.994240112304681
 21
-47.508233489990232
 31
0.0
  0
LINE
  5
135
100
AcDbEntity
  8
0
  6
CONTINUOUS
 62
               4
100
AcDbLine
 10
74.494255371093743
 20
-10.508248748779295
 30
0.0
 11
69.994240112304681
 21
-10.508248748779295
 31
0.0
  0
LINE
  5
136
100
AcDbEntity
  8
0
  6
CONTINUOUS
 62
               4
100
AcDbLine
 10
74.994255371093743
 20
-47.008233489990232
 30
0.0
 11
74.994255371093743
 21
-30.008237304687498
 31
0.0
  0
ENDBLK
  5
137
100
AcDbEntity
  8
0
100
AcDbBlockEnd
  0
BLOCK
  5
138
100
AcDbEntity
  8
0
100
AcDbBlockBegin
  2
F18MP-4
 70
               0
 10
0.0
 20
0.0
 30
0.0
  3
F18MP-4
  1

  0
LINE
  5
139
100
AcDbEntity
  8
0
  6
CONTINUOUS
 62
               7
100
AcDbLine
 10
0.0
 20
31.0
 30
0.0
 11
19.0
 21
31.0
 31
0.0
  0
LINE
  5
13A
100
AcDbEntity
  8
0
  6
CONTINUOUS
 62
               7
100
AcDbLine
 10
0.0
 20
31.0
 30
0.0
 11
0.0
 21
-22.0
 31
0.0
  0
LINE
  5
13B
100
AcDbEntity
  8
0
  6
CONTINUOUS
 62
               7
100
AcDbLine
 10
19.0
 20
31.0
 30
0.0
 11
19.0
 21
-22.0
 31
0.0
  0
LINE
  5
13C
100
AcDbEntity
  8
0
  6
CONTINUOUS
 62
               7
100
AcDbLine
 10
3.5
 20
57.0
 30
0.0
 11
0.5
 21
57.0
 31
0.0
  0
LINE
  5
13D
100
AcDbEntity
  8
0
  6
CONTINUOUS
 62
               2
100
AcDbLine
 10
9.5
 20
67.0
 30
0.0
 11
9.5
 21
-23.0
 31
0.0
  0
LINE
  5
13E
100
AcDbEntity
  8
0
  6
CONTINUOUS
 62
               7
100
AcDbLine
 10
0.5
 20
64.5
 30
0.0
 11
0.5
 21
31.0
 31
0.0
  0
LINE
  5
13F
100
AcDbEntity
  8
0
  6
CONTINUOUS
 62
               7
100
AcDbLine
 10
18.0
 20
65.0
 30
0.0
 11
1.0
 21
65.0
 31
0.0
  0
LINE
  5
140
100
AcDbEntity
  8
0
  6
CONTINUOUS
 62
               7
100
AcDbLine
 10
16.0
 20
67.0
 30
0.0
 11
3.0
 21
67.0
 31
0.0
  0
LINE
  5
141
100
AcDbEntity
  8
0
  6
CONTINUOUS
 62
               7
100
AcDbLine
 10
17.0
 20
66.0
 30
0.0
 11
17.0
 21
65.0
 31
0.0
  0
LINE
  5
142
100
AcDbEntity
  8
0
  6
CONTINUOUS
 62
               7
100
AcDbLine
 10
2.0
 20
66.0
 30
0.0
 11
2.0
 21
65.0
 31
0.0
  0
LINE
  5
143
100
AcDbEntity
  8
0
  6
CONTINUOUS
 62
               7
100
AcDbLine
 10
17.0
 20
66.0
 30
0.0
 11
16.0
 21
67.0
 31
0.0
  0
LINE
  5
144
100
AcDbEntity
  8
0
  6
CONTINUOUS
 62
               7
100
AcDbLine
 10
3.0
 20
67.0
 30
0.0
 11
2.0
 21
66.0
 31
0.0
  0
LINE
  5
145
100
AcDbEntity
  8
0
  6
CONTINUOUS
 62
               7
100
AcDbLine
 10
4.5600000000000023
 20
58.930000000000007
 30
0.0
 11
2.4299999999999997
 21
61.060000000000002
 31
0.0
  0
LINE
  5
146
100
AcDbEntity
  8
0
  6
CONTINUOUS
 62
               7
100
AcDbLine
 10
2.4399999999999977
 20
58.930000000000007
 30
0.0
 11
4.5600000000000023
 21
61.060000000000002
 31
0.0
  0
LINE
  5
147
100
AcDbEntity
  8
0
  6
CONTINUOUS
 62
               7
100
AcDbLine
 10
15.5
 20
37.0
 30
0.0
 11
18.5
 21
37.0
 31
0.0
  0
LINE
  5
148
100
AcDbEntity
  8
0
  6
CONTINUOUS
 62
               7
100
AcDbLine
 10
12.5
 20
34.0
 30
0.0
 11
12.5
 21
31.0
 31
0.0
  0
LINE
  5
149
100
AcDbEntity
  8
0
  6
CONTINUOUS
 62
               7
100
AcDbLine
 10
16.560000000000002
 20
35.060000000000002
 30
0.0
 11
14.439999999999998
 21
32.930000000000007
 31
0.0
  0
LINE
  5
14A
100
AcDbEntity
  8
0
  6
CONTINUOUS
 62
               7
100
AcDbLine
 10
14.43
 20
35.060000000000002
 30
0.0
 11
16.560000000000002
 21
32.930000000000007
 31
0.0
  0
LINE
  5
14B
100
AcDbEntity
  8
0
  6
CONTINUOUS
 62
               7
100
AcDbLine
 10
3.5
 20
63.0
 30
0.0
 11
0.5
 21
63.0
 31
0.0
  0
LINE
  5
14C
100
AcDbEntity
  8
0
  6
CONTINUOUS
 62
               7
100
AcDbLine
 10
19.0
 20
-22.0
 30
0.0
 11
0.0
 21
-22.0
 31
0.0
  0
LINE
  5
14D
100
AcDbEntity
  8
0
  6
CONTINUOUS
 62
               7
100
AcDbLine
 10
16.0
 20
-14.5
 30
0.0
 11
18.5
 21
-14.5
 31
0.0
  0
LINE
  5
14E
100
AcDbEntity
  8
0
  6
CONTINUOUS
 62
               7
100
AcDbLine
 10
13.0
 20
-17.5
 30
0.0
 11
13.0
 21
-21.800000000000011
 31
0.0
  0
LINE
  5
14F
100
AcDbEntity
  8
0
  6
CONTINUOUS
 62
               7
100
AcDbLine
 10
0.5
 20
-19.800000000000011
 30
0.0
 11
13.0
 21
-19.800000000000011
 31
0.0
  0
LINE
  5
150
100
AcDbEntity
  8
0
  6
CONTINUOUS
 62
               7
100
AcDbLine
 10
14.939999999999998
 20
-18.560000000000002
 30
0.0
 11
17.060000000000002
 21
-16.430000000000007
 31
0.0
  0
LINE
  5
151
100
AcDbEntity
  8
0
  6
CONTINUOUS
 62
               7
100
AcDbLine
 10
17.060000000000002
 20
-18.560000000000002
 30
0.0
 11
14.939999999999998
 21
-16.430000000000007
 31
0.0
  0
LINE
  5
152
100
AcDbEntity
  8
0
  6
CONTINUOUS
 62
               7
100
AcDbLine
 10
0.5
 20
-21.800000000000011
 30
0.0
 11
18.5
 21
-21.800000000000011
 31
0.0
  0
LINE
  5
153
100
AcDbEntity
  8
0
  6
CONTINUOUS
 62
               7
100
AcDbLine
 10
18.5
 20
-21.800000000000011
 30
0.0
 11
18.5
 21
-18.639999999999986
 31
0.0
  0
LINE
  5
154
100
AcDbEntity
  8
0
  6
CONTINUOUS
 62
               7
100
AcDbLine
 10
18.5
 20
-16.350000000000023
 30
0.0
 11
18.5
 21
21.5
 31
0.0
  0
LINE
  5
155
100
AcDbEntity
  8
0
  6
CONTINUOUS
 62
               7
100
AcDbLine
 10
0.5
 20
-21.800000000000011
 30
0.0
 11
0.5
 21
-18.5
 31
0.0
  0
LINE
  5
156
100
AcDbEntity
  8
0
  6
CONTINUOUS
 62
               7
100
AcDbLine
 10
0.5
 20
-18.5
 30
0.0
 11
3.0
 21
-18.5
 31
0.0
  0
LINE
  5
157
100
AcDbEntity
  8
0
  6
CONTINUOUS
 62
               7
100
AcDbLine
 10
0.5
 20
-12.5
 30
0.0
 11
3.0
 21
-12.5
 31
0.0
  0
LINE
  5
158
100
AcDbEntity
  8
0
  6
CONTINUOUS
 62
               7
100
AcDbLine
 10
0.5
 20
-12.5
 30
0.0
 11
0.5
 21
25.349999999999994
 31
0.0
  0
LINE
  5
159
100
AcDbEntity
  8
0
  6
CONTINUOUS
 62
               7
100
AcDbLine
 10
0.5
 20
27.639999999999986
 30
0.0
 11
0.5
 21
30.800000000000011
 31
0.0
  0
LINE
  5
15A
100
AcDbEntity
  8
0
  6
CONTINUOUS
 62
               7
100
AcDbLine
 10
4.0600000000000023
 20
25.430000000000007
 30
0.0
 11
1.9299999999999997
 21
27.560000000000002
 31
0.0
  0
LINE
  5
15B
100
AcDbEntity
  8
0
  6
CONTINUOUS
 62
               7
100
AcDbLine
 10
1.9299999999999997
 20
25.430000000000007
 30
0.0
 11
4.0600000000000023
 21
27.560000000000002
 31
0.0
  0
LINE
  5
15C
100
AcDbEntity
  8
0
  6
CONTINUOUS
 62
               7
100
AcDbLine
 10
6.0
 20
26.5
 30
0.0
 11
6.0
 21
30.800000000000011
 31
0.0
  0
LINE
  5
15D
100
AcDbEntity
  8
0
  6
CONTINUOUS
 62
               7
100
AcDbLine
 10
3.0
 20
23.5
 30
0.0
 11
0.5
 21
23.5
 31
0.0
  0
LINE
  5
15E
100
AcDbEntity
  8
0
  6
CONTINUOUS
 62
               7
100
AcDbLine
 10
6.0
 20
28.800000000000011
 30
0.0
 11
18.5
 21
28.800000000000011
 31
0.0
  0
LINE
  5
15F
100
AcDbEntity
  8
0
  6
CONTINUOUS
 62
               7
100
AcDbLine
 10
16.0
 20
27.5
 30
0.0
 11
18.5
 21
27.5
 31
0.0
  0
LINE
  5
160
100
AcDbEntity
  8
0
  6
CONTINUOUS
 62
               7
100
AcDbLine
 10
16.0
 20
21.5
 30
0.0
 11
18.5
 21
21.5
 31
0.0
  0
LINE
  5
161
100
AcDbEntity
  8
0
  6
CONTINUOUS
 62
               7
100
AcDbLine
 10
18.5
 20
27.5
 30
0.0
 11
18.5
 21
30.800000000000011
 31
0.0
  0
LINE
  5
162
100
AcDbEntity
  8
0
  6
CONTINUOUS
 62
               7
100
AcDbLine
 10
0.5
 20
30.800000000000011
 30
0.0
 11
18.5
 21
30.800000000000011
 31
0.0
  0
LINE
  5
163
100
AcDbEntity
  8
0
  6
CONTINUOUS
 62
               7
100
AcDbLine
 10
2.0
 20
66.0
 30
0.0
 11
17.0
 21
66.0
 31
0.0
  0
LINE
  5
164
100
AcDbEntity
  8
0
  6
CONTINUOUS
 62
               4
100
AcDbLine
 10
17.25
 20
68.0
 30
0.0
 11
14.75
 21
68.0
 31
0.0
  0
LINE
  5
165
100
AcDbEntity
  8
0
  6
CONTINUOUS
 62
               4
100
AcDbLine
 10
18.75
 20
66.5
 30
0.0
 11
18.75
 21
66.0
 31
0.0
  0
LINE
  5
166
100
AcDbEntity
  8
0
  6
CONTINUOUS
 62
               4
100
AcDbLine
 10
18.75
 20
66.0
 30
0.0
 11
17.0
 21
66.0
 31
0.0
  0
LINE
  5
167
100
AcDbEntity
  8
0
  6
CONTINUOUS
 62
               4
100
AcDbLine
 10
18.5
 20
70.0
 30
0.0
 11
0.5
 21
70.0
 31
0.0
  0
LINE
  5
168
100
AcDbEntity
  8
0
  6
CONTINUOUS
 62
               4
100
AcDbLine
 10
18.0
 20
75.0
 30
0.0
 11
1.0
 21
75.0
 31
0.0
  0
LINE
  5
169
100
AcDbEntity
  8
0
  6
CONTINUOUS
 62
               4
100
AcDbLine
 10
18.5
 20
64.5
 30
0.0
 11
18.5
 21
66.0
 31
0.0
  0
LINE
  5
16A
100
AcDbEntity
  8
0
  6
CONTINUOUS
 62
               4
100
AcDbLine
 10
0.5
 20
64.5
 30
0.0
 11
0.5
 21
74.5
 31
0.0
  0
LINE
  5
16B
100
AcDbEntity
  8
0
  6
CONTINUOUS
 62
               4
100
AcDbLine
 10
13.0
 20
67.0
 30
0.0
 11
13.0
 21
70.0
 31
0.0
  0
LINE
  5
16C
100
AcDbEntity
  8
0
  6
CONTINUOUS
 62
               4
100
AcDbLine
 10
18.5
 20
67.319999999999993
 30
0.0
 11
18.5
 21
74.5
 31
0.0
  0
LINE
  5
16D
100
AcDbEntity
  8
0
  6
CONTINUOUS
 62
             200
100
AcDbLine
 10
9.5
 20
67.0
 30
0.0
 11
9.5
 21
82.050000000000011
 31
0.0
  0
LINE
  5
16E
100
AcDbEntity
  8
0
  6
CONTINUOUS
 62
               7
100
AcDbLine
 10
18.5
 20
64.5
 30
0.0
 11
18.5
 21
31.0
 31
0.0
  0
LINE
  5
16F
100
AcDbEntity
  8
0
  6
CONTINUOUS
 62
               4
100
AcDbLine
 10
2.0
 20
66.0
 30
0.0
 11
0.5
 21
66.0
 31
0.0
  0
ARC
  5
170
100
AcDbEntity
  8
0
  6
CONTINUOUS
 62
               7
100
AcDbCircle
 10
3.5
 20
60.0
 30
0.0
 40
3.0000000013969839
100
AcDbArc
 50
270.0
 51
90.0
  0
ARC
  5
171
100
AcDbEntity
  8
0
  6
CONTINUOUS
 62
               7
100
AcDbCircle
 10
18.000045774271712
 20
64.500045774271712
 30
0.0
 40
0.499954227823764
100
AcDbArc
 50
359.99475417460826
 51
90.005245825391754
  0
ARC
  5
172
100
AcDbEntity
  8
0
  6
CONTINUOUS
 62
               7
100
AcDbCircle
 10
1.0000457784626633
 20
64.499954221537337
 30
0.0
 40
0.5000457805581391
100
AcDbArc
 50
90.00524534514409
 51
179.99475465485591
  0
CIRCLE
  5
173
100
AcDbEntity
  8
0
  6
CONTINUOUS
 62
               7
100
AcDbCircle
 10
3.500091552734375
 20
60.0
 30
0.0
 40
2.7999992370605469
  0
ARC
  5
174
100
AcDbEntity
  8
0
  6
CONTINUOUS
 62
               7
100
AcDbCircle
 10
15.500045776716433
 20
33.999954223283567
 30
0.0
 40
3.0000457770656794
100
AcDbArc
 50
90.000874257543586
 51
179.99912574245641
  0
CIRCLE
  5
175
100
AcDbEntity
  8
0
  6
CONTINUOUS
 62
               7
100
AcDbCircle
 10
15.500091552734375
 20
34.0
 30
0.0
 40
2.7999992370605469
  0
CIRCLE
  5
176
100
AcDbEntity
  8
0
  6
CONTINUOUS
 62
               7
100
AcDbCircle
 10
16.00006103515625
 20
-17.5
 30
0.0
 40
2.75
  0
ARC
  5
177
100
AcDbEntity
  8
0
  6
CONTINUOUS
 62
               7
100
AcDbCircle
 10
16.00003051773335
 20
-17.500030517733364
 30
0.0
 40
3.0000305178885656
100
AcDbArc
 50
90.000582839844697
 51
179.9994171601553
  0
ARC
  5
178
100
AcDbEntity
  8
0
  6
CONTINUOUS
 62
               7
100
AcDbCircle
 10
3.0
 20
-15.5
 30
0.0
 40
3.0000000006208816
100
AcDbArc
 50
270.0
 51
90.0
  0
CIRCLE
  5
179
100
AcDbEntity
  8
0
  6
CONTINUOUS
 62
               7
100
AcDbCircle
 10
3.00006103515625
 20
26.5
 30
0.0
 40
2.75
  0
ARC
  5
17A
100
AcDbEntity
  8
0
  6
CONTINUOUS
 62
               7
100
AcDbCircle
 10
3.0000305174229069
 20
26.499969482577086
 30
0.0
 40
2.9999694827323156
100
AcDbArc
 50
269.99941715422631
 51
0.000582845773621
  0
ARC
  5
17B
100
AcDbEntity
  8
0
  6
CONTINUOUS
 62
               7
100
AcDbCircle
 10
16.0
 20
24.5
 30
0.0
 40
3.0000000006208816
100
AcDbArc
 50
90.0
 51
270.0
  0
ARC
  5
17C
100
AcDbEntity
  8
0
  6
CONTINUOUS
 62
               4
100
AcDbCircle
 10
14.746178794904012
 20
66.497226111236301
 30
0.0
 40
1.5027787469745402
100
AcDbArc
 50
89.854310449209621
 51
160.45404481508535
  0
ARC
  5
17D
100
AcDbEntity
  8
0
  6
CONTINUOUS
 62
               4
100
AcDbCircle
 10
17.250053404810998
 20
66.500053404811013
 30
0.0
 40
1.4999465961397314
100
AcDbArc
 50
359.99796001385357
 51
90.002039986146343
  0
ARC
  5
17E
100
AcDbEntity
  8
0
  6
CONTINUOUS
 62
               4
100
AcDbCircle
 10
18.000030516646802
 20
74.500030516646802
 30
0.0
 40
0.4999694842845202
100
AcDbArc
 50
359.99650283642757
 51
90.003497163572433
  0
ARC
  5
17F
100
AcDbEntity
  8
0
  6
CONTINUOUS
 62
               4
100
AcDbCircle
 10
1.0000305185094476
 20
74.499969481490552
 30
0.0
 40
0.5000305194407702
100
AcDbArc
 50
90.003496950129005
 51
179.99650304987102
  0
ENDBLK
  5
180
100
AcDbEntity
  8
0
100
AcDbBlockEnd
  0
BLOCK
  5
181
100
AcDbEntity
  8
0
100
AcDbBlockBegin
  2
F18MP-5
 70
               0
 10
0.0
 20
0.0
 30
0.0
  3
F18MP-5
  1

  0
LINE
  5
182
100
AcDbEntity
  8
0
  6
CONTINUOUS
 62
               2
100
AcDbLine
 10
10.5
 20
-76.417358562169227
 30
0.0
 11
10.5
 21
56.494338989257812
 31
0.0
  0
LINE
  5
183
100
AcDbEntity
  8
0
  6
CONTINUOUS
 62
               7
100
AcDbLine
 10
0.0
 20
52.499984741210937
 30
0.0
 11
21.0
 21
52.499984741210937
 31
0.0
  0
LINE
  5
184
100
AcDbEntity
  8
0
  6
CONTINUOUS
 62
               7
100
AcDbLine
 10
0.0
 20
16.999984741210937
 30
0.0
 11
21.0
 21
16.999984741210937
 31
0.0
  0
LINE
  5
185
100
AcDbEntity
  8
0
  6
CONTINUOUS
 62
               7
100
AcDbLine
 10
0.0
 20
18.999984741210937
 30
0.0
 11
21.0
 21
18.999984741210937
 31
0.0
  0
LINE
  5
186
100
AcDbEntity
  8
0
  6
CONTINUOUS
 62
               7
100
AcDbLine
 10
0.0
 20
-73.000030517578125
 30
0.0
 11
21.0
 21
-73.000030517578125
 31
0.0
  0
LINE
  5
187
100
AcDbEntity
  8
0
  6
CONTINUOUS
 62
               7
100
AcDbLine
 10
0.0
 20
-73.000030517578125
 30
0.0
 11
0.0
 21
53.999984741210938
 31
0.0
  0
LINE
  5
188
100
AcDbEntity
  8
0
  6
CONTINUOUS
 62
               7
100
AcDbLine
 10
21.0
 20
-73.000030517578125
 30
0.0
 11
21.0
 21
53.999984741210938
 31
0.0
  0
LINE
  5
189
100
AcDbEntity
  8
0
  6
CONTINUOUS
 62
               7
100
AcDbLine
 10
15.5
 20
-19.000015258789063
 30
0.0
 11
15.5
 21
-17.800018310546875
 31
0.0
  0
LINE
  5
18A
100
AcDbEntity
  8
0
  6
CONTINUOUS
 62
               7
100
AcDbLine
 10
15.5
 20
-19.000015258789063
 30
0.0
 11
21.0
 21
-19.000015258789063
 31
0.0
  0
LINE
  5
18B
100
AcDbEntity
  8
0
  6
CONTINUOUS
 62
               7
100
AcDbLine
 10
21.0
 20
-67.325149536132813
 30
0.0
 11
17.5
 21
-67.325149536132813
 31
0.0
  0
LINE
  5
18C
100
AcDbEntity
  8
0
  6
CONTINUOUS
 62
               7
100
AcDbLine
 10
21.0
 20
-68.597885131835938
 30
0.0
 11
17.5
 21
-68.597885131835938
 31
0.0
  0
LINE
  5
18D
100
AcDbEntity
  8
0
  6
CONTINUOUS
 62
               7
100
AcDbLine
 10
21.0
 20
-72.274887084960937
 30
0.0
 11
17.5
 21
-72.274887084960937
 31
0.0
  0
ELLIPSE
  5
18E
100
AcDbEntity
  8
0
  6
CONTINUOUS
 62
               7
100
AcDbEllipse
 10
17.5
 20
-66.123016357421875
 30
0.0
 11
-3.4999999999998148
 21
0.0000011404445106
 31
0.0
210
0.0
220
0.0
230
1.0
 40
0.7070999145507813
 41
0.8370872735976942
 42
1.5707960128783585
  0
ELLIPSE
  5
18F
100
AcDbEntity
  8
0
  6
CONTINUOUS
 62
               7
100
AcDbEllipse
 10
17.5
 20
-69.800018310546875
 30
0.0
 11
-3.4999999999998148
 21
0.0000011404445106
 31
0.0
210
0.0
220
0.0
230
1.0
 40
0.7070999145507813
 41
4.7123883406267977
 42
1.5707956870370046
  0
ELLIPSE
  5
190
100
AcDbEntity
  8
0
  6
CONTINUOUS
 62
               7
100
AcDbEllipse
 10
17.5
 20
-66.123092651367188
 30
0.0
 11
2.75
 21
0.0
 31
0.0
210
0.0
220
0.0
230
1.0
 40
0.7071089311079546
 41
4.0383980909930628
 42
5.6163740197764795
  0
LINE
  5
191
100
AcDbEntity
  8
0
  6
CONTINUOUS
 62
               7
100
AcDbLine
 10
5.5
 20
-19.000015258789063
 30
0.0
 11
5.5
 21
-17.800018310546875
 31
0.0
  0
ELLIPSE
  5
192
100
AcDbEntity
  8
0
  6
CONTINUOUS
 62
               7
100
AcDbEllipse
 10
3.5
 20
-66.123016357421875
 30
0.0
 11
3.5
 21
0.0
 31
0.0
210
0.0
220
0.0
230
1.0
 40
0.7070999145507813
 41
4.7123892943011709
 42
5.4460943976985376
  0
ELLIPSE
  5
193
100
AcDbEntity
  8
0
  6
CONTINUOUS
 62
               7
100
AcDbEllipse
 10
3.5
 20
-69.800018310546875
 30
0.0
 11
3.5
 21
0.0
 31
0.0
210
0.0
220
0.0
230
1.0
 40
0.7070999145507813
 41
4.7123892943011709
 42
1.5707966407113778
  0
CIRCLE
  5
194
100
AcDbEntity
  8
0
  6
CONTINUOUS
 62
               4
100
AcDbCircle
 10
10.5
 20
-29.800033569335938
 30
0.0
 40
6.0
  0
CIRCLE
  5
195
100
AcDbEntity
  8
0
  6
CONTINUOUS
 62
               4
100
AcDbCircle
 10
10.5
 20
-29.800033569335938
 30
0.0
 40
9.0
  0
CIRCLE
  5
196
100
AcDbEntity
  8
0
  6
CONTINUOUS
 62
               4
100
AcDbCircle
 10
10.5
 20
-29.800033569335938
 30
0.0
 40
10.0
  0
CIRCLE
  5
197
100
AcDbEntity
  8
0
  6
CONTINUOUS
 62
               4
100
AcDbCircle
 10
10.5
 20
-53.800033569335937
 30
0.0
 40
9.0
  0
CIRCLE
  5
198
100
AcDbEntity
  8
0
  6
CONTINUOUS
 62
               4
100
AcDbCircle
 10
10.5
 20
-53.800033569335937
 30
0.0
 40
6.0
  0
CIRCLE
  5
199
100
AcDbEntity
  8
0
  6
CONTINUOUS
 62
               4
100
AcDbCircle
 10
10.5
 20
-53.800033569335937
 30
0.0
 40
10.0
  0
LINE
  5
19A
100
AcDbEntity
  8
0
  6
CONTINUOUS
 62
             200
100
AcDbLine
 10
21.5
 20
-29.800033569335938
 30
0.0
 11
-0.5
 21
-29.800033569335938
 31
0.0
  0
LINE
  5
19B
100
AcDbEntity
  8
0
  6
CONTINUOUS
 62
             200
100
AcDbLine
 10
21.5
 20
-53.800033569335937
 30
0.0
 11
-0.5
 21
-53.800033569335937
 31
0.0
  0
LINE
  5
19C
100
AcDbEntity
  8
0
  6
CONTINUOUS
 62
               7
100
AcDbLine
 10
0.0
 20
53.999984741210938
 30
0.0
 11
21.0
 21
53.999984741210938
 31
0.0
  0
ELLIPSE
  5
19D
100
AcDbEntity
  8
0
  6
CONTINUOUS
 62
               7
100
AcDbEllipse
 10
3.5
 20
-66.123092651367188
 30
0.0
 11
-2.7499999999998539
 21
0.0000008960637956
 31
0.0
210
0.0
220
0.0
230
1.0
 40
0.7071089311079546
 41
0.6668141484260537
 42
2.2447910308837895
  0
LINE
  5
19E
100
AcDbEntity
  8
0
  6
CONTINUOUS
 62
               7
100
AcDbLine
 10
0.0
 20
50.999984741210938
 30
0.0
 11
21.0
 21
50.999984741210938
 31
0.0
  0
LINE
  5
19F
100
AcDbEntity
  8
0
  6
CONTINUOUS
 62
               7
100
AcDbLine
 10
0.0
 20
-72.274887084960937
 30
0.0
 11
3.5
 21
-72.274887084960937
 31
0.0
  0
LINE
  5
1A0
100
AcDbEntity
  8
0
  6
CONTINUOUS
 62
               7
100
AcDbLine
 10
0.0
 20
-68.597885131835938
 30
0.0
 11
3.5
 21
-68.597885131835938
 31
0.0
  0
LINE
  5
1A1
100
AcDbEntity
  8
0
  6
CONTINUOUS
 62
               7
100
AcDbLine
 10
0.0
 20
-67.325149536132813
 30
0.0
 11
3.5
 21
-67.325149536132813
 31
0.0
  0
LINE
  5
1A2
100
AcDbEntity
  8
0
  6
CONTINUOUS
 62
               7
100
AcDbLine
 10
0.0
 20
-66.600021362304688
 30
0.0
 11
21.0
 21
-66.600021362304688
 31
0.0
  0
LINE
  5
1A3
100
AcDbEntity
  8
0
  6
CONTINUOUS
 62
               7
100
AcDbLine
 10
5.5
 20
-18.000015258789063
 30
0.0
 11
15.5
 21
-18.000015258789063
 31
0.0
  0
LINE
  5
1A4
100
AcDbEntity
  8
0
  6
CONTINUOUS
 62
               7
100
AcDbLine
 10
5.5
 20
-17.800018310546875
 30
0.0
 11
15.5
 21
-17.800018310546875
 31
0.0
  0
LINE
  5
1A5
100
AcDbEntity
  8
0
  6
CONTINUOUS
 62
               7
100
AcDbLine
 10
0.0
 20
-19.000015258789063
 30
0.0
 11
5.5
 21
-19.000015258789063
 31
0.0
  0
ENDBLK
  5
1A6
100
AcDbEntity
  8
0
100
AcDbBlockEnd
  0
BLOCK
  5
1A7
100
AcDbEntity
  8
0
100
AcDbBlockBegin
  2
F18MP-6
 70
               0
 10
0.0
 20
0.0
 30
0.0
  3
F18MP-6
  1

  0
ARC
  5
1A8
100
AcDbEntity
  8
0
  6
CONTINUOUS
 62
               7
100
AcDbCircle
 10
47.537261962890625
 20
-60.46624755859375
 30
0.0
 40
1.0
100
AcDbArc
 50
225.00011736545497
 51
314.99994570010932
  0
ARC
  5
1A9
100
AcDbEntity
  8
0
  6
CONTINUOUS
 62
               7
100
AcDbCircle
 10
40.466217041015625
 20
-67.53729248046875
 30
0.0
 40
1.0
100
AcDbArc
 50
314.99996300295339
 51
44.999999658377334
  0
ARC
  5
1AA
100
AcDbEntity
  8
0
  6
CONTINUOUS
 62
               7
100
AcDbCircle
 10
40.8076171875
 20
-70.000030517578125
 30
0.0
 40
1.0
100
AcDbArc
 50
269.99999931675467
 51
45.000054299890692
  0
ARC
  5
1AB
100
AcDbEntity
  8
0
  6
CONTINUOUS
 62
               7
100
AcDbCircle
 10
50.000030517578125
 20
-60.807662963867188
 30
0.0
 40
1.0
100
AcDbArc
 50
225.00000125223909
 51
0.0000186693346746
  0
ARC
  5
1AC
100
AcDbEntity
  8
0
  6
CONTINUOUS
 62
               7
100
AcDbCircle
 10
45.592742919921875
 20
-67.360504150390625
 30
0.0
 40
1.5
100
AcDbArc
 50
224.99992270506363
 51
315.00043747372956
  0
ARC
  5
1AD
100
AcDbEntity
  8
0
  6
CONTINUOUS
 62
               7
100
AcDbCircle
 10
47.360504150390625
 20
-65.592727661132813
 30
0.0
 40
1.5
100
AcDbArc
 50
315.00034549354683
 51
44.999617167783811
  0
ARC
  5
1AE
100
AcDbEntity
  8
0
  6
CONTINUOUS
 62
               7
100
AcDbCircle
 10
48.000030517578125
 20
11.999969482421875
 30
0.0
 40
3.0
100
AcDbArc
 50
0.0000359721786855
 51
90.000017986089347
  0
ARC
  5
1AF
100
AcDbEntity
  8
0
  6
CONTINUOUS
 62
               7
100
AcDbCircle
 10
48.000030517578125
 20
11.999969482421875
 30
0.0
 40
5.0
100
AcDbArc
 50
0.0000359721786855
 51
90.000017986089347
  0
LINE
  5
1B0
100
AcDbEntity
  8
0
  6
CONTINUOUS
 62
               7
100
AcDbLine
 10
51.000030517578125
 20
-4.000030517578125
 30
0.0
 11
40.000030517578125
 21
-4.000030517578125
 31
0.0
  0
LINE
  5
1B1
100
AcDbEntity
  8
0
  6
CONTINUOUS
 62
               7
100
AcDbLine
 10
51.000030517578125
 20
8.6999664306640625
 30
0.0
 11
40.000030517578125
 21
8.6999664306640625
 31
0.0
  0
LINE
  5
1B2
100
AcDbEntity
  8
0
  6
CONTINUOUS
 62
               7
100
AcDbLine
 10
48.421209561658543
 20
-66.653411609080649
 30
0.0
 11
46.653443384004277
 21
-68.421179276851035
 31
0.0
  0
LINE
  5
1B3
100
AcDbEntity
  8
0
  6
CONTINUOUS
 62
               7
100
AcDbLine
 10
48.421136243853653
 20
-64.532116224229867
 30
0.0
 11
48.067561250320978
 21
-64.178541260501333
 31
0.0
  0
LINE
  5
1B4
100
AcDbEntity
  8
0
  6
CONTINUOUS
 62
               7
100
AcDbLine
 10
44.532070593072604
 20
-68.421182202834643
 30
0.0
 11
44.178517178727816
 21
-68.067628818292178
 31
0.0
  0
LINE
  5
1B5
100
AcDbEntity
  8
0
  6
CONTINUOUS
 62
               7
100
AcDbLine
 10
40.000030517578125
 20
8.6249237060546875
 30
0.0
 11
40.000030517578125
 21
-16.000030517578125
 31
0.0
  0
LINE
  5
1B6
100
AcDbEntity
  8
0
  6
CONTINUOUS
 62
               7
100
AcDbLine
 10
51.000030517578125
 20
11.999969482421875
 30
0.0
 11
51.000030517578125
 21
-16.000030517578125
 31
0.0
  0
LINE
  5
1B7
100
AcDbEntity
  8
0
  6
CONTINUOUS
 62
               7
100
AcDbLine
 10
40.728179931640625
 20
-24.100311279296875
 30
0.0
 11
40.728179931640625
 21
-55.071304321289063
 31
0.0
  0
LINE
  5
1B8
100
AcDbEntity
  8
0
  6
CONTINUOUS
 62
               7
100
AcDbLine
 10
43.577501955669504
 20
-65.840223602754122
 30
0.0
 11
40.819791034364243
 21
-68.597936848636891
 31
0.0
  0
LINE
  5
1B9
100
AcDbEntity
  8
0
  6
CONTINUOUS
 62
               7
100
AcDbLine
 10
49.292892112209302
 20
-61.514763209948796
 30
0.0
 11
48.597891207924476
 21
-60.819762364248163
 31
0.0
  0
LINE
  5
1BA
100
AcDbEntity
  8
0
  6
CONTINUOUS
 62
               7
100
AcDbLine
 10
41.51469607308718
 20
-69.292916746348055
 30
0.0
 11
40.819716747990242
 21
-68.59793747983349
 31
0.0
  0
LINE
  5
1BB
100
AcDbEntity
  8
0
  6
CONTINUOUS
 62
               7
100
AcDbLine
 10
48.597962216043015
 20
-60.819759110447194
 30
0.0
 11
45.840262084326241
 21
-63.577461566732381
 31
0.0
  0
LINE
  5
1BC
100
AcDbEntity
  8
0
  6
CONTINUOUS
 62
               7
100
AcDbLine
 10
48.597963408135911
 20
-63.648186186786916
 30
0.0
 11
43.648218110703965
 21
-68.597935656543996
 31
0.0
  0
LINE
  5
1BD
100
AcDbEntity
  8
0
  6
CONTINUOUS
 62
               7
100
AcDbLine
 10
52.274855467993802
 20
-67.325131811526262
 30
0.0
 11
48.597891327132857
 21
-63.648167980610197
 31
0.0
  0
LINE
  5
1BE
100
AcDbEntity
  8
0
  6
CONTINUOUS
 62
               7
100
AcDbLine
 10
47.32514045318203
 20
-72.274933560319369
 30
0.0
 11
43.648176312321084
 21
-68.597969729403303
 31
0.0
  0
LINE
  5
1BF
100
AcDbEntity
  8
0
  6
CONTINUOUS
 62
               7
100
AcDbLine
 10
51.000030517578125
 20
-21.000030517578125
 30
0.0
 11
51.000030517578125
 21
-60.807662963867188
 31
0.0
  0
LINE
  5
1C0
100
AcDbEntity
  8
0
  6
CONTINUOUS
 62
               7
100
AcDbLine
 10
51.000030517578125
 20
-21.000030517578125
 30
0.0
 11
43.828460693359375
 21
-21.000030517578125
 31
0.0
  0
LINE
  5
1C1
100
AcDbEntity
  8
0
  6
CONTINUOUS
 62
               7
100
AcDbLine
 10
53.000030517578125
 20
-19.000030517578125
 30
0.0
 11
43.000030517578125
 21
-19.000030517578125
 31
0.0
  0
LINE
  5
1C2
100
AcDbEntity
  8
0
  6
CONTINUOUS
 62
               7
100
AcDbLine
 10
53.000032293424738
 20
-66.600022772918237
 30
0.0
 11
46.600036828323937
 21
-73.000023632814191
 31
0.0
  0
LINE
  5
1C3
100
AcDbEntity
  8
0
  6
CONTINUOUS
 62
               7
100
AcDbLine
 10
53.000030517578125
 20
11.999969482421875
 30
0.0
 11
53.000030517578125
 21
-66.60003662109375
 31
0.0
  0
LINE
  5
1C4
100
AcDbEntity
  8
0
  6
CONTINUOUS
 62
               4
100
AcDbLine
 10
72.600033724609375
 20
-20.80010986328125
 30
0.0
 11
74.800030672851562
 21
-20.80010986328125
 31
0.0
  0
LINE
  5
1C5
100
AcDbEntity
  8
0
  6
CONTINUOUS
 62
               4
100
AcDbLine
 10
74.800030672851562
 20
-38.80010986328125
 30
0.0
 11
74.800030672851562
 21
-20.80010986328125
 31
0.0
  0
LINE
  5
1C6
100
AcDbEntity
  8
0
  6
CONTINUOUS
 62
               4
100
AcDbLine
 10
72.600033724609375
 20
-36.80010986328125
 30
0.0
 11
71.600033724609375
 21
-36.80010986328125
 31
0.0
  0
LINE
  5
1C7
100
AcDbEntity
  8
0
  6
CONTINUOUS
 62
               4
100
AcDbLine
 10
72.600033724609375
 20
-22.80010986328125
 30
0.0
 11
71.600033724609375
 21
-22.80010986328125
 31
0.0
  0
LINE
  5
1C8
100
AcDbEntity
  8
0
  6
CONTINUOUS
 62
               4
100
AcDbLine
 10
72.600033724609375
 20
-38.80010986328125
 30
0.0
 11
72.600033724609375
 21
-20.80010986328125
 31
0.0
  0
LINE
  5
1C9
100
AcDbEntity
  8
0
  6
CONTINUOUS
 62
               4
100
AcDbLine
 10
71.600033724609375
 20
-37.80010986328125
 30
0.0
 11
71.600033724609375
 21
-21.80010986328125
 31
0.0
  0
LINE
  5
1CA
100
AcDbEntity
  8
0
  6
CONTINUOUS
 62
               4
100
AcDbLine
 10
69.100033724609375
 20
-39.80010986328125
 30
0.0
 11
69.100033724609375
 21
-19.80010986328125
 31
0.0
  0
LINE
  5
1CB
100
AcDbEntity
  8
0
  6
CONTINUOUS
 62
               4
100
AcDbLine
 10
70.600033724609375
 20
-38.30010986328125
 30
0.0
 11
70.600033724609375
 21
-21.30010986328125
 31
0.0
  0
LINE
  5
1CC
100
AcDbEntity
  8
0
  6
CONTINUOUS
 62
               4
100
AcDbLine
 10
71.600033724609375
 20
-21.80010986328125
 30
0.0
 11
70.600033724609375
 21
-21.80010986328125
 31
0.0
  0
LINE
  5
1CD
100
AcDbEntity
  8
0
  6
CONTINUOUS
 62
               4
100
AcDbLine
 10
72.600033724609375
 20
-38.80010986328125
 30
0.0
 11
74.800030672851562
 21
-38.80010986328125
 31
0.0
  0
LINE
  5
1CE
100
AcDbEntity
  8
0
  6
CONTINUOUS
 62
               4
100
AcDbLine
 10
71.600033724609375
 20
-37.80010986328125
 30
0.0
 11
70.600033724609375
 21
-37.80010986328125
 31
0.0
  0
LINE
  5
1CF
100
AcDbEntity
  8
0
  6
CONTINUOUS
 62
               4
100
AcDbLine
 10
70.600033584753646
 20
-38.30007918579031
 30
0.0
 11
69.100020064802038
 21
-39.800090556234863
 31
0.0
  0
LINE
  5
1D0
100
AcDbEntity
  8
0
  6
CONTINUOUS
 62
               4
100
AcDbLine
 10
53.000030517578125
 20
-39.80010986328125
 30
0.0
 11
69.100033724609375
 21
-39.80010986328125
 31
0.0
  0
LINE
  5
1D1
100
AcDbEntity
  8
0
  6
CONTINUOUS
 62
               4
100
AcDbLine
 10
69.100044526957163
 20
-19.800086621467017
 30
0.0
 11
70.600046877985505
 21
-21.300087581647858
 31
0.0
  0
LINE
  5
1D2
100
AcDbEntity
  8
0
  6
CONTINUOUS
 62
               4
100
AcDbLine
 10
53.000030517578125
 20
-19.80010986328125
 30
0.0
 11
69.100033724609375
 21
-19.80010986328125
 31
0.0
  0
LINE
  5
1D3
100
AcDbEntity
  8
0
  6
CONTINUOUS
 62
               4
100
AcDbLine
 10
71.600018465820312
 20
-45.800048828125
 30
0.0
 11
70.600018465820312
 21
-45.800048828125
 31
0.0
  0
LINE
  5
1D4
100
AcDbEntity
  8
0
  6
CONTINUOUS
 62
               4
100
AcDbLine
 10
71.600018465820312
 20
-61.800048828125
 30
0.0
 11
70.600018465820312
 21
-61.800048828125
 31
0.0
  0
LINE
  5
1D5
100
AcDbEntity
  8
0
  6
CONTINUOUS
 62
               4
100
AcDbLine
 10
72.60000320703125
 20
-60.800048828125
 30
0.0
 11
71.600018465820312
 21
-60.800048828125
 31
0.0
  0
LINE
  5
1D6
100
AcDbEntity
  8
0
  6
CONTINUOUS
 62
               7
100
AcDbLine
 10
72.60000320703125
 20
-46.800048828125
 30
0.0
 11
71.600018465820312
 21
-46.800048828125
 31
0.0
  0
LINE
  5
1D7
100
AcDbEntity
  8
0
  6
CONTINUOUS
 62
               4
100
AcDbLine
 10
69.100042724609352
 20
-63.800048828125
 30
0.0
 11
69.100033724609375
 21
-43.800048828125
 31
0.0
  0
LINE
  5
1D8
100
AcDbEntity
  8
0
  6
CONTINUOUS
 62
               4
100
AcDbLine
 10
69.100023284941699
 20
-43.80008074237503
 30
0.0
 11
70.60001484637155
 21
-45.300070912967385
 31
0.0
  0
LINE
  5
1D9
100
AcDbEntity
  8
0
  6
CONTINUOUS
 62
               4
100
AcDbLine
 10
70.600059547210321
 20
-62.300084096307728
 30
0.0
 11
69.100055027258691
 21
-63.800095466752282
 31
0.0
  0
LINE
  5
1DA
100
AcDbEntity
  8
0
  6
CONTINUOUS
 62
               4
100
AcDbLine
 10
71.600033724609375
 20
-61.800048828125
 30
0.0
 11
71.600033724609375
 21
-45.800048828125
 31
0.0
  0
LINE
  5
1DB
100
AcDbEntity
  8
0
  6
CONTINUOUS
 62
               4
100
AcDbLine
 10
70.600033724609375
 20
-62.300048828125
 30
0.0
 11
70.600033724609375
 21
-45.300048828125
 31
0.0
  0
LINE
  5
1DC
100
AcDbEntity
  8
0
  6
CONTINUOUS
 62
               4
100
AcDbLine
 10
72.600033724609375
 20
-62.800048828125
 30
0.0
 11
72.600033724609375
 21
-44.800048828125
 31
0.0
  0
LINE
  5
1DD
100
AcDbEntity
  8
0
  6
CONTINUOUS
 62
               4
100
AcDbLine
 10
53.000030517578125
 20
-43.800048828125
 30
0.0
 11
69.100018465820312
 21
-43.800048828125
 31
0.0
  0
LINE
  5
1DE
100
AcDbEntity
  8
0
  6
CONTINUOUS
 62
               4
100
AcDbLine
 10
72.60000320703125
 20
-44.800048828125
 30
0.0
 11
74.800030672851562
 21
-44.800048828125
 31
0.0
  0
LINE
  5
1DF
100
AcDbEntity
  8
0
  6
CONTINUOUS
 62
               4
100
AcDbLine
 10
72.60000320703125
 20
-62.800048828125
 30
0.0
 11
74.800030672851562
 21
-62.800048828125
 31
0.0
  0
LINE
  5
1E0
100
AcDbEntity
  8
0
  6
CONTINUOUS
 62
               4
100
AcDbLine
 10
53.000021517578148
 20
-63.800048828125
 30
0.0
 11
69.100018465820312
 21
-63.800048828125
 31
0.0
  0
LINE
  5
1E1
100
AcDbEntity
  8
0
  6
CONTINUOUS
 62
               4
100
AcDbLine
 10
74.800030672851562
 20
-62.800048828125
 30
0.0
 11
74.800030672851562
 21
-44.800048828125
 31
0.0
  0
LINE
  5
1E2
100
AcDbEntity
  8
0
  6
CONTINUOUS
 62
               7
100
AcDbLine
 10
48.000030517578125
 20
16.999969482421875
 30
0.0
 11
31.0
 21
16.999969482421875
 31
0.0
  0
LINE
  5
1E3
100
AcDbEntity
  8
0
  6
CONTINUOUS
 62
               7
100
AcDbLine
 10
46.60003662109375
 20
-73.000030517578125
 30
0.0
 11
31.0
 21
-73.000030517578125
 31
0.0
  0
LINE
  5
1E4
100
AcDbEntity
  8
0
  6
CONTINUOUS
 62
               7
100
AcDbLine
 10
42.999984883367688
 20
-19.000004913508747
 30
0.0
 11
30.99996034317428
 21
-31.00002844217579
 31
0.0
  0
LINE
  5
1E5
100
AcDbEntity
  8
0
  6
CONTINUOUS
 62
               7
100
AcDbLine
 10
43.828420576744975
 20
-20.999974787117026
 30
0.0
 11
30.9999602239659
 21
-33.828434058537823
 31
0.0
  0
LINE
  5
1E6
100
AcDbEntity
  8
0
  6
CONTINUOUS
 62
               7
100
AcDbLine
 10
44.991685647338272
 20
-67.254460281136744
 30
0.0
 11
30.999977592308824
 21
-53.262753405520016
 31
0.0
  0
LINE
  5
1E7
100
AcDbEntity
  8
0
  6
CONTINUOUS
 62
               7
100
AcDbLine
 10
47.254403571303556
 20
-64.991699008062824
 30
0.0
 11
30.999945032792311
 21
-48.737241839699891
 31
0.0
  0
LINE
  5
1E8
100
AcDbEntity
  8
0
  6
CONTINUOUS
 62
               7
100
AcDbLine
 10
40.8076171875
 20
-71.000030517578125
 30
0.0
 11
31.0
 21
-71.000030517578125
 31
0.0
  0
LINE
  5
1E9
100
AcDbEntity
  8
0
  6
CONTINUOUS
 62
               7
100
AcDbLine
 10
41.173302441708984
 20
-66.830181257306322
 30
0.0
 11
30.999966945765664
 21
-56.656846618911004
 31
0.0
  0
LINE
  5
1EA
100
AcDbEntity
  8
0
  6
CONTINUOUS
 62
               7
100
AcDbLine
 10
46.830145804796302
 20
-61.173358996570641
 30
0.0
 11
30.999955679336381
 21
-45.343170205495881
 31
0.0
  0
LINE
  5
1EB
100
AcDbEntity
  8
0
  6
CONTINUOUS
 62
               7
100
AcDbLine
 10
33.79998779296875
 20
-59.500030517578125
 30
0.0
 11
31.0
 21
-59.500030517578125
 31
0.0
  0
LINE
  5
1EC
100
AcDbEntity
  8
0
  6
CONTINUOUS
 62
               7
100
AcDbLine
 10
51.000030517578125
 20
-16.000030517578125
 30
0.0
 11
31.0
 21
-16.000030517578125
 31
0.0
  0
LINE
  5
1ED
100
AcDbEntity
  8
0
  6
CONTINUOUS
 62
               7
100
AcDbLine
 10
48.000030517578125
 20
14.999969482421875
 30
0.0
 11
31.0
 21
14.999969482421875
 31
0.0
  0
LINE
  5
1EE
100
AcDbEntity
  8
0
  6
CONTINUOUS
 62
               2
100
AcDbLine
 10
48.479076527243706
 20
-68.479143732703051
 30
0.0
 11
30.999977496942847
 21
-51.000046175779971
 31
0.0
  0
LINE
  5
1EF
100
AcDbEntity
  8
0
  6
CONTINUOUS
 62
               7
100
AcDbLine
 10
47.183710157745736
 20
-65.062435585955427
 30
0.0
 11
30.999988197128914
 21
-48.878714989524269
 31
0.0
  0
LINE
  5
1F0
100
AcDbEntity
  8
0
  6
CONTINUOUS
 62
               7
100
AcDbLine
 10
45.062368271304877
 20
-67.18377765121204
 30
0.0
 11
30.99996679675678
 21
-53.121377362035673
 31
0.0
  0
LINE
  5
1F1
100
AcDbEntity
  8
0
  6
CONTINUOUS
 62
               7
100
AcDbLine
 10
45.253646176613984
 20
-66.992499729779411
 30
0.0
 11
30.999966780633258
 21
-52.738821535293937
 31
0.0
  0
LINE
  5
1F2
100
AcDbEntity
  8
0
  6
CONTINUOUS
 62
               7
100
AcDbLine
 10
46.992421462843595
 20
-65.253724296982
 30
0.0
 11
30.999955844471515
 21
-49.261260026673881
 31
0.0
  0
LINE
  5
1F3
100
AcDbEntity
  8
0
  6
CONTINUOUS
 62
               7
100
AcDbLine
 10
40.000030517578125
 20
-5.500030517578125
 30
0.0
 11
31.0
 21
-5.500030517578125
 31
0.0
  0
LINE
  5
1F4
100
AcDbEntity
  8
0
  6
CONTINUOUS
 62
               7
100
AcDbLine
 10
40.000030517578125
 20
-14.500030517578125
 30
0.0
 11
31.0
 21
-14.500030517578125
 31
0.0
  0
LINE
  5
1F5
100
AcDbEntity
  8
0
  6
CONTINUOUS
 62
               7
100
AcDbLine
 10
40.000030517578125
 20
6.499969482421875
 30
0.0
 11
31.0
 21
6.499969482421875
 31
0.0
  0
LINE
  5
1F6
100
AcDbEntity
  8
0
  6
CONTINUOUS
 62
               7
100
AcDbLine
 10
40.000030517578125
 20
-2.500030517578125
 30
0.0
 11
31.0
 21
-2.500030517578125
 31
0.0
  0
LINE
  5
1F7
100
AcDbEntity
  8
0
  6
CONTINUOUS
 62
             200
100
AcDbLine
 10
78.683512241607929
 20
-53.800015258789017
 30
0.0
 11
53.0
 21
-53.800015258789017
 31
0.0
  0
LINE
  5
1F8
100
AcDbEntity
  8
0
  6
CONTINUOUS
 62
             200
100
AcDbLine
 10
78.683512241607929
 20
-29.800015258789017
 30
0.0
 11
53.0
 21
-29.800015258789017
 31
0.0
  0
ENDBLK
  5
1F9
100
AcDbEntity
  8
0
100
AcDbBlockEnd
  0
BLOCK
  5
1FA
100
AcDbEntity
  8
0
100
AcDbBlockBegin
  2
F18MP-7
 70
               0
 10
0.0
 20
0.0
 30
0.0
  3
F18MP-7
  1

  0
LINE
  5
1FB
100
AcDbEntity
  8
0
  6
CONTINUOUS
 62
               7
100
AcDbLine
 10
21.0
 20
53.0
 30
0.0
 11
21.0
 21
-22.0
 31
0.0
  0
LINE
  5
1FC
100
AcDbEntity
  8
0
  6
CONTINUOUS
 62
               7
100
AcDbLine
 10
0.0
 20
53.0
 30
0.0
 11
0.0
 21
-22.0
 31
0.0
  0
LINE
  5
1FD
100
AcDbEntity
  8
0
  6
CONTINUOUS
 62
               2
100
AcDbLine
 10
10.5
 20
53.0
 30
0.0
 11
10.5
 21
-26.372222900390625
 31
0.0
  0
LINE
  5
1FE
100
AcDbEntity
  8
0
  6
CONTINUOUS
 62
               7
100
AcDbLine
 10
0.0
 20
52.274887084960938
 30
0.0
 11
3.5
 21
52.274887084960938
 31
0.0
  0
LINE
  5
1FF
100
AcDbEntity
  8
0
  6
CONTINUOUS
 62
               7
100
AcDbLine
 10
0.0
 20
47.32513427734375
 30
0.0
 11
3.5
 21
47.32513427734375
 31
0.0
  0
LINE
  5
200
100
AcDbEntity
  8
0
  6
CONTINUOUS
 62
               7
100
AcDbLine
 10
21.0
 20
52.274887084960938
 30
0.0
 11
17.5
 21
52.274887084960938
 31
0.0
  0
LINE
  5
201
100
AcDbEntity
  8
0
  6
CONTINUOUS
 62
               7
100
AcDbLine
 10
21.0
 20
47.32513427734375
 30
0.0
 11
17.5
 21
47.32513427734375
 31
0.0
  0
LINE
  5
202
100
AcDbEntity
  8
0
  6
CONTINUOUS
 62
               7
100
AcDbLine
 10
0.0
 20
53.0
 30
0.0
 11
21.0
 21
53.0
 31
0.0
  0
LINE
  5
203
100
AcDbEntity
  8
0
  6
CONTINUOUS
 62
               7
100
AcDbLine
 10
0.0
 20
-1.0
 30
0.0
 11
5.5
 21
-1.0
 31
0.0
  0
LINE
  5
204
100
AcDbEntity
  8
0
  6
CONTINUOUS
 62
               7
100
AcDbLine
 10
5.5
 20
-1.0
 30
0.0
 11
5.5
 21
-2.1999969482421875
 31
0.0
  0
LINE
  5
205
100
AcDbEntity
  8
0
  6
CONTINUOUS
 62
               7
100
AcDbLine
 10
15.5
 20
-1.0
 30
0.0
 11
15.5
 21
-2.1999969482421875
 31
0.0
  0
LINE
  5
206
100
AcDbEntity
  8
0
  6
CONTINUOUS
 62
               7
100
AcDbLine
 10
5.5
 20
-2.1999969482421875
 30
0.0
 11
15.5
 21
-2.1999969482421875
 31
0.0
  0
LINE
  5
207
100
AcDbEntity
  8
0
  6
CONTINUOUS
 62
               7
100
AcDbLine
 10
15.5
 20
-1.0
 30
0.0
 11
21.0
 21
-1.0
 31
0.0
  0
LINE
  5
208
100
AcDbEntity
  8
0
  6
CONTINUOUS
 62
               7
100
AcDbLine
 10
5.5
 20
-2.0
 30
0.0
 11
15.5
 21
-2.0
 31
0.0
  0
LINE
  5
209
100
AcDbEntity
  8
0
  6
CONTINUOUS
 62
               7
100
AcDbLine
 10
0.0
 20
46.600006103515625
 30
0.0
 11
21.0
 21
46.600006103515625
 31
0.0
  0
LINE
  5
20A
100
AcDbEntity
  8
0
  6
CONTINUOUS
 62
               7
100
AcDbLine
 10
17.5
 20
48.597930908203125
 30
0.0
 11
21.0
 21
48.597930908203125
 31
0.0
  0
LINE
  5
20B
100
AcDbEntity
  8
0
  6
CONTINUOUS
 62
               7
100
AcDbLine
 10
3.5
 20
48.597930908203125
 30
0.0
 11
0.0
 21
48.597930908203125
 31
0.0
  0
ELLIPSE
  5
20C
100
AcDbEntity
  8
0
  6
CONTINUOUS
 62
               7
100
AcDbEllipse
 10
3.5
 20
49.800003051757813
 30
0.0
 11
3.5
 21
0.0
 31
0.0
210
0.0
220
0.0
230
1.0
 40
0.7070999145507813
 41
4.7123892943011692
 42
1.570796640711376
  0
ELLIPSE
  5
20D
100
AcDbEntity
  8
0
  6
CONTINUOUS
 62
               7
100
AcDbEllipse
 10
17.5
 20
46.123077392578125
 30
0.0
 11
-3.4999999999998148
 21
0.0000011404445106
 31
0.0
210
0.0
220
0.0
230
1.0
 40
0.7070999145507813
 41
4.7123883406267932
 42
5.4457228223429741
  0
ELLIPSE
  5
20E
100
AcDbEntity
  8
0
  6
CONTINUOUS
 62
               7
100
AcDbEllipse
 10
17.5
 20
49.800003051757813
 30
0.0
 11
-3.4999999999998148
 21
0.0000011404445106
 31
0.0
210
0.0
220
0.0
230
1.0
 40
0.7070999145507813
 41
4.7123883406267932
 42
1.5707956870370001
  0
ELLIPSE
  5
20F
100
AcDbEntity
  8
0
  6
CONTINUOUS
 62
               7
100
AcDbEllipse
 10
3.5
 20
46.123077392578125
 30
0.0
 11
3.5
 21
0.0
 31
0.0
210
0.0
220
0.0
230
1.0
 40
0.7070999145507813
 41
0.8374626636505049
 42
1.5707960128784175
  0
ELLIPSE
  5
210
100
AcDbEntity
  8
0
  6
CONTINUOUS
 62
               7
100
AcDbEllipse
 10
17.5
 20
46.123062133789063
 30
0.0
 11
2.75
 21
0.0
 31
0.0
210
0.0
220
0.0
230
1.0
 40
0.7071089311079546
 41
0.6668129563331648
 42
2.2447919845581072
  0
ELLIPSE
  5
211
100
AcDbEntity
  8
0
  6
CONTINUOUS
 62
               7
100
AcDbEllipse
 10
3.5
 20
46.123062133789063
 30
0.0
 11
-2.7499999999998539
 21
0.0000008960637956
 31
0.0
210
0.0
220
0.0
230
1.0
 40
0.7071089311079546
 41
4.0383942762957865
 42
5.616371814404614
  0
LINE
  5
212
100
AcDbEntity
  8
0
  6
CONTINUOUS
 62
               4
100
AcDbLine
 10
20.5
 20
53.0
 30
0.0
 11
20.5
 21
69.099981689453131
 31
0.0
  0
LINE
  5
213
100
AcDbEntity
  8
0
  6
CONTINUOUS
 62
               4
100
AcDbLine
 10
0.5
 20
53.0
 30
0.0
 11
0.5
 21
69.099981689453131
 31
0.0
  0
LINE
  5
214
100
AcDbEntity
  8
0
  6
CONTINUOUS
 62
               4
100
AcDbLine
 10
19.5
 20
74.799990081787115
 30
0.0
 11
1.5
 21
74.799990081787115
 31
0.0
  0
LINE
  5
215
100
AcDbEntity
  8
0
  6
CONTINUOUS
 62
               4
100
AcDbLine
 10
19.5
 20
72.599989318847662
 30
0.0
 11
19.5
 21
74.799990081787115
 31
0.0
  0
LINE
  5
216
100
AcDbEntity
  8
0
  6
CONTINUOUS
 62
               4
100
AcDbLine
 10
1.5
 20
72.599989318847662
 30
0.0
 11
1.5
 21
74.799990081787115
 31
0.0
  0
LINE
  5
217
100
AcDbEntity
  8
0
  6
CONTINUOUS
 62
               4
100
AcDbLine
 10
19.5
 20
72.599989318847662
 30
0.0
 11
1.5
 21
72.599989318847662
 31
0.0
  0
LINE
  5
218
100
AcDbEntity
  8
0
  6
CONTINUOUS
 62
               4
100
AcDbLine
 10
19.0
 20
70.599981689453131
 30
0.0
 11
2.0
 21
70.599981689453131
 31
0.0
  0
LINE
  5
219
100
AcDbEntity
  8
0
  6
CONTINUOUS
 62
               4
100
AcDbLine
 10
18.5
 20
71.599981689453131
 30
0.0
 11
2.5
 21
71.599981689453131
 31
0.0
  0
LINE
  5
21A
100
AcDbEntity
  8
0
  6
CONTINUOUS
 62
               4
100
AcDbLine
 10
18.999980212213814
 20
70.599994305534352
 30
0.0
 11
20.499981678157383
 21
69.099992460268737
 31
0.0
  0
LINE
  5
21B
100
AcDbEntity
  8
0
  6
CONTINUOUS
 62
               4
100
AcDbLine
 10
0.4999364395252997
 20
69.100003452165225
 30
0.0
 11
1.9999380319095508
 21
70.600005044549476
 31
0.0
  0
LINE
  5
21C
100
AcDbEntity
  8
0
  6
CONTINUOUS
 62
               4
100
AcDbLine
 10
20.5
 20
69.099981689453131
 30
0.0
 11
0.5
 21
69.099981689453131
 31
0.0
  0
LINE
  5
21D
100
AcDbEntity
  8
0
  6
CONTINUOUS
 62
               4
100
AcDbLine
 10
3.5
 20
72.599989318847662
 30
0.0
 11
3.5
 21
71.599981689453131
 31
0.0
  0
LINE
  5
21E
100
AcDbEntity
  8
0
  6
CONTINUOUS
 62
               4
100
AcDbLine
 10
17.5
 20
72.599989318847662
 30
0.0
 11
17.5
 21
71.599981689453131
 31
0.0
  0
LINE
  5
21F
100
AcDbEntity
  8
0
  6
CONTINUOUS
 62
               4
100
AcDbLine
 10
18.5
 20
71.599981689453131
 30
0.0
 11
18.5
 21
70.599981689453131
 31
0.0
  0
LINE
  5
220
100
AcDbEntity
  8
0
  6
CONTINUOUS
 62
               4
100
AcDbLine
 10
2.5
 20
71.599981689453131
 30
0.0
 11
2.5
 21
70.599981689453131
 31
0.0
  0
LINE
  5
221
100
AcDbEntity
  8
0
  6
CONTINUOUS
 62
             200
100
AcDbLine
 10
10.5
 20
80.39435492996148
 30
0.0
 11
10.5
 21
53.0
 31
0.0
  0
LINE
  5
222
100
AcDbEntity
  8
0
  6
CONTINUOUS
 62
               7
100
AcDbLine
 10
0.0
 20
-22.0
 30
0.0
 11
21.0
 21
-22.0
 31
0.0
  0
ENDBLK
  5
223
100
AcDbEntity
  8
0
100
AcDbBlockEnd
  0
BLOCK
  5
224
100
AcDbEntity
  8
0
100
AcDbBlockBegin
  2
F18MP-8
 70
               0
 10
0.0
 20
0.0
 30
0.0
  3
F18MP-8
  1

  0
LINE
  5
225
100
AcDbEntity
  8
0
  6
CONTINUOUS
 62
               7
100
AcDbLine
 10
0.0
 20
50.000007934570313
 30
0.0
 11
21.0
 21
50.000007934570313
 31
0.0
  0
LINE
  5
226
100
AcDbEntity
  8
0
  6
CONTINUOUS
 62
               7
100
AcDbLine
 10
0.0
 20
47.000007934570313
 30
0.0
 11
21.0
 21
47.000007934570313
 31
0.0
  0
LINE
  5
227
100
AcDbEntity
  8
0
  6
CONTINUOUS
 62
               7
100
AcDbLine
 10
0.0
 20
19.000007934570313
 30
0.0
 11
21.0
 21
19.000007934570313
 31
0.0
  0
LINE
  5
228
100
AcDbEntity
  8
0
  6
CONTINUOUS
 62
               7
100
AcDbLine
 10
0.0
 20
17.000007934570313
 30
0.0
 11
21.0
 21
17.000007934570313
 31
0.0
  0
LINE
  5
229
100
AcDbEntity
  8
0
  6
CONTINUOUS
 62
               7
100
AcDbLine
 10
0.0
 20
-72.999992065429694
 30
0.0
 11
0.0
 21
50.000007934570313
 31
0.0
  0
LINE
  5
22A
100
AcDbEntity
  8
0
  6
CONTINUOUS
 62
               7
100
AcDbLine
 10
21.0
 20
-72.999992065429694
 30
0.0
 11
21.0
 21
50.000007934570313
 31
0.0
  0
LINE
  5
22B
100
AcDbEntity
  8
0
  6
CONTINUOUS
 62
               7
100
AcDbLine
 10
0.0
 20
-72.999992065429694
 30
0.0
 11
21.0
 21
-72.999992065429694
 31
0.0
  0
LINE
  5
22C
100
AcDbEntity
  8
0
  6
CONTINUOUS
 62
               7
100
AcDbLine
 10
0.0
 20
-18.999992065429687
 30
0.0
 11
5.5
 21
-18.999992065429687
 31
0.0
  0
LINE
  5
22D
100
AcDbEntity
  8
0
  6
CONTINUOUS
 62
               7
100
AcDbLine
 10
5.5
 20
-17.799992065429684
 30
0.0
 11
15.5
 21
-17.799992065429684
 31
0.0
  0
LINE
  5
22E
100
AcDbEntity
  8
0
  6
CONTINUOUS
 62
               7
100
AcDbLine
 10
15.5
 20
-18.999992065429687
 30
0.0
 11
15.5
 21
-17.799992065429684
 31
0.0
  0
LINE
  5
22F
100
AcDbEntity
  8
0
  6
CONTINUOUS
 62
               7
100
AcDbLine
 10
5.5
 20
-18.999992065429687
 30
0.0
 11
5.5
 21
-17.799992065429684
 31
0.0
  0
LINE
  5
230
100
AcDbEntity
  8
0
  6
CONTINUOUS
 62
               7
100
AcDbLine
 10
15.5
 20
-18.999992065429687
 30
0.0
 11
21.0
 21
-18.999992065429687
 31
0.0
  0
LINE
  5
231
100
AcDbEntity
  8
0
  6
CONTINUOUS
 62
               7
100
AcDbLine
 10
0.0
 20
-66.599992065429689
 30
0.0
 11
21.0
 21
-66.599992065429689
 31
0.0
  0
LINE
  5
232
100
AcDbEntity
  8
0
  6
CONTINUOUS
 62
               7
100
AcDbLine
 10
0.0
 20
-67.319992065429687
 30
0.0
 11
3.5
 21
-67.319992065429687
 31
0.0
  0
LINE
  5
233
100
AcDbEntity
  8
0
  6
CONTINUOUS
 62
               7
100
AcDbLine
 10
0.0
 20
-68.589992065429698
 30
0.0
 11
3.5
 21
-68.589992065429698
 31
0.0
  0
LINE
  5
234
100
AcDbEntity
  8
0
  6
CONTINUOUS
 62
               7
100
AcDbLine
 10
21.0
 20
-67.319992065429687
 30
0.0
 11
17.5
 21
-67.319992065429687
 31
0.0
  0
LINE
  5
235
100
AcDbEntity
  8
0
  6
CONTINUOUS
 62
               7
100
AcDbLine
 10
21.0
 20
-68.589992065429698
 30
0.0
 11
17.5
 21
-68.589992065429698
 31
0.0
  0
LINE
  5
236
100
AcDbEntity
  8
0
  6
CONTINUOUS
 62
               7
100
AcDbLine
 10
0.0
 20
-72.269992065429676
 30
0.0
 11
3.5
 21
-72.269992065429676
 31
0.0
  0
LINE
  5
237
100
AcDbEntity
  8
0
  6
CONTINUOUS
 62
               7
100
AcDbLine
 10
21.0
 20
-72.269992065429676
 30
0.0
 11
17.5
 21
-72.269992065429676
 31
0.0
  0
LINE
  5
238
100
AcDbEntity
  8
0
  6
CONTINUOUS
 62
               2
100
AcDbLine
 10
10.5
 20
-77.159992065429691
 30
0.0
 11
10.5
 21
52.400007934570311
 31
0.0
  0
LINE
  5
239
100
AcDbEntity
  8
0
  6
CONTINUOUS
 62
             200
100
AcDbLine
 10
-0.5
 20
-53.799992065429684
 30
0.0
 11
21.5
 21
-53.799992065429684
 31
0.0
  0
LINE
  5
23A
100
AcDbEntity
  8
0
  6
CONTINUOUS
 62
             200
100
AcDbLine
 10
-0.5
 20
-29.799992065429684
 30
0.0
 11
21.5
 21
-29.799992065429684
 31
0.0
  0
LINE
  5
23B
100
AcDbEntity
  8
0
  6
CONTINUOUS
 62
               4
100
AcDbLine
 10
20.5
 20
-63.799992065429684
 30
0.0
 11
20.5
 21
-43.799992065429684
 31
0.0
  0
LINE
  5
23C
100
AcDbEntity
  8
0
  6
CONTINUOUS
 62
               4
100
AcDbLine
 10
0.5
 20
-63.799992065429684
 30
0.0
 11
0.5
 21
-43.799992065429684
 31
0.0
  0
LINE
  5
23D
100
AcDbEntity
  8
0
  6
CONTINUOUS
 62
               4
100
AcDbLine
 10
0.5
 20
-63.799992065429684
 30
0.0
 11
20.5
 21
-63.799992065429684
 31
0.0
  0
LINE
  5
23E
100
AcDbEntity
  8
0
  6
CONTINUOUS
 62
               4
100
AcDbLine
 10
0.5
 20
-43.799992065429684
 30
0.0
 11
20.5
 21
-43.799992065429684
 31
0.0
  0
LINE
  5
23F
100
AcDbEntity
  8
0
  6
CONTINUOUS
 62
               4
100
AcDbLine
 10
1.5
 20
-44.799992065429684
 30
0.0
 11
19.5
 21
-44.799992065429684
 31
0.0
  0
LINE
  5
240
100
AcDbEntity
  8
0
  6
CONTINUOUS
 62
               4
100
AcDbLine
 10
1.5
 20
-62.799992065429684
 30
0.0
 11
1.5
 21
-44.799992065429684
 31
0.0
  0
LINE
  5
241
100
AcDbEntity
  8
0
  6
CONTINUOUS
 62
               4
100
AcDbLine
 10
1.5
 20
-62.799992065429684
 30
0.0
 11
19.5
 21
-62.799992065429684
 31
0.0
  0
LINE
  5
242
100
AcDbEntity
  8
0
  6
CONTINUOUS
 62
               4
100
AcDbLine
 10
19.5
 20
-62.799992065429684
 30
0.0
 11
19.5
 21
-44.799992065429684
 31
0.0
  0
LINE
  5
243
100
AcDbEntity
  8
0
  6
CONTINUOUS
 62
               4
100
AcDbLine
 10
0.5
 20
-43.799992065429684
 30
0.0
 11
1.5
 21
-44.799992065429684
 31
0.0
  0
LINE
  5
244
100
AcDbEntity
  8
0
  6
CONTINUOUS
 62
               4
100
AcDbLine
 10
20.5
 20
-43.799992065429684
 30
0.0
 11
19.5
 21
-44.799992065429684
 31
0.0
  0
LINE
  5
245
100
AcDbEntity
  8
0
  6
CONTINUOUS
 62
               4
100
AcDbLine
 10
0.5
 20
-63.799992065429684
 30
0.0
 11
1.5
 21
-62.799992065429684
 31
0.0
  0
LINE
  5
246
100
AcDbEntity
  8
0
  6
CONTINUOUS
 62
               4
100
AcDbLine
 10
20.5
 20
-63.799992065429684
 30
0.0
 11
19.5
 21
-62.799992065429684
 31
0.0
  0
LINE
  5
247
100
AcDbEntity
  8
0
  6
CONTINUOUS
 62
               4
100
AcDbLine
 10
20.5
 20
-19.799992065429684
 30
0.0
 11
20.5
 21
-39.799992065429684
 31
0.0
  0
LINE
  5
248
100
AcDbEntity
  8
0
  6
CONTINUOUS
 62
               4
100
AcDbLine
 10
0.5
 20
-19.799992065429684
 30
0.0
 11
0.5
 21
-39.799992065429684
 31
0.0
  0
LINE
  5
249
100
AcDbEntity
  8
0
  6
CONTINUOUS
 62
               4
100
AcDbLine
 10
0.5
 20
-19.799992065429684
 30
0.0
 11
20.5
 21
-19.799992065429684
 31
0.0
  0
LINE
  5
24A
100
AcDbEntity
  8
0
  6
CONTINUOUS
 62
               4
100
AcDbLine
 10
0.5
 20
-39.799992065429684
 30
0.0
 11
20.5
 21
-39.799992065429684
 31
0.0
  0
LINE
  5
24B
100
AcDbEntity
  8
0
  6
CONTINUOUS
 62
               4
100
AcDbLine
 10
1.5
 20
-38.799992065429684
 30
0.0
 11
19.5
 21
-38.799992065429684
 31
0.0
  0
LINE
  5
24C
100
AcDbEntity
  8
0
  6
CONTINUOUS
 62
               4
100
AcDbLine
 10
1.5
 20
-20.799992065429684
 30
0.0
 11
1.5
 21
-38.799992065429684
 31
0.0
  0
LINE
  5
24D
100
AcDbEntity
  8
0
  6
CONTINUOUS
 62
               4
100
AcDbLine
 10
1.5
 20
-20.799992065429684
 30
0.0
 11
19.5
 21
-20.799992065429684
 31
0.0
  0
LINE
  5
24E
100
AcDbEntity
  8
0
  6
CONTINUOUS
 62
               4
100
AcDbLine
 10
19.5
 20
-20.799992065429684
 30
0.0
 11
19.5
 21
-38.799992065429684
 31
0.0
  0
LINE
  5
24F
100
AcDbEntity
  8
0
  6
CONTINUOUS
 62
               4
100
AcDbLine
 10
0.5
 20
-39.799992065429684
 30
0.0
 11
1.5
 21
-38.799992065429684
 31
0.0
  0
LINE
  5
250
100
AcDbEntity
  8
0
  6
CONTINUOUS
 62
               4
100
AcDbLine
 10
20.5
 20
-39.799992065429684
 30
0.0
 11
19.5
 21
-38.799992065429684
 31
0.0
  0
LINE
  5
251
100
AcDbEntity
  8
0
  6
CONTINUOUS
 62
               4
100
AcDbLine
 10
0.5
 20
-19.799992065429684
 30
0.0
 11
1.5
 21
-20.799992065429684
 31
0.0
  0
LINE
  5
252
100
AcDbEntity
  8
0
  6
CONTINUOUS
 62
               4
100
AcDbLine
 10
20.5
 20
-19.799992065429684
 30
0.0
 11
19.5
 21
-20.799992065429684
 31
0.0
  0
CIRCLE
  5
253
100
AcDbEntity
  8
0
  6
CONTINUOUS
 62
             200
100
AcDbCircle
 10
10.5
 20
-53.800040893554687
 30
0.0
 40
8.3310003280639648
  0
CIRCLE
  5
254
100
AcDbEntity
  8
0
  6
CONTINUOUS
 62
               4
100
AcDbCircle
 10
10.5
 20
-53.800040893554687
 30
0.0
 40
7.4749994277954102
  0
CIRCLE
  5
255
100
AcDbEntity
  8
0
  6
CONTINUOUS
 62
               4
100
AcDbCircle
 10
10.5
 20
-53.800040893554687
 30
0.0
 40
4.5
  0
CIRCLE
  5
256
100
AcDbEntity
  8
0
  6
CONTINUOUS
 62
               4
100
AcDbCircle
 10
10.5
 20
-29.800040893554687
 30
0.0
 40
4.5
  0
CIRCLE
  5
257
100
AcDbEntity
  8
0
  6
CONTINUOUS
 62
               4
100
AcDbCircle
 10
10.5
 20
-29.800040893554687
 30
0.0
 40
7.4749994277954102
  0
CIRCLE
  5
258
100
AcDbEntity
  8
0
  6
CONTINUOUS
 62
             200
100
AcDbCircle
 10
10.5
 20
-29.800040893554687
 30
0.0
 40
8.3310003280639648
  0
ELLIPSE
  5
259
100
AcDbEntity
  8
0
  6
CONTINUOUS
 62
               7
100
AcDbEllipse
 10
3.5
 20
-66.123008422851569
 30
0.0
 11
3.5
 21
0.0
 31
0.0
210
0.0
220
0.0
230
1.0
 40
0.7071004595075335
 41
4.7123892943011683
 42
5.4460952917682075
  0
ELLIPSE
  5
25A
100
AcDbEntity
  8
0
  6
CONTINUOUS
 62
               7
100
AcDbEllipse
 10
17.5
 20
-66.123008422851569
 30
0.0
 11
-3.4999999999999996
 21
0.0000000000000237
 31
0.0
210
0.0
220
0.0
230
1.0
 40
0.7070988246372769
 41
0.8370780944824219
 42
1.570796012878418
  0
ELLIPSE
  5
25B
100
AcDbEntity
  8
0
  6
CONTINUOUS
 62
               7
100
AcDbEllipse
 10
3.5
 20
-69.800010375976569
 30
0.0
 11
3.5
 21
0.0
 31
0.0
210
0.0
220
0.0
230
1.0
 40
0.707099369594029
 41
4.7123892943011683
 42
1.5707966407113751
  0
ELLIPSE
  5
25C
100
AcDbEntity
  8
0
  6
CONTINUOUS
 62
               7
100
AcDbEllipse
 10
17.5
 20
-69.800010375976569
 30
0.0
 11
-3.5
 21
0.0000000000000237
 31
0.0
210
0.0
220
0.0
230
1.0
 40
0.7070999145507813
 41
4.7123892943011683
 42
1.5707966407113751
  0
ELLIPSE
  5
25D
100
AcDbEntity
  8
0
  6
CONTINUOUS
 62
               7
100
AcDbEllipse
 10
17.5
 20
-66.123099975585944
 30
0.0
 11
2.7499923706054687
 21
0.0
 31
0.0
210
0.0
220
0.0
230
1.0
 40
0.7071115864468285
 41
4.0384114424334978
 42
5.6164075175868371
  0
ELLIPSE
  5
25E
100
AcDbEntity
  8
0
  6
CONTINUOUS
 62
               7
100
AcDbEllipse
 10
3.5
 20
-66.123099975585944
 30
0.0
 11
-2.75
 21
0.0000000000000187
 31
0.0
210
0.0
220
0.0
230
1.0
 40
0.7071082375266335
 41
0.6668083667755091
 42
2.2447938919067303
  0
ENDBLK
  5
25F
100
AcDbEntity
  8
0
100
AcDbBlockEnd
  0
BLOCK
  5
260
100
AcDbEntity
  8
0
100
AcDbBlockBegin
  2
F18MP-9
 70
               0
 10
0.0
 20
0.0
 30
0.0
  3
F18MP-9
  1

  0
LINE
  5
261
100
AcDbEntity
  8
0
  6
CONTINUOUS
 62
               7
100
AcDbLine
 10
53.001743164062503
 20
12.000007934570313
 30
0.0
 11
53.001743164062503
 21
-66.599992065429689
 31
0.0
  0
LINE
  5
262
100
AcDbEntity
  8
0
  6
CONTINUOUS
 62
               7
100
AcDbLine
 10
48.001743164062503
 20
17.000007934570313
 30
0.0
 11
31.001743164062503
 21
17.000007934570313
 31
0.0
  0
LINE
  5
263
100
AcDbEntity
  8
0
  6
CONTINUOUS
 62
               7
100
AcDbLine
 10
46.601743164062526
 20
-72.999992065429694
 30
0.0
 11
31.001743164062503
 21
-72.999992065429694
 31
0.0
  0
LINE
  5
264
100
AcDbEntity
  8
0
  6
CONTINUOUS
 62
               7
100
AcDbLine
 10
53.001743164062503
 20
-66.599992065429689
 30
0.0
 11
46.601743164062526
 21
-72.999992065429694
 31
0.0
  0
LINE
  5
265
100
AcDbEntity
  8
0
  6
CONTINUOUS
 62
               7
100
AcDbLine
 10
53.001743164062503
 20
-18.999992065429687
 30
0.0
 11
43.001743164062503
 21
-18.999992065429687
 31
0.0
  0
LINE
  5
266
100
AcDbEntity
  8
0
  6
CONTINUOUS
 62
               7
100
AcDbLine
 10
43.001743164062503
 20
-18.999992065429687
 30
0.0
 11
31.001743164062503
 21
-30.999992065429687
 31
0.0
  0
LINE
  5
267
100
AcDbEntity
  8
0
  6
CONTINUOUS
 62
               7
100
AcDbLine
 10
43.821743164062497
 20
-20.999992065429687
 30
0.0
 11
31.001743164062503
 21
-33.81999206542968
 31
0.0
  0
LINE
  5
268
100
AcDbEntity
  8
0
  6
CONTINUOUS
 62
               7
100
AcDbLine
 10
51.001743164062503
 20
-20.999992065429687
 30
0.0
 11
43.821743164062497
 21
-20.999992065429687
 31
0.0
  0
LINE
  5
269
100
AcDbEntity
  8
0
  6
CONTINUOUS
 62
               7
100
AcDbLine
 10
51.001743164062503
 20
-20.999992065429687
 30
0.0
 11
51.001743164062503
 21
-60.799992065429684
 31
0.0
  0
LINE
  5
26A
100
AcDbEntity
  8
0
  6
CONTINUOUS
 62
               7
100
AcDbLine
 10
44.991743164062513
 20
-67.249992065429694
 30
0.0
 11
31.001743164062503
 21
-53.259992065429678
 31
0.0
  0
LINE
  5
26B
100
AcDbEntity
  8
0
  6
CONTINUOUS
 62
               7
100
AcDbLine
 10
47.251743164062503
 20
-64.989992065429675
 30
0.0
 11
31.001743164062503
 21
-48.729992065429677
 31
0.0
  0
LINE
  5
26C
100
AcDbEntity
  8
0
  6
CONTINUOUS
 62
               7
100
AcDbLine
 10
47.321743164062497
 20
-72.269992065429676
 30
0.0
 11
43.64174316406249
 21
-68.589992065429698
 31
0.0
  0
LINE
  5
26D
100
AcDbEntity
  8
0
  6
CONTINUOUS
 62
               7
100
AcDbLine
 10
52.271743164062485
 20
-67.319992065429687
 30
0.0
 11
48.591743164062535
 21
-63.639992065429688
 31
0.0
  0
LINE
  5
26E
100
AcDbEntity
  8
0
  6
CONTINUOUS
 62
               7
100
AcDbLine
 10
48.591743164062535
 20
-63.639992065429688
 30
0.0
 11
43.64174316406249
 21
-68.589992065429698
 31
0.0
  0
LINE
  5
26F
100
AcDbEntity
  8
0
  6
CONTINUOUS
 62
               7
100
AcDbLine
 10
48.591743164062535
 20
-60.81999206542968
 30
0.0
 11
45.841743164062535
 21
-63.56999206542968
 31
0.0
  0
LINE
  5
270
100
AcDbEntity
  8
0
  6
CONTINUOUS
 62
               7
100
AcDbLine
 10
40.801743164062515
 20
-70.999992065429694
 30
0.0
 11
31.001743164062503
 21
-70.999992065429694
 31
0.0
  0
LINE
  5
271
100
AcDbEntity
  8
0
  6
CONTINUOUS
 62
               7
100
AcDbLine
 10
41.511743164062494
 20
-69.289992065429715
 30
0.0
 11
40.821743164062497
 21
-68.589992065429698
 31
0.0
  0
LINE
  5
272
100
AcDbEntity
  8
0
  6
CONTINUOUS
 62
               7
100
AcDbLine
 10
49.291743164062524
 20
-61.509992065429678
 30
0.0
 11
48.591743164062535
 21
-60.81999206542968
 31
0.0
  0
LINE
  5
273
100
AcDbEntity
  8
0
  6
CONTINUOUS
 62
               7
100
AcDbLine
 10
43.571743164062497
 20
-65.839992065429698
 30
0.0
 11
40.821743164062497
 21
-68.589992065429698
 31
0.0
  0
LINE
  5
274
100
AcDbEntity
  8
0
  6
CONTINUOUS
 62
               7
100
AcDbLine
 10
41.171743164062519
 20
-66.829992065429678
 30
0.0
 11
31.001743164062503
 21
-56.649992065429693
 31
0.0
  0
LINE
  5
275
100
AcDbEntity
  8
0
  6
CONTINUOUS
 62
               7
100
AcDbLine
 10
46.831743164062487
 20
-61.169992065429689
 30
0.0
 11
31.001743164062503
 21
-45.339992065429691
 31
0.0
  0
LINE
  5
276
100
AcDbEntity
  8
0
  6
CONTINUOUS
 62
               7
100
AcDbLine
 10
51.001743164062503
 20
-15.999992065429687
 30
0.0
 11
31.001743164062503
 21
-15.999992065429687
 31
0.0
  0
LINE
  5
277
100
AcDbEntity
  8
0
  6
CONTINUOUS
 62
               7
100
AcDbLine
 10
51.001743164062503
 20
12.000007934570313
 30
0.0
 11
51.001743164062503
 21
-15.999992065429687
 31
0.0
  0
LINE
  5
278
100
AcDbEntity
  8
0
  6
CONTINUOUS
 62
               7
100
AcDbLine
 10
48.001743164062503
 20
15.000007934570313
 30
0.0
 11
31.001743164062503
 21
15.000007934570313
 31
0.0
  0
LINE
  5
279
100
AcDbEntity
  8
0
  6
CONTINUOUS
 62
               7
100
AcDbLine
 10
44.531743164062476
 20
-68.41999206542971
 30
0.0
 11
44.171743164062519
 21
-68.059992065429697
 31
0.0
  0
LINE
  5
27A
100
AcDbEntity
  8
0
  6
CONTINUOUS
 62
               7
100
AcDbLine
 10
48.421743164062519
 20
-64.529992065429695
 30
0.0
 11
48.061743164062506
 21
-64.169992065429682
 31
0.0
  0
LINE
  5
27B
100
AcDbEntity
  8
0
  6
CONTINUOUS
 62
               7
100
AcDbLine
 10
48.421743164062519
 20
-66.6499920654297
 30
0.0
 11
46.651743164062481
 21
-68.41999206542971
 31
0.0
  0
LINE
  5
27C
100
AcDbEntity
  8
0
  6
CONTINUOUS
 62
               2
100
AcDbLine
 10
48.471743164062531
 20
-68.469992065429693
 30
0.0
 11
31.001743164062503
 21
-50.999992065429687
 31
0.0
  0
LINE
  5
27D
100
AcDbEntity
  8
0
  6
CONTINUOUS
 62
               7
100
AcDbLine
 10
47.18174316406251
 20
-65.059992065429697
 30
0.0
 11
31.001743164062503
 21
-48.869992065429692
 31
0.0
  0
LINE
  5
27E
100
AcDbEntity
  8
0
  6
CONTINUOUS
 62
               7
100
AcDbLine
 10
45.061743164062506
 20
-67.179992065429701
 30
0.0
 11
31.001743164062503
 21
-53.119992065429692
 31
0.0
  0
LINE
  5
27F
100
AcDbEntity
  8
0
  6
CONTINUOUS
 62
               2
100
AcDbLine
 10
45.251743164062503
 20
-66.989992065429675
 30
0.0
 11
31.001743164062503
 21
-52.729992065429677
 31
0.0
  0
LINE
  5
280
100
AcDbEntity
  8
0
  6
CONTINUOUS
 62
               2
100
AcDbLine
 10
46.991743164062513
 20
-65.249992065429694
 30
0.0
 11
31.001743164062503
 21
-49.259992065429678
 31
0.0
  0
LINE
  5
281
100
AcDbEntity
  8
0
  6
CONTINUOUS
 62
               4
100
AcDbLine
 10
69.001743164062503
 20
-44.799992065429684
 30
0.0
 11
69.001743164062503
 21
-62.799992065429684
 31
0.0
  0
LINE
  5
282
100
AcDbEntity
  8
0
  6
CONTINUOUS
 62
             200
100
AcDbLine
 10
53.001743164062503
 20
-53.799992065429684
 30
0.0
 11
71.351743164062526
 21
-53.799992065429684
 31
0.0
  0
LINE
  5
283
100
AcDbEntity
  8
0
  6
CONTINUOUS
 62
               4
100
AcDbLine
 10
68.001743164062503
 20
-43.799992065429684
 30
0.0
 11
69.001743164062503
 21
-44.799992065429684
 31
0.0
  0
LINE
  5
284
100
AcDbEntity
  8
0
  6
CONTINUOUS
 62
               4
100
AcDbLine
 10
53.001743164062503
 20
-43.799992065429684
 30
0.0
 11
68.001743164062503
 21
-43.799992065429684
 31
0.0
  0
LINE
  5
285
100
AcDbEntity
  8
0
  6
CONTINUOUS
 62
               4
100
AcDbLine
 10
68.001743164062503
 20
-43.799992065429684
 30
0.0
 11
68.001743164062503
 21
-63.799992065429684
 31
0.0
  0
LINE
  5
286
100
AcDbEntity
  8
0
  6
CONTINUOUS
 62
               4
100
AcDbLine
 10
53.001743164062503
 20
-63.799992065429684
 30
0.0
 11
68.001743164062503
 21
-63.799992065429684
 31
0.0
  0
LINE
  5
287
100
AcDbEntity
  8
0
  6
CONTINUOUS
 62
               4
100
AcDbLine
 10
68.001743164062503
 20
-63.799992065429684
 30
0.0
 11
69.001743164062503
 21
-62.799992065429684
 31
0.0
  0
LINE
  5
288
100
AcDbEntity
  8
0
  6
CONTINUOUS
 62
               4
100
AcDbLine
 10
53.001743164062503
 20
-19.799992065429684
 30
0.0
 11
68.001743164062503
 21
-19.799992065429684
 31
0.0
  0
LINE
  5
289
100
AcDbEntity
  8
0
  6
CONTINUOUS
 62
             200
100
AcDbLine
 10
53.001743164062503
 20
-29.799992065429684
 30
0.0
 11
71.351743164062526
 21
-29.799992065429684
 31
0.0
  0
LINE
  5
28A
100
AcDbEntity
  8
0
  6
CONTINUOUS
 62
               4
100
AcDbLine
 10
53.001743164062503
 20
-39.799992065429684
 30
0.0
 11
68.001743164062503
 21
-39.799992065429684
 31
0.0
  0
LINE
  5
28B
100
AcDbEntity
  8
0
  6
CONTINUOUS
 62
               4
100
AcDbLine
 10
68.001743164062503
 20
-19.799992065429684
 30
0.0
 11
68.001743164062503
 21
-39.799992065429684
 31
0.0
  0
LINE
  5
28C
100
AcDbEntity
  8
0
  6
CONTINUOUS
 62
               4
100
AcDbLine
 10
68.001743164062503
 20
-39.799992065429684
 30
0.0
 11
69.001743164062503
 21
-38.799992065429684
 31
0.0
  0
LINE
  5
28D
100
AcDbEntity
  8
0
  6
CONTINUOUS
 62
               4
100
AcDbLine
 10
69.001743164062503
 20
-20.799992065429684
 30
0.0
 11
69.001743164062503
 21
-38.799992065429684
 31
0.0
  0
LINE
  5
28E
100
AcDbEntity
  8
0
  6
CONTINUOUS
 62
               4
100
AcDbLine
 10
68.001743164062503
 20
-19.799992065429684
 30
0.0
 11
69.001743164062503
 21
-20.799992065429684
 31
0.0
  0
ARC
  5
28F
100
AcDbEntity
  8
0
  6
CONTINUOUS
 62
               7
100
AcDbCircle
 10
48.001743164062503
 20
12.000007934570313
 30
0.0
 40
5.0
100
AcDbArc
 50
0.0
 51
90.0
  0
ARC
  5
290
100
AcDbEntity
  8
0
  6
CONTINUOUS
 62
               7
100
AcDbCircle
 10
48.001743164062503
 20
12.000007934570313
 30
0.0
 40
3.0
100
AcDbArc
 50
0.0
 51
90.0
  0
ARC
  5
291
100
AcDbEntity
  8
0
  6
CONTINUOUS
 62
               7
100
AcDbCircle
 10
47.362215061702415
 20
-65.589992065429698
 30
0.0
 40
1.4987327312402221
100
AcDbArc
 50
314.98724350828269
 51
45.012756491717319
  0
ARC
  5
292
100
AcDbEntity
  8
0
  6
CONTINUOUS
 62
               7
100
AcDbCircle
 10
45.591743164062535
 20
-67.360463963069606
 30
0.0
 40
1.4987327312402194
100
AcDbArc
 50
224.98724350828269
 51
315.01275649171714
  0
ARC
  5
293
100
AcDbEntity
  8
0
  6
CONTINUOUS
 62
               7
100
AcDbCircle
 10
50.002406471611351
 20
-60.807364256850228
 30
0.0
 40
0.9993638847214241
100
AcDbArc
 50
224.67423893705558
 51
0.4226681509370537
  0
ARC
  5
294
100
AcDbEntity
  8
0
  6
CONTINUOUS
 62
               7
100
AcDbCircle
 10
40.809089328262274
 20
-70.000644566354765
 30
0.0
 40
0.9993744993923991
100
AcDbArc
 50
269.57882856215866
 51
45.324264349849102
  0
ARC
  5
295
100
AcDbEntity
  8
0
  6
CONTINUOUS
 62
               7
100
AcDbCircle
 10
40.467927823859526
 20
-67.534992065429691
 30
0.0
 40
0.9961832326962106
100
AcDbArc
 50
314.95182051998506
 51
45.048179480014959
  0
ARC
  5
296
100
AcDbEntity
  8
0
  6
CONTINUOUS
 62
               7
100
AcDbCircle
 10
47.536743164062472
 20
-60.466237858297681
 30
0.0
 40
0.9961400423916349
100
AcDbArc
 50
224.94933207332028
 51
315.05066792668003
  0
ENDBLK
  5
297
100
AcDbEntity
  8
0
100
AcDbBlockEnd
  0
BLOCK
  5
298
100
AcDbEntity
  8
0
100
AcDbBlockBegin
  2
F18MP-10
 70
               0
 10
0.0
 20
0.0
 30
0.0
  3
F18MP-10
  1

  0
LINE
  5
299
100
AcDbEntity
  8
0
  6
CONTINUOUS
 62
               2
100
AcDbLine
 10
10.5
 20
55.650000000000006
 30
0.0
 11
10.5
 21
-26.370000000000005
 31
0.0
  0
LINE
  5
29A
100
AcDbEntity
  8
0
  6
CONTINUOUS
 62
             200
100
AcDbLine
 10
10.5
 20
72.800000000000011
 30
0.0
 11
10.5
 21
53.0
 31
0.0
  0
LINE
  5
29B
100
AcDbEntity
  8
0
  6
CONTINUOUS
 62
               7
100
AcDbLine
 10
0.0
 20
52.27000000000001
 30
0.0
 11
3.5
 21
52.27000000000001
 31
0.0
  0
LINE
  5
29C
100
AcDbEntity
  8
0
  6
CONTINUOUS
 62
               7
100
AcDbLine
 10
0.0
 20
47.319999999999993
 30
0.0
 11
3.5
 21
47.319999999999993
 31
0.0
  0
LINE
  5
29D
100
AcDbEntity
  8
0
  6
CONTINUOUS
 62
               7
100
AcDbLine
 10
21.0
 20
52.27000000000001
 30
0.0
 11
17.5
 21
52.27000000000001
 31
0.0
  0
LINE
  5
29E
100
AcDbEntity
  8
0
  6
CONTINUOUS
 62
               7
100
AcDbLine
 10
21.0
 20
47.319999999999993
 30
0.0
 11
17.5
 21
47.319999999999993
 31
0.0
  0
LINE
  5
29F
100
AcDbEntity
  8
0
  6
CONTINUOUS
 62
               7
100
AcDbLine
 10
0.0
 20
53.0
 30
0.0
 11
0.0
 21
-22.0
 31
0.0
  0
LINE
  5
2A0
100
AcDbEntity
  8
0
  6
CONTINUOUS
 62
               7
100
AcDbLine
 10
0.0
 20
53.0
 30
0.0
 11
21.0
 21
53.0
 31
0.0
  0
LINE
  5
2A1
100
AcDbEntity
  8
0
  6
CONTINUOUS
 62
               7
100
AcDbLine
 10
21.0
 20
53.0
 30
0.0
 11
21.0
 21
-22.0
 31
0.0
  0
LINE
  5
2A2
100
AcDbEntity
  8
0
  6
CONTINUOUS
 62
               7
100
AcDbLine
 10
0.0
 20
-1.0
 30
0.0
 11
5.5
 21
-1.0
 31
0.0
  0
LINE
  5
2A3
100
AcDbEntity
  8
0
  6
CONTINUOUS
 62
               7
100
AcDbLine
 10
5.5
 20
-1.0
 30
0.0
 11
5.5
 21
-2.1999999999999886
 31
0.0
  0
LINE
  5
2A4
100
AcDbEntity
  8
0
  6
CONTINUOUS
 62
               7
100
AcDbLine
 10
15.5
 20
-1.0
 30
0.0
 11
15.5
 21
-2.1999999999999886
 31
0.0
  0
LINE
  5
2A5
100
AcDbEntity
  8
0
  6
CONTINUOUS
 62
               7
100
AcDbLine
 10
5.5
 20
-2.1999999999999886
 30
0.0
 11
15.5
 21
-2.1999999999999886
 31
0.0
  0
LINE
  5
2A6
100
AcDbEntity
  8
0
  6
CONTINUOUS
 62
               7
100
AcDbLine
 10
15.5
 20
-1.0
 30
0.0
 11
21.0
 21
-1.0
 31
0.0
  0
LINE
  5
2A7
100
AcDbEntity
  8
0
  6
CONTINUOUS
 62
               7
100
AcDbLine
 10
5.5
 20
-2.0
 30
0.0
 11
15.5
 21
-2.0
 31
0.0
  0
LINE
  5
2A8
100
AcDbEntity
  8
0
  6
CONTINUOUS
 62
               7
100
AcDbLine
 10
0.0
 20
46.599999999999994
 30
0.0
 11
21.0
 21
46.599999999999994
 31
0.0
  0
LINE
  5
2A9
100
AcDbEntity
  8
0
  6
CONTINUOUS
 62
               7
100
AcDbLine
 10
17.5
 20
48.590000000000003
 30
0.0
 11
21.0
 21
48.590000000000003
 31
0.0
  0
LINE
  5
2AA
100
AcDbEntity
  8
0
  6
CONTINUOUS
 62
               7
100
AcDbLine
 10
3.5
 20
48.590000000000003
 30
0.0
 11
0.0
 21
48.590000000000003
 31
0.0
  0
LINE
  5
2AB
100
AcDbEntity
  8
0
  6
CONTINUOUS
 62
               7
100
AcDbLine
 10
0.0
 20
-22.0
 30
0.0
 11
21.0
 21
-22.0
 31
0.0
  0
LINE
  5
2AC
100
AcDbEntity
  8
0
  6
CONTINUOUS
 62
               4
100
AcDbLine
 10
0.5
 20
68.0
 30
0.0
 11
0.5
 21
53.0
 31
0.0
  0
LINE
  5
2AD
100
AcDbEntity
  8
0
  6
CONTINUOUS
 62
               4
100
AcDbLine
 10
20.5
 20
68.0
 30
0.0
 11
20.5
 21
53.0
 31
0.0
  0
LINE
  5
2AE
100
AcDbEntity
  8
0
  6
CONTINUOUS
 62
               4
100
AcDbLine
 10
1.5
 20
69.0
 30
0.0
 11
19.5
 21
69.0
 31
0.0
  0
LINE
  5
2AF
100
AcDbEntity
  8
0
  6
CONTINUOUS
 62
               4
100
AcDbLine
 10
0.5
 20
68.0
 30
0.0
 11
1.5
 21
69.0
 31
0.0
  0
LINE
  5
2B0
100
AcDbEntity
  8
0
  6
CONTINUOUS
 62
               4
100
AcDbLine
 10
19.5
 20
69.0
 30
0.0
 11
20.5
 21
68.0
 31
0.0
  0
LINE
  5
2B1
100
AcDbEntity
  8
0
  6
CONTINUOUS
 62
               4
100
AcDbLine
 10
0.5
 20
68.0
 30
0.0
 11
20.5
 21
68.0
 31
0.0
  0
ELLIPSE
  5
2B2
100
AcDbEntity
  8
0
  6
CONTINUOUS
 62
               7
100
AcDbEllipse
 10
3.5
 20
49.800003051757813
 30
0.0
 11
3.4999999999999996
 21
0.0105543471872807
 31
0.0
210
0.0
220
0.0
230
1.0
 40
0.7070999145510988
 41
4.7102568786350458
 42
1.5686642250452527
  0
ELLIPSE
  5
2B3
100
AcDbEntity
  8
0
  6
CONTINUOUS
 62
               7
100
AcDbEllipse
 10
17.5
 20
46.123062133789063
 30
0.0
 11
-3.4999999999999991
 21
-0.0105542577803108
 31
0.0
210
0.0
220
0.0
230
1.0
 40
0.7070977347245594
 41
4.7102568787905961
 42
5.4426256459360074
  0
ELLIPSE
  5
2B4
100
AcDbEntity
  8
0
  6
CONTINUOUS
 62
               7
100
AcDbEllipse
 10
17.5
 20
49.800003051757813
 30
0.0
 11
-3.5000000000000004
 21
-0.0105541832745048
 31
0.0
210
0.0
220
0.0
230
1.0
 40
0.7070955548985696
 41
4.7102568791286998
 42
1.5686642255389067
  0
ELLIPSE
  5
2B5
100
AcDbEntity
  8
0
  6
CONTINUOUS
 62
               7
100
AcDbEllipse
 10
3.5
 20
46.123062133789063
 30
0.0
 11
3.4999999999999991
 21
0.0105542577803135
 31
0.0
210
0.0
220
0.0
230
1.0
 40
0.7070977347245594
 41
0.8343715669156777
 42
1.5686635973678476
  0
ELLIPSE
  5
2B6
100
AcDbEntity
  8
0
  6
CONTINUOUS
 62
               7
100
AcDbEllipse
 10
17.5
 20
46.123062133789063
 30
0.0
 11
2.7499847412109375
 21
0.0
 31
0.0
210
0.0
220
0.0
230
1.0
 40
0.7071128546300972
 41
0.6668118834495572
 42
2.2447919845581068
  0
ELLIPSE
  5
2B7
100
AcDbEntity
  8
0
  6
CONTINUOUS
 62
               7
100
AcDbEllipse
 10
3.5
 20
46.123062133789063
 30
0.0
 11
-2.7499847412109375
 21
0.0000000000000187
 31
0.0
210
0.0
220
0.0
230
1.0
 40
0.7071128546300972
 41
4.0384143034564417
 42
5.6164027492152577
  0
ENDBLK
  5
2B8
100
AcDbEntity
  8
0
100
AcDbBlockEnd
  0
BLOCK
  5
2B9
100
AcDbEntity
  8
0
100
AcDbBlockBegin
  2
F18MP-11
 70
               0
 10
0.0
 20
0.0
 30
0.0
  3
F18MP-11
  1

  0
LINE
  5
2BA
100
AcDbEntity
  8
0
  6
CONTINUOUS
 62
               7
100
AcDbLine
 10
54.0
 20
-84.5
 30
0.0
 11
54.0
 21
38.5
 31
0.0
  0
LINE
  5
2BB
100
AcDbEntity
  8
0
  6
CONTINUOUS
 62
               7
100
AcDbLine
 10
0.0
 20
5.5
 30
0.0
 11
54.0
 21
5.5
 31
0.0
  0
LINE
  5
2BC
100
AcDbEntity
  8
0
  6
CONTINUOUS
 62
               7
100
AcDbLine
 10
0.0
 20
-84.5
 30
0.0
 11
54.0
 21
-84.5
 31
0.0
  0
LINE
  5
2BD
100
AcDbEntity
  8
0
  6
CONTINUOUS
 62
               7
100
AcDbLine
 10
0.0
 20
-84.5
 30
0.0
 11
0.0
 21
-56.0
 31
0.0
  0
LINE
  5
2BE
100
AcDbEntity
  8
0
  6
CONTINUOUS
 62
               7
100
AcDbLine
 10
0.0
 20
-56.0
 30
0.0
 11
3.0
 21
-56.0
 31
0.0
  0
LINE
  5
2BF
100
AcDbEntity
  8
0
  6
CONTINUOUS
 62
               7
100
AcDbLine
 10
0.0
 20
-20.0
 30
0.0
 11
3.0
 21
-20.0
 31
0.0
  0
LINE
  5
2C0
100
AcDbEntity
  8
0
  6
CONTINUOUS
 62
               7
100
AcDbLine
 10
3.0
 20
-56.0
 30
0.0
 11
3.0
 21
-20.0
 31
0.0
  0
LINE
  5
2C1
100
AcDbEntity
  8
0
  6
CONTINUOUS
 62
               7
100
AcDbLine
 10
0.0
 20
-20.0
 30
0.0
 11
0.0
 21
5.5
 31
0.0
  0
LINE
  5
2C2
100
AcDbEntity
  8
0
  6
CONTINUOUS
 62
               2
100
AcDbLine
 10
17.0
 20
-75.5
 30
0.0
 11
17.0
 21
-63.5
 31
0.0
  0
LINE
  5
2C3
100
AcDbEntity
  8
0
  6
CONTINUOUS
 62
               2
100
AcDbLine
 10
23.0
 20
-17.5
 30
0.0
 11
23.0
 21
-5.5
 31
0.0
  0
LINE
  5
2C4
100
AcDbEntity
  8
0
  6
CONTINUOUS
 62
               2
100
AcDbLine
 10
17.0
 20
-11.5
 30
0.0
 11
29.0
 21
-11.5
 31
0.0
  0
LINE
  5
2C5
100
AcDbEntity
  8
0
  6
CONTINUOUS
 62
               2
100
AcDbLine
 10
11.0
 20
-69.5
 30
0.0
 11
23.0
 21
-69.5
 31
0.0
  0
LINE
  5
2C6
100
AcDbEntity
  8
0
  6
CONTINUOUS
 62
               2
100
AcDbLine
 10
15.0
 20
-44.5
 30
0.0
 11
15.0
 21
-26.5
 31
0.0
  0
LINE
  5
2C7
100
AcDbEntity
  8
0
  6
CONTINUOUS
 62
               2
100
AcDbLine
 10
28.0
 20
-65.5
 30
0.0
 11
28.0
 21
-47.5
 31
0.0
  0
LINE
  5
2C8
100
AcDbEntity
  8
0
  6
CONTINUOUS
 62
               2
100
AcDbLine
 10
6.0
 20
-35.5
 30
0.0
 11
24.0
 21
-35.5
 31
0.0
  0
LINE
  5
2C9
100
AcDbEntity
  8
0
  6
CONTINUOUS
 62
               2
100
AcDbLine
 10
19.0
 20
-56.5
 30
0.0
 11
37.0
 21
-56.5
 31
0.0
  0
LINE
  5
2CA
100
AcDbEntity
  8
0
  6
CONTINUOUS
 62
               7
100
AcDbLine
 10
0.0
 20
-81.400000000000006
 30
0.0
 11
3.0
 21
-81.400000000000006
 31
0.0
  0
LINE
  5
2CB
100
AcDbEntity
  8
0
  6
CONTINUOUS
 62
               7
100
AcDbLine
 10
0.0
 20
-76.599999999999994
 30
0.0
 11
3.0
 21
-76.599999999999994
 31
0.0
  0
LINE
  5
2CC
100
AcDbEntity
  8
0
  6
CONTINUOUS
 62
               7
100
AcDbLine
 10
0.0
 20
-2.4000000000000057
 30
0.0
 11
3.0
 21
-2.4000000000000057
 31
0.0
  0
LINE
  5
2CD
100
AcDbEntity
  8
0
  6
CONTINUOUS
 62
               7
100
AcDbLine
 10
0.0
 20
2.4000000000000057
 30
0.0
 11
3.0
 21
2.4000000000000057
 31
0.0
  0
LINE
  5
2CE
100
AcDbEntity
  8
0
  6
CONTINUOUS
 62
               7
100
AcDbLine
 10
3.0
 20
-81.400000000000006
 30
0.0
 11
3.0
 21
-76.599999999999994
 31
0.0
  0
LINE
  5
2CF
100
AcDbEntity
  8
0
  6
CONTINUOUS
 62
               7
100
AcDbLine
 10
3.0
 20
-2.4000000000000057
 30
0.0
 11
3.0
 21
2.4000000000000057
 31
0.0
  0
LINE
  5
2D0
100
AcDbEntity
  8
0
  6
CONTINUOUS
 62
               7
100
AcDbLine
 10
16.129999999999995
 20
-71.0
 30
0.0
 11
15.259999999999991
 21
-69.5
 31
0.0
  0
LINE
  5
2D1
100
AcDbEntity
  8
0
  6
CONTINUOUS
 62
               7
100
AcDbLine
 10
18.730000000000018
 20
-69.5
 30
0.0
 11
17.860000000000014
 21
-68.0
 31
0.0
  0
LINE
  5
2D2
100
AcDbEntity
  8
0
  6
CONTINUOUS
 62
               7
100
AcDbLine
 10
16.129999999999995
 20
-68.0
 30
0.0
 11
17.860000000000014
 21
-68.0
 31
0.0
  0
LINE
  5
2D3
100
AcDbEntity
  8
0
  6
CONTINUOUS
 62
               7
100
AcDbLine
 10
16.129999999999995
 20
-71.0
 30
0.0
 11
17.860000000000014
 21
-71.0
 31
0.0
  0
LINE
  5
2D4
100
AcDbEntity
  8
0
  6
CONTINUOUS
 62
               7
100
AcDbLine
 10
15.259999999999991
 20
-69.5
 30
0.0
 11
16.129999999999995
 21
-68.0
 31
0.0
  0
LINE
  5
2D5
100
AcDbEntity
  8
0
  6
CONTINUOUS
 62
               7
100
AcDbLine
 10
17.860000000000014
 20
-71.0
 30
0.0
 11
18.730000000000018
 21
-69.5
 31
0.0
  0
LINE
  5
2D6
100
AcDbEntity
  8
0
  6
CONTINUOUS
 62
               7
100
AcDbLine
 10
22.129999999999995
 20
-10.0
 30
0.0
 11
23.860000000000014
 21
-10.0
 31
0.0
  0
LINE
  5
2D7
100
AcDbEntity
  8
0
  6
CONTINUOUS
 62
               7
100
AcDbLine
 10
21.259999999999991
 20
-11.5
 30
0.0
 11
22.129999999999995
 21
-10.0
 31
0.0
  0
LINE
  5
2D8
100
AcDbEntity
  8
0
  6
CONTINUOUS
 62
               7
100
AcDbLine
 10
22.129999999999995
 20
-13.0
 30
0.0
 11
21.259999999999991
 21
-11.5
 31
0.0
  0
LINE
  5
2D9
100
AcDbEntity
  8
0
  6
CONTINUOUS
 62
               7
100
AcDbLine
 10
22.129999999999995
 20
-13.0
 30
0.0
 11
23.860000000000014
 21
-13.0
 31
0.0
  0
LINE
  5
2DA
100
AcDbEntity
  8
0
  6
CONTINUOUS
 62
               7
100
AcDbLine
 10
23.860000000000014
 20
-13.0
 30
0.0
 11
24.730000000000018
 21
-11.5
 31
0.0
  0
LINE
  5
2DB
100
AcDbEntity
  8
0
  6
CONTINUOUS
 62
               7
100
AcDbLine
 10
24.730000000000018
 20
-11.5
 30
0.0
 11
23.860000000000014
 21
-10.0
 31
0.0
  0
LINE
  5
2DC
100
AcDbEntity
  8
0
  6
CONTINUOUS
 62
               7
100
AcDbLine
 10
1.0
 20
5.5
 30
0.0
 11
1.0
 21
38.5
 31
0.0
  0
LINE
  5
2DD
100
AcDbEntity
  8
0
  6
CONTINUOUS
 62
               7
100
AcDbLine
 10
40.0
 20
-84.5
 30
0.0
 11
40.0
 21
-73.5
 31
0.0
  0
LINE
  5
2DE
100
AcDbEntity
  8
0
  6
CONTINUOUS
 62
               7
100
AcDbLine
 10
40.0
 20
-5.5
 30
0.0
 11
54.0
 21
-5.5
 31
0.0
  0
LINE
  5
2DF
100
AcDbEntity
  8
0
  6
CONTINUOUS
 62
               7
100
AcDbLine
 10
40.0
 20
-73.5
 30
0.0
 11
54.0
 21
-73.5
 31
0.0
  0
LINE
  5
2E0
100
AcDbEntity
  8
0
  6
CONTINUOUS
 62
               7
100
AcDbLine
 10
40.0
 20
-5.5
 30
0.0
 11
40.0
 21
5.5
 31
0.0
  0
LINE
  5
2E1
100
AcDbEntity
  8
0
  6
CONTINUOUS
 62
               7
100
AcDbLine
 10
1.0
 20
38.5
 30
0.0
 11
54.0
 21
38.5
 31
0.0
  0
LINE
  5
2E2
100
AcDbEntity
  8
0
  6
CONTINUOUS
 62
               2
100
AcDbLine
 10
-4.4599999999999795
 20
-79.0
 30
0.0
 11
8.410000000000025
 21
-79.0
 31
0.0
  0
LINE
  5
2E3
100
AcDbEntity
  8
0
  6
CONTINUOUS
 62
               2
100
AcDbLine
 10
-4.4599999999999795
 20
0.0
 30
0.0
 11
8.410000000000025
 21
0.0
 31
0.0
  0
CIRCLE
  5
2E4
100
AcDbEntity
  8
0
  6
CONTINUOUS
 62
               7
100
AcDbCircle
 10
23.0
 20
-11.5
 30
0.0
 40
4.0
  0
CIRCLE
  5
2E5
100
AcDbEntity
  8
0
  6
CONTINUOUS
 62
               7
100
AcDbCircle
 10
17.0
 20
-69.500030517578125
 30
0.0
 40
4.0
  0
CIRCLE
  5
2E6
100
AcDbEntity
  8
0
  6
CONTINUOUS
 62
               7
100
AcDbCircle
 10
23.0
 20
-11.5
 30
0.0
 40
5.0
  0
CIRCLE
  5
2E7
100
AcDbEntity
  8
0
  6
CONTINUOUS
 62
               7
100
AcDbCircle
 10
17.0
 20
-69.500030517578125
 30
0.0
 40
5.0
  0
CIRCLE
  5
2E8
100
AcDbEntity
  8
0
  6
CONTINUOUS
 62
               7
100
AcDbCircle
 10
15.0
 20
-35.5
 30
0.0
 40
7.0
  0
CIRCLE
  5
2E9
100
AcDbEntity
  8
0
  6
CONTINUOUS
 62
               7
100
AcDbCircle
 10
28.0
 20
-56.500030517578125
 30
0.0
 40
7.0
  0
CIRCLE
  5
2EA
100
AcDbEntity
  8
0
  6
CONTINUOUS
 62
               7
100
AcDbCircle
 10
15.0
 20
-35.5
 30
0.0
 40
8.0
  0
CIRCLE
  5
2EB
100
AcDbEntity
  8
0
  6
CONTINUOUS
 62
               7
100
AcDbCircle
 10
28.0
 20
-56.500030517578125
 30
0.0
 40
8.0
  0
CIRCLE
  5
2EC
100
AcDbEntity
  8
0
  6
CONTINUOUS
 62
               7
100
AcDbCircle
 10
17.0
 20
-69.500030517578125
 30
0.0
 40
3.5
  0
CIRCLE
  5
2ED
100
AcDbEntity
  8
0
  6
CONTINUOUS
 62
               7
100
AcDbCircle
 10
23.0
 20
-11.5
 30
0.0
 40
3.5
  0
ENDBLK
  5
2EE
100
AcDbEntity
  8
0
100
AcDbBlockEnd
  0
BLOCK
  5
2EF
100
AcDbEntity
  8
0
100
AcDbBlockBegin
  2
F18MP-12
 70
               0
 10
0.0
 20
0.0
 30
0.0
  3
F18MP-12
  1

  0
LINE
  5
2F0
100
AcDbEntity
  8
0
  6
CONTINUOUS
 62
               2
100
AcDbLine
 10
0.0
 20
7.8599999999999994
 30
0.0
 11
0.0
 21
-7.7699999999999996
 31
0.0
  0
LINE
  5
2F1
100
AcDbEntity
  8
0
  6
CONTINUOUS
 62
               2
100
AcDbLine
 10
137.0
 20
7.8599999999999994
 30
0.0
 11
137.0
 21
-7.7699999999999996
 31
0.0
  0
LINE
  5
2F2
100
AcDbEntity
  8
0
  6
CONTINUOUS
 62
               7
100
AcDbLine
 10
-6.5
 20
54.0
 30
0.0
 11
-6.5
 21
0.0
 31
0.0
  0
LINE
  5
2F3
100
AcDbEntity
  8
0
  6
CONTINUOUS
 62
               7
100
AcDbLine
 10
-6.5
 20
54.0
 30
0.0
 11
9.5
 21
54.0
 31
0.0
  0
LINE
  5
2F4
100
AcDbEntity
  8
0
  6
CONTINUOUS
 62
               7
100
AcDbLine
 10
-6.5
 20
0.0
 30
0.0
 11
9.5
 21
0.0
 31
0.0
  0
LINE
  5
2F5
100
AcDbEntity
  8
0
  6
CONTINUOUS
 62
               7
100
AcDbLine
 10
6.5
 20
54.0
 30
0.0
 11
6.5
 21
40.0
 31
0.0
  0
LINE
  5
2F6
100
AcDbEntity
  8
0
  6
CONTINUOUS
 62
               7
100
AcDbLine
 10
-6.5
 20
40.0
 30
0.0
 11
6.5
 21
40.0
 31
0.0
  0
LINE
  5
2F7
100
AcDbEntity
  8
0
  6
CONTINUOUS
 62
               7
100
AcDbLine
 10
127.5
 20
54.0
 30
0.0
 11
127.5
 21
0.0
 31
0.0
  0
LINE
  5
2F8
100
AcDbEntity
  8
0
  6
CONTINUOUS
 62
               7
100
AcDbLine
 10
143.5
 20
54.0
 30
0.0
 11
127.5
 21
54.0
 31
0.0
  0
LINE
  5
2F9
100
AcDbEntity
  8
0
  6
CONTINUOUS
 62
               7
100
AcDbLine
 10
130.5
 20
54.0
 30
0.0
 11
130.5
 21
40.0
 31
0.0
  0
LINE
  5
2FA
100
AcDbEntity
  8
0
  6
CONTINUOUS
 62
               7
100
AcDbLine
 10
143.5
 20
40.0
 30
0.0
 11
130.5
 21
40.0
 31
0.0
  0
LINE
  5
2FB
100
AcDbEntity
  8
0
  6
CONTINUOUS
 62
               7
100
AcDbLine
 10
143.5
 20
0.0
 30
0.0
 11
127.5
 21
0.0
 31
0.0
  0
LINE
  5
2FC
100
AcDbEntity
  8
0
  6
CONTINUOUS
 62
               7
100
AcDbLine
 10
143.5
 20
54.0
 30
0.0
 11
143.5
 21
0.0
 31
0.0
  0
LINE
  5
2FD
100
AcDbEntity
  8
0
  6
CONTINUOUS
 62
               7
100
AcDbLine
 10
9.5
 20
54.0
 30
0.0
 11
9.5
 21
0.0
 31
0.0
  0
LINE
  5
2FE
100
AcDbEntity
  8
0
  6
CONTINUOUS
 62
               2
100
AcDbLine
 10
4.5
 20
23.0
 30
0.0
 11
14.5
 21
23.0
 31
0.0
  0
LINE
  5
2FF
100
AcDbEntity
  8
0
  6
CONTINUOUS
 62
               2
100
AcDbLine
 10
122.5
 20
23.0
 30
0.0
 11
132.5
 21
23.0
 31
0.0
  0
ENDBLK
  5
300
100
AcDbEntity
  8
0
100
AcDbBlockEnd
  0
BLOCK
  5
301
100
AcDbEntity
  8
0
100
AcDbBlockBegin
  2
F18MP-13
 70
               0
 10
0.0
 20
0.0
 30
0.0
  3
F18MP-13
  1

  0
LINE
  5
302
100
AcDbEntity
  8
0
  6
CONTINUOUS
 62
               2
100
AcDbLine
 10
9.5
 20
-81.798252563476566
 30
0.0
 11
9.5
 21
52.591747436523434
 31
0.0
  0
LINE
  5
303
100
AcDbEntity
  8
0
  6
CONTINUOUS
 62
               4
100
AcDbLine
 10
0.5
 20
-55.998252563476569
 30
0.0
 11
0.5
 21
-50.648252563476575
 31
0.0
  0
LINE
  5
304
100
AcDbEntity
  8
0
  6
CONTINUOUS
 62
               4
100
AcDbLine
 10
1.9300000000000068
 20
-50.058252563476572
 30
0.0
 11
4.0600000000000023
 21
-47.928252563476576
 31
0.0
  0
LINE
  5
305
100
AcDbEntity
  8
0
  6
CONTINUOUS
 62
               4
100
AcDbLine
 10
1.9300000000000068
 20
-47.928252563476576
 30
0.0
 11
4.0600000000000023
 21
-50.058252563476572
 31
0.0
  0
LINE
  5
306
100
AcDbEntity
  8
0
  6
CONTINUOUS
 62
               4
100
AcDbLine
 10
14.930000000000007
 20
-10.058252563476572
 30
0.0
 11
17.060000000000002
 21
-7.9282525634765761
 31
0.0
  0
LINE
  5
307
100
AcDbEntity
  8
0
  6
CONTINUOUS
 62
               4
100
AcDbLine
 10
14.939999999999998
 20
-7.9282525634765761
 30
0.0
 11
17.060000000000002
 21
-10.058252563476572
 31
0.0
  0
LINE
  5
308
100
AcDbEntity
  8
0
  6
CONTINUOUS
 62
               4
100
AcDbLine
 10
0.5
 20
-47.348252563476564
 30
0.0
 11
0.5
 21
10.001747436523431
 31
0.0
  0
LINE
  5
309
100
AcDbEntity
  8
0
  6
CONTINUOUS
 62
               4
100
AcDbLine
 10
18.5
 20
-7.3482525634765636
 30
0.0
 11
18.5
 21
10.001747436523431
 31
0.0
  0
LINE
  5
30A
100
AcDbEntity
  8
0
  6
CONTINUOUS
 62
               4
100
AcDbLine
 10
18.5
 20
-55.998252563476569
 30
0.0
 11
18.5
 21
-10.648252563476575
 31
0.0
  0
LINE
  5
30B
100
AcDbEntity
  8
0
  6
CONTINUOUS
 62
               4
100
AcDbLine
 10
0.5
 20
-55.998252563476569
 30
0.0
 11
18.5
 21
-55.998252563476569
 31
0.0
  0
LINE
  5
30C
100
AcDbEntity
  8
0
  6
CONTINUOUS
 62
               4
100
AcDbLine
 10
0.5
 20
10.001747436523431
 30
0.0
 11
18.5
 21
10.001747436523431
 31
0.0
  0
LINE
  5
30D
100
AcDbEntity
  8
0
  6
CONTINUOUS
 62
               4
100
AcDbLine
 10
0.5
 20
-47.348252563476564
 30
0.0
 11
0.7299999999999898
 21
-47.348252563476564
 31
0.0
  0
LINE
  5
30E
100
AcDbEntity
  8
0
  6
CONTINUOUS
 62
               4
100
AcDbLine
 10
0.5
 20
-50.648252563476575
 30
0.0
 11
0.7299999999999898
 21
-50.648252563476575
 31
0.0
  0
LINE
  5
30F
100
AcDbEntity
  8
0
  6
CONTINUOUS
 62
               4
100
AcDbLine
 10
18.259999999999991
 20
-7.3482525634765636
 30
0.0
 11
18.5
 21
-7.3482525634765636
 31
0.0
  0
LINE
  5
310
100
AcDbEntity
  8
0
  6
CONTINUOUS
 62
               4
100
AcDbLine
 10
18.259999999999991
 20
-10.648252563476575
 30
0.0
 11
18.5
 21
-10.648252563476575
 31
0.0
  0
LINE
  5
311
100
AcDbEntity
  8
0
  6
CONTINUOUS
 62
               7
100
AcDbLine
 10
0.0
 20
-67.998252563476569
 30
0.0
 11
19.0
 21
-67.998252563476569
 31
0.0
  0
LINE
  5
312
100
AcDbEntity
  8
0
  6
CONTINUOUS
 62
               7
100
AcDbLine
 10
4.8000000000000114
 20
46.501747436523431
 30
0.0
 11
4.8000000000000114
 21
47.001747436523431
 31
0.0
  0
LINE
  5
313
100
AcDbEntity
  8
0
  6
CONTINUOUS
 62
               7
100
AcDbLine
 10
14.199999999999989
 20
46.451747436523419
 30
0.0
 11
14.199999999999989
 21
47.001747436523431
 31
0.0
  0
LINE
  5
314
100
AcDbEntity
  8
0
  6
CONTINUOUS
 62
               7
100
AcDbLine
 10
5.6299999999999955
 20
46.501747436523431
 30
0.0
 11
5.4900000000000091
 21
47.001747436523431
 31
0.0
  0
LINE
  5
315
100
AcDbEntity
  8
0
  6
CONTINUOUS
 62
               7
100
AcDbLine
 10
13.360000000000014
 20
46.501747436523431
 30
0.0
 11
13.5
 21
47.001747436523431
 31
0.0
  0
LINE
  5
316
100
AcDbEntity
  8
0
  6
CONTINUOUS
 62
               7
100
AcDbLine
 10
4.0
 20
37.001747436523431
 30
0.0
 11
4.0
 21
47.001747436523431
 31
0.0
  0
LINE
  5
317
100
AcDbEntity
  8
0
  6
CONTINUOUS
 62
               7
100
AcDbLine
 10
4.0
 20
37.001747436523431
 30
0.0
 11
15.0
 21
37.001747436523431
 31
0.0
  0
LINE
  5
318
100
AcDbEntity
  8
0
  6
CONTINUOUS
 62
               7
100
AcDbLine
 10
15.0
 20
37.001747436523431
 30
0.0
 11
15.0
 21
47.001747436523431
 31
0.0
  0
LINE
  5
319
100
AcDbEntity
  8
0
  6
CONTINUOUS
 62
               7
100
AcDbLine
 10
5.0
 20
46.501747436523431
 30
0.0
 11
14.0
 21
46.501747436523431
 31
0.0
  0
LINE
  5
31A
100
AcDbEntity
  8
0
  6
CONTINUOUS
 62
               7
100
AcDbLine
 10
14.5
 20
37.501747436523431
 30
0.0
 11
14.5
 21
46.001747436523431
 31
0.0
  0
LINE
  5
31B
100
AcDbEntity
  8
0
  6
CONTINUOUS
 62
               7
100
AcDbLine
 10
4.5
 20
37.501747436523431
 30
0.0
 11
4.5
 21
46.001747436523431
 31
0.0
  0
LINE
  5
31C
100
AcDbEntity
  8
0
  6
CONTINUOUS
 62
               7
100
AcDbLine
 10
0.0
 20
50.001747436523431
 30
0.0
 11
19.0
 21
50.001747436523431
 31
0.0
  0
LINE
  5
31D
100
AcDbEntity
  8
0
  6
CONTINUOUS
 62
               7
100
AcDbLine
 10
0.0
 20
47.001747436523431
 30
0.0
 11
19.0
 21
47.001747436523431
 31
0.0
  0
LINE
  5
31E
100
AcDbEntity
  8
0
  6
CONTINUOUS
 62
               7
100
AcDbLine
 10
0.0
 20
19.001747436523431
 30
0.0
 11
19.0
 21
19.001747436523431
 31
0.0
  0
LINE
  5
31F
100
AcDbEntity
  8
0
  6
CONTINUOUS
 62
               7
100
AcDbLine
 10
0.0
 20
17.001747436523431
 30
0.0
 11
19.0
 21
17.001747436523431
 31
0.0
  0
LINE
  5
320
100
AcDbEntity
  8
0
  6
CONTINUOUS
 62
               7
100
AcDbLine
 10
0.0
 20
50.001747436523431
 30
0.0
 11
0.0
 21
-67.998252563476569
 31
0.0
  0
LINE
  5
321
100
AcDbEntity
  8
0
  6
CONTINUOUS
 62
               7
100
AcDbLine
 10
19.0
 20
-67.998252563476569
 30
0.0
 11
19.0
 21
50.001747436523431
 31
0.0
  0
LINE
  5
322
100
AcDbEntity
  8
0
  6
CONTINUOUS
 62
               7
100
AcDbLine
 10
0.5
 20
-72.998252563476569
 30
0.0
 11
0.5
 21
-72.318252563476563
 31
0.0
  0
LINE
  5
323
100
AcDbEntity
  8
0
  6
CONTINUOUS
 62
               7
100
AcDbLine
 10
18.5
 20
-72.998252563476569
 30
0.0
 11
18.5
 21
-67.998252563476569
 31
0.0
  0
LINE
  5
324
100
AcDbEntity
  8
0
  6
CONTINUOUS
 62
               7
100
AcDbLine
 10
0.5
 20
-72.998252563476569
 30
0.0
 11
18.5
 21
-72.998252563476569
 31
0.0
  0
LINE
  5
325
100
AcDbEntity
  8
0
  6
CONTINUOUS
 62
               7
100
AcDbLine
 10
6.0
 20
-72.998252563476569
 30
0.0
 11
6.0
 21
-70.998252563476569
 31
0.0
  0
LINE
  5
326
100
AcDbEntity
  8
0
  6
CONTINUOUS
 62
               7
100
AcDbLine
 10
5.75
 20
-71.498252563476569
 30
0.0
 11
5.75
 21
-70.998252563476569
 31
0.0
  0
LINE
  5
327
100
AcDbEntity
  8
0
  6
CONTINUOUS
 62
               7
100
AcDbLine
 10
0.5
 20
-70.998252563476569
 30
0.0
 11
0.5
 21
-67.998252563476569
 31
0.0
  0
LINE
  5
328
100
AcDbEntity
  8
0
  6
CONTINUOUS
 62
               7
100
AcDbLine
 10
0.25
 20
-70.998252563476569
 30
0.0
 11
18.5
 21
-70.998252563476569
 31
0.0
  0
LINE
  5
329
100
AcDbEntity
  8
0
  6
CONTINUOUS
 62
               7
100
AcDbLine
 10
0.25
 20
-71.498252563476569
 30
0.0
 11
0.25
 21
-70.998252563476569
 31
0.0
  0
CIRCLE
  5
32A
100
AcDbEntity
  8
0
  6
CONTINUOUS
 62
               4
100
AcDbCircle
 10
3.0000152587890625
 20
-48.998237304687507
 30
0.0
 40
2.7999992370605469
  0
CIRCLE
  5
32B
100
AcDbEntity
  8
0
  6
CONTINUOUS
 62
               4
100
AcDbCircle
 10
16.0
 20
-8.9982525634765693
 30
0.0
 40
2.7999992370605469
  0
ARC
  5
32C
100
AcDbEntity
  8
0
  6
CONTINUOUS
 62
               7
100
AcDbCircle
 10
13.999992370547261
 20
46.001739807070692
 30
0.0
 40
0.5000076295109466
100
AcDbArc
 50
0.0008742575435872
 51
89.999125742456414
  0
ARC
  5
32D
100
AcDbEntity
  8
0
  6
CONTINUOUS
 62
               7
100
AcDbCircle
 10
5.0000076294527389
 20
46.001739807070692
 30
0.0
 40
0.5000076295109466
100
AcDbArc
 50
90.000874257543586
 51
179.99912574245641
  0
ARC
  5
32E
100
AcDbEntity
  8
0
  6
CONTINUOUS
 62
               7
100
AcDbCircle
 10
5.0000076294527389
 20
37.50175506597617
 30
0.0
 40
0.5000076295109466
100
AcDbArc
 50
180.00087425754359
 51
269.99912574245639
  0
ARC
  5
32F
100
AcDbEntity
  8
0
  6
CONTINUOUS
 62
               7
100
AcDbCircle
 10
13.999992370547261
 20
37.50175506597617
 30
0.0
 40
0.5000076295109466
100
AcDbArc
 50
270.00087425754356
 51
359.99912574245639
  0
ARC
  5
330
100
AcDbEntity
  8
0
  6
CONTINUOUS
 62
               7
100
AcDbCircle
 10
4.2500076293751192
 20
-71.498260192851703
 30
0.0
 40
1.4999923706442737
100
AcDbArc
 50
269.99970857785434
 51
0.0002914221458685
  0
ARC
  5
331
100
AcDbEntity
  8
0
  6
CONTINUOUS
 62
               7
100
AcDbCircle
 10
1.7499923706248808
 20
-71.498260192851703
 30
0.0
 40
1.4999923706442737
100
AcDbArc
 50
179.99970857785411
 51
270.00029142214572
  0
ENDBLK
  5
332
100
AcDbEntity
  8
0
100
AcDbBlockEnd
  0
BLOCK
  5
333
100
AcDbEntity
  8
0
100
AcDbBlockBegin
  2
F18MP-14
 70
               0
 10
0.0
 20
0.0
 30
0.0
  3
F18MP-14
  1

  0
LINE
  5
334
100
AcDbEntity
  8
0
  6
CONTINUOUS
 62
               4
100
AcDbLine
 10
34.701743164062492
 20
-51.798252563476581
 30
0.0
 11
34.201743164062492
 21
-51.798252563476581
 31
0.0
  0
LINE
  5
335
100
AcDbEntity
  8
0
  6
CONTINUOUS
 62
               4
100
AcDbLine
 10
34.701743164062492
 20
-46.198252563476558
 30
0.0
 11
34.201743164062492
 21
-46.198252563476558
 31
0.0
  0
LINE
  5
336
100
AcDbEntity
  8
0
  6
CONTINUOUS
 62
               4
100
AcDbLine
 10
36.201743164062492
 20
-47.698252563476558
 30
0.0
 11
36.201743164062492
 21
-50.298252563476581
 31
0.0
  0
LINE
  5
337
100
AcDbEntity
  8
0
  6
CONTINUOUS
 62
               4
100
AcDbLine
 10
34.201743164062492
 20
10.001747436523431
 30
0.0
 11
31.001743164062503
 21
10.001747436523431
 31
0.0
  0
LINE
  5
338
100
AcDbEntity
  8
0
  6
CONTINUOUS
 62
               4
100
AcDbLine
 10
34.201743164062492
 20
-55.998252563476569
 30
0.0
 11
31.001743164062503
 21
-55.998252563476569
 31
0.0
  0
LINE
  5
339
100
AcDbEntity
  8
0
  6
CONTINUOUS
 62
               4
100
AcDbLine
 10
34.201743164062492
 20
-55.998252563476569
 30
0.0
 11
34.201743164062492
 21
10.001747436523431
 31
0.0
  0
LINE
  5
33A
100
AcDbEntity
  8
0
  6
CONTINUOUS
 62
               4
100
AcDbLine
 10
34.701743164062492
 20
-11.798252563476581
 30
0.0
 11
34.201743164062492
 21
-11.798252563476581
 31
0.0
  0
LINE
  5
33B
100
AcDbEntity
  8
0
  6
CONTINUOUS
 62
               4
100
AcDbLine
 10
34.701743164062492
 20
-6.198252563476558
 30
0.0
 11
34.201743164062492
 21
-6.198252563476558
 31
0.0
  0
LINE
  5
33C
100
AcDbEntity
  8
0
  6
CONTINUOUS
 62
               4
100
AcDbLine
 10
36.201743164062492
 20
-7.698252563476558
 30
0.0
 11
36.201743164062492
 21
-10.298252563476581
 31
0.0
  0
ARC
  5
33D
100
AcDbEntity
  8
0
  6
CONTINUOUS
 62
               4
100
AcDbCircle
 10
34.701735534660997
 20
-50.298244934075058
 30
0.0
 40
1.5000076294209186
100
AcDbArc
 50
270.00029142018911
 51
359.99970857981089
  0
ARC
  5
33E
100
AcDbEntity
  8
0
  6
CONTINUOUS
 62
               4
100
AcDbCircle
 10
34.701750793418995
 20
-47.698244934120055
 30
0.0
 40
1.4999923706629004
100
AcDbArc
 50
359.99970857856579
 51
90.000291421434241
  0
ARC
  5
33F
100
AcDbEntity
  8
0
  6
CONTINUOUS
 62
               4
100
AcDbCircle
 10
34.701743164059394
 20
-10.298252563473454
 30
0.0
 40
1.5000000000031064
100
AcDbArc
 50
270.00000000011858
 51
359.99999999988131
  0
ARC
  5
340
100
AcDbEntity
  8
0
  6
CONTINUOUS
 62
               4
100
AcDbCircle
 10
34.701743164059394
 20
-7.6982525634796843
 30
0.0
 40
1.500000000003106
100
AcDbArc
 50
0.0000000001186389
 51
89.999999999881396
  0
ENDBLK
  5
341
100
AcDbEntity
  8
0
100
AcDbBlockEnd
  0
BLOCK
  5
342
100
AcDbEntity
  8
0
100
AcDbBlockBegin
  2
F18MP-15
 70
               0
 10
0.0
 20
0.0
 30
0.0
  3
F18MP-15
  1

  0
LINE
  5
343
100
AcDbEntity
  8
0
  6
CONTINUOUS
 62
               4
100
AcDbLine
 10
0.1999999999999886
 20
34.200000000000003
 30
0.0
 11
18.800000000000011
 21
34.200000000000003
 31
0.0
  0
LINE
  5
344
100
AcDbEntity
  8
0
  6
CONTINUOUS
 62
             200
100
AcDbLine
 10
9.5
 20
36.590000000000003
 30
0.0
 11
9.5
 21
31.0
 31
0.0
  0
LINE
  5
345
100
AcDbEntity
  8
0
  6
CONTINUOUS
 62
               4
100
AcDbLine
 10
0.5
 20
34.200000000000003
 30
0.0
 11
0.5
 21
31.0
 31
0.0
  0
LINE
  5
346
100
AcDbEntity
  8
0
  6
CONTINUOUS
 62
               4
100
AcDbLine
 10
18.5
 20
34.200000000000003
 30
0.0
 11
18.5
 21
31.0
 31
0.0
  0
LINE
  5
347
100
AcDbEntity
  8
0
  6
CONTINUOUS
 62
               4
100
AcDbLine
 10
5.8000000000000114
 20
34.700000000000003
 30
0.0
 11
5.8000000000000114
 21
34.200000000000003
 31
0.0
  0
LINE
  5
348
100
AcDbEntity
  8
0
  6
CONTINUOUS
 62
               4
100
AcDbLine
 10
0.1999999999999886
 20
34.700000000000003
 30
0.0
 11
0.1999999999999886
 21
34.200000000000003
 31
0.0
  0
LINE
  5
349
100
AcDbEntity
  8
0
  6
CONTINUOUS
 62
               4
100
AcDbLine
 10
18.800000000000011
 20
34.700000000000003
 30
0.0
 11
18.800000000000011
 21
34.200000000000003
 31
0.0
  0
LINE
  5
34A
100
AcDbEntity
  8
0
  6
CONTINUOUS
 62
               4
100
AcDbLine
 10
13.199999999999989
 20
34.700000000000003
 30
0.0
 11
13.199999999999989
 21
34.200000000000003
 31
0.0
  0
LINE
  5
34B
100
AcDbEntity
  8
0
  6
CONTINUOUS
 62
               4
100
AcDbLine
 10
1.6999999999999886
 20
36.200000000000003
 30
0.0
 11
4.3000000000000114
 21
36.200000000000003
 31
0.0
  0
LINE
  5
34C
100
AcDbEntity
  8
0
  6
CONTINUOUS
 62
               4
100
AcDbLine
 10
14.699999999999989
 20
36.200000000000003
 30
0.0
 11
17.300000000000011
 21
36.200000000000003
 31
0.0
  0
LINE
  5
34D
100
AcDbEntity
  8
0
  6
CONTINUOUS
 62
               7
100
AcDbLine
 10
0.0
 20
31.0
 30
0.0
 11
0.0
 21
-22.0
 31
0.0
  0
LINE
  5
34E
100
AcDbEntity
  8
0
  6
CONTINUOUS
 62
               7
100
AcDbLine
 10
16.0
 20
-14.5
 30
0.0
 11
18.5
 21
-14.5
 31
0.0
  0
LINE
  5
34F
100
AcDbEntity
  8
0
  6
CONTINUOUS
 62
               7
100
AcDbLine
 10
13.0
 20
-17.5
 30
0.0
 11
13.0
 21
-21.800000000000001
 31
0.0
  0
LINE
  5
350
100
AcDbEntity
  8
0
  6
CONTINUOUS
 62
               7
100
AcDbLine
 10
0.5
 20
-19.800000000000001
 30
0.0
 11
13.0
 21
-19.800000000000001
 31
0.0
  0
LINE
  5
351
100
AcDbEntity
  8
0
  6
CONTINUOUS
 62
               7
100
AcDbLine
 10
14.930000000000007
 20
-18.559999999999999
 30
0.0
 11
17.060000000000002
 21
-16.43
 31
0.0
  0
LINE
  5
352
100
AcDbEntity
  8
0
  6
CONTINUOUS
 62
               7
100
AcDbLine
 10
17.060000000000002
 20
-18.559999999999999
 30
0.0
 11
14.930000000000007
 21
-16.43
 31
0.0
  0
LINE
  5
353
100
AcDbEntity
  8
0
  6
CONTINUOUS
 62
               7
100
AcDbLine
 10
0.5
 20
-21.800000000000001
 30
0.0
 11
18.5
 21
-21.800000000000001
 31
0.0
  0
LINE
  5
354
100
AcDbEntity
  8
0
  6
CONTINUOUS
 62
               7
100
AcDbLine
 10
18.5
 20
-21.800000000000001
 30
0.0
 11
18.5
 21
-18.640000000000001
 31
0.0
  0
LINE
  5
355
100
AcDbEntity
  8
0
  6
CONTINUOUS
 62
               7
100
AcDbLine
 10
18.5
 20
-16.350000000000001
 30
0.0
 11
18.5
 21
21.5
 31
0.0
  0
LINE
  5
356
100
AcDbEntity
  8
0
  6
CONTINUOUS
 62
               7
100
AcDbLine
 10
0.5
 20
-21.800000000000001
 30
0.0
 11
0.5
 21
-18.5
 31
0.0
  0
LINE
  5
357
100
AcDbEntity
  8
0
  6
CONTINUOUS
 62
               7
100
AcDbLine
 10
0.5
 20
-18.5
 30
0.0
 11
3.0
 21
-18.5
 31
0.0
  0
LINE
  5
358
100
AcDbEntity
  8
0
  6
CONTINUOUS
 62
               7
100
AcDbLine
 10
0.5
 20
-12.5
 30
0.0
 11
3.0
 21
-12.5
 31
0.0
  0
LINE
  5
359
100
AcDbEntity
  8
0
  6
CONTINUOUS
 62
               7
100
AcDbLine
 10
0.5
 20
-12.5
 30
0.0
 11
0.5
 21
25.349999999999994
 31
0.0
  0
LINE
  5
35A
100
AcDbEntity
  8
0
  6
CONTINUOUS
 62
               7
100
AcDbLine
 10
0.5
 20
27.640000000000001
 30
0.0
 11
0.5
 21
30.799999999999997
 31
0.0
  0
LINE
  5
35B
100
AcDbEntity
  8
0
  6
CONTINUOUS
 62
               7
100
AcDbLine
 10
4.0600000000000023
 20
25.430000000000007
 30
0.0
 11
1.9300000000000068
 21
27.560000000000002
 31
0.0
  0
LINE
  5
35C
100
AcDbEntity
  8
0
  6
CONTINUOUS
 62
               7
100
AcDbLine
 10
1.9300000000000068
 20
25.430000000000007
 30
0.0
 11
4.0600000000000023
 21
27.560000000000002
 31
0.0
  0
LINE
  5
35D
100
AcDbEntity
  8
0
  6
CONTINUOUS
 62
               7
100
AcDbLine
 10
6.0
 20
26.5
 30
0.0
 11
6.0
 21
30.799999999999997
 31
0.0
  0
LINE
  5
35E
100
AcDbEntity
  8
0
  6
CONTINUOUS
 62
               7
100
AcDbLine
 10
3.0
 20
23.5
 30
0.0
 11
0.5
 21
23.5
 31
0.0
  0
LINE
  5
35F
100
AcDbEntity
  8
0
  6
CONTINUOUS
 62
               7
100
AcDbLine
 10
6.0
 20
28.799999999999997
 30
0.0
 11
18.5
 21
28.799999999999997
 31
0.0
  0
LINE
  5
360
100
AcDbEntity
  8
0
  6
CONTINUOUS
 62
               7
100
AcDbLine
 10
16.0
 20
27.5
 30
0.0
 11
18.5
 21
27.5
 31
0.0
  0
LINE
  5
361
100
AcDbEntity
  8
0
  6
CONTINUOUS
 62
               7
100
AcDbLine
 10
16.0
 20
21.5
 30
0.0
 11
18.5
 21
21.5
 31
0.0
  0
LINE
  5
362
100
AcDbEntity
  8
0
  6
CONTINUOUS
 62
               7
100
AcDbLine
 10
18.5
 20
27.5
 30
0.0
 11
18.5
 21
30.799999999999997
 31
0.0
  0
LINE
  5
363
100
AcDbEntity
  8
0
  6
CONTINUOUS
 62
               7
100
AcDbLine
 10
0.5
 20
30.799999999999997
 30
0.0
 11
18.5
 21
30.799999999999997
 31
0.0
  0
LINE
  5
364
100
AcDbEntity
  8
0
  6
CONTINUOUS
 62
               2
100
AcDbLine
 10
9.5
 20
-23.890000000000001
 30
0.0
 11
9.5
 21
30.799999999999997
 31
0.0
  0
LINE
  5
365
100
AcDbEntity
  8
0
  6
CONTINUOUS
 62
               7
100
AcDbLine
 10
19.0
 20
31.0
 30
0.0
 11
19.0
 21
-22.0
 31
0.0
  0
LINE
  5
366
100
AcDbEntity
  8
0
  6
CONTINUOUS
 62
               7
100
AcDbLine
 10
0.0
 20
-22.0
 30
0.0
 11
19.0
 21
-22.0
 31
0.0
  0
LINE
  5
367
100
AcDbEntity
  8
0
  6
CONTINUOUS
 62
               7
100
AcDbLine
 10
0.0
 20
31.0
 30
0.0
 11
19.0
 21
31.0
 31
0.0
  0
ARC
  5
368
100
AcDbEntity
  8
0
  6
CONTINUOUS
 62
               4
100
AcDbCircle
 10
17.300022887959301
 20
34.700022887959307
 30
0.0
 40
1.4999771122153238
100
AcDbArc
 50
359.99912573101369
 51
90.000874268986323
  0
ARC
  5
369
100
AcDbEntity
  8
0
  6
CONTINUOUS
 62
               4
100
AcDbCircle
 10
14.700022888314749
 20
34.699977111685243
 30
0.0
 40
1.5000228884893791
100
AcDbArc
 50
90.000874255883588
 51
179.99912574411633
  0
ARC
  5
36A
100
AcDbEntity
  8
0
  6
CONTINUOUS
 62
               4
100
AcDbCircle
 10
4.300022887959301
 20
34.700022887959307
 30
0.0
 40
1.4999771122153234
100
AcDbArc
 50
359.99912573101369
 51
90.000874268986422
  0
ARC
  5
36B
100
AcDbEntity
  8
0
  6
CONTINUOUS
 62
               4
100
AcDbCircle
 10
1.7000228883147486
 20
34.699977111685243
 30
0.0
 40
1.5000228884893789
100
AcDbArc
 50
90.000874255883602
 51
179.99912574411633
  0
CIRCLE
  5
36C
100
AcDbEntity
  8
0
  6
CONTINUOUS
 62
               7
100
AcDbCircle
 10
16.00006103515625
 20
-17.5
 30
0.0
 40
2.75
  0
ARC
  5
36D
100
AcDbEntity
  8
0
  6
CONTINUOUS
 62
               7
100
AcDbCircle
 10
16.000030517733336
 20
-17.500030517733347
 30
0.0
 40
3.0000305178885656
100
AcDbArc
 50
90.000582839844697
 51
179.9994171601553
  0
ARC
  5
36E
100
AcDbEntity
  8
0
  6
CONTINUOUS
 62
               7
100
AcDbCircle
 10
3.0
 20
-15.5
 30
0.0
 40
3.0000000006208816
100
AcDbArc
 50
270.0
 51
90.0
  0
CIRCLE
  5
36F
100
AcDbEntity
  8
0
  6
CONTINUOUS
 62
               7
100
AcDbCircle
 10
3.00006103515625
 20
26.5
 30
0.0
 40
2.75
  0
ARC
  5
370
100
AcDbEntity
  8
0
  6
CONTINUOUS
 62
               7
100
AcDbCircle
 10
3.000030517422914
 20
26.4999694825771
 30
0.0
 40
2.9999694827323156
100
AcDbArc
 50
269.99941715422631
 51
0.000582845773621
  0
ARC
  5
371
100
AcDbEntity
  8
0
  6
CONTINUOUS
 62
               7
100
AcDbCircle
 10
16.0
 20
24.5
 30
0.0
 40
3.0000000006208816
100
AcDbArc
 50
90.0
 51
270.0
  0
ENDBLK
  5
372
100
AcDbEntity
  8
0
100
AcDbBlockEnd
  0
BLOCK
  5
373
100
AcDbEntity
  8
0
100
AcDbBlockBegin
  2
F18MP-16
 70
               0
 10
0.0
 20
0.0
 30
0.0
  3
F18MP-16
  1

  0
LINE
  5
374
100
AcDbEntity
  8
0
  6
CONTINUOUS
 62
               2
100
AcDbLine
 10
9.5
 20
-80.508237304687498
 30
0.0
 11
9.5
 21
56.491762695312502
 31
0.0
  0
LINE
  5
375
100
AcDbEntity
  8
0
  6
CONTINUOUS
 62
               4
100
AcDbLine
 10
18.5
 20
-55.308255615234373
 30
0.0
 11
18.5
 21
-52.15388244628906
 31
0.0
  0
LINE
  5
376
100
AcDbEntity
  8
0
  6
CONTINUOUS
 62
               4
100
AcDbLine
 10
0.4999847412109375
 20
-55.308255615234373
 30
0.0
 11
0.4999847412109375
 21
-50.57423156738281
 31
0.0
  0
LINE
  5
377
100
AcDbEntity
  8
0
  6
CONTINUOUS
 62
               7
100
AcDbLine
 10
18.499984741210938
 20
-2.7082495117187477
 30
0.0
 11
18.499984741210938
 21
7.4917779541015648
 31
0.0
  0
LINE
  5
378
100
AcDbEntity
  8
0
  6
CONTINUOUS
 62
               7
100
AcDbLine
 10
0.4999847412109375
 20
-2.7082495117187477
 30
0.0
 11
0.4999847412109375
 21
7.4917779541015648
 31
0.0
  0
LINE
  5
379
100
AcDbEntity
  8
0
  6
CONTINUOUS
 62
               4
100
AcDbLine
 10
10.25
 20
-29.317976324188294
 30
0.0
 11
10.25
 21
-28.698400693609187
 31
0.0
  0
LINE
  5
37A
100
AcDbEntity
  8
0
  6
CONTINUOUS
 62
               4
100
AcDbLine
 10
8.75
 20
-29.317976324188294
 30
0.0
 11
8.75
 21
-28.698400693609187
 31
0.0
  0
ARC
  5
37B
100
AcDbEntity
  8
0
  6
CONTINUOUS
 62
               4
100
AcDbCircle
 10
8.4499999999999886
 20
-28.698400693609187
 30
0.0
 40
0.3
100
AcDbArc
 50
0.0
 51
83.482105791022747
  0
ARC
  5
37C
100
AcDbEntity
  8
0
  6
CONTINUOUS
 62
               4
100
AcDbCircle
 10
8.4499999999999886
 20
-29.317976324188294
 30
0.0
 40
0.3
100
AcDbArc
 50
276.51789420897717
 51
0.0
  0
ARC
  5
37D
100
AcDbEntity
  8
0
  6
CONTINUOUS
 62
               4
100
AcDbCircle
 10
10.550000000000011
 20
-29.317976324188294
 30
0.0
 40
0.3
100
AcDbArc
 50
180.0
 51
263.48210579102283
  0
ARC
  5
37E
100
AcDbEntity
  8
0
  6
CONTINUOUS
 62
               4
100
AcDbCircle
 10
10.550000000000011
 20
-28.698400693609187
 30
0.0
 40
0.3
100
AcDbArc
 50
96.517894208978589
 51
180.0
  0
LINE
  5
37F
100
AcDbEntity
  8
0
  6
CONTINUOUS
 62
               4
100
AcDbLine
 10
17.400000000000006
 20
-20.308188508898752
 30
0.0
 11
17.834041755690464
 21
-20.558782633386159
 31
0.0
  0
LINE
  5
380
100
AcDbEntity
  8
0
  6
CONTINUOUS
 62
               4
100
AcDbLine
 10
17.400000000000006
 20
-18.708188508898729
 30
0.0
 11
17.834041755690464
 21
-18.457594384411323
 31
0.0
  0
LINE
  5
381
100
AcDbEntity
  8
0
  6
CONTINUOUS
 62
               4
100
AcDbLine
 10
17.400000000000006
 20
-20.308188508898752
 30
0.0
 11
17.400000000000006
 21
-18.708188514859216
 31
0.0
  0
LINE
  5
382
100
AcDbEntity
  8
0
  6
CONTINUOUS
 62
               4
100
AcDbLine
 10
17.400000000000006
 20
-39.308188508898752
 30
0.0
 11
17.834041755690464
 21
-39.558782633386159
 31
0.0
  0
LINE
  5
383
100
AcDbEntity
  8
0
  6
CONTINUOUS
 62
               4
100
AcDbLine
 10
17.400000000000006
 20
-37.708188508898729
 30
0.0
 11
17.834041755690464
 21
-37.457594384411323
 31
0.0
  0
LINE
  5
384
100
AcDbEntity
  8
0
  6
CONTINUOUS
 62
               4
100
AcDbLine
 10
17.400000000000006
 20
-39.308188508898752
 30
0.0
 11
17.400000000000006
 21
-37.708188514859216
 31
0.0
  0
LINE
  5
385
100
AcDbEntity
  8
0
  6
CONTINUOUS
 62
               4
100
AcDbLine
 10
13.221160527519828
 20
-11.368442546743154
 30
0.0
 11
14.14821414846935
 21
-11.368442546743154
 31
0.0
  0
LINE
  5
386
100
AcDbEntity
  8
0
  6
CONTINUOUS
 62
               4
100
AcDbLine
 10
17.060655991012027
 20
-52.068811745606865
 30
0.0
 11
14.939336756640841
 21
-49.947490365468468
 31
0.0
  0
LINE
  5
387
100
AcDbEntity
  8
0
  6
CONTINUOUS
 62
               4
100
AcDbLine
 10
14.939358006431576
 20
-52.068824781639989
 30
0.0
 11
17.060674022151943
 21
-49.94750000403684
 31
0.0
  0
LINE
  5
388
100
AcDbEntity
  8
0
  6
CONTINUOUS
 62
               4
100
AcDbLine
 10
14.939349366989518
 20
-10.068784704337588
 30
0.0
 11
17.060678614941025
 21
-7.9474731589655789
 31
0.0
  0
LINE
  5
389
100
AcDbEntity
  8
0
  6
CONTINUOUS
 62
               4
100
AcDbLine
 10
17.06067798157801
 20
-10.068795622778737
 30
0.0
 11
14.939353203974861
 21
-7.9474796070583693
 31
0.0
  0
LINE
  5
38A
100
AcDbEntity
  8
0
  6
CONTINUOUS
 62
               4
100
AcDbLine
 10
16.0
 20
-48.008142732531553
 30
0.0
 11
18.5
 21
-48.008142732531553
 31
0.0
  0
LINE
  5
38B
100
AcDbEntity
  8
0
  6
CONTINUOUS
 62
               4
100
AcDbLine
 10
15.999984741210938
 20
-6.0081274737424906
 30
0.0
 11
18.499984741210938
 21
-6.0081274737424906
 31
0.0
  0
LINE
  5
38C
100
AcDbEntity
  8
0
  6
CONTINUOUS
 62
               4
100
AcDbLine
 10
15.999984741210938
 20
-12.008127473742491
 30
0.0
 11
18.499984741210938
 21
-12.008127473742491
 31
0.0
  0
ARC
  5
38D
100
AcDbEntity
  8
0
  6
CONTINUOUS
 62
               4
100
AcDbCircle
 10
16.0
 20
-9.0081274737424906
 30
0.0
 40
3.0
100
AcDbArc
 50
89.999982013910653
 51
269.99994604173196
  0
ARC
  5
38E
100
AcDbEntity
  8
0
  6
CONTINUOUS
 62
               4
100
AcDbCircle
 10
16.0
 20
-51.008142732531553
 30
0.0
 40
3.0
100
AcDbArc
 50
89.999982013910653
 51
179.99996402782131
  0
CIRCLE
  5
38F
100
AcDbEntity
  8
0
  6
CONTINUOUS
 62
               4
100
AcDbCircle
 10
16.000015258789063
 20
-9.0081274737424906
 30
0.0
 40
2.75
  0
CIRCLE
  5
390
100
AcDbEntity
  8
0
  6
CONTINUOUS
 62
               4
100
AcDbCircle
 10
16.0
 20
-51.008142732531553
 30
0.0
 40
2.75
  0
CIRCLE
  5
391
100
AcDbEntity
  8
0
  6
CONTINUOUS
 62
               4
100
AcDbCircle
 10
15.999984741210938
 20
-9.0081274737424906
 30
0.0
 40
2.9499998092651367
  0
LINE
  5
392
100
AcDbEntity
  8
0
  6
CONTINUOUS
 62
               4
100
AcDbLine
 10
13.221160531044006
 20
-46.647934471054327
 30
0.0
 11
18.5
 21
-46.647934471054327
 31
0.0
  0
LINE
  5
393
100
AcDbEntity
  8
0
  6
CONTINUOUS
 62
               4
100
AcDbLine
 10
1.6000000000000227
 20
-18.708188508898729
 30
0.0
 11
1.165958244309536
 21
-18.457594384411323
 31
0.0
  0
LINE
  5
394
100
AcDbEntity
  8
0
  6
CONTINUOUS
 62
               4
100
AcDbLine
 10
1.6000000000000227
 20
-20.308188508898752
 30
0.0
 11
1.165958244309536
 21
-20.558782633386159
 31
0.0
  0
LINE
  5
395
100
AcDbEntity
  8
0
  6
CONTINUOUS
 62
               4
100
AcDbLine
 10
1.6000000000000227
 20
-20.308188508898752
 30
0.0
 11
1.6000000000000227
 21
-18.708188514859216
 31
0.0
  0
LINE
  5
396
100
AcDbEntity
  8
0
  6
CONTINUOUS
 62
               4
100
AcDbLine
 10
1.6000000000000227
 20
-39.308188508898752
 30
0.0
 11
1.165958244309536
 21
-39.558782633386159
 31
0.0
  0
LINE
  5
397
100
AcDbEntity
  8
0
  6
CONTINUOUS
 62
               4
100
AcDbLine
 10
1.6000000000000227
 20
-37.708188508898729
 30
0.0
 11
1.165958244309536
 21
-37.457594384411323
 31
0.0
  0
LINE
  5
398
100
AcDbEntity
  8
0
  6
CONTINUOUS
 62
               4
100
AcDbLine
 10
1.6000000000000227
 20
-39.308188508898752
 30
0.0
 11
1.6000000000000227
 21
-37.708188514859216
 31
0.0
  0
LINE
  5
399
100
AcDbEntity
  8
0
  6
CONTINUOUS
 62
               4
100
AcDbLine
 10
4.851834472360224
 20
-46.647934471054327
 30
0.0
 11
5.7788394689559937
 21
-46.647934471054327
 31
0.0
  0
ARC
  5
39A
100
AcDbEntity
  8
0
  6
CONTINUOUS
 62
               4
100
AcDbCircle
 10
3.0
 20
-7.0081274737424906
 30
0.0
 40
3.0
100
AcDbArc
 50
270.00001798608935
 51
0.00001366037834
  0
ARC
  5
39B
100
AcDbEntity
  8
0
  6
CONTINUOUS
 62
               4
100
AcDbCircle
 10
3.0
 20
-49.008142732531553
 30
0.0
 40
3.0
100
AcDbArc
 50
269.99996334457597
 51
89.999982013910653
  0
LINE
  5
39C
100
AcDbEntity
  8
0
  6
CONTINUOUS
 62
               4
100
AcDbLine
 10
4.0606746970070162
 20
-50.068800090868194
 30
0.0
 11
1.9393565355194369
 21
-47.947477459032257
 31
0.0
  0
LINE
  5
39D
100
AcDbEntity
  8
0
  6
CONTINUOUS
 62
               4
100
AcDbLine
 10
1.9393608088106475
 20
-50.068788806600367
 30
0.0
 11
4.0606739635080658
 21
-47.947461346788202
 31
0.0
  0
LINE
  5
39E
100
AcDbEntity
  8
0
  6
CONTINUOUS
 62
               4
100
AcDbLine
 10
1.9393441902120685
 20
-8.0688081862247714
 30
0.0
 11
4.0606666432340717
 21
-5.947490024737192
 31
0.0
  0
LINE
  5
39F
100
AcDbEntity
  8
0
  6
CONTINUOUS
 62
               4
100
AcDbLine
 10
4.0606806124915238
 20
-8.0687690221650996
 30
0.0
 11
1.9393678154219742
 21
-5.947440847097198
 31
0.0
  0
LINE
  5
3A0
100
AcDbEntity
  8
0
  6
CONTINUOUS
 62
               4
100
AcDbLine
 10
0.5
 20
-52.008157991320616
 30
0.0
 11
3.0
 21
-52.008157991320616
 31
0.0
  0
LINE
  5
3A1
100
AcDbEntity
  8
0
  6
CONTINUOUS
 62
               4
100
AcDbLine
 10
0.5
 20
-46.008157991320616
 30
0.0
 11
3.0
 21
-46.008157991320616
 31
0.0
  0
LINE
  5
3A2
100
AcDbEntity
  8
0
  6
CONTINUOUS
 62
               4
100
AcDbLine
 10
6.0
 20
-7.0081274737424906
 30
0.0
 11
6.0
 21
-2.7081396807737406
 31
0.0
  0
LINE
  5
3A3
100
AcDbEntity
  8
0
  6
CONTINUOUS
 62
               4
100
AcDbLine
 10
3.0
 20
-10.008142732531553
 30
0.0
 11
0.5
 21
-10.008142732531553
 31
0.0
  0
CIRCLE
  5
3A4
100
AcDbEntity
  8
0
  6
CONTINUOUS
 62
               4
100
AcDbCircle
 10
3.0
 20
-7.0081274737424906
 30
0.0
 40
2.75
  0
CIRCLE
  5
3A5
100
AcDbEntity
  8
0
  6
CONTINUOUS
 62
               4
100
AcDbCircle
 10
3.0000152587890625
 20
-49.008142732531553
 30
0.0
 40
2.75
  0
CIRCLE
  5
3A6
100
AcDbEntity
  8
0
  6
CONTINUOUS
 62
               4
100
AcDbCircle
 10
3.0
 20
-49.008112214953428
 30
0.0
 40
2.9499998092651367
  0
LINE
  5
3A7
100
AcDbEntity
  8
0
  6
CONTINUOUS
 62
               4
100
AcDbLine
 10
0.5
 20
-11.368442546743154
 30
0.0
 11
5.7788394724801719
 21
-11.368442546743154
 31
0.0
  0
ARC
  5
3A8
100
AcDbEntity
  8
0
  6
CONTINUOUS
 62
               4
100
AcDbCircle
 10
9.5
 20
-38.508188508898741
 30
0.0
 40
8.4000000000000004
100
AcDbArc
 50
187.18484031495424
 51
352.81515968504578
  0
CIRCLE
  5
3A9
100
AcDbEntity
  8
0
  6
CONTINUOUS
 62
               4
100
AcDbCircle
 10
9.5
 20
-38.508188508898741
 30
0.0
 40
4.0499999999999998
  0
CIRCLE
  5
3AA
100
AcDbEntity
  8
0
  6
CONTINUOUS
 62
               4
100
AcDbCircle
 10
9.5
 20
-38.508188508898741
 30
0.0
 40
5.0499999999999998
  0
ARC
  5
3AB
100
AcDbEntity
  8
0
  6
CONTINUOUS
 62
               4
100
AcDbCircle
 10
9.5
 20
-38.508188508898741
 30
0.0
 40
8.4000000000000004
100
AcDbArc
 50
7.1848403149542639
 51
172.81515968504576
  0
CIRCLE
  5
3AC
100
AcDbEntity
  8
0
  6
CONTINUOUS
 62
               4
100
AcDbCircle
 10
9.5
 20
-38.508188508898741
 30
0.0
 40
8.9499999999999993
  0
CIRCLE
  5
3AD
100
AcDbEntity
  8
0
  6
CONTINUOUS
 62
               4
100
AcDbCircle
 10
9.5
 20
-19.508188508898741
 30
0.0
 40
4.0499999999999998
  0
CIRCLE
  5
3AE
100
AcDbEntity
  8
0
  6
CONTINUOUS
 62
               4
100
AcDbCircle
 10
9.5
 20
-19.508188508898741
 30
0.0
 40
5.0499999999999998
  0
ARC
  5
3AF
100
AcDbEntity
  8
0
  6
CONTINUOUS
 62
               4
100
AcDbCircle
 10
9.5
 20
-19.508188508898741
 30
0.0
 40
8.4000000000000004
100
AcDbArc
 50
187.18484031495424
 51
352.81515968504578
  0
ARC
  5
3B0
100
AcDbEntity
  8
0
  6
CONTINUOUS
 62
               4
100
AcDbCircle
 10
9.5
 20
-19.508188508898741
 30
0.0
 40
8.4000000000000004
100
AcDbArc
 50
7.1848403149542639
 51
172.81515968504576
  0
CIRCLE
  5
3B1
100
AcDbEntity
  8
0
  6
CONTINUOUS
 62
               4
100
AcDbCircle
 10
9.5
 20
-19.508188508898741
 30
0.0
 40
8.9499999999999993
  0
LINE
  5
3B2
100
AcDbEntity
  8
0
  6
CONTINUOUS
 62
               7
100
AcDbLine
 10
14.102084003577545
 20
53.991777954101565
 30
0.0
 11
19.000015258789063
 21
53.991777954101565
 31
0.0
  0
LINE
  5
3B3
100
AcDbEntity
  8
0
  6
CONTINUOUS
 62
               4
100
AcDbLine
 10
5.0500032087160491
 20
53.991777954101565
 30
0.0
 11
14.102084003577545
 21
53.991777954101565
 31
0.0
  0
LINE
  5
3B4
100
AcDbEntity
  8
0
  6
CONTINUOUS
 62
               7
100
AcDbLine
 10
4.0
 20
52.491777954101565
 30
0.0
 11
4.0
 21
53.991777954101565
 31
0.0
  0
LINE
  5
3B5
100
AcDbEntity
  8
0
  6
CONTINUOUS
 62
               7
100
AcDbLine
 10
15.0
 20
52.491777954101565
 30
0.0
 11
15.0
 21
53.991777954101565
 31
0.0
  0
LINE
  5
3B6
100
AcDbEntity
  8
0
  6
CONTINUOUS
 62
               7
100
AcDbLine
 10
0.0
 20
-68.008237304687498
 30
0.0
 11
0.0
 21
53.991777954101565
 31
0.0
  0
LINE
  5
3B7
100
AcDbEntity
  8
0
  6
CONTINUOUS
 62
               7
100
AcDbLine
 10
14.5
 20
16.991777954101565
 30
0.0
 11
19.0
 21
16.991777954101565
 31
0.0
  0
LINE
  5
3B8
100
AcDbEntity
  8
0
  6
CONTINUOUS
 62
               7
100
AcDbLine
 10
18.5
 20
-68.008237304687498
 30
0.0
 11
19.0
 21
-68.008237304687498
 31
0.0
  0
LINE
  5
3B9
100
AcDbEntity
  8
0
  6
CONTINUOUS
 62
               7
100
AcDbLine
 10
4.5
 20
11.491762695312502
 30
0.0
 11
14.5
 21
11.491762695312502
 31
0.0
  0
LINE
  5
3BA
100
AcDbEntity
  8
0
  6
CONTINUOUS
 62
               2
100
AcDbLine
 10
7.0
 20
17.69175964355469
 30
0.0
 11
12.0
 21
17.69175964355469
 31
0.0
  0
LINE
  5
3BB
100
AcDbEntity
  8
0
  6
CONTINUOUS
 62
               4
100
AcDbLine
 10
4.5
 20
20.991762695312502
 30
0.0
 11
14.5
 21
20.991762695312502
 31
0.0
  0
LINE
  5
3BC
100
AcDbEntity
  8
0
  6
CONTINUOUS
 62
               7
100
AcDbLine
 10
7.573211669921875
 20
17.391756591796877
 30
0.0
 11
11.426788330078125
 21
17.391756591796877
 31
0.0
  0
LINE
  5
3BD
100
AcDbEntity
  8
0
  6
CONTINUOUS
 62
               7
100
AcDbLine
 10
7.573211669921875
 20
17.991762695312502
 30
0.0
 11
11.426788330078125
 21
17.991762695312502
 31
0.0
  0
LINE
  5
3BE
100
AcDbEntity
  8
0
  6
CONTINUOUS
 62
               7
100
AcDbLine
 10
0.5
 20
-2.5082373046874977
 30
0.0
 11
18.5
 21
-2.5082373046874977
 31
0.0
  0
LINE
  5
3BF
100
AcDbEntity
  8
0
  6
CONTINUOUS
 62
               7
100
AcDbLine
 10
18.5
 20
-78.00825256347656
 30
0.0
 11
18.5
 21
-55.308255615234373
 31
0.0
  0
LINE
  5
3C0
100
AcDbEntity
  8
0
  6
CONTINUOUS
 62
               7
100
AcDbLine
 10
0.5
 20
7.4917626953125023
 30
0.0
 11
18.5
 21
7.4917626953125023
 31
0.0
  0
LINE
  5
3C1
100
AcDbEntity
  8
0
  6
CONTINUOUS
 62
               7
100
AcDbLine
 10
0.5
 20
-55.50825256347656
 30
0.0
 11
18.5
 21
-55.50825256347656
 31
0.0
  0
LINE
  5
3C2
100
AcDbEntity
  8
0
  6
CONTINUOUS
 62
               7
100
AcDbLine
 10
0.5
 20
-67.50825256347656
 30
0.0
 11
18.5
 21
-67.50825256347656
 31
0.0
  0
LINE
  5
3C3
100
AcDbEntity
  8
0
  6
CONTINUOUS
 62
               4
100
AcDbLine
 10
0.5
 20
-2.7082495117187477
 30
0.0
 11
18.5
 21
-2.7082495117187477
 31
0.0
  0
LINE
  5
3C4
100
AcDbEntity
  8
0
  6
CONTINUOUS
 62
               4
100
AcDbLine
 10
0.5
 20
-55.308255615234373
 30
0.0
 11
18.5
 21
-55.308255615234373
 31
0.0
  0
LINE
  5
3C5
100
AcDbEntity
  8
0
  6
CONTINUOUS
 62
               7
100
AcDbLine
 10
1.0
 20
-78.508237304687498
 30
0.0
 11
18.0
 21
-78.508237304687498
 31
0.0
  0
LINE
  5
3C6
100
AcDbEntity
  8
0
  6
CONTINUOUS
 62
               7
100
AcDbLine
 10
17.0
 20
-66.50825256347656
 30
0.0
 11
2.0
 21
-66.50825256347656
 31
0.0
  0
LINE
  5
3C7
100
AcDbEntity
  8
0
  6
CONTINUOUS
 62
               7
100
AcDbLine
 10
17.0
 20
-66.50825256347656
 30
0.0
 11
17.0
 21
-56.50825256347656
 31
0.0
  0
LINE
  5
3C8
100
AcDbEntity
  8
0
  6
CONTINUOUS
 62
               7
100
AcDbLine
 10
2.0
 20
-66.50825256347656
 30
0.0
 11
2.0
 21
-56.50825256347656
 31
0.0
  0
LINE
  5
3C9
100
AcDbEntity
  8
0
  6
CONTINUOUS
 62
               7
100
AcDbLine
 10
2.0
 20
-56.50825256347656
 30
0.0
 11
17.0
 21
-56.50825256347656
 31
0.0
  0
LINE
  5
3CA
100
AcDbEntity
  8
0
  6
CONTINUOUS
 62
               7
100
AcDbLine
 10
16.0
 20
-65.50825256347656
 30
0.0
 11
3.0
 21
-65.50825256347656
 31
0.0
  0
LINE
  5
3CB
100
AcDbEntity
  8
0
  6
CONTINUOUS
 62
               7
100
AcDbLine
 10
3.0
 20
-57.50825256347656
 30
0.0
 11
16.0
 21
-57.50825256347656
 31
0.0
  0
LINE
  5
3CC
100
AcDbEntity
  8
0
  6
CONTINUOUS
 62
               7
100
AcDbLine
 10
16.0
 20
-65.50825256347656
 30
0.0
 11
16.0
 21
-57.50825256347656
 31
0.0
  0
LINE
  5
3CD
100
AcDbEntity
  8
0
  6
CONTINUOUS
 62
               7
100
AcDbLine
 10
3.0
 20
-65.50825256347656
 30
0.0
 11
3.0
 21
-57.50825256347656
 31
0.0
  0
LINE
  5
3CE
100
AcDbEntity
  8
0
  6
CONTINUOUS
 62
               7
100
AcDbLine
 10
16.999968374516357
 20
-66.508242022999582
 30
0.0
 11
15.999967312926856
 21
-65.508240961410081
 31
0.0
  0
LINE
  5
3CF
100
AcDbEntity
  8
0
  6
CONTINUOUS
 62
               7
100
AcDbLine
 10
15.999953847101096
 20
-57.508208971837519
 30
0.0
 11
16.99995398145893
 21
-56.508206898722563
 31
0.0
  0
LINE
  5
3D0
100
AcDbEntity
  8
0
  6
CONTINUOUS
 62
               7
100
AcDbLine
 10
2.0000015099449229
 20
-56.508237012486859
 30
0.0
 11
3.0000006327773008
 21
-57.508240012833483
 31
0.0
  0
LINE
  5
3D1
100
AcDbEntity
  8
0
  6
CONTINUOUS
 62
               7
100
AcDbLine
 10
2.9999808267202752
 20
-65.508212131791367
 30
0.0
 11
1.9999740331531939
 21
-66.508207461403288
 31
0.0
  0
LINE
  5
3D2
100
AcDbEntity
  8
0
  6
CONTINUOUS
 62
               7
100
AcDbLine
 10
3.0
 20
-67.50825256347656
 30
0.0
 11
3.0
 21
-66.50825256347656
 31
0.0
  0
LINE
  5
3D3
100
AcDbEntity
  8
0
  6
CONTINUOUS
 62
               7
100
AcDbLine
 10
0.5
 20
-64.50825256347656
 30
0.0
 11
2.0
 21
-64.50825256347656
 31
0.0
  0
LINE
  5
3D4
100
AcDbEntity
  8
0
  6
CONTINUOUS
 62
               7
100
AcDbLine
 10
3.0
 20
-56.50825256347656
 30
0.0
 11
3.0
 21
-55.50825256347656
 31
0.0
  0
LINE
  5
3D5
100
AcDbEntity
  8
0
  6
CONTINUOUS
 62
               7
100
AcDbLine
 10
0.5
 20
-58.50825256347656
 30
0.0
 11
2.0
 21
-58.50825256347656
 31
0.0
  0
LINE
  5
3D6
100
AcDbEntity
  8
0
  6
CONTINUOUS
 62
               7
100
AcDbLine
 10
16.0
 20
-56.50825256347656
 30
0.0
 11
16.0
 21
-55.50825256347656
 31
0.0
  0
LINE
  5
3D7
100
AcDbEntity
  8
0
  6
CONTINUOUS
 62
               7
100
AcDbLine
 10
17.0
 20
-58.50825256347656
 30
0.0
 11
18.5
 21
-58.50825256347656
 31
0.0
  0
LINE
  5
3D8
100
AcDbEntity
  8
0
  6
CONTINUOUS
 62
               7
100
AcDbLine
 10
16.0
 20
-67.508267822265623
 30
0.0
 11
16.0
 21
-66.50825256347656
 31
0.0
  0
LINE
  5
3D9
100
AcDbEntity
  8
0
  6
CONTINUOUS
 62
               7
100
AcDbLine
 10
17.0
 20
-64.50825256347656
 30
0.0
 11
18.5
 21
-64.50825256347656
 31
0.0
  0
LINE
  5
3DA
100
AcDbEntity
  8
0
  6
CONTINUOUS
 62
               7
100
AcDbLine
 10
14.5
 20
18.991777954101565
 30
0.0
 11
19.0
 21
18.991777954101565
 31
0.0
  0
LINE
  5
3DB
100
AcDbEntity
  8
0
  6
CONTINUOUS
 62
               7
100
AcDbLine
 10
4.0
 20
36.991777954101565
 30
0.0
 11
4.5
 21
36.991777954101565
 31
0.0
  0
LINE
  5
3DC
100
AcDbEntity
  8
0
  6
CONTINUOUS
 62
               7
100
AcDbLine
 10
14.5
 20
36.991777954101565
 30
0.0
 11
15.0
 21
36.991777954101565
 31
0.0
  0
LINE
  5
3DD
100
AcDbEntity
  8
0
  6
CONTINUOUS
 62
               7
100
AcDbLine
 10
11.999984741210938
 20
17.691790161132815
 30
0.0
 11
12.999984741210938
 21
17.691790161132815
 31
0.0
  0
LINE
  5
3DE
100
AcDbEntity
  8
0
  6
CONTINUOUS
 62
               7
100
AcDbLine
 10
9.4999847412109375
 20
14.191790161132815
 30
0.0
 11
9.4999847412109375
 21
15.191790161132815
 31
0.0
  0
LINE
  5
3DF
100
AcDbEntity
  8
0
  6
CONTINUOUS
 62
               7
100
AcDbLine
 10
9.4999761705257697
 20
14.691763998037061
 30
0.0
 11
10.499978223466314
 21
14.423814314983758
 31
0.0
  0
LINE
  5
3E0
100
AcDbEntity
  8
0
  6
CONTINUOUS
 62
               7
100
AcDbLine
 10
2.4999847412109375
 20
9.9917779541015648
 30
0.0
 11
16.499984741210937
 21
9.9917779541015648
 31
0.0
  0
LINE
  5
3E1
100
AcDbEntity
  8
0
  6
CONTINUOUS
 62
               7
100
AcDbLine
 10
18.49996301891224
 20
7.4918001986548575
 30
0.0
 11
16.500013472826595
 21
9.9918001515766832
 31
0.0
  0
LINE
  5
3E2
100
AcDbEntity
  8
0
  6
CONTINUOUS
 62
               7
100
AcDbLine
 10
0.5000402285895689
 20
7.4917779143673329
 30
0.0
 11
2.4999937773409329
 21
9.99178420655727
 31
0.0
  0
LINE
  5
3E3
100
AcDbEntity
  8
0
  6
CONTINUOUS
 62
               4
100
AcDbLine
 10
18.499984741210938
 20
-7.4421820068359352
 30
0.0
 11
18.499984741210938
 21
-2.7082495117187477
 31
0.0
  0
LINE
  5
3E4
100
AcDbEntity
  8
0
  6
CONTINUOUS
 62
               4
100
AcDbLine
 10
18.499984741210938
 20
-49.747250976562498
 30
0.0
 11
18.499984741210938
 21
-10.574277343749998
 31
0.0
  0
LINE
  5
3E5
100
AcDbEntity
  8
0
  6
CONTINUOUS
 62
               4
100
AcDbLine
 10
0.4999847412109375
 20
-5.7472509765624977
 30
0.0
 11
0.4999847412109375
 21
-2.7082495117187477
 31
0.0
  0
LINE
  5
3E6
100
AcDbEntity
  8
0
  6
CONTINUOUS
 62
               4
100
AcDbLine
 10
0.4999847412109375
 20
-47.442197265624998
 30
0.0
 11
0.4999847412109375
 21
-8.2691625976562477
 31
0.0
  0
LINE
  5
3E7
100
AcDbEntity
  8
0
  6
CONTINUOUS
 62
               7
100
AcDbLine
 10
0.4999847412109375
 20
-78.008222045898435
 30
0.0
 11
0.4999847412109375
 21
-55.308255615234373
 31
0.0
  0
CIRCLE
  5
3E8
100
AcDbEntity
  8
0
  6
CONTINUOUS
 62
               7
100
AcDbCircle
 10
9.5
 20
17.691774902343752
 30
0.0
 40
2.0
  0
CIRCLE
  5
3E9
100
AcDbEntity
  8
0
  6
CONTINUOUS
 62
               7
100
AcDbCircle
 10
9.5
 20
17.691774902343752
 30
0.0
 40
1.9499998092651367
  0
ARC
  5
3EA
100
AcDbEntity
  8
0
  6
CONTINUOUS
 62
               7
100
AcDbCircle
 10
1.0
 20
-78.008237304687498
 30
0.0
 40
0.5
100
AcDbArc
 50
180.00003597217869
 51
269.99996334457597
  0
ARC
  5
3EB
100
AcDbEntity
  8
0
  6
CONTINUOUS
 62
               7
100
AcDbCircle
 10
18.0
 20
-78.008237304687498
 30
0.0
 40
0.5
100
AcDbArc
 50
270.00001798608935
 51
0.00001366037834
  0
ARC
  5
3EC
100
AcDbEntity
  8
0
  6
CONTINUOUS
 62
               7
100
AcDbCircle
 10
9.5999755859375
 20
17.691790161132815
 30
0.0
 40
3.0
100
AcDbArc
 50
268.08980532053351
 51
0.0
  0
ARC
  5
3ED
100
AcDbEntity
  8
0
  6
CONTINUOUS
 62
               7
100
AcDbCircle
 10
9.4999847412109375
 20
17.691790161132815
 30
0.0
 40
3.0
100
AcDbArc
 50
266.17746163595666
 51
3.822566595416411
  0
ARC
  5
3EE
100
AcDbEntity
  8
0
  6
CONTINUOUS
 62
               7
100
AcDbCircle
 10
9.3999786376953125
 20
17.691790161132815
 30
0.0
 40
3.0
100
AcDbArc
 50
271.91023065164512
 51
0.0
  0
ARC
  5
3EF
100
AcDbEntity
  8
0
  6
CONTINUOUS
 62
               7
100
AcDbCircle
 10
15.500030517578125
 20
10.491838989257815
 30
0.0
 40
2.5000734329223633
100
AcDbArc
 50
191.53802865027112
 51
319.45890333229613
  0
LINE
  5
3F0
100
AcDbEntity
  8
0
  6
CONTINUOUS
 62
               7
100
AcDbLine
 10
19.000015258789063
 20
-68.008237304687498
 30
0.0
 11
19.000015258789063
 21
53.991777954101565
 31
0.0
  0
LINE
  5
3F1
100
AcDbEntity
  8
0
  6
CONTINUOUS
 62
               7
100
AcDbLine
 10
4.5
 20
9.9917626953125023
 30
0.0
 11
4.5
 21
20.991762695312502
 31
0.0
  0
LINE
  5
3F2
100
AcDbEntity
  8
0
  6
CONTINUOUS
 62
               7
100
AcDbLine
 10
14.5
 20
9.9917626953125023
 30
0.0
 11
14.5
 21
20.991762695312502
 31
0.0
  0
LINE
  5
3F3
100
AcDbEntity
  8
0
  6
CONTINUOUS
 62
               7
100
AcDbLine
 10
15.0
 20
36.991777954101565
 30
0.0
 11
15.0
 21
50.991777954101565
 31
0.0
  0
LINE
  5
3F4
100
AcDbEntity
  8
0
  6
CONTINUOUS
 62
               7
100
AcDbLine
 10
4.0
 20
36.991777954101565
 30
0.0
 11
4.0
 21
50.991777954101565
 31
0.0
  0
LINE
  5
3F5
100
AcDbEntity
  8
0
  6
CONTINUOUS
 62
               7
100
AcDbLine
 10
15.0
 20
50.991777954101565
 30
0.0
 11
19.0
 21
50.991777954101565
 31
0.0
  0
LINE
  5
3F6
100
AcDbEntity
  8
0
  6
CONTINUOUS
 62
               7
100
AcDbLine
 10
15.0
 20
52.491777954101565
 30
0.0
 11
19.0
 21
52.491777954101565
 31
0.0
  0
ARC
  5
3F7
100
AcDbEntity
  8
0
  6
CONTINUOUS
 62
               4
100
AcDbCircle
 10
5.0500030517578125
 20
53.491762695312502
 30
0.0
 40
0.5
100
AcDbArc
 50
89.999982013910653
 51
179.99996402782131
  0
ARC
  5
3F8
100
AcDbEntity
  8
0
  6
CONTINUOUS
 62
               4
100
AcDbCircle
 10
13.949996948242188
 20
53.491762695312502
 30
0.0
 40
0.5
100
AcDbArc
 50
359.99994535848663
 51
89.999982013910653
  0
LINE
  5
3F9
100
AcDbEntity
  8
0
  6
CONTINUOUS
 62
               4
100
AcDbLine
 10
14.449996948242188
 20
20.991762695312502
 30
0.0
 11
14.449996948242188
 21
53.491762695312502
 31
0.0
  0
LINE
  5
3FA
100
AcDbEntity
  8
0
  6
CONTINUOUS
 62
               4
100
AcDbLine
 10
14.449996948242188
 20
49.491762695312502
 30
0.0
 11
4.5500030517578125
 21
49.491762695312502
 31
0.0
  0
LINE
  5
3FB
100
AcDbEntity
  8
0
  6
CONTINUOUS
 62
               4
100
AcDbLine
 10
4.5500030517578125
 20
20.991762695312502
 30
0.0
 11
4.5500030517578125
 21
53.491762695312502
 31
0.0
  0
LINE
  5
3FC
100
AcDbEntity
  8
0
  6
CONTINUOUS
 62
               4
100
AcDbLine
 10
4.5000152587890625
 20
44.991762695312502
 30
0.0
 11
14.500015258789063
 21
44.991762695312502
 31
0.0
  0
LINE
  5
3FD
100
AcDbEntity
  8
0
  6
CONTINUOUS
 62
               7
100
AcDbLine
 10
0.0
 20
50.991777954101565
 30
0.0
 11
4.0
 21
50.991777954101565
 31
0.0
  0
LINE
  5
3FE
100
AcDbEntity
  8
0
  6
CONTINUOUS
 62
               7
100
AcDbLine
 10
0.0
 20
53.991777954101565
 30
0.0
 11
5.0500032087160491
 21
53.991777954101565
 31
0.0
  0
LINE
  5
3FF
100
AcDbEntity
  8
0
  6
CONTINUOUS
 62
               7
100
AcDbLine
 10
0.0
 20
52.491777954101565
 30
0.0
 11
4.0
 21
52.491777954101565
 31
0.0
  0
LINE
  5
400
100
AcDbEntity
  8
0
  6
CONTINUOUS
 62
             200
100
AcDbLine
 10
0.0000545709223729
 20
-38.508188508898741
 30
0.0
 11
19.000054570922373
 21
-38.508188508898741
 31
0.0
  0
LINE
  5
401
100
AcDbEntity
  8
0
  6
CONTINUOUS
 62
             200
100
AcDbLine
 10
0.0000555245966893
 20
-19.508188508898741
 30
0.0
 11
19.000055524596689
 21
-19.508188508898741
 31
0.0
  0
LINE
  5
402
100
AcDbEntity
  8
0
  6
CONTINUOUS
 62
               7
100
AcDbLine
 10
0.0
 20
18.991777954101565
 30
0.0
 11
4.5
 21
18.991777954101565
 31
0.0
  0
LINE
  5
403
100
AcDbEntity
  8
0
  6
CONTINUOUS
 62
               7
100
AcDbLine
 10
0.0
 20
16.991777954101565
 30
0.0
 11
4.5
 21
16.991777954101565
 31
0.0
  0
LINE
  5
404
100
AcDbEntity
  8
0
  6
CONTINUOUS
 62
               7
100
AcDbLine
 10
0.0
 20
-68.008237304687498
 30
0.0
 11
0.5
 21
-68.008237304687498
 31
0.0
  0
ARC
  5
405
100
AcDbEntity
  8
0
  6
CONTINUOUS
 62
               7
100
AcDbCircle
 10
5.0500030517578125
 20
53.491762695312502
 30
0.0
 40
0.5
100
AcDbArc
 50
89.999982013910653
 51
179.99996402782131
  0
ENDBLK
  5
406
100
AcDbEntity
  8
0
100
AcDbBlockEnd
  0
BLOCK
  5
407
100
AcDbEntity
  8
0
100
AcDbBlockBegin
  2
F18MP-17
 70
               0
 10
0.0
 20
0.0
 30
0.0
  3
F18MP-17
  1

  0
LINE
  5
408
100
AcDbEntity
  8
0
  6
CONTINUOUS
 62
               4
100
AcDbLine
 10
34.891865234374961
 20
37.991762609049459
 30
0.0
 11
34.891865234374961
 21
46.491762604757923
 31
0.0
  0
LINE
  5
409
100
AcDbEntity
  8
0
  6
CONTINUOUS
 62
               4
100
AcDbLine
 10
60.491865234374984
 20
44.991762609049459
 30
0.0
 11
34.891865234374961
 21
44.991762609049459
 31
0.0
  0
LINE
  5
40A
100
AcDbEntity
  8
0
  6
CONTINUOUS
 62
               4
100
AcDbLine
 10
34.991865234374984
 20
46.591762609049454
 30
0.0
 11
30.491865234374984
 21
46.591762609049454
 31
0.0
  0
ARC
  5
40B
100
AcDbEntity
  8
0
  6
CONTINUOUS
 62
               4
100
AcDbCircle
 10
30.990324784356687
 20
53.493303059067728
 30
0.0
 40
0.4984619302958243
100
AcDbArc
 50
89.822932465398097
 51
180.17706753460234
  0
LINE
  5
40C
100
AcDbEntity
  8
0
  6
CONTINUOUS
 62
               4
100
AcDbLine
 10
30.491865234374984
 20
53.491762609049459
 30
0.0
 11
30.491865234374984
 21
50.0
 31
0.0
  0
LINE
  5
40D
100
AcDbEntity
  8
0
  6
CONTINUOUS
 62
               4
100
AcDbLine
 10
34.991865234374984
 20
46.591762609049454
 30
0.0
 11
34.991865234374984
 21
44.991762609049459
 31
0.0
  0
LINE
  5
40E
100
AcDbEntity
  8
0
  6
CONTINUOUS
 62
               4
100
AcDbLine
 10
55.491865234374984
 20
46.441762609049448
 30
0.0
 11
53.391865234374961
 21
46.441762609049448
 31
0.0
  0
LINE
  5
40F
100
AcDbEntity
  8
0
  6
CONTINUOUS
 62
               4
100
AcDbLine
 10
40.491865234374984
 20
46.441762609049448
 30
0.0
 11
38.391865234374961
 21
46.441762609049448
 31
0.0
  0
LINE
  5
410
100
AcDbEntity
  8
0
  6
CONTINUOUS
 62
               4
100
AcDbLine
 10
38.391865234374961
 20
47.391762609049465
 30
0.0
 11
38.391865234374961
 21
46.441762609049448
 31
0.0
  0
LINE
  5
411
100
AcDbEntity
  8
0
  6
CONTINUOUS
 62
               4
100
AcDbLine
 10
55.491865234374984
 20
47.391762609049465
 30
0.0
 11
55.491865234374984
 21
46.441762609049448
 31
0.0
  0
LINE
  5
412
100
AcDbEntity
  8
0
  6
CONTINUOUS
 62
               4
100
AcDbLine
 10
40.491865234374984
 20
47.391762609049465
 30
0.0
 11
38.391865234374961
 21
47.391762609049465
 31
0.0
  0
LINE
  5
413
100
AcDbEntity
  8
0
  6
CONTINUOUS
 62
               4
100
AcDbLine
 10
55.491865234374984
 20
47.391762609049465
 30
0.0
 11
53.391865234374961
 21
47.391762609049465
 31
0.0
  0
LINE
  5
414
100
AcDbEntity
  8
0
  6
CONTINUOUS
 62
               4
100
AcDbLine
 10
40.491865234374984
 20
47.391762609049465
 30
0.0
 11
40.491865234374984
 21
46.441762609049448
 31
0.0
  0
LINE
  5
415
100
AcDbEntity
  8
0
  6
CONTINUOUS
 62
               4
100
AcDbLine
 10
53.391865234374961
 20
47.391762609049465
 30
0.0
 11
53.391865234374961
 21
46.441762609049448
 31
0.0
  0
ARC
  5
416
100
AcDbEntity
  8
0
  6
CONTINUOUS
 62
               4
100
AcDbCircle
 10
58.992989182688859
 20
49.171157011166486
 30
0.0
 40
1.4988865337462252
100
AcDbArc
 50
0.2142776266259147
 51
24.039904443234679
  0
ARC
  5
417
100
AcDbEntity
  8
0
  6
CONTINUOUS
 62
               4
100
AcDbCircle
 10
58.167553098249471
 20
53.494433721127052
 30
0.0
 40
0.4973293636201366
100
AcDbArc
 50
24.005903588636848
 51
90.079246697133883
  0
LINE
  5
418
100
AcDbEntity
  8
0
  6
CONTINUOUS
 62
               4
100
AcDbLine
 10
58.62186523437498
 20
53.696762609049443
 30
0.0
 11
60.361865234374989
 21
49.781762609049451
 31
0.0
  0
LINE
  5
419
100
AcDbEntity
  8
0
  6
CONTINUOUS
 62
               4
100
AcDbLine
 10
48.241865234374984
 20
45.491762609049459
 30
0.0
 11
45.741865234374984
 21
45.491762609049459
 31
0.0
  0
LINE
  5
41A
100
AcDbEntity
  8
0
  6
CONTINUOUS
 62
               4
100
AcDbLine
 10
48.241865234374984
 20
45.491762609049459
 30
0.0
 11
48.241865234374984
 21
44.991762609049459
 31
0.0
  0
LINE
  5
41B
100
AcDbEntity
  8
0
  6
CONTINUOUS
 62
               4
100
AcDbLine
 10
45.741865234374984
 20
45.491762609049459
 30
0.0
 11
45.741865234374984
 21
44.991762609049459
 31
0.0
  0
LINE
  5
41C
100
AcDbEntity
  8
0
  6
CONTINUOUS
 62
               4
100
AcDbLine
 10
58.166865234374995
 20
53.991762609049459
 30
0.0
 11
30.988784334341688
 21
53.991762609049459
 31
0.0
  0
LINE
  5
41D
100
AcDbEntity
  8
0
  6
CONTINUOUS
 62
               4
100
AcDbLine
 10
60.491865234374984
 20
49.176762609049433
 30
0.0
 11
60.491865234374984
 21
44.991762609049459
 31
0.0
  0
LINE
  5
41E
100
AcDbEntity
  8
0
  6
CONTINUOUS
 62
               4
100
AcDbLine
 10
31.0
 20
37.991762609049459
 30
0.0
 11
34.891865234374961
 21
37.991762609049459
 31
0.0
  0
LINE
  5
41F
100
AcDbEntity
  8
0
  6
CONTINUOUS
 62
               4
100
AcDbLine
 10
31.0
 20
46.491762609049459
 30
0.0
 11
34.891865234374961
 21
46.491762609049459
 31
0.0
  0
LINE
  5
420
100
AcDbEntity
  8
0
  6
CONTINUOUS
 62
               2
100
AcDbLine
 10
62.491865234374984
 20
17.691774902343752
 30
0.0
 11
59.791853027343734
 21
17.691774902343752
 31
0.0
  0
LINE
  5
421
100
AcDbEntity
  8
0
  6
CONTINUOUS
 62
               7
100
AcDbLine
 10
61.491865234374984
 20
15.741777954101565
 30
0.0
 11
61.491865234374984
 21
17.39177185058594
 31
0.0
  0
LINE
  5
422
100
AcDbEntity
  8
0
  6
CONTINUOUS
 62
               7
100
AcDbLine
 10
61.491865234374984
 20
15.741777954101565
 30
0.0
 11
60.491865234374984
 21
15.741777954101565
 31
0.0
  0
LINE
  5
423
100
AcDbEntity
  8
0
  6
CONTINUOUS
 62
               7
100
AcDbLine
 10
61.491865234374984
 20
19.64177185058594
 30
0.0
 11
60.491865234374984
 21
19.64177185058594
 31
0.0
  0
LINE
  5
424
100
AcDbEntity
  8
0
  6
CONTINUOUS
 62
               7
100
AcDbLine
 10
60.891859130859359
 20
17.39177185058594
 30
0.0
 11
60.891859130859359
 21
17.991762695312502
 31
0.0
  0
LINE
  5
425
100
AcDbEntity
  8
0
  6
CONTINUOUS
 62
               7
100
AcDbLine
 10
61.491865234374984
 20
17.39177185058594
 30
0.0
 11
60.891859130859359
 21
17.39177185058594
 31
0.0
  0
LINE
  5
426
100
AcDbEntity
  8
0
  6
CONTINUOUS
 62
               7
100
AcDbLine
 10
61.491865234374984
 20
17.991777954101565
 30
0.0
 11
60.891859130859359
 21
17.991777954101565
 31
0.0
  0
LINE
  5
427
100
AcDbEntity
  8
0
  6
CONTINUOUS
 62
               7
100
AcDbLine
 10
61.491865234374984
 20
17.991762695312502
 30
0.0
 11
61.491865234374984
 21
19.64177185058594
 31
0.0
  0
LINE
  5
428
100
AcDbEntity
  8
0
  6
CONTINUOUS
 62
               7
100
AcDbLine
 10
60.491865234374984
 20
9.9917779541015648
 30
0.0
 11
60.491865234374984
 21
20.991762695312502
 31
0.0
  0
LINE
  5
429
100
AcDbEntity
  8
0
  6
CONTINUOUS
 62
               7
100
AcDbLine
 10
33.491865234374984
 20
9.9917779541015648
 30
0.0
 11
33.491865234374984
 21
20.991762695312502
 31
0.0
  0
LINE
  5
42A
100
AcDbEntity
  8
0
  6
CONTINUOUS
 62
               7
100
AcDbLine
 10
62.991865234374984
 20
7.4917779541015648
 30
0.0
 11
30.991865234374984
 21
7.4917779541015648
 31
0.0
  0
LINE
  5
42B
100
AcDbEntity
  8
0
  6
CONTINUOUS
 62
               7
100
AcDbLine
 10
34.491865234374984
 20
11.491762695312502
 30
0.0
 11
33.491865234374984
 21
11.491762695312502
 31
0.0
  0
LINE
  5
42C
100
AcDbEntity
  8
0
  6
CONTINUOUS
 62
               7
100
AcDbLine
 10
34.491865234374984
 20
9.9917779541015648
 30
0.0
 11
34.491865234374984
 21
11.491762695312502
 31
0.0
  0
LINE
  5
42D
100
AcDbEntity
  8
0
  6
CONTINUOUS
 62
               7
100
AcDbLine
 10
56.191862182617172
 20
11.491762695312502
 30
0.0
 11
36.991865234374984
 21
11.491762695312502
 31
0.0
  0
LINE
  5
42E
100
AcDbEntity
  8
0
  6
CONTINUOUS
 62
               7
100
AcDbLine
 10
36.991865234374984
 20
9.9917779541015648
 30
0.0
 11
36.991865234374984
 21
11.491762695312502
 31
0.0
  0
LINE
  5
42F
100
AcDbEntity
  8
0
  6
CONTINUOUS
 62
               7
100
AcDbLine
 10
56.191862182617172
 20
9.9917779541015648
 30
0.0
 11
56.191862182617172
 21
11.491762695312502
 31
0.0
  0
LINE
  5
430
100
AcDbEntity
  8
0
  6
CONTINUOUS
 62
               7
100
AcDbLine
 10
59.191862182617172
 20
9.9917779541015648
 30
0.0
 11
59.191862182617172
 21
11.491762695312502
 31
0.0
  0
LINE
  5
431
100
AcDbEntity
  8
0
  6
CONTINUOUS
 62
               7
100
AcDbLine
 10
60.491865234374984
 20
11.491762695312502
 30
0.0
 11
59.191862182617172
 21
11.491762695312502
 31
0.0
  0
ARC
  5
432
100
AcDbEntity
  8
0
  6
CONTINUOUS
 62
               7
100
AcDbCircle
 10
33.991834716796859
 20
10.491838989257815
 30
0.0
 40
2.5000734329223633
100
AcDbArc
 50
220.54037790397925
 51
348.4619560954888
  0
LINE
  5
433
100
AcDbEntity
  8
0
  6
CONTINUOUS
 62
               7
100
AcDbLine
 10
60.991865234374984
 20
9.9917779541015648
 30
0.0
 11
32.991865234374984
 21
9.9917779541015648
 31
0.0
  0
LINE
  5
434
100
AcDbEntity
  8
0
  6
CONTINUOUS
 62
               7
100
AcDbLine
 10
62.991873850145396
 20
7.4917844498182831
 30
0.0
 11
60.991873921123954
 21
9.9917843610950854
 31
0.0
  0
LINE
  5
435
100
AcDbEntity
  8
0
  6
CONTINUOUS
 62
               7
100
AcDbLine
 10
30.991860985544861
 20
7.4917854923906475
 30
0.0
 11
32.99186508485576
 21
9.991790616529272
 31
0.0
  0
LINE
  5
436
100
AcDbEntity
  8
0
  6
CONTINUOUS
 62
               4
100
AcDbLine
 10
60.491865234374984
 20
20.991762695312502
 30
0.0
 11
33.491865234374984
 21
20.991762695312502
 31
0.0
  0
LINE
  5
437
100
AcDbEntity
  8
0
  6
CONTINUOUS
 62
               4
100
AcDbLine
 10
33.491865234374984
 20
37.991762609049459
 30
0.0
 11
33.491865234374984
 21
20.99176769531249
 31
0.0
  0
LINE
  5
438
100
AcDbEntity
  8
0
  6
CONTINUOUS
 62
               4
100
AcDbLine
 10
60.491865234374984
 20
44.991762609049459
 30
0.0
 11
60.491865234374984
 21
20.991762609049459
 31
0.0
  0
LINE
  5
439
100
AcDbEntity
  8
0
  6
CONTINUOUS
 62
               7
100
AcDbLine
 10
62.991880493164047
 20
-2.5082373046874977
 30
0.0
 11
30.991865234374984
 21
-2.5082373046874977
 31
0.0
  0
LINE
  5
43A
100
AcDbEntity
  8
0
  6
CONTINUOUS
 62
               7
100
AcDbLine
 10
64.991880493164047
 20
-55.508222045898435
 30
0.0
 11
30.991865234374984
 21
-55.508222045898435
 31
0.0
  0
LINE
  5
43B
100
AcDbEntity
  8
0
  6
CONTINUOUS
 62
               7
100
AcDbLine
 10
64.991865234374984
 20
-67.508206787109373
 30
0.0
 11
30.991865234374984
 21
-67.508206787109373
 31
0.0
  0
LINE
  5
43C
100
AcDbEntity
  8
0
  6
CONTINUOUS
 62
               7
100
AcDbLine
 10
64.991865234374984
 20
-78.008222045898435
 30
0.0
 11
64.991865234374984
 21
-66.508206787109373
 31
0.0
  0
LINE
  5
43D
100
AcDbEntity
  8
0
  6
CONTINUOUS
 62
               7
100
AcDbLine
 10
64.491865234374984
 20
-78.508206787109373
 30
0.0
 11
31.491865234374984
 21
-78.508206787109373
 31
0.0
  0
LINE
  5
43E
100
AcDbEntity
  8
0
  6
CONTINUOUS
 62
               7
100
AcDbLine
 10
64.991865234374984
 20
-64.608212890624998
 30
0.0
 11
64.991865234374984
 21
-58.40821594238281
 31
0.0
  0
LINE
  5
43F
100
AcDbEntity
  8
0
  6
CONTINUOUS
 62
               7
100
AcDbLine
 10
66.991865234374984
 20
-65.508206787109373
 30
0.0
 11
66.991865234374984
 21
-57.508206787109373
 31
0.0
  0
LINE
  5
440
100
AcDbEntity
  8
0
  6
CONTINUOUS
 62
               7
100
AcDbLine
 10
65.99183569582533
 20
-56.508264622819354
 30
0.0
 11
66.991838696171953
 21
-57.50826382994552
 31
0.0
  0
LINE
  5
441
100
AcDbEntity
  8
0
  6
CONTINUOUS
 62
               7
100
AcDbLine
 10
65.991885347856169
 20
-66.50824666534055
 30
0.0
 11
66.991868707838023
 21
-65.508248048337407
 31
0.0
  0
LINE
  5
442
100
AcDbEntity
  8
0
  6
CONTINUOUS
 62
               7
100
AcDbLine
 10
65.791868286132797
 20
-64.608212890624998
 30
0.0
 11
65.791868286132797
 21
-58.40821594238281
 31
0.0
  0
LINE
  5
443
100
AcDbEntity
  8
0
  6
CONTINUOUS
 62
               7
100
AcDbLine
 10
65.991865234374984
 20
-66.508206787109373
 30
0.0
 11
65.991865234374984
 21
-56.508206787109373
 31
0.0
  0
LINE
  5
444
100
AcDbEntity
  8
0
  6
CONTINUOUS
 62
               7
100
AcDbLine
 10
64.991865234374984
 20
-64.508206787109373
 30
0.0
 11
62.991865234374984
 21
-64.508206787109373
 31
0.0
  0
LINE
  5
445
100
AcDbEntity
  8
0
  6
CONTINUOUS
 62
               7
100
AcDbLine
 10
64.991865234374984
 20
-58.508206787109373
 30
0.0
 11
62.991865234374984
 21
-58.508206787109373
 31
0.0
  0
LINE
  5
446
100
AcDbEntity
  8
0
  6
CONTINUOUS
 62
               7
100
AcDbLine
 10
63.991865234374984
 20
-67.508206787109373
 30
0.0
 11
63.991865234374984
 21
-66.508206787109373
 31
0.0
  0
LINE
  5
447
100
AcDbEntity
  8
0
  6
CONTINUOUS
 62
               7
100
AcDbLine
 10
62.991865234374984
 20
-67.508206787109373
 30
0.0
 11
62.991865234374984
 21
-64.508206787109373
 31
0.0
  0
LINE
  5
448
100
AcDbEntity
  8
0
  6
CONTINUOUS
 62
               7
100
AcDbLine
 10
63.991865234374984
 20
-58.508206787109373
 30
0.0
 11
63.991865234374984
 21
-58.40821594238281
 31
0.0
  0
LINE
  5
449
100
AcDbEntity
  8
0
  6
CONTINUOUS
 62
               7
100
AcDbLine
 10
63.091856079101547
 20
-66.508206787109373
 30
0.0
 11
63.091856079101547
 21
-64.608212890624998
 31
0.0
  0
LINE
  5
44A
100
AcDbEntity
  8
0
  6
CONTINUOUS
 62
               7
100
AcDbLine
 10
65.791868286132797
 20
-58.40821594238281
 30
0.0
 11
63.091871337890609
 21
-58.40821594238281
 31
0.0
  0
LINE
  5
44B
100
AcDbEntity
  8
0
  6
CONTINUOUS
 62
               7
100
AcDbLine
 10
65.791868286132797
 20
-64.608212890624998
 30
0.0
 11
63.091871337890609
 21
-64.608212890624998
 31
0.0
  0
LINE
  5
44C
100
AcDbEntity
  8
0
  6
CONTINUOUS
 62
               7
100
AcDbLine
 10
63.091856079101547
 20
-58.40821594238281
 30
0.0
 11
63.091856079101547
 21
-56.508206787109373
 31
0.0
  0
LINE
  5
44D
100
AcDbEntity
  8
0
  6
CONTINUOUS
 62
               7
100
AcDbLine
 10
65.991865234374984
 20
-66.508206787109373
 30
0.0
 11
63.091871337890609
 21
-66.508206787109373
 31
0.0
  0
LINE
  5
44E
100
AcDbEntity
  8
0
  6
CONTINUOUS
 62
               7
100
AcDbLine
 10
65.991865234374984
 20
-56.508206787109373
 30
0.0
 11
63.091871337890609
 21
-56.508206787109373
 31
0.0
  0
LINE
  5
44F
100
AcDbEntity
  8
0
  6
CONTINUOUS
 62
               7
100
AcDbLine
 10
64.991865234374984
 20
-56.508206787109373
 30
0.0
 11
64.991865234374984
 21
-55.508222045898435
 31
0.0
  0
LINE
  5
450
100
AcDbEntity
  8
0
  6
CONTINUOUS
 62
               7
100
AcDbLine
 10
63.991865234374984
 20
-64.608212890624998
 30
0.0
 11
63.991865234374984
 21
-64.508206787109373
 31
0.0
  0
LINE
  5
451
100
AcDbEntity
  8
0
  6
CONTINUOUS
 62
               7
100
AcDbLine
 10
63.991865234374984
 20
-56.508206787109373
 30
0.0
 11
63.991865234374984
 21
-55.508222045898435
 31
0.0
  0
LINE
  5
452
100
AcDbEntity
  8
0
  6
CONTINUOUS
 62
               7
100
AcDbLine
 10
63.191862182617172
 20
-78.508206787109373
 30
0.0
 11
63.191862182617172
 21
-76.008206787109373
 31
0.0
  0
LINE
  5
453
100
AcDbEntity
  8
0
  6
CONTINUOUS
 62
               7
100
AcDbLine
 10
56.791868286132797
 20
-78.508206787109373
 30
0.0
 11
56.791868286132797
 21
-76.008206787109373
 31
0.0
  0
LINE
  5
454
100
AcDbEntity
  8
0
  6
CONTINUOUS
 62
               7
100
AcDbLine
 10
63.191862182617172
 20
-76.008206787109373
 30
0.0
 11
56.791868286132797
 21
-76.008206787109373
 31
0.0
  0
LINE
  5
455
100
AcDbEntity
  8
0
  6
CONTINUOUS
 62
               7
100
AcDbLine
 10
61.241865234374984
 20
-78.008206787109373
 30
0.0
 11
58.741865234374984
 21
-78.008206787109373
 31
0.0
  0
LINE
  5
456
100
AcDbEntity
  8
0
  6
CONTINUOUS
 62
               7
100
AcDbLine
 10
62.741865234374984
 20
-76.508206787109373
 30
0.0
 11
62.741865234374984
 21
-76.008206787109373
 31
0.0
  0
LINE
  5
457
100
AcDbEntity
  8
0
  6
CONTINUOUS
 62
               7
100
AcDbLine
 10
57.241865234374984
 20
-76.508206787109373
 30
0.0
 11
57.241865234374984
 21
-76.008206787109373
 31
0.0
  0
LINE
  5
458
100
AcDbEntity
  8
0
  6
CONTINUOUS
 62
               4
100
AcDbLine
 10
70.991872863769515
 20
-46.008222045898435
 30
0.0
 11
62.991865234374984
 21
-46.008222045898435
 31
0.0
  0
LINE
  5
459
100
AcDbEntity
  8
0
  6
CONTINUOUS
 62
               4
100
AcDbLine
 10
67.897133156928248
 20
-52.008222045898435
 30
0.0
 11
62.991865234374984
 21
-52.008222045898435
 31
0.0
  0
LINE
  5
45A
100
AcDbEntity
  8
0
  6
CONTINUOUS
 62
               4
100
AcDbLine
 10
66.491865234374984
 20
-4.2582373046874977
 30
0.0
 11
65.991865234374984
 21
-4.2582373046874977
 31
0.0
  0
LINE
  5
45B
100
AcDbEntity
  8
0
  6
CONTINUOUS
 62
               4
100
AcDbLine
 10
66.491865234374984
 20
-9.7582373046874977
 30
0.0
 11
65.991865234374984
 21
-9.7582373046874977
 31
0.0
  0
ARC
  5
45C
100
AcDbEntity
  8
0
  6
CONTINUOUS
 62
               7
100
AcDbCircle
 10
31.491865234374984
 20
-78.008206787109373
 30
0.0
 40
0.5
100
AcDbArc
 50
179.99998133066532
 51
270.00007262760272
  0
ARC
  5
45D
100
AcDbEntity
  8
0
  6
CONTINUOUS
 62
               7
100
AcDbCircle
 10
64.491865234374984
 20
-78.008206787109373
 30
0.0
 40
0.5
100
AcDbArc
 50
270.00007262760272
 51
0.0000409811350201
  0
ARC
  5
45E
100
AcDbEntity
  8
0
  6
CONTINUOUS
 62
               7
100
AcDbCircle
 10
58.741865234374984
 20
-76.508206787109373
 30
0.0
 40
1.5
100
AcDbArc
 50
179.99998133066532
 51
270.00001798608935
  0
ARC
  5
45F
100
AcDbEntity
  8
0
  6
CONTINUOUS
 62
               7
100
AcDbCircle
 10
61.241865234374984
 20
-76.508206787109373
 30
0.0
 40
1.5
100
AcDbArc
 50
270.00001798608935
 51
0.0
  0
ARC
  5
460
100
AcDbEntity
  8
0
  6
CONTINUOUS
 62
               4
100
AcDbCircle
 10
66.491865234374984
 20
-5.7582373046874977
 30
0.0
 40
1.5
100
AcDbArc
 50
359.99998633962167
 51
89.999927372397295
  0
ARC
  5
461
100
AcDbEntity
  8
0
  6
CONTINUOUS
 62
               4
100
AcDbCircle
 10
66.491865234374984
 20
-8.2582373046874977
 30
0.0
 40
1.5
100
AcDbArc
 50
270.00001798608935
 51
359.99998633962167
  0
LINE
  5
462
100
AcDbEntity
  8
0
  6
CONTINUOUS
 62
               4
100
AcDbLine
 10
65.691846923828109
 20
-47.758222045898449
 30
0.0
 11
65.691846923828109
 21
-50.258222045898449
 31
0.0
  0
LINE
  5
463
100
AcDbEntity
  8
0
  6
CONTINUOUS
 62
               4
100
AcDbLine
 10
64.191862182617172
 20
-46.258222045898449
 30
0.0
 11
63.691862182617172
 21
-46.258222045898449
 31
0.0
  0
LINE
  5
464
100
AcDbEntity
  8
0
  6
CONTINUOUS
 62
               4
100
AcDbLine
 10
64.191862182617172
 20
-51.758206787109387
 30
0.0
 11
63.691862182617172
 21
-51.758206787109387
 31
0.0
  0
ARC
  5
465
100
AcDbEntity
  8
0
  6
CONTINUOUS
 62
               4
100
AcDbCircle
 10
64.191846923828109
 20
-50.258222045898435
 30
0.0
 40
1.5
100
AcDbArc
 50
269.9999087030626
 51
359.99994604173287
  0
ARC
  5
466
100
AcDbEntity
  8
0
  6
CONTINUOUS
 62
               4
100
AcDbCircle
 10
64.191846923828109
 20
-47.758237304687498
 30
0.0
 40
1.5
100
AcDbArc
 50
0.0000179860890374
 51
89.999982013910653
  0
LINE
  5
467
100
AcDbEntity
  8
0
  6
CONTINUOUS
 62
               4
100
AcDbLine
 10
63.691862182617172
 20
-51.958218994140637
 30
0.0
 11
63.691862182617172
 21
-46.058225097656262
 31
0.0
  0
LINE
  5
468
100
AcDbEntity
  8
0
  6
CONTINUOUS
 62
               4
100
AcDbLine
 10
62.991892360302757
 20
-48.658221697085935
 30
0.0
 11
63.691899692904428
 21
-48.470655296047369
 31
0.0
  0
LINE
  5
469
100
AcDbEntity
  8
0
  6
CONTINUOUS
 62
               4
100
AcDbLine
 10
63.691881200203227
 20
-49.358223045850025
 30
0.0
 11
62.99188856326515
 21
-49.545785454428767
 31
0.0
  0
LINE
  5
46A
100
AcDbEntity
  8
0
  6
CONTINUOUS
 62
               4
100
AcDbLine
 10
63.691862182617172
 20
-51.958218994140637
 30
0.0
 11
62.991865234374984
 21
-51.958218994140637
 31
0.0
  0
LINE
  5
46B
100
AcDbEntity
  8
0
  6
CONTINUOUS
 62
               4
100
AcDbLine
 10
63.691862182617172
 20
-46.058225097656262
 30
0.0
 11
62.991865234374984
 21
-46.058225097656262
 31
0.0
  0
LINE
  5
46C
100
AcDbEntity
  8
0
  6
CONTINUOUS
 62
               4
100
AcDbLine
 10
67.991865234374927
 20
-5.7582376623153664
 30
0.0
 11
67.991865234374927
 21
-8.2582376623153664
 31
0.0
  0
LINE
  5
46D
100
AcDbEntity
  8
0
  6
CONTINUOUS
 62
               4
100
AcDbLine
 10
65.991872863769515
 20
-2.7082296752929693
 30
0.0
 11
66.923378943451326
 21
-4.3216455328611403
 31
0.0
  0
LINE
  5
46E
100
AcDbEntity
  8
0
  6
CONTINUOUS
 62
               4
100
AcDbLine
 10
86.791872863769527
 20
-28.508229675292966
 30
0.0
 11
86.791872863769527
 21
-10.508229675292966
 31
0.0
  0
LINE
  5
46F
100
AcDbEntity
  8
0
  6
CONTINUOUS
 62
               4
100
AcDbLine
 10
87.991872863769515
 20
-28.508229675292966
 30
0.0
 11
87.991872863769515
 21
-10.508229675292966
 31
0.0
  0
LINE
  5
470
100
AcDbEntity
  8
0
  6
CONTINUOUS
 62
               4
100
AcDbLine
 10
90.356785863769517
 20
-28.508229675292966
 30
0.0
 11
90.356785863769517
 21
-10.508229675292966
 31
0.0
  0
LINE
  5
471
100
AcDbEntity
  8
0
  6
CONTINUOUS
 62
               4
100
AcDbLine
 10
90.791871863769529
 20
-27.754639275292988
 30
0.0
 11
90.791871863769529
 21
-11.261820075292974
 31
0.0
  0
LINE
  5
472
100
AcDbEntity
  8
0
  6
CONTINUOUS
 62
               4
100
AcDbLine
 10
92.391872863769493
 20
-26.608229675292961
 30
0.0
 11
92.391872863769493
 21
-12.408229675292972
 31
0.0
  0
LINE
  5
473
100
AcDbEntity
  8
0
  6
CONTINUOUS
 62
               4
100
AcDbLine
 10
92.891872863769493
 20
-13.508229675292966
 30
0.0
 11
92.491872863769515
 21
-13.508229675292966
 31
0.0
  0
LINE
  5
474
100
AcDbEntity
  8
0
  6
CONTINUOUS
 62
               4
100
AcDbLine
 10
82.091872463769505
 20
-28.508229675292966
 30
0.0
 11
82.091872463769505
 21
-10.508229675292966
 31
0.0
  0
LINE
  5
475
100
AcDbEntity
  8
0
  6
CONTINUOUS
 62
               4
100
AcDbLine
 10
81.891872863769493
 20
-10.708229675292984
 30
0.0
 11
81.691872663769516
 21
-10.508229675292966
 31
0.0
  0
LINE
  5
476
100
AcDbEntity
  8
0
  6
CONTINUOUS
 62
               4
100
AcDbLine
 10
81.691872663769516
 20
-10.508229675292966
 30
0.0
 11
81.691872663769516
 21
-29.008229675292966
 31
0.0
  0
LINE
  5
477
100
AcDbEntity
  8
0
  6
CONTINUOUS
 62
               4
100
AcDbLine
 10
87.791872863769527
 20
-27.808229675292978
 30
0.0
 11
86.891872863769493
 21
-27.808229675292978
 31
0.0
  0
LINE
  5
478
100
AcDbEntity
  8
0
  6
CONTINUOUS
 62
               4
100
AcDbLine
 10
87.791872863769527
 20
-11.208229675292984
 30
0.0
 11
86.891872863769493
 21
-11.208229675292984
 31
0.0
  0
LINE
  5
479
100
AcDbEntity
  8
0
  6
CONTINUOUS
 62
               4
100
AcDbLine
 10
81.691872863769504
 20
-10.508229675292966
 30
0.0
 11
70.495167263769474
 21
-10.508229675292966
 31
0.0
  0
LINE
  5
47A
100
AcDbEntity
  8
0
  6
CONTINUOUS
 62
               4
100
AcDbLine
 10
81.891872863769493
 20
-28.308229675292978
 30
0.0
 11
81.691872663769516
 21
-28.508229675292966
 31
0.0
  0
LINE
  5
47B
100
AcDbEntity
  8
0
  6
CONTINUOUS
 62
               4
100
AcDbLine
 10
86.791872863769527
 20
-28.508229675292966
 30
0.0
 11
86.891872863769493
 21
-28.408229675292972
 31
0.0
  0
LINE
  5
47C
100
AcDbEntity
  8
0
  6
CONTINUOUS
 62
               4
100
AcDbLine
 10
86.791872863769527
 20
-10.508229675292966
 30
0.0
 11
86.891872863769493
 21
-10.608229675292975
 31
0.0
  0
LINE
  5
47D
100
AcDbEntity
  8
0
  6
CONTINUOUS
 62
               4
100
AcDbLine
 10
81.891872263769528
 20
-28.308229675292978
 30
0.0
 11
82.091872463769505
 21
-28.508229675292966
 31
0.0
  0
LINE
  5
47E
100
AcDbEntity
  8
0
  6
CONTINUOUS
 62
               4
100
AcDbLine
 10
86.791872863769527
 20
-28.508229675292966
 30
0.0
 11
82.091872463769505
 21
-28.508229675292966
 31
0.0
  0
LINE
  5
47F
100
AcDbEntity
  8
0
  6
CONTINUOUS
 62
               4
100
AcDbLine
 10
86.791872863769527
 20
-10.508229675292966
 30
0.0
 11
82.091872463769505
 21
-10.508229675292966
 31
0.0
  0
LINE
  5
480
100
AcDbEntity
  8
0
  6
CONTINUOUS
 62
               4
100
AcDbLine
 10
81.891872463769516
 20
-28.308229675292978
 30
0.0
 11
81.891872463769516
 21
-10.708229675292984
 31
0.0
  0
LINE
  5
481
100
AcDbEntity
  8
0
  6
CONTINUOUS
 62
               4
100
AcDbLine
 10
81.891872263769528
 20
-10.708229675292984
 30
0.0
 11
82.091872463769505
 21
-10.508229675292966
 31
0.0
  0
LINE
  5
482
100
AcDbEntity
  8
0
  6
CONTINUOUS
 62
               4
100
AcDbLine
 10
90.356786863769514
 20
-28.508229675292966
 30
0.0
 11
87.991872863769515
 21
-28.508229675292966
 31
0.0
  0
LINE
  5
483
100
AcDbEntity
  8
0
  6
CONTINUOUS
 62
               4
100
AcDbLine
 10
87.791872863769527
 20
-10.708229675292984
 30
0.0
 11
87.991872863769515
 21
-10.508229675292966
 31
0.0
  0
LINE
  5
484
100
AcDbEntity
  8
0
  6
CONTINUOUS
 62
               4
100
AcDbLine
 10
90.356786863769514
 20
-10.508229675292966
 30
0.0
 11
87.991872863769515
 21
-10.508229675292966
 31
0.0
  0
LINE
  5
485
100
AcDbEntity
  8
0
  6
CONTINUOUS
 62
               4
100
AcDbLine
 10
87.791872863769527
 20
-10.708229675292984
 30
0.0
 11
87.791872863769527
 21
-28.308229675292978
 31
0.0
  0
LINE
  5
486
100
AcDbEntity
  8
0
  6
CONTINUOUS
 62
               4
100
AcDbLine
 10
90.791871863769529
 20
-27.754639275292988
 30
0.0
 11
91.391871863769495
 21
-27.408228875292963
 31
0.0
  0
LINE
  5
487
100
AcDbEntity
  8
0
  6
CONTINUOUS
 62
               4
100
AcDbLine
 10
90.791871863769529
 20
-11.261820075292974
 30
0.0
 11
91.391871863769495
 21
-11.60823047529297
 31
0.0
  0
LINE
  5
488
100
AcDbEntity
  8
0
  6
CONTINUOUS
 62
               4
100
AcDbLine
 10
90.356785863769517
 20
-10.508229675292966
 30
0.0
 11
90.791871863769529
 21
-11.261820075292974
 31
0.0
  0
LINE
  5
489
100
AcDbEntity
  8
0
  6
CONTINUOUS
 62
               4
100
AcDbLine
 10
90.356785863769517
 20
-28.508229675292966
 30
0.0
 11
90.791871863769529
 21
-27.754639275292988
 31
0.0
  0
LINE
  5
48A
100
AcDbEntity
  8
0
  6
CONTINUOUS
 62
               4
100
AcDbLine
 10
87.791872863769527
 20
-28.308229675292978
 30
0.0
 11
87.991872863769515
 21
-28.508229675292966
 31
0.0
  0
LINE
  5
48B
100
AcDbEntity
  8
0
  6
CONTINUOUS
 62
               4
100
AcDbLine
 10
91.391871863769495
 20
-27.408229675292972
 30
0.0
 11
91.391871863769495
 21
-11.60823047529297
 31
0.0
  0
LINE
  5
48C
100
AcDbEntity
  8
0
  6
CONTINUOUS
 62
               4
100
AcDbLine
 10
86.891872863769493
 20
-10.608229675292975
 30
0.0
 11
86.891872863769493
 21
-28.408229675292972
 31
0.0
  0
LINE
  5
48D
100
AcDbEntity
  8
0
  6
CONTINUOUS
 62
               4
100
AcDbLine
 10
92.391872863769493
 20
-26.608229675292961
 30
0.0
 11
91.391871863769495
 21
-26.608229675292961
 31
0.0
  0
LINE
  5
48E
100
AcDbEntity
  8
0
  6
CONTINUOUS
 62
               4
100
AcDbLine
 10
92.491872863769515
 20
-26.508229675292966
 30
0.0
 11
92.491872863769515
 21
-12.508229675292966
 31
0.0
  0
LINE
  5
48F
100
AcDbEntity
  8
0
  6
CONTINUOUS
 62
               4
100
AcDbLine
 10
92.491872863769515
 20
-26.508229675292966
 30
0.0
 11
92.391872863769493
 21
-26.608229675292961
 31
0.0
  0
LINE
  5
490
100
AcDbEntity
  8
0
  6
CONTINUOUS
 62
               4
100
AcDbLine
 10
92.491872863769515
 20
-12.508229675292966
 30
0.0
 11
92.391872863769493
 21
-12.408229675292972
 31
0.0
  0
LINE
  5
491
100
AcDbEntity
  8
0
  6
CONTINUOUS
 62
               4
100
AcDbLine
 10
92.391872863769493
 20
-12.408229675292972
 30
0.0
 11
91.391871863769495
 21
-12.408229675292972
 31
0.0
  0
LINE
  5
492
100
AcDbEntity
  8
0
  6
CONTINUOUS
 62
               4
100
AcDbLine
 10
92.891872863769493
 20
-25.508229675292966
 30
0.0
 11
92.491872863769515
 21
-25.508229675292966
 31
0.0
  0
LINE
  5
493
100
AcDbEntity
  8
0
  6
CONTINUOUS
 62
               4
100
AcDbLine
 10
94.292553863769513
 20
-27.908229675292972
 30
0.0
 11
93.391872863769493
 21
-27.908229675292972
 31
0.0
  0
LINE
  5
494
100
AcDbEntity
  8
0
  6
CONTINUOUS
 62
               4
100
AcDbLine
 10
93.391872863769493
 20
-11.108229675292975
 30
0.0
 11
93.391872863769493
 21
-27.908229675292972
 31
0.0
  0
LINE
  5
495
100
AcDbEntity
  8
0
  6
CONTINUOUS
 62
               4
100
AcDbLine
 10
94.591872863769538
 20
-27.608229675292961
 30
0.0
 11
94.591872863769538
 21
-11.408229675292972
 31
0.0
  0
LINE
  5
496
100
AcDbEntity
  8
0
  6
CONTINUOUS
 62
               4
100
AcDbLine
 10
94.292553863769513
 20
-11.108229675292975
 30
0.0
 11
93.391872863769493
 21
-11.108229675292975
 31
0.0
  0
ARC
  5
497
100
AcDbEntity
  8
0
  6
CONTINUOUS
 62
               4
100
AcDbCircle
 10
92.891872863769493
 20
-13.008229675292966
 30
0.0
 40
0.5
100
AcDbArc
 50
269.99999999999977
 51
0.0
  0
ARC
  5
498
100
AcDbEntity
  8
0
  6
CONTINUOUS
 62
               4
100
AcDbCircle
 10
94.291872863769527
 20
-27.608229675292961
 30
0.0
 40
0.3
100
AcDbArc
 50
269.99999999999977
 51
0.0
  0
ARC
  5
499
100
AcDbEntity
  8
0
  6
CONTINUOUS
 62
               4
100
AcDbCircle
 10
92.891872863769493
 20
-26.008229675292966
 30
0.0
 40
0.5
100
AcDbArc
 50
359.99999999999926
 51
89.999999999999389
  0
ARC
  5
49A
100
AcDbEntity
  8
0
  6
CONTINUOUS
 62
               4
100
AcDbCircle
 10
94.291872863769527
 20
-11.408229675292972
 30
0.0
 40
0.3
100
AcDbArc
 50
359.99999999999926
 51
89.999999999999389
  0
LINE
  5
49B
100
AcDbEntity
  8
0
  6
CONTINUOUS
 62
             200
100
AcDbLine
 10
95.591872863769538
 20
-19.508229675292966
 30
0.0
 11
61.991872863769515
 21
-19.508229675292966
 31
0.0
  0
LINE
  5
49C
100
AcDbEntity
  8
0
  6
CONTINUOUS
 62
               4
100
AcDbLine
 10
70.206529828853775
 20
-10.008229675292966
 30
0.0
 11
65.991872863769515
 21
-10.008229675292966
 31
0.0
  0
LINE
  5
49D
100
AcDbEntity
  8
0
  6
CONTINUOUS
 62
               4
100
AcDbLine
 10
65.991872863769515
 20
-2.7082296752929693
 30
0.0
 11
65.991872863769515
 21
-10.008229687213898
 31
0.0
  0
LINE
  5
49E
100
AcDbEntity
  8
0
  6
CONTINUOUS
 62
               4
100
AcDbLine
 10
70.991872863769515
 20
-11.36848371313738
 30
0.0
 11
70.991872863769515
 21
-29.008229675292966
 31
0.0
  0
LINE
  5
49F
100
AcDbEntity
  8
0
  6
CONTINUOUS
 62
               4
100
AcDbLine
 10
65.991872863769515
 20
-2.7082296752929693
 30
0.0
 11
62.991872863769515
 21
-2.7082296752929693
 31
0.0
  0
LINE
  5
4A0
100
AcDbEntity
  8
0
  6
CONTINUOUS
 62
               4
100
AcDbLine
 10
81.691872663769516
 20
-47.508229675292966
 30
0.0
 11
81.691872663769516
 21
-29.008229675292966
 31
0.0
  0
LINE
  5
4A1
100
AcDbEntity
  8
0
  6
CONTINUOUS
 62
               4
100
AcDbLine
 10
70.991872863769515
 20
-46.647975637448567
 30
0.0
 11
70.991872863769515
 21
-29.008229675292966
 31
0.0
  0
LINE
  5
4A2
100
AcDbEntity
  8
0
  6
CONTINUOUS
 62
               4
100
AcDbLine
 10
65.991872863769515
 20
-55.308229675292978
 30
0.0
 11
62.991872863769515
 21
-55.308229675292978
 31
0.0
  0
LINE
  5
4A3
100
AcDbEntity
  8
0
  6
CONTINUOUS
 62
             200
100
AcDbLine
 10
95.591872863769538
 20
-38.508229675292966
 30
0.0
 11
61.991872863769515
 21
-38.508229675292966
 31
0.0
  0
ARC
  5
4A4
100
AcDbEntity
  8
0
  6
CONTINUOUS
 62
               4
100
AcDbCircle
 10
94.291872863769527
 20
-46.608229675292975
 30
0.0
 40
0.3
100
AcDbArc
 50
270.00000000000063
 51
0.0000000000008142
  0
ARC
  5
4A5
100
AcDbEntity
  8
0
  6
CONTINUOUS
 62
               4
100
AcDbCircle
 10
92.891872863769493
 20
-32.008229675292966
 30
0.0
 40
0.5
100
AcDbArc
 50
270.00000000000063
 51
0.0000000000008142
  0
ARC
  5
4A6
100
AcDbEntity
  8
0
  6
CONTINUOUS
 62
               4
100
AcDbCircle
 10
94.291872863769527
 20
-30.408229675292972
 30
0.0
 40
0.3
100
AcDbArc
 50
0.0
 51
90.000000000000199
  0
ARC
  5
4A7
100
AcDbEntity
  8
0
  6
CONTINUOUS
 62
               4
100
AcDbCircle
 10
92.891872863769493
 20
-45.008229675292966
 30
0.0
 40
0.5
100
AcDbArc
 50
0.0
 51
90.000000000000199
  0
LINE
  5
4A8
100
AcDbEntity
  8
0
  6
CONTINUOUS
 62
               4
100
AcDbLine
 10
94.292553863769513
 20
-46.908229675292972
 30
0.0
 11
93.391872863769493
 21
-46.908229675292972
 31
0.0
  0
LINE
  5
4A9
100
AcDbEntity
  8
0
  6
CONTINUOUS
 62
               4
100
AcDbLine
 10
94.591872863769538
 20
-30.408229675292972
 30
0.0
 11
94.591872863769538
 21
-46.608229675292975
 31
0.0
  0
LINE
  5
4AA
100
AcDbEntity
  8
0
  6
CONTINUOUS
 62
               4
100
AcDbLine
 10
93.391872863769493
 20
-46.908229675292972
 30
0.0
 11
93.391872863769493
 21
-30.108229675292961
 31
0.0
  0
LINE
  5
4AB
100
AcDbEntity
  8
0
  6
CONTINUOUS
 62
               4
100
AcDbLine
 10
94.292553863769513
 20
-30.108229675292961
 30
0.0
 11
93.391872863769493
 21
-30.108229675292961
 31
0.0
  0
LINE
  5
4AC
100
AcDbEntity
  8
0
  6
CONTINUOUS
 62
               4
100
AcDbLine
 10
92.891872863769493
 20
-32.508229675292966
 30
0.0
 11
92.491872863769515
 21
-32.508229675292966
 31
0.0
  0
LINE
  5
4AD
100
AcDbEntity
  8
0
  6
CONTINUOUS
 62
               4
100
AcDbLine
 10
92.391872863769493
 20
-45.608229675292975
 30
0.0
 11
91.391871863769495
 21
-45.608229675292975
 31
0.0
  0
LINE
  5
4AE
100
AcDbEntity
  8
0
  6
CONTINUOUS
 62
               4
100
AcDbLine
 10
92.491872863769515
 20
-45.508229675292966
 30
0.0
 11
92.391872863769493
 21
-45.608229675292975
 31
0.0
  0
LINE
  5
4AF
100
AcDbEntity
  8
0
  6
CONTINUOUS
 62
               4
100
AcDbLine
 10
92.491872863769515
 20
-31.508229675292966
 30
0.0
 11
92.391872863769493
 21
-31.408229675292972
 31
0.0
  0
LINE
  5
4B0
100
AcDbEntity
  8
0
  6
CONTINUOUS
 62
               4
100
AcDbLine
 10
92.491872863769515
 20
-31.508229675292966
 30
0.0
 11
92.491872863769515
 21
-45.508229675292966
 31
0.0
  0
LINE
  5
4B1
100
AcDbEntity
  8
0
  6
CONTINUOUS
 62
               4
100
AcDbLine
 10
92.391872863769493
 20
-31.408229675292972
 30
0.0
 11
91.391871863769495
 21
-31.408229675292972
 31
0.0
  0
LINE
  5
4B2
100
AcDbEntity
  8
0
  6
CONTINUOUS
 62
               4
100
AcDbLine
 10
86.891872863769493
 20
-47.408229675292972
 30
0.0
 11
86.891872863769493
 21
-29.608229675292961
 31
0.0
  0
LINE
  5
4B3
100
AcDbEntity
  8
0
  6
CONTINUOUS
 62
               4
100
AcDbLine
 10
91.391871863769495
 20
-30.608229675292961
 30
0.0
 11
91.391871863769495
 21
-46.408228875292977
 31
0.0
  0
LINE
  5
4B4
100
AcDbEntity
  8
0
  6
CONTINUOUS
 62
               4
100
AcDbLine
 10
87.791872863769527
 20
-29.708229675292984
 30
0.0
 11
87.991872863769515
 21
-29.508229675292966
 31
0.0
  0
LINE
  5
4B5
100
AcDbEntity
  8
0
  6
CONTINUOUS
 62
               4
100
AcDbLine
 10
90.356785863769517
 20
-29.508229675292966
 30
0.0
 11
90.791871863769529
 21
-30.261820075292974
 31
0.0
  0
LINE
  5
4B6
100
AcDbEntity
  8
0
  6
CONTINUOUS
 62
               4
100
AcDbLine
 10
90.356785863769517
 20
-47.508229675292966
 30
0.0
 11
90.791871863769529
 21
-46.754639275292973
 31
0.0
  0
LINE
  5
4B7
100
AcDbEntity
  8
0
  6
CONTINUOUS
 62
               4
100
AcDbLine
 10
90.791871863769529
 20
-46.754639275292973
 30
0.0
 11
91.391871863769495
 21
-46.408228875292977
 31
0.0
  0
LINE
  5
4B8
100
AcDbEntity
  8
0
  6
CONTINUOUS
 62
               4
100
AcDbLine
 10
90.791871863769529
 20
-30.261820075292974
 30
0.0
 11
91.391871863769495
 21
-30.60823047529297
 31
0.0
  0
LINE
  5
4B9
100
AcDbEntity
  8
0
  6
CONTINUOUS
 62
               4
100
AcDbLine
 10
87.791872863769527
 20
-47.308229675292978
 30
0.0
 11
87.791872863769527
 21
-29.708229675292984
 31
0.0
  0
LINE
  5
4BA
100
AcDbEntity
  8
0
  6
CONTINUOUS
 62
               4
100
AcDbLine
 10
90.356786863769514
 20
-47.508229675292966
 30
0.0
 11
87.991872863769515
 21
-47.508229675292966
 31
0.0
  0
LINE
  5
4BB
100
AcDbEntity
  8
0
  6
CONTINUOUS
 62
               4
100
AcDbLine
 10
87.791872863769527
 20
-47.308229675292978
 30
0.0
 11
87.991872863769515
 21
-47.508229675292966
 31
0.0
  0
LINE
  5
4BC
100
AcDbEntity
  8
0
  6
CONTINUOUS
 62
               4
100
AcDbLine
 10
90.356786863769514
 20
-29.508229675292966
 30
0.0
 11
87.991872863769515
 21
-29.508229675292966
 31
0.0
  0
LINE
  5
4BD
100
AcDbEntity
  8
0
  6
CONTINUOUS
 62
               4
100
AcDbLine
 10
81.891872263769528
 20
-47.308229675292978
 30
0.0
 11
82.091872463769505
 21
-47.508229675292966
 31
0.0
  0
LINE
  5
4BE
100
AcDbEntity
  8
0
  6
CONTINUOUS
 62
               4
100
AcDbLine
 10
81.891872463769516
 20
-29.708229675292984
 30
0.0
 11
81.891872463769516
 21
-47.308229675292978
 31
0.0
  0
LINE
  5
4BF
100
AcDbEntity
  8
0
  6
CONTINUOUS
 62
               4
100
AcDbLine
 10
86.791872863769527
 20
-47.508229675292966
 30
0.0
 11
82.091872463769505
 21
-47.508229675292966
 31
0.0
  0
LINE
  5
4C0
100
AcDbEntity
  8
0
  6
CONTINUOUS
 62
               4
100
AcDbLine
 10
86.791872863769527
 20
-29.508229675292966
 30
0.0
 11
82.091872463769505
 21
-29.508229675292966
 31
0.0
  0
LINE
  5
4C1
100
AcDbEntity
  8
0
  6
CONTINUOUS
 62
               4
100
AcDbLine
 10
81.891872263769528
 20
-29.708229675292984
 30
0.0
 11
82.091872463769505
 21
-29.508229675292966
 31
0.0
  0
LINE
  5
4C2
100
AcDbEntity
  8
0
  6
CONTINUOUS
 62
               4
100
AcDbLine
 10
86.791872863769527
 20
-47.508229675292966
 30
0.0
 11
86.891872863769493
 21
-47.408229675292972
 31
0.0
  0
LINE
  5
4C3
100
AcDbEntity
  8
0
  6
CONTINUOUS
 62
               4
100
AcDbLine
 10
86.791872863769527
 20
-29.508229675292966
 30
0.0
 11
86.891872863769493
 21
-29.608229675292961
 31
0.0
  0
LINE
  5
4C4
100
AcDbEntity
  8
0
  6
CONTINUOUS
 62
               4
100
AcDbLine
 10
81.891872863769493
 20
-29.708229675292984
 30
0.0
 11
81.691872663769516
 21
-29.508229675292966
 31
0.0
  0
LINE
  5
4C5
100
AcDbEntity
  8
0
  6
CONTINUOUS
 62
               4
100
AcDbLine
 10
81.691872863769504
 20
-47.508229675292966
 30
0.0
 11
70.495167263769474
 21
-47.508229675292966
 31
0.0
  0
LINE
  5
4C6
100
AcDbEntity
  8
0
  6
CONTINUOUS
 62
               4
100
AcDbLine
 10
87.791872863769527
 20
-46.808229675292978
 30
0.0
 11
86.891872863769493
 21
-46.808229675292978
 31
0.0
  0
LINE
  5
4C7
100
AcDbEntity
  8
0
  6
CONTINUOUS
 62
               4
100
AcDbLine
 10
87.791872863769527
 20
-30.208229675292984
 30
0.0
 11
86.891872863769493
 21
-30.208229675292984
 31
0.0
  0
LINE
  5
4C8
100
AcDbEntity
  8
0
  6
CONTINUOUS
 62
               4
100
AcDbLine
 10
81.891872863769493
 20
-47.308229675292978
 30
0.0
 11
81.691872663769516
 21
-47.508229675292966
 31
0.0
  0
LINE
  5
4C9
100
AcDbEntity
  8
0
  6
CONTINUOUS
 62
               4
100
AcDbLine
 10
82.091872463769505
 20
-29.508229675292966
 30
0.0
 11
82.091872463769505
 21
-47.508229675292966
 31
0.0
  0
LINE
  5
4CA
100
AcDbEntity
  8
0
  6
CONTINUOUS
 62
               4
100
AcDbLine
 10
92.891872863769493
 20
-44.508229675292966
 30
0.0
 11
92.491872863769515
 21
-44.508229675292966
 31
0.0
  0
LINE
  5
4CB
100
AcDbEntity
  8
0
  6
CONTINUOUS
 62
               4
100
AcDbLine
 10
92.391872863769493
 20
-31.408229675292972
 30
0.0
 11
92.391872863769493
 21
-45.608229675292975
 31
0.0
  0
LINE
  5
4CC
100
AcDbEntity
  8
0
  6
CONTINUOUS
 62
               4
100
AcDbLine
 10
90.791871863769529
 20
-30.261820075292974
 30
0.0
 11
90.791871863769529
 21
-46.754639275292973
 31
0.0
  0
LINE
  5
4CD
100
AcDbEntity
  8
0
  6
CONTINUOUS
 62
               4
100
AcDbLine
 10
90.356785863769517
 20
-29.508229675292966
 30
0.0
 11
90.356785863769517
 21
-47.508229675292966
 31
0.0
  0
LINE
  5
4CE
100
AcDbEntity
  8
0
  6
CONTINUOUS
 62
               4
100
AcDbLine
 10
87.991872863769515
 20
-29.508229675292966
 30
0.0
 11
87.991872863769515
 21
-47.508229675292966
 31
0.0
  0
LINE
  5
4CF
100
AcDbEntity
  8
0
  6
CONTINUOUS
 62
               4
100
AcDbLine
 10
86.791872863769527
 20
-29.508229675292966
 30
0.0
 11
86.791872863769527
 21
-47.508229675292966
 31
0.0
  0
LINE
  5
4D0
100
AcDbEntity
  8
0
  6
CONTINUOUS
 62
               4
100
AcDbLine
 10
65.991872863769515
 20
-55.308229675292978
 30
0.0
 11
70.991872863769515
 21
-46.647975637448553
 31
0.0
  0
LINE
  5
4D1
100
AcDbEntity
  8
0
  6
CONTINUOUS
 62
               4
100
AcDbLine
 10
67.991865234374927
 20
-6.1723180759316989
 30
0.0
 11
70.991872863769515
 21
-11.36848371313738
 31
0.0
  0
LINE
  5
4D2
100
AcDbEntity
  8
0
  6
CONTINUOUS
 62
               4
100
AcDbLine
 10
81.691872663769516
 20
-28.508229675292966
 30
0.0
 11
70.991872863769515
 21
-28.508229675292966
 31
0.0
  0
LINE
  5
4D3
100
AcDbEntity
  8
0
  6
CONTINUOUS
 62
               4
100
AcDbLine
 10
81.691872663769516
 20
-29.508229675292966
 30
0.0
 11
70.991872863769515
 21
-29.508229675292966
 31
0.0
  0
LINE
  5
4D4
100
AcDbEntity
  8
0
  6
CONTINUOUS
 62
               7
100
AcDbLine
 10
62.991865234374984
 20
-58.508206787109373
 30
0.0
 11
62.991865234374984
 21
7.4917779541015648
 31
0.0
  0
LINE
  5
4D5
100
AcDbEntity
  8
0
  6
CONTINUOUS
 62
               7
100
AcDbLine
 10
30.991865234374984
 20
-78.008206787109373
 30
0.0
 11
30.991865234374984
 21
-73.0
 31
0.0
  0
ENDBLK
  5
4D6
100
AcDbEntity
  8
0
100
AcDbBlockEnd
  0
BLOCK
  5
4D7
100
AcDbEntity
  8
0
100
AcDbBlockBegin
  2
F18MP-18
 70
               0
 10
0.0
 20
0.0
 30
0.0
  3
F18MP-18
  1

  0
LINE
  5
4D8
100
AcDbEntity
  8
0
  6
CONTINUOUS
 62
               2
100
AcDbLine
 10
9.50006103515625
 20
65.540022888183557
 30
0.0
 11
9.50006103515625
 21
-24.459977111816443
 31
0.0
  0
LINE
  5
4D9
100
AcDbEntity
  8
0
  6
CONTINUOUS
 62
               4
100
AcDbLine
 10
18.800061047077094
 20
66.500015729663744
 30
0.0
 11
18.800061047077094
 21
66.000022888183565
 31
0.0
  0
ARC
  5
4DA
100
AcDbEntity
  8
0
  6
CONTINUOUS
 62
               7
100
AcDbCircle
 10
16.00006103515625
 20
24.499999999999972
 30
0.0
 40
3.0
100
AcDbArc
 50
89.999982013910653
 51
269.99994604173196
  0
ARC
  5
4DB
100
AcDbEntity
  8
0
  6
CONTINUOUS
 62
               7
100
AcDbCircle
 10
3.00006103515625
 20
26.499999999999972
 30
0.0
 40
3.0
100
AcDbArc
 50
270.00001798608935
 51
0.00001366037834
  0
CIRCLE
  5
4DC
100
AcDbEntity
  8
0
  6
CONTINUOUS
 62
               7
100
AcDbCircle
 10
3.00006103515625
 20
26.499999999999972
 30
0.0
 40
2.75
  0
ARC
  5
4DD
100
AcDbEntity
  8
0
  6
CONTINUOUS
 62
               7
100
AcDbCircle
 10
3.00006103515625
 20
-15.5
 30
0.0
 40
3.0
100
AcDbArc
 50
269.99996334457597
 51
89.999982013910653
  0
ARC
  5
4DE
100
AcDbEntity
  8
0
  6
CONTINUOUS
 62
               7
100
AcDbCircle
 10
16.00006103515625
 20
-17.5
 30
0.0
 40
3.0
100
AcDbArc
 50
89.999982013910653
 51
179.99996402782131
  0
CIRCLE
  5
4DF
100
AcDbEntity
  8
0
  6
CONTINUOUS
 62
               7
100
AcDbCircle
 10
16.00006103515625
 20
-17.5
 30
0.0
 40
2.75
  0
LINE
  5
4E0
100
AcDbEntity
  8
0
  6
CONTINUOUS
 62
               7
100
AcDbLine
 10
0.50006103515625
 20
30.79998016357419
 30
0.0
 11
18.50006103515625
 21
30.79998016357419
 31
0.0
  0
LINE
  5
4E1
100
AcDbEntity
  8
0
  6
CONTINUOUS
 62
               7
100
AcDbLine
 10
18.50006103515625
 20
27.499984741210909
 30
0.0
 11
18.50006103515625
 21
30.79998016357419
 31
0.0
  0
LINE
  5
4E2
100
AcDbEntity
  8
0
  6
CONTINUOUS
 62
               7
100
AcDbLine
 10
16.00006103515625
 20
21.499984741210909
 30
0.0
 11
18.50006103515625
 21
21.499984741210909
 31
0.0
  0
LINE
  5
4E3
100
AcDbEntity
  8
0
  6
CONTINUOUS
 62
               7
100
AcDbLine
 10
16.00006103515625
 20
27.499984741210909
 30
0.0
 11
18.50006103515625
 21
27.499984741210909
 31
0.0
  0
LINE
  5
4E4
100
AcDbEntity
  8
0
  6
CONTINUOUS
 62
               7
100
AcDbLine
 10
6.00006103515625
 20
28.79998016357419
 30
0.0
 11
18.50006103515625
 21
28.79998016357419
 31
0.0
  0
LINE
  5
4E5
100
AcDbEntity
  8
0
  6
CONTINUOUS
 62
               7
100
AcDbLine
 10
3.00006103515625
 20
23.49999237060544
 30
0.0
 11
0.50006103515625
 21
23.49999237060544
 31
0.0
  0
LINE
  5
4E6
100
AcDbEntity
  8
0
  6
CONTINUOUS
 62
               7
100
AcDbLine
 10
6.00006103515625
 20
26.499999999999972
 30
0.0
 11
6.00006103515625
 21
30.799987792968722
 31
0.0
  0
LINE
  5
4E7
100
AcDbEntity
  8
0
  6
CONTINUOUS
 62
               7
100
AcDbLine
 10
1.9394129270265239
 20
25.439334544350828
 30
0.0
 11
4.0607353800485271
 21
27.560652705838407
 31
0.0
  0
LINE
  5
4E8
100
AcDbEntity
  8
0
  6
CONTINUOUS
 62
               7
100
AcDbLine
 10
4.0607438943329157
 20
25.439365070304802
 30
0.0
 11
1.9394310972633662
 21
27.560693245372704
 31
0.0
  0
LINE
  5
4E9
100
AcDbEntity
  8
0
  6
CONTINUOUS
 62
               7
100
AcDbLine
 10
0.50006103515625
 20
27.645645141601534
 30
0.0
 11
0.50006103515625
 21
30.79998016357419
 31
0.0
  0
LINE
  5
4EA
100
AcDbEntity
  8
0
  6
CONTINUOUS
 62
               7
100
AcDbLine
 10
0.50006103515625
 20
-12.500015258789063
 30
0.0
 11
0.50006103515625
 21
25.354354858398409
 31
0.0
  0
LINE
  5
4EB
100
AcDbEntity
  8
0
  6
CONTINUOUS
 62
               7
100
AcDbLine
 10
0.50006103515625
 20
-12.500015258789063
 30
0.0
 11
3.00006103515625
 21
-12.500015258789063
 31
0.0
  0
LINE
  5
4EC
100
AcDbEntity
  8
0
  6
CONTINUOUS
 62
               7
100
AcDbLine
 10
0.50006103515625
 20
-18.500015258789063
 30
0.0
 11
3.00006103515625
 21
-18.500015258789063
 31
0.0
  0
LINE
  5
4ED
100
AcDbEntity
  8
0
  6
CONTINUOUS
 62
               7
100
AcDbLine
 10
0.50006103515625
 20
-21.800018310546875
 30
0.0
 11
0.50006103515625
 21
-18.500015258789063
 31
0.0
  0
LINE
  5
4EE
100
AcDbEntity
  8
0
  6
CONTINUOUS
 62
               7
100
AcDbLine
 10
18.50006103515625
 20
-16.354354858398437
 30
0.0
 11
18.50006103515625
 21
21.499984741210909
 31
0.0
  0
LINE
  5
4EF
100
AcDbEntity
  8
0
  6
CONTINUOUS
 62
               7
100
AcDbLine
 10
18.50006103515625
 20
-21.800018310546875
 30
0.0
 11
18.50006103515625
 21
-18.645645141601562
 31
0.0
  0
LINE
  5
4F0
100
AcDbEntity
  8
0
  6
CONTINUOUS
 62
               7
100
AcDbLine
 10
0.50006103515625
 20
-21.800018310546875
 30
0.0
 11
18.50006103515625
 21
-21.800018310546875
 31
0.0
  0
LINE
  5
4F1
100
AcDbEntity
  8
0
  6
CONTINUOUS
 62
               7
100
AcDbLine
 10
17.060712199467162
 20
-18.560670816550555
 30
0.0
 11
14.939392965095976
 21
-16.439349436412158
 31
0.0
  0
LINE
  5
4F2
100
AcDbEntity
  8
0
  6
CONTINUOUS
 62
               7
100
AcDbLine
 10
14.939421927824696
 20
-18.560684105809742
 30
0.0
 11
17.060737943545064
 21
-16.439359328206592
 31
0.0
  0
LINE
  5
4F3
100
AcDbEntity
  8
0
  6
CONTINUOUS
 62
               7
100
AcDbLine
 10
0.50006103515625
 20
-19.800018310546875
 30
0.0
 11
13.00006103515625
 21
-19.800018310546875
 31
0.0
  0
LINE
  5
4F4
100
AcDbEntity
  8
0
  6
CONTINUOUS
 62
               7
100
AcDbLine
 10
13.00006103515625
 20
-17.5
 30
0.0
 11
13.00006103515625
 21
-21.800018310546875
 31
0.0
  0
LINE
  5
4F5
100
AcDbEntity
  8
0
  6
CONTINUOUS
 62
               7
100
AcDbLine
 10
16.00006103515625
 20
-14.5
 30
0.0
 11
18.50006103515625
 21
-14.5
 31
0.0
  0
LINE
  5
4F6
100
AcDbEntity
  8
0
  6
CONTINUOUS
 62
               7
100
AcDbLine
 10
0.0
 20
-22.0
 30
0.0
 11
19.0
 21
-22.0
 31
0.0
  0
LINE
  5
4F7
100
AcDbEntity
  8
0
  6
CONTINUOUS
 62
               7
100
AcDbLine
 10
17.00006103515625
 20
66.000022888183565
 30
0.0
 11
18.800061047077179
 21
66.000022888183565
 31
0.0
  0
ARC
  5
4F8
100
AcDbEntity
  8
0
  6
CONTINUOUS
 62
               4
100
AcDbCircle
 10
17.300061047077179
 20
66.500015258789034
 30
0.0
 40
1.5
100
AcDbArc
 50
0.0000179860893428
 51
89.999986339621657
  0
LINE
  5
4F9
100
AcDbEntity
  8
0
  6
CONTINUOUS
 62
               4
100
AcDbLine
 10
0.50006103515625
 20
81.700022688183566
 30
0.0
 11
0.5000749632429802
 21
66.000022888183565
 31
0.0
  0
LINE
  5
4FA
100
AcDbEntity
  8
0
  6
CONTINUOUS
 62
               7
100
AcDbLine
 10
16.00006103515625
 20
67.000015258789034
 30
0.0
 11
3.00006103515625
 21
67.000015258789034
 31
0.0
  0
LINE
  5
4FB
100
AcDbEntity
  8
0
  6
CONTINUOUS
 62
               7
100
AcDbLine
 10
17.000081427589066
 20
65.999999315959002
 30
0.0
 11
16.000080534587141
 21
67.000000546136079
 31
0.0
  0
LINE
  5
4FC
100
AcDbEntity
  8
0
  6
CONTINUOUS
 62
               7
100
AcDbLine
 10
3.0000316677060255
 20
67.000052723868947
 30
0.0
 11
2.0000312804668283
 21
66.000050987929143
 31
0.0
  0
LINE
  5
4FD
100
AcDbEntity
  8
0
  6
CONTINUOUS
 62
               7
100
AcDbLine
 10
2.00006103515625
 20
66.000015258789034
 30
0.0
 11
17.00006103515625
 21
66.000015258789034
 31
0.0
  0
LINE
  5
4FE
100
AcDbEntity
  8
0
  6
CONTINUOUS
 62
               4
100
AcDbLine
 10
18.50006103515625
 20
81.700022888183554
 30
0.0
 11
18.50006103515625
 21
70.503317288183553
 31
0.0
  0
ARC
  5
4FF
100
AcDbEntity
  8
0
  6
CONTINUOUS
 62
               4
100
AcDbCircle
 10
17.600061035156273
 20
94.300022888183577
 30
0.0
 40
0.3
100
AcDbArc
 50
0.0000000000006107
 51
90.00000000000081
  0
ARC
  5
500
100
AcDbEntity
  8
0
  6
CONTINUOUS
 62
               4
100
AcDbCircle
 10
3.00006103515625
 20
92.900022888183571
 30
0.0
 40
0.5
100
AcDbArc
 50
0.0000000000006107
 51
90.00000000000081
  0
ARC
  5
501
100
AcDbEntity
  8
0
  6
CONTINUOUS
 62
               4
100
AcDbCircle
 10
1.4000610351562841
 20
94.300022888183577
 30
0.0
 40
0.3
100
AcDbArc
 50
90.0
 51
180.0000000000002
  0
ARC
  5
502
100
AcDbEntity
  8
0
  6
CONTINUOUS
 62
               4
100
AcDbCircle
 10
16.00006103515625
 20
92.900022888183571
 30
0.0
 40
0.5
100
AcDbArc
 50
90.0
 51
180.0000000000002
  0
LINE
  5
503
100
AcDbEntity
  8
0
  6
CONTINUOUS
 62
               4
100
AcDbLine
 10
17.900061035156227
 20
94.300703888183563
 30
0.0
 11
17.900061035156227
 21
93.400022888183571
 31
0.0
  0
LINE
  5
504
100
AcDbEntity
  8
0
  6
CONTINUOUS
 62
               4
100
AcDbLine
 10
1.4000610351562841
 20
94.60002288818356
 30
0.0
 11
17.600061035156273
 21
94.60002288818356
 31
0.0
  0
LINE
  5
505
100
AcDbEntity
  8
0
  6
CONTINUOUS
 62
               4
100
AcDbLine
 10
17.900061035156227
 20
93.400022888183571
 30
0.0
 11
1.1000610351562727
 21
93.400022888183571
 31
0.0
  0
LINE
  5
506
100
AcDbEntity
  8
0
  6
CONTINUOUS
 62
               4
100
AcDbLine
 10
1.1000610351562727
 20
94.300703888183563
 30
0.0
 11
1.1000610351562727
 21
93.400022888183571
 31
0.0
  0
LINE
  5
507
100
AcDbEntity
  8
0
  6
CONTINUOUS
 62
               4
100
AcDbLine
 10
3.50006103515625
 20
92.900022888183571
 30
0.0
 11
3.50006103515625
 21
92.500022888183565
 31
0.0
  0
LINE
  5
508
100
AcDbEntity
  8
0
  6
CONTINUOUS
 62
               4
100
AcDbLine
 10
16.600061035156273
 20
92.400022888183571
 30
0.0
 11
16.600061035156273
 21
91.400021888183574
 31
0.0
  0
LINE
  5
509
100
AcDbEntity
  8
0
  6
CONTINUOUS
 62
               4
100
AcDbLine
 10
16.50006103515625
 20
92.500022888183565
 30
0.0
 11
16.600061035156273
 21
92.400022888183571
 31
0.0
  0
LINE
  5
50A
100
AcDbEntity
  8
0
  6
CONTINUOUS
 62
               4
100
AcDbLine
 10
2.50006103515625
 20
92.500022888183565
 30
0.0
 11
2.4000610351562841
 21
92.400022888183571
 31
0.0
  0
LINE
  5
50B
100
AcDbEntity
  8
0
  6
CONTINUOUS
 62
               4
100
AcDbLine
 10
2.50006103515625
 20
92.500022888183565
 30
0.0
 11
16.50006103515625
 21
92.500022888183565
 31
0.0
  0
LINE
  5
50C
100
AcDbEntity
  8
0
  6
CONTINUOUS
 62
               4
100
AcDbLine
 10
2.4000610351562841
 20
92.400022888183571
 30
0.0
 11
2.4000610351562841
 21
91.400021888183574
 31
0.0
  0
LINE
  5
50D
100
AcDbEntity
  8
0
  6
CONTINUOUS
 62
               4
100
AcDbLine
 10
18.400061035156227
 20
86.900022888183571
 30
0.0
 11
0.6000610351562727
 21
86.900022888183571
 31
0.0
  0
LINE
  5
50E
100
AcDbEntity
  8
0
  6
CONTINUOUS
 62
               4
100
AcDbLine
 10
1.6000610351562727
 20
91.400021888183574
 30
0.0
 11
17.400060235156275
 21
91.400021888183574
 31
0.0
  0
LINE
  5
50F
100
AcDbEntity
  8
0
  6
CONTINUOUS
 62
               4
100
AcDbLine
 10
0.7000610351562955
 20
87.800022888183577
 30
0.0
 11
0.50006103515625
 21
88.000022888183565
 31
0.0
  0
LINE
  5
510
100
AcDbEntity
  8
0
  6
CONTINUOUS
 62
               4
100
AcDbLine
 10
0.50006103515625
 20
90.364935888183567
 30
0.0
 11
1.2536514351562573
 21
90.800021888183579
 31
0.0
  0
LINE
  5
511
100
AcDbEntity
  8
0
  6
CONTINUOUS
 62
               4
100
AcDbLine
 10
18.50006103515625
 20
90.364935888183567
 30
0.0
 11
17.746470635156243
 21
90.800021888183579
 31
0.0
  0
LINE
  5
512
100
AcDbEntity
  8
0
  6
CONTINUOUS
 62
               4
100
AcDbLine
 10
17.746470635156243
 20
90.800021888183579
 30
0.0
 11
17.400060235156275
 21
91.400021888183574
 31
0.0
  0
LINE
  5
513
100
AcDbEntity
  8
0
  6
CONTINUOUS
 62
               4
100
AcDbLine
 10
1.2536514351562573
 20
90.800021888183579
 30
0.0
 11
1.6000618351562821
 21
91.400021888183574
 31
0.0
  0
LINE
  5
514
100
AcDbEntity
  8
0
  6
CONTINUOUS
 62
               4
100
AcDbLine
 10
18.300061035156261
 20
87.800022888183577
 30
0.0
 11
0.7000610351562955
 21
87.800022888183577
 31
0.0
  0
LINE
  5
515
100
AcDbEntity
  8
0
  6
CONTINUOUS
 62
               4
100
AcDbLine
 10
18.50006103515625
 20
90.364936888183564
 30
0.0
 11
18.50006103515625
 21
88.000022888183565
 31
0.0
  0
LINE
  5
516
100
AcDbEntity
  8
0
  6
CONTINUOUS
 62
               4
100
AcDbLine
 10
18.300061035156261
 20
87.800022888183577
 30
0.0
 11
18.50006103515625
 21
88.000022888183565
 31
0.0
  0
LINE
  5
517
100
AcDbEntity
  8
0
  6
CONTINUOUS
 62
               4
100
AcDbLine
 10
0.50006103515625
 20
90.364936888183564
 30
0.0
 11
0.50006103515625
 21
88.000022888183565
 31
0.0
  0
LINE
  5
518
100
AcDbEntity
  8
0
  6
CONTINUOUS
 62
               4
100
AcDbLine
 10
18.300061035156261
 20
81.900022288183578
 30
0.0
 11
18.50006103515625
 21
82.100022488183555
 31
0.0
  0
LINE
  5
519
100
AcDbEntity
  8
0
  6
CONTINUOUS
 62
               4
100
AcDbLine
 10
0.7000610351562955
 20
81.900022488183566
 30
0.0
 11
18.300061035156261
 21
81.900022488183566
 31
0.0
  0
LINE
  5
51A
100
AcDbEntity
  8
0
  6
CONTINUOUS
 62
               4
100
AcDbLine
 10
18.50006103515625
 20
86.800022888183577
 30
0.0
 11
18.50006103515625
 21
82.100022488183555
 31
0.0
  0
LINE
  5
51B
100
AcDbEntity
  8
0
  6
CONTINUOUS
 62
               4
100
AcDbLine
 10
0.50006103515625
 20
86.800022888183577
 30
0.0
 11
0.50006103515625
 21
82.100022488183555
 31
0.0
  0
LINE
  5
51C
100
AcDbEntity
  8
0
  6
CONTINUOUS
 62
               4
100
AcDbLine
 10
0.7000610351562955
 20
81.900022288183578
 30
0.0
 11
0.50006103515625
 21
82.100022488183555
 31
0.0
  0
LINE
  5
51D
100
AcDbEntity
  8
0
  6
CONTINUOUS
 62
               4
100
AcDbLine
 10
18.50006103515625
 20
86.800022888183577
 30
0.0
 11
18.400061035156227
 21
86.900022888183571
 31
0.0
  0
LINE
  5
51E
100
AcDbEntity
  8
0
  6
CONTINUOUS
 62
               4
100
AcDbLine
 10
0.50006103515625
 20
86.800022888183577
 30
0.0
 11
0.6000610351562727
 21
86.900022888183571
 31
0.0
  0
LINE
  5
51F
100
AcDbEntity
  8
0
  6
CONTINUOUS
 62
               4
100
AcDbLine
 10
0.7000610351562955
 20
81.900022888183571
 30
0.0
 11
0.50006103515625
 21
81.700022688183566
 31
0.0
  0
LINE
  5
520
100
AcDbEntity
  8
0
  6
CONTINUOUS
 62
               4
100
AcDbLine
 10
17.800061035156261
 20
87.800022888183577
 30
0.0
 11
17.800061035156261
 21
86.900022888183571
 31
0.0
  0
LINE
  5
521
100
AcDbEntity
  8
0
  6
CONTINUOUS
 62
               4
100
AcDbLine
 10
1.2000610351562955
 20
87.800022888183577
 30
0.0
 11
1.2000610351562955
 21
86.900022888183571
 31
0.0
  0
LINE
  5
522
100
AcDbEntity
  8
0
  6
CONTINUOUS
 62
               4
100
AcDbLine
 10
18.300061035156261
 20
81.900022888183571
 30
0.0
 11
18.50006103515625
 21
81.700022688183566
 31
0.0
  0
LINE
  5
523
100
AcDbEntity
  8
0
  6
CONTINUOUS
 62
               4
100
AcDbLine
 10
0.50006103515625
 20
82.100022488183555
 30
0.0
 11
18.50006103515625
 21
82.100022488183555
 31
0.0
  0
LINE
  5
524
100
AcDbEntity
  8
0
  6
CONTINUOUS
 62
               4
100
AcDbLine
 10
15.50006103515625
 20
92.900022888183571
 30
0.0
 11
15.50006103515625
 21
92.500022888183565
 31
0.0
  0
LINE
  5
525
100
AcDbEntity
  8
0
  6
CONTINUOUS
 62
               4
100
AcDbLine
 10
2.4000610351562841
 20
92.400022888183571
 30
0.0
 11
16.600061035156273
 21
92.400022888183571
 31
0.0
  0
LINE
  5
526
100
AcDbEntity
  8
0
  6
CONTINUOUS
 62
               4
100
AcDbLine
 10
1.2536514351562573
 20
90.800021888183579
 30
0.0
 11
17.746470635156243
 21
90.800021888183579
 31
0.0
  0
LINE
  5
527
100
AcDbEntity
  8
0
  6
CONTINUOUS
 62
               4
100
AcDbLine
 10
0.50006103515625
 20
90.364935888183567
 30
0.0
 11
18.50006103515625
 21
90.364935888183567
 31
0.0
  0
LINE
  5
528
100
AcDbEntity
  8
0
  6
CONTINUOUS
 62
               4
100
AcDbLine
 10
0.50006103515625
 20
88.000022888183565
 30
0.0
 11
18.50006103515625
 21
88.000022888183565
 31
0.0
  0
LINE
  5
529
100
AcDbEntity
  8
0
  6
CONTINUOUS
 62
               4
100
AcDbLine
 10
0.50006103515625
 20
86.800022888183577
 30
0.0
 11
18.50006103515625
 21
86.800022888183577
 31
0.0
  0
LINE
  5
52A
100
AcDbEntity
  8
0
  6
CONTINUOUS
 62
               4
100
AcDbLine
 10
18.50006103515625
 20
81.700022688183566
 30
0.0
 11
0.50006103515625
 21
81.700022688183566
 31
0.0
  0
LINE
  5
52B
100
AcDbEntity
  8
0
  6
CONTINUOUS
 62
               4
100
AcDbLine
 10
5.7789005351562537
 20
71.000022888183565
 30
0.0
 11
0.50006103515625
 21
71.000022888183565
 31
0.0
  0
ARC
  5
52C
100
AcDbEntity
  8
0
  6
CONTINUOUS
 62
               4
100
AcDbCircle
 10
14.800061047077179
 20
66.500015258789034
 30
0.0
 40
1.5
100
AcDbArc
 50
89.999986339621657
 51
160.52877936550931
  0
LINE
  5
52D
100
AcDbEntity
  8
0
  6
CONTINUOUS
 62
               4
100
AcDbLine
 10
14.800061404705048
 20
68.000015258789006
 30
0.0
 11
17.300061404705048
 21
68.000015258789006
 31
0.0
  0
ARC
  5
52E
100
AcDbEntity
  8
0
  6
CONTINUOUS
 62
               4
100
AcDbCircle
 10
9.50006103515625
 20
84.690546020687549
 30
0.0
 40
14.187228732503996
100
AcDbArc
 50
254.79404619011436
 51
285.20595380988573
  0
LINE
  5
52F
100
AcDbEntity
  8
0
  6
CONTINUOUS
 62
               4
100
AcDbLine
 10
18.50006103515625
 20
71.000022888183565
 30
0.0
 11
13.221221535156246
 21
71.000022888183565
 31
0.0
  0
LINE
  5
530
100
AcDbEntity
  8
0
  6
CONTINUOUS
 62
               4
100
AcDbLine
 10
18.50006103515625
 20
70.503317288183553
 30
0.0
 11
18.50006103515625
 21
67.400015274683597
 31
0.0
  0
LINE
  5
531
100
AcDbEntity
  8
0
  6
CONTINUOUS
 62
               7
100
AcDbLine
 10
0.50006103515625
 20
66.000022888183565
 30
0.0
 11
2.00006103515625
 21
66.000022888183565
 31
0.0
  0
LINE
  5
532
100
AcDbEntity
  8
0
  6
CONTINUOUS
 62
               4
100
AcDbLine
 10
0.50006103515625
 20
67.905282888183564
 30
0.0
 11
3.00006103515625
 21
67.905282888183564
 31
0.0
  0
LINE
  5
533
100
AcDbEntity
  8
0
  6
CONTINUOUS
 62
               4
100
AcDbLine
 10
13.00006103515625
 20
68.214641888183564
 30
0.0
 11
13.00006103515625
 21
67.000015258789034
 31
0.0
  0
LINE
  5
534
100
AcDbEntity
  8
0
  6
CONTINUOUS
 62
               4
100
AcDbLine
 10
18.50006103515625
 20
70.214641888183564
 30
0.0
 11
16.00006103515625
 21
70.214641888183564
 31
0.0
  0
LINE
  5
535
100
AcDbEntity
  8
0
  6
CONTINUOUS
 62
               7
100
AcDbLine
 10
2.00006103515625
 20
66.000015258789034
 30
0.0
 11
2.00006103515625
 21
65.000015258789034
 31
0.0
  0
LINE
  5
536
100
AcDbEntity
  8
0
  6
CONTINUOUS
 62
               7
100
AcDbLine
 10
17.00006103515625
 20
66.000015258789034
 30
0.0
 11
17.00006103515625
 21
65.000015258789034
 31
0.0
  0
CIRCLE
  5
537
100
AcDbEntity
  8
0
  6
CONTINUOUS
 62
               7
100
AcDbCircle
 10
15.500091552734375
 20
33.999999999999972
 30
0.0
 40
2.7999992370605469
  0
ARC
  5
538
100
AcDbEntity
  8
0
  6
CONTINUOUS
 62
               7
100
AcDbCircle
 10
15.500091552734375
 20
33.999999999999972
 30
0.0
 40
3.0
100
AcDbArc
 50
89.999982013910653
 51
179.99996402782131
  0
CIRCLE
  5
539
100
AcDbEntity
  8
0
  6
CONTINUOUS
 62
               7
100
AcDbCircle
 10
3.500091552734375
 20
60.000030517578097
 30
0.0
 40
2.7999992370605469
  0
ARC
  5
53A
100
AcDbEntity
  8
0
  6
CONTINUOUS
 62
               7
100
AcDbCircle
 10
1.000091552734375
 20
64.500030517578097
 30
0.0
 40
0.5
100
AcDbArc
 50
89.999982013910653
 51
180.00001866933468
  0
ARC
  5
53B
100
AcDbEntity
  8
0
  6
CONTINUOUS
 62
               7
100
AcDbCircle
 10
18.000091552734375
 20
64.500030517578097
 30
0.0
 40
0.5
100
AcDbArc
 50
0.00001366037834
 51
89.999982013910653
  0
ARC
  5
53C
100
AcDbEntity
  8
0
  6
CONTINUOUS
 62
               7
100
AcDbCircle
 10
3.500091552734375
 20
60.000030517578097
 30
0.0
 40
3.0
100
AcDbArc
 50
270.00001798608935
 51
90.000145938450743
  0
LINE
  5
53D
100
AcDbEntity
  8
0
  6
CONTINUOUS
 62
               7
100
AcDbLine
 10
3.5001068115234375
 20
63.000015258789034
 30
0.0
 11
0.5001068115234375
 21
63.000015258789034
 31
0.0
  0
LINE
  5
53E
100
AcDbEntity
  8
0
  6
CONTINUOUS
 62
               7
100
AcDbLine
 10
14.439438374472047
 20
35.060619253301383
 30
0.0
 11
16.560758145285035
 21
32.939298230790854
 31
0.0
  0
LINE
  5
53F
100
AcDbEntity
  8
0
  6
CONTINUOUS
 62
               7
100
AcDbLine
 10
16.560909825404451
 20
35.060489152286181
 30
0.0
 11
14.43957801329725
 21
32.939158591882887
 31
0.0
  0
LINE
  5
540
100
AcDbEntity
  8
0
  6
CONTINUOUS
 62
               7
100
AcDbLine
 10
12.500091552734375
 20
33.999999999999972
 30
0.0
 11
12.500091552734375
 21
30.999999999999972
 31
0.0
  0
LINE
  5
541
100
AcDbEntity
  8
0
  6
CONTINUOUS
 62
               7
100
AcDbLine
 10
15.500106811523438
 20
36.999999999999972
 30
0.0
 11
18.500106811523438
 21
36.999999999999972
 31
0.0
  0
LINE
  5
542
100
AcDbEntity
  8
0
  6
CONTINUOUS
 62
               7
100
AcDbLine
 10
2.4395398915949045
 20
58.939238549795817
 30
0.0
 11
4.5608612717333017
 21
61.060557962980937
 31
0.0
  0
LINE
  5
543
100
AcDbEntity
  8
0
  6
CONTINUOUS
 62
               7
100
AcDbLine
 10
4.5607631819702874
 20
58.939356251892576
 30
0.0
 11
2.4394437687851678
 21
61.060677632030973
 31
0.0
  0
LINE
  5
544
100
AcDbEntity
  8
0
  6
CONTINUOUS
 62
               7
100
AcDbLine
 10
18.000091552734375
 20
65.000015258789034
 30
0.0
 11
1.000091552734375
 21
65.000015258789034
 31
0.0
  0
LINE
  5
545
100
AcDbEntity
  8
0
  6
CONTINUOUS
 62
               7
100
AcDbLine
 10
0.5000762939453125
 20
66.000022888183565
 30
0.0
 11
0.5000762939453125
 21
30.999999999999972
 31
0.0
  0
LINE
  5
546
100
AcDbEntity
  8
0
  6
CONTINUOUS
 62
               7
100
AcDbLine
 10
18.500076293945313
 20
66.000022888183565
 30
0.0
 11
18.500076293945313
 21
30.999999999999972
 31
0.0
  0
LINE
  5
547
100
AcDbEntity
  8
0
  6
CONTINUOUS
 62
               7
100
AcDbLine
 10
3.500091552734375
 20
57.000015258789034
 30
0.0
 11
0.500091552734375
 21
57.000015258789034
 31
0.0
  0
LINE
  5
548
100
AcDbEntity
  8
0
  6
CONTINUOUS
 62
               7
100
AcDbLine
 10
0.0
 20
30.999999999999972
 30
0.0
 11
0.0
 21
-22.0
 31
0.0
  0
LINE
  5
549
100
AcDbEntity
  8
0
  6
CONTINUOUS
 62
               7
100
AcDbLine
 10
19.0
 20
-22.0
 30
0.0
 11
19.0
 21
30.999999999999972
 31
0.0
  0
LINE
  5
54A
100
AcDbEntity
  8
0
  6
CONTINUOUS
 62
               7
100
AcDbLine
 10
0.0
 20
30.999999999999972
 30
0.0
 11
19.0
 21
30.999999999999972
 31
0.0
  0
LINE
  5
54B
100
AcDbEntity
  8
0
  6
CONTINUOUS
 62
             200
100
AcDbLine
 10
9.50006103515625
 20
96.594158572329292
 30
0.0
 11
9.50006103515625
 21
65.540022888183557
 31
0.0
  0
SPLINE
  5
54C
100
AcDbEntity
  8
0
  6
CONTINUOUS
 62
               4
100
AcDbSpline
210
0.0
220
0.0
230
1.0
 70
               0
 71
               3
 72
               0
 73
               0
 74
              41
 44
0.000001
 12
0.9936236052884185
 22
0.1127480865187747
 32
0.0
 13
-0.759987267305916
 23
0.6499379612954502
 33
0.0
 11
3.00006103515625
 21
67.905282888183564
 31
0.0
 11
3.1836560439736092
 21
67.928138526398072
 31
0.0
 11
3.3667297157987091
 21
67.954910676493682
 31
0.0
 11
3.5492520984819791
 21
67.985494623288091
 31
0.0
 11
3.7311178587109453
 21
68.019773794696903
 31
0.0
 11
3.9407236592149113
 21
68.064014240309717
 31
0.0
 11
4.1491679141003521
 21
68.113434347252522
 31
0.0
 11
4.356220526212307
 21
68.168403237491759
 31
0.0
 11
4.5616190482476213
 21
68.229273549983219
 31
0.0
 11
4.7353669851582101
 21
68.286262965815808
 31
0.0
 11
4.9072395613498152
 21
68.348653795441564
 31
0.0
 11
5.0767327848350661
 21
68.417273911446344
 31
0.0
 11
5.2432402831748277
 21
68.492879353018452
 31
0.0
 11
5.3847195590353198
 21
68.564962017811467
 31
0.0
 11
5.5220811143317032
 21
68.644599600620793
 31
0.0
 11
5.6540318895636279
 21
68.733540094748662
 31
0.0
 11
5.7784012958607036
 21
68.832723871544772
 31
0.0
 11
5.8469353275445366
 21
68.896298364777181
 31
0.0
 11
5.9106071072884276
 21
68.964752195999793
 31
0.0
 11
5.9671979863019686
 21
69.038191308303865
 31
0.0
 11
6.0150589046078267
 21
69.117461980992431
 31
0.0
 11
6.0499788646121466
 21
69.196228558557394
 31
0.0
 11
6.0755767153009188
 21
69.278592103607338
 31
0.0
 11
6.0922593484524503
 21
69.363687049649855
 31
0.0
 11
6.1000610351562727
 21
69.450022888183582
 31
0.0
 11
6.0956940179479124
 21
69.581522453298149
 31
0.0
 11
6.0739760710829023
 21
69.711482524291924
 31
0.0
 11
6.0372657431981969
 21
69.83860123708881
 31
0.0
 11
5.9880644173300652
 21
69.961392871653572
 31
0.0
 11
5.9302138485414186
 21
70.076402745461635
 31
0.0
 11
5.8637145610814168
 21
70.186615569829584
 31
0.0
 11
5.7897474975429279
 21
70.291472933755699
 31
0.0
 11
5.7090923304935473
 21
70.391284284155716
 31
0.0
 11
5.6245866450204938
 21
70.484152973985914
 31
0.0
 11
5.5353514734705165
 21
70.572488456145251
 31
0.0
 11
5.442045022583442
 21
70.656637686592731
 31
0.0
 11
5.345387193593524
 21
70.736891813329862
 31
0.0
 11
5.261328513078336
 21
70.802469224523151
 31
0.0
 11
5.1765452611513156
 21
70.867139960983579
 31
0.0
 11
5.0923780542493233
 21
70.932448404447229
 31
0.0
 11
5.0100610351562409
 21
71.000022888183565
 31
0.0
  0
SPLINE
  5
54D
100
AcDbEntity
  8
0
  6
CONTINUOUS
 62
               4
100
AcDbSpline
210
0.0
220
0.0
230
1.0
 70
               0
 71
               3
 72
               0
 73
               0
 74
              37
 44
0.000001
 12
-0.9881349170157097
 22
-0.1535883647102106
 32
0.0
 13
-0.2801395722747451
 23
-0.959959280410228
 33
0.0
 11
16.00006103515625
 21
70.214641888183564
 31
0.0
 11
15.869821177421825
 21
70.192774475122945
 31
0.0
 11
15.740143679332473
 21
70.167741761642446
 31
0.0
 11
15.611095869133711
 21
70.139544477288567
 31
0.0
 11
15.482783229923655
 21
70.10818891855439
 31
0.0
 11
15.386119989135839
 21
70.082337950693756
 31
0.0
 11
15.289954168485274
 21
70.054697533973524
 31
0.0
 11
15.19431773913734
 21
70.025291064227318
 31
0.0
 11
15.099233775834648
 21
69.994140181304829
 31
0.0
 11
14.982007671490766
 21
69.95305986796032
 31
0.0
 11
14.865763214263174
 21
69.909275947309041
 31
0.0
 11
14.750587600305666
 21
69.86273706306153
 31
0.0
 11
14.636584533748305
 21
69.813398343583231
 31
0.0
 11
14.537436514381438
 21
69.767679077327131
 31
0.0
 11
14.439365428828042
 21
69.719694465028908
 31
0.0
 11
14.342478725854638
 21
69.669385000387166
 31
0.0
 11
14.246872190830118
 21
69.6166853175489
 31
0.0
 11
14.168092260378772
 21
69.570796922485812
 31
0.0
 11
14.090366463537045
 21
69.523147029816968
 31
0.0
 11
14.01377681372689
 21
69.473680511655232
 31
0.0
 11
13.938420616288681
 21
69.422352694090279
 31
0.0
 11
13.859164785991778
 21
69.365234920362013
 31
0.0
 11
13.781598899373327
 21
69.305841938562025
 31
0.0
 11
13.705899087381946
 21
69.244097088416297
 31
0.0
 11
13.632245509883319
 21
69.179926925308081
 31
0.0
 11
13.566615251948919
 21
69.118846105834791
 31
0.0
 11
13.503034320734869
 21
69.055636105622426
 31
0.0
 11
13.441665585069853
 21
68.990263904350869
 31
0.0
 11
13.382693058195741
 21
68.922720688588981
 31
0.0
 11
13.327199545906357
 21
68.854116896120587
 31
0.0
 11
13.27451034098733
 21
68.783337596821028
 31
0.0
 11
13.224941795309711
 21
68.710333592470619
 31
0.0
 11
13.178834753447859
 21
68.635097730510893
 31
0.0
 11
13.1246089815895
 21
68.534251659860786
 31
0.0
 11
13.07675513845389
 21
68.430195867282976
 31
0.0
 11
13.035255445881214
 21
68.323517116740561
 31
0.0
 11
13.00006103515625
 21
68.214641888183564
 31
0.0
  0
ENDBLK
  5
54E
100
AcDbEntity
  8
0
100
AcDbBlockEnd
  0
ENDSEC
  0
SECTION
  2
ENTITIES
  0
INSERT
  5
54F
100
AcDbEntity
  8
0
  6
ByBlock
100
AcDbBlockReference
  2
F18MP-1
 10
-220.87982177734375
 20
182.66912841796875
 30
0.0
  0
INSERT
  5
550
100
AcDbEntity
  8
0
  6
ByBlock
100
AcDbBlockReference
  2
F18MP-11
 10
-345.379638671875
 20
182.66912841796875
 30
0.0
  0
INSERT
  5
551
100
AcDbEntity
  8
0
  6
ByBlock
100
AcDbBlockReference
  2
F18MP-12
 10
-220.87982177734375
 20
26.16912841796875
 30
0.0
  0
INSERT
  5
552
100
AcDbEntity
  8
0
  6
ByBlock
100
AcDbBlockReference
  2
F18MP-13
 10
229.16172790527344
 20
181.43000000000001
 30
0.0
  0
INSERT
  5
553
100
AcDbEntity
  8
0
  6
ByBlock
100
AcDbBlockReference
  2
F18MP-14
 10
120.16
 20
181.43000000000001
 30
0.0
  0
INSERT
  5
554
100
AcDbEntity
  8
0
  6
ByBlock
100
AcDbBlockReference
  2
F18MP-15
 10
229.16172790527344
 20
49.431747436523438
 30
0.0
  0
INSERT
  5
555
100
AcDbEntity
  8
0
  6
ByBlock
100
AcDbBlockReference
  2
F18MP-16
 10
-257.838134765625
 20
-68.560000000000002
 30
0.0
  0
INSERT
  5
556
100
AcDbEntity
  8
0
  6
ByBlock
100
AcDbBlockReference
  2
F18MP-17
 10
-373.82999999999998
 20
-68.560000000000002
 30
0.0
  0
INSERT
  5
557
100
AcDbEntity
  8
0
  6
ByBlock
100
AcDbBlockReference
  2
F18MP-18
 10
-257.83819580078125
 20
-250.10826019287106
 30
0.0
  0
INSERT
  5
558
100
AcDbEntity
  8
0
  6
ByBlock
100
AcDbBlockReference
  2
F18MP-2
 10
-51.075775146484375
 20
-68.560000000000002
 30
0.0
  0
INSERT
  5
559
100
AcDbEntity
  8
0
  6
ByBlock
100
AcDbBlockReference
  2
F18MP-3
 10
-166.06999999999999
 20
-68.560000000000002
 30
0.0
  0
INSERT
  5
55A
100
AcDbEntity
  8
0
  6
ByBlock
100
AcDbBlockReference
  2
F18MP-4
 10
-51.075836181640625
 20
-241.5682373046875
 30
0.0
  0
INSERT
  5
55B
100
AcDbEntity
  8
0
  6
ByBlock
100
AcDbBlockReference
  2
F18MP-5
 10
141.39924658726153
 20
-64.069992065429688
 30
0.0
  0
INSERT
  5
55C
100
AcDbEntity
  8
0
  6
ByBlock
100
AcDbBlockReference
  2
F18MP-6
 10
43.919573691768591
 20
-64.069992065429688
 30
0.0
  0
INSERT
  5
55D
100
AcDbEntity
  8
0
  6
ByBlock
100
AcDbBlockReference
  2
F18MP-7
 10
141.39924621582031
 20
-234.75
 30
0.0
  0
INSERT
  5
55E
100
AcDbEntity
  8
0
  6
ByBlock
100
AcDbBlockReference
  2
F18MP-8
 10
335.16162109375
 20
-60.07
 30
0.0
  0
INSERT
  5
55F
100
AcDbEntity
  8
0
  6
ByBlock
100
AcDbBlockReference
  2
F18MP-9
 10
233.16
 20
-60.07
 30
0.0
  0
INSERT
  5
560
100
AcDbEntity
  8
0
  6
ByBlock
100
AcDbBlockReference
  2
F18MP-10
 10
335.16162109375
 20
-222.07000732421875
 30
0.0
  0
LINE
  5
561
100
AcDbEntity
  8
0
  6
CONTINUOUS
 62
               7
100
AcDbLine
 10
399.80000000000001
 20
276.25
 30
0.0
 11
399.80000000000001
 21
-276.75
 31
0.0
  0
LINE
  5
562
100
AcDbEntity
  8
0
  6
CONTINUOUS
 62
               7
100
AcDbLine
 10
-399.25
 20
276.25
 30
0.0
 11
-399.25
 21
-276.75
 31
0.0
  0
LINE
  5
563
100
AcDbEntity
  8
0
  6
CONTINUOUS
 62
               7
100
AcDbLine
 10
-399.25
 20
276.25
 30
0.0
 11
399.80000000000001
 21
276.25
 31
0.0
  0
LINE
  5
564
100
AcDbEntity
  8
0
  6
CONTINUOUS
 62
               7
100
AcDbLine
 10
-399.25
 20
-276.75
 30
0.0
 11
399.80000000000001
 21
-276.75
 31
0.0
  0
LINE
  5
565
100
AcDbEntity
  8
0
  6
CONTINUOUS
 62
               7
100
AcDbLine
 10
239.80000000000001
 20
-251.75
 30
0.0
 11
399.80000000000001
 21
-251.75
 31
0.0
  0
LINE
  5
566
100
AcDbEntity
  8
0
  6
CONTINUOUS
 62
               7
100
AcDbLine
 10
239.80000000000001
 20
251.25
 30
0.0
 11
399.80000000000001
 21
251.25
 31
0.0
  0
LINE
  5
567
100
AcDbEntity
  8
0
  6
CONTINUOUS
 62
               7
100
AcDbLine
 10
-399.25
 20
251.25
 30
0.0
 11
-239.25
 21
251.25
 31
0.0
  0
LINE
  5
568
100
AcDbEntity
  8
0
  6
CONTINUOUS
 62
               7
100
AcDbLine
 10
239.80000000000001
 20
-251.75
 30
0.0
 11
239.80000000000001
 21
-276.75
 31
0.0
  0
LINE
  5
569
100
AcDbEntity
  8
0
  6
CONTINUOUS
 62
               7
100
AcDbLine
 10
239.80000000000001
 20
251.25
 30
0.0
 11
239.80000000000001
 21
276.25
 31
0.0
  0
LINE
  5
56A
100
AcDbEntity
  8
0
  6
CONTINUOUS
 62
               7
100
AcDbLine
 10
-239.25
 20
276.25
 30
0.0
 11
-239.25
 21
251.25
 31
0.0
  0
LINE
  5
56B
100
AcDbEntity
  8
0
  6
CONTINUOUS
 62
               7
100
AcDbLine
 10
-399.25
 20
14.75
 30
0.0
 11
399.80000000000001
 21
14.75
 31
0.0
  0
LINE
  5
56C
100
AcDbEntity
  8
0
  6
CONTINUOUS
 62
               7
100
AcDbLine
 10
206.03
 20
14.75
 30
0.0
 11
206.03
 21
-276.75
 31
0.0
  0
LINE
  5
56D
100
AcDbEntity
  8
0
  6
CONTINUOUS
 62
               7
100
AcDbLine
 10
12.27
 20
276.25
 30
0.0
 11
12.27
 21
-276.75
 31
0.0
  0
LINE
  5
56E
100
AcDbEntity
  8
0
  6
CONTINUOUS
 62
               7
100
AcDbLine
 10
-193.47999999999999
 20
14.75
 30
0.0
 11
-193.47999999999999
 21
-276.75
 31
0.0
  0
MTEXT
  5
56F
100
AcDbEntity
  8
0
  6
CONTINUOUS
 62
               7
100
AcDbMText
 10
245.88456269755227
 20
-264.25
 30
0.0
 40
12.5
 41
0.0
 71
               4
 72
               1
  1
\W1.121;\A1;KOGANEI CORP.
  0
MTEXT
  5
570
100
AcDbEntity
  8
0
  6
CONTINUOUS
 62
               7
100
AcDbMText
 10
290.09979829720089
 20
263.75
 30
0.0
 40
9.0
 41
0.0
 71
               4
 72
               1
  1
\W1.200;\A1;Ver.3.0
  0
MTEXT
  5
571
100
AcDbEntity
  8
0
  6
CONTINUOUS
 62
               7
100
AcDbMText
 10
218.16249026710085
 20
-0.25
 30
0.0
 40
9.0
 41
0.0
 71
               4
 72
               1
  1
\W1.083;\A1;MODEL:F18Z-PM
  0
MTEXT
  5
572
100
AcDbEntity
  8
0
  6
CONTINUOUS
 62
               7
100
AcDbMText
 10
-362.57090654372104
 20
263.75
 30
0.0
 40
9.0
 41
0.0
 71
               4
 72
               1
  1
\W1.119;\A1;F18 SERIES
  0
MTEXT
  5
573
100
AcDbEntity
  8
0
  6
CONTINUOUS
 62
               7
100
AcDbMText
 10
-387.12500057762571
 20
236.25
 30
0.0
 40
9.0
 41
0.0
 71
               4
 72
               1
  1
\W1.083;\A1;MODEL:F18Z-EP
  0
MTEXT
  5
574
100
AcDbEntity
  8
0
  6
CONTINUOUS
 62
               7
100
AcDbMText
 10
24.411356900841369
 20
261.25
 30
0.0
 40
9.0
 41
0.0
 71
               4
 72
               1
  1
\W1.091;\A1;MODEL:F18BPP
  0
MTEXT
  5
575
100
AcDbEntity
  8
0
  6
CONTINUOUS
 62
               7
100
AcDbMText
 10
-387.09210591612441
 20
-0.25
 30
0.0
 40
9.0
 41
0.0
 71
               4
 72
               1
  1
\W1.105;\A1;MODEL:F18T1-FJ
  0
MTEXT
  5
576
100
AcDbEntity
  8
0
  6
CONTINUOUS
 62
               7
100
AcDbMText
 10
-181.32960896788222
 20
-0.25
 30
0.0
 40
9.0
 41
0.0
 71
               4
 72
               1
  1
\W1.105;\A1;MODEL:F18T1-FM
  0
MTEXT
  5
577
100
AcDbEntity
  8
0
  6
CONTINUOUS
 62
               7
100
AcDbMText
 10
24.399993318858659
 20
-0.25
 30
0.0
 40
9.0
 41
0.0
 71
               4
 72
               1
  1
\W1.083;\A1;MODEL:F18Z-PJ
  0
LINE
  5
579
100
AcDbEntity
  8
0
  6
DASHED
 62
               2
100
AcDbLine
 10
264.16000000000003
 20
-133.06999999999999
 30
0.0
 11
264.16000000000003
 21
-10.07
 31
0.0
  0
LINE
  5
57A
100
AcDbEntity
  8
0
  6
DASHED
 62
               2
100
AcDbLine
 10
210.16
 20
-43.07
 30
0.0
 11
211.16
 21
-43.07
 31
0.0
  0
LINE
  5
57B
100
AcDbEntity
  8
0
  6
DASHED
 62
               2
100
AcDbLine
 10
210.66
 20
-133.06999999999999
 30
0.0
 11
264.16000000000003
 21
-133.06999999999999
 31
0.0
  0
LINE
  5
57C
100
AcDbEntity
  8
0
  6
DASHED
 62
               2
100
AcDbLine
 10
210.16
 20
-132.56999999999999
 30
0.0
 11
210.16
 21
-104.56999999999999
 31
0.0
  0
LINE
  5
57D
100
AcDbEntity
  8
0
  6
DASHED
 62
               2
100
AcDbLine
 10
210.16
 20
-104.56999999999999
 30
0.0
 11
213.16
 21
-104.56999999999999
 31
0.0
  0
LINE
  5
57E
100
AcDbEntity
  8
0
  6
DASHED
 62
               2
100
AcDbLine
 10
210.16
 20
-68.569999999999993
 30
0.0
 11
213.16
 21
-68.569999999999993
 31
0.0
  0
LINE
  5
57F
100
AcDbEntity
  8
0
  6
DASHED
 62
               2
100
AcDbLine
 10
213.16
 20
-104.56999999999999
 30
0.0
 11
213.16
 21
-68.569999999999993
 31
0.0
  0
LINE
  5
580
100
AcDbEntity
  8
0
  6
DASHED
 62
               2
100
AcDbLine
 10
210.16
 20
-68.569999999999993
 30
0.0
 11
210.16
 21
-43.07
 31
0.0
  0
LINE
  5
581
100
AcDbEntity
  8
0
  6
DASHED
 62
               2
100
AcDbLine
 10
227.16
 20
-124.06999999999999
 30
0.0
 11
227.16
 21
-112.06999999999999
 31
0.0
  0
LINE
  5
582
100
AcDbEntity
  8
0
  6
DASHED
 62
               2
100
AcDbLine
 10
221.16
 20
-118.06999999999999
 30
0.0
 11
233.16
 21
-118.06999999999999
 31
0.0
  0
LINE
  5
583
100
AcDbEntity
  8
0
  6
DASHED
 62
               2
100
AcDbLine
 10
211.16
 20
-43.07
 30
0.0
 11
211.16
 21
-10.07
 31
0.0
  0
LINE
  5
584
100
AcDbEntity
  8
0
  6
DASHED
 62
               2
100
AcDbLine
 10
211.16
 20
-10.07
 30
0.0
 11
264.16000000000003
 21
-10.07
 31
0.0
  0
LINE
  5
585
100
AcDbEntity
  8
0
  6
DASHED
 62
               2
100
AcDbLine
 10
233.16
 20
-66.069999999999993
 30
0.0
 11
233.16
 21
-54.07
 31
0.0
  0
LINE
  5
586
100
AcDbEntity
  8
0
  6
DASHED
 62
               2
100
AcDbLine
 10
227.16
 20
-60.07
 30
0.0
 11
239.16
 21
-60.07
 31
0.0
  0
ARC
  5
587
100
AcDbEntity
  8
0
  6
DASHED
 62
               2
100
AcDbCircle
 10
210.66086106998961
 20
-132.56913893001038
 30
0.0
 40
0.5008618101559337
100
AcDbArc
 50
180.09850162174922
 51
269.90149837825078
  0
LINE
  5
588
100
AcDbEntity
  8
0
  6
DASHED
 62
               2
100
AcDbLine
 10
20.919573691768591
 20
-72.57000732421875
 30
0.0
 11
20.919573691768591
 21
-47.57000732421875
 31
0.0
  0
LINE
  5
589
100
AcDbEntity
  8
0
  6
DASHED
 62
               2
100
AcDbLine
 10
20.919573691768591
 20
-136.57002258300781
 30
0.0
 11
20.919573691768591
 21
-108.57002258300781
 31
0.0
  0
LINE
  5
58A
100
AcDbEntity
  8
0
  6
DASHED
 62
               2
100
AcDbLine
 10
21.919573691768591
 20
-10.07000732421875
 30
0.0
 11
74.419573691768591
 21
-10.07000732421875
 31
0.0
  0
LINE
  5
58B
100
AcDbEntity
  8
0
  6
DASHED
 62
               2
100
AcDbLine
 10
23.919573691768591
 20
-108.57002258300781
 30
0.0
 11
23.919573691768591
 21
-72.57000732421875
 31
0.0
  0
LINE
  5
58C
100
AcDbEntity
  8
0
  6
DASHED
 62
               2
100
AcDbLine
 10
21.419573691768591
 20
-137.07002258300781
 30
0.0
 11
74.919573691768591
 21
-137.07002258300781
 31
0.0
  0
LINE
  5
58D
100
AcDbEntity
  8
0
  6
DASHED
 62
               2
100
AcDbLine
 10
21.419573848726827
 20
-47.07000732421875
 30
0.0
 11
21.919573691768591
 21
-47.07000732421875
 31
0.0
  0
LINE
  5
58E
100
AcDbEntity
  8
0
  6
DASHED
 62
               2
100
AcDbLine
 10
37.919573691768591
 20
-64.069992065429688
 30
0.0
 11
49.919573691768591
 21
-64.069992065429688
 31
0.0
  0
LINE
  5
58F
100
AcDbEntity
  8
0
  6
DASHED
 62
               2
100
AcDbLine
 10
43.919573691768591
 20
-70.069992065429687
 30
0.0
 11
43.919573691768591
 21
-58.069992065429688
 31
0.0
  0
LINE
  5
590
100
AcDbEntity
  8
0
  6
DASHED
 62
               2
100
AcDbLine
 10
31.919573691768591
 20
-122.07000732421875
 30
0.0
 11
43.919573691768591
 21
-122.07000732421875
 31
0.0
  0
LINE
  5
591
100
AcDbEntity
  8
0
  6
DASHED
 62
               2
100
AcDbLine
 10
37.919573691768591
 20
-128.07000732421875
 30
0.0
 11
37.919573691768591
 21
-116.07000732421875
 31
0.0
  0
LINE
  5
592
100
AcDbEntity
  8
0
  6
DASHED
 62
               2
100
AcDbLine
 10
74.919573691768591
 20
-137.07000732421875
 30
0.0
 11
74.919573691768591
 21
-10.07000732421875
 31
0.0
  0
LINE
  5
593
100
AcDbEntity
  8
0
  6
DASHED
 62
               2
100
AcDbLine
 10
20.919573691768591
 20
-108.57002258300781
 30
0.0
 11
23.919573691768591
 21
-108.57002258300781
 31
0.0
  0
LINE
  5
594
100
AcDbEntity
  8
0
  6
DASHED
 62
               2
100
AcDbLine
 10
20.919573691768591
 20
-72.57000732421875
 30
0.0
 11
23.919573691768591
 21
-72.57000732421875
 31
0.0
  0
LINE
  5
595
100
AcDbEntity
  8
0
  6
DASHED
 62
               2
100
AcDbLine
 10
21.919573691768591
 20
-47.07000732421875
 30
0.0
 11
21.919573691768591
 21
-10.07000732421875
 31
0.0
  0
ARC
  5
596
100
AcDbEntity
  8
0
  6
DASHED
 62
               2
100
AcDbCircle
 10
21.419573691768591
 20
-47.57000732421875
 30
0.0
 40
0.5
100
AcDbArc
 50
89.999982013910653
 51
179.99996402782131
  0
ARC
  5
597
100
AcDbEntity
  8
0
  6
DASHED
 62
               2
100
AcDbCircle
 10
21.419573691768591
 20
-136.57002258300781
 30
0.0
 40
0.5
100
AcDbArc
 50
179.99998133066532
 51
270.00001798608935
  0
LINE
  5
598
100
AcDbEntity
  8
0
  6
DASHED
 62
               2
100
AcDbLine
 10
-189.06999999999999
 20
-51.560000000000002
 30
0.0
 11
-188.06999999999999
 21
-51.560000000000002
 31
0.0
  0
LINE
  5
599
100
AcDbEntity
  8
0
  6
DASHED
 62
               2
100
AcDbLine
 10
-189.06999999999999
 20
-141.56
 30
0.0
 11
-135.06999999999999
 21
-141.56
 31
0.0
  0
LINE
  5
59A
100
AcDbEntity
  8
0
  6
DASHED
 62
               2
100
AcDbLine
 10
-189.06999999999999
 20
-141.56
 30
0.0
 11
-189.06999999999999
 21
-113.06
 31
0.0
  0
LINE
  5
59B
100
AcDbEntity
  8
0
  6
DASHED
 62
               2
100
AcDbLine
 10
-189.06999999999999
 20
-113.06
 30
0.0
 11
-186.06999999999999
 21
-113.06
 31
0.0
  0
LINE
  5
59C
100
AcDbEntity
  8
0
  6
DASHED
 62
               2
100
AcDbLine
 10
-189.06999999999999
 20
-77.060000000000002
 30
0.0
 11
-186.06999999999999
 21
-77.060000000000002
 31
0.0
  0
LINE
  5
59D
100
AcDbEntity
  8
0
  6
DASHED
 62
               2
100
AcDbLine
 10
-186.06999999999999
 20
-113.06
 30
0.0
 11
-186.06999999999999
 21
-77.060000000000002
 31
0.0
  0
LINE
  5
59E
100
AcDbEntity
  8
0
  6
DASHED
 62
               2
100
AcDbLine
 10
-189.06999999999999
 20
-77.060000000000002
 30
0.0
 11
-189.06999999999999
 21
-51.560000000000002
 31
0.0
  0
LINE
  5
59F
100
AcDbEntity
  8
0
  6
DASHED
 62
               2
100
AcDbLine
 10
-172.06999999999999
 20
-132.56
 30
0.0
 11
-172.06999999999999
 21
-120.56
 31
0.0
  0
LINE
  5
5A0
100
AcDbEntity
  8
0
  6
DASHED
 62
               2
100
AcDbLine
 10
-178.06999999999999
 20
-126.56
 30
0.0
 11
-166.06999999999999
 21
-126.56
 31
0.0
  0
LINE
  5
5A1
100
AcDbEntity
  8
0
  6
DASHED
 62
               2
100
AcDbLine
 10
-188.06999999999999
 20
-51.560000000000002
 30
0.0
 11
-188.06999999999999
 21
-18.560000000000002
 31
0.0
  0
LINE
  5
5A2
100
AcDbEntity
  8
0
  6
DASHED
 62
               2
100
AcDbLine
 10
-188.06999999999999
 20
-18.560000000000002
 30
0.0
 11
-135.06999999999999
 21
-18.560000000000002
 31
0.0
  0
LINE
  5
5A3
100
AcDbEntity
  8
0
  6
DASHED
 62
               2
100
AcDbLine
 10
-135.06999999999999
 20
-141.56
 30
0.0
 11
-135.06999999999999
 21
-18.560000000000002
 31
0.0
  0
LINE
  5
5A4
100
AcDbEntity
  8
0
  6
DASHED
 62
               2
100
AcDbLine
 10
-166.06999999999999
 20
-74.560000000000002
 30
0.0
 11
-166.06999999999999
 21
-62.560000000000002
 31
0.0
  0
LINE
  5
5A5
100
AcDbEntity
  8
0
  6
DASHED
 62
               2
100
AcDbLine
 10
-172.06999999999999
 20
-68.560000000000002
 30
0.0
 11
-160.06999999999999
 21
-68.560000000000002
 31
0.0
  0
LINE
  5
5A6
100
AcDbEntity
  8
0
  6
DASHED
 62
               2
100
AcDbLine
 10
-396.82999999999998
 20
-51.560000000000002
 30
0.0
 11
-395.82999999999998
 21
-51.560000000000002
 31
0.0
  0
LINE
  5
5A7
100
AcDbEntity
  8
0
  6
DASHED
 62
               2
100
AcDbLine
 10
-396.82999999999998
 20
-141.56
 30
0.0
 11
-342.82999999999998
 21
-141.56
 31
0.0
  0
LINE
  5
5A8
100
AcDbEntity
  8
0
  6
DASHED
 62
               2
100
AcDbLine
 10
-396.82999999999998
 20
-141.56
 30
0.0
 11
-396.82999999999998
 21
-113.06
 31
0.0
  0
LINE
  5
5A9
100
AcDbEntity
  8
0
  6
DASHED
 62
               2
100
AcDbLine
 10
-396.82999999999998
 20
-113.06
 30
0.0
 11
-393.82999999999998
 21
-113.06
 31
0.0
  0
LINE
  5
5AA
100
AcDbEntity
  8
0
  6
DASHED
 62
               2
100
AcDbLine
 10
-396.82999999999998
 20
-77.060000000000002
 30
0.0
 11
-393.82999999999998
 21
-77.060000000000002
 31
0.0
  0
LINE
  5
5AB
100
AcDbEntity
  8
0
  6
DASHED
 62
               2
100
AcDbLine
 10
-393.82999999999998
 20
-113.06
 30
0.0
 11
-393.82999999999998
 21
-77.060000000000002
 31
0.0
  0
LINE
  5
5AC
100
AcDbEntity
  8
0
  6
DASHED
 62
               2
100
AcDbLine
 10
-396.82999999999998
 20
-77.060000000000002
 30
0.0
 11
-396.82999999999998
 21
-51.560000000000002
 31
0.0
  0
LINE
  5
5AD
100
AcDbEntity
  8
0
  6
DASHED
 62
               2
100
AcDbLine
 10
-379.82999999999998
 20
-132.56
 30
0.0
 11
-379.82999999999998
 21
-120.56
 31
0.0
  0
LINE
  5
5AE
100
AcDbEntity
  8
0
  6
DASHED
 62
               2
100
AcDbLine
 10
-385.82999999999998
 20
-126.56
 30
0.0
 11
-373.82999999999998
 21
-126.56
 31
0.0
  0
LINE
  5
5AF
100
AcDbEntity
  8
0
  6
DASHED
 62
               2
100
AcDbLine
 10
-395.82999999999998
 20
-51.560000000000002
 30
0.0
 11
-395.82999999999998
 21
-18.560000000000002
 31
0.0
  0
LINE
  5
5B0
100
AcDbEntity
  8
0
  6
DASHED
 62
               2
100
AcDbLine
 10
-395.82999999999998
 20
-18.560000000000002
 30
0.0
 11
-342.82999999999998
 21
-18.560000000000002
 31
0.0
  0
LINE
  5
5B1
100
AcDbEntity
  8
0
  6
DASHED
 62
               2
100
AcDbLine
 10
-342.82999999999998
 20
-141.56
 30
0.0
 11
-342.82999999999998
 21
-18.560000000000002
 31
0.0
  0
LINE
  5
5B2
100
AcDbEntity
  8
0
  6
DASHED
 62
               2
100
AcDbLine
 10
-373.82999999999998
 20
-74.560000000000002
 30
0.0
 11
-373.82999999999998
 21
-62.560000000000002
 31
0.0
  0
LINE
  5
5B3
100
AcDbEntity
  8
0
  6
DASHED
 62
               2
100
AcDbLine
 10
-379.82999999999998
 20
-68.560000000000002
 30
0.0
 11
-367.82999999999998
 21
-68.560000000000002
 31
0.0
  0
LINE
  5
5B4
100
AcDbEntity
  8
0
  6
DASHED
 62
               2
100
AcDbLine
 10
98.159999999999997
 20
198.43000000000001
 30
0.0
 11
98.159999999999997
 21
231.43000000000001
 31
0.0
  0
LINE
  5
5B5
100
AcDbEntity
  8
0
  6
DASHED
 62
               2
100
AcDbLine
 10
151.16
 20
108.43000000000001
 30
0.0
 11
151.16
 21
231.43000000000001
 31
0.0
  0
LINE
  5
5B6
100
AcDbEntity
  8
0
  6
DASHED
 62
               2
100
AcDbLine
 10
98.159999999999997
 20
231.43000000000001
 30
0.0
 11
151.16
 21
231.43000000000001
 31
0.0
  0
LINE
  5
5B7
100
AcDbEntity
  8
0
  6
DASHED
 62
               2
100
AcDbLine
 10
97.159999999999997
 20
198.43000000000001
 30
0.0
 11
98.159999999999997
 21
198.43000000000001
 31
0.0
  0
LINE
  5
5B8
100
AcDbEntity
  8
0
  6
DASHED
 62
               2
100
AcDbLine
 10
97.659999999999997
 20
108.43000000000001
 30
0.0
 11
151.16
 21
108.43000000000001
 31
0.0
  0
LINE
  5
5B9
100
AcDbEntity
  8
0
  6
DASHED
 62
               2
100
AcDbLine
 10
97.159999999999997
 20
108.93000000000001
 30
0.0
 11
97.159999999999997
 21
136.93000000000001
 31
0.0
  0
LINE
  5
5BA
100
AcDbEntity
  8
0
  6
DASHED
 62
               2
100
AcDbLine
 10
97.159999999999997
 20
136.93000000000001
 30
0.0
 11
100.16
 21
136.93000000000001
 31
0.0
  0
LINE
  5
5BB
100
AcDbEntity
  8
0
  6
DASHED
 62
               2
100
AcDbLine
 10
97.159999999999997
 20
172.93000000000001
 30
0.0
 11
100.16
 21
172.93000000000001
 31
0.0
  0
LINE
  5
5BC
100
AcDbEntity
  8
0
  6
DASHED
 62
               2
100
AcDbLine
 10
100.16
 20
136.93000000000001
 30
0.0
 11
100.16
 21
172.93000000000001
 31
0.0
  0
LINE
  5
5BD
100
AcDbEntity
  8
0
  6
DASHED
 62
               2
100
AcDbLine
 10
97.159999999999997
 20
172.93000000000001
 30
0.0
 11
97.159999999999997
 21
198.43000000000001
 31
0.0
  0
LINE
  5
5BE
100
AcDbEntity
  8
0
  6
DASHED
 62
               2
100
AcDbLine
 10
114.16
 20
117.43000000000001
 30
0.0
 11
114.16
 21
129.43000000000001
 31
0.0
  0
LINE
  5
5BF
100
AcDbEntity
  8
0
  6
DASHED
 62
               2
100
AcDbLine
 10
108.16
 20
123.43000000000001
 30
0.0
 11
120.16
 21
123.43000000000001
 31
0.0
  0
LINE
  5
5C0
100
AcDbEntity
  8
0
  6
DASHED
 62
               2
100
AcDbLine
 10
120.16
 20
175.43000000000001
 30
0.0
 11
120.16
 21
187.43000000000001
 31
0.0
  0
LINE
  5
5C1
100
AcDbEntity
  8
0
  6
DASHED
 62
               2
100
AcDbLine
 10
114.16
 20
181.43000000000001
 30
0.0
 11
126.16
 21
181.43000000000001
 31
0.0
  0
ARC
  5
5C2
100
AcDbEntity
  8
0
  6
DASHED
 62
               2
100
AcDbCircle
 10
97.661737670928602
 20
108.93173767092861
 30
0.0
 40
0.5017406799623907
100
AcDbArc
 50
180.19843200561044
 51
269.80156799438953
  0
ENDSEC
  0
SECTION
  2
OBJECTS
  0
DICTIONARY
  5
19
100
AcDbDictionary
  3
ACAD_GROUP
350
1A
  3
ACAD_MLINESTYLE
350
1B
  0
DICTIONARY
  5
1A
102
{ACAD_REACTORS
330
19
102
}
100
AcDbDictionary
  0
DICTIONARY
  5
1B
102
{ACAD_REACTORS
330
19
102
}
100
AcDbDictionary
  3
STANDARD
350
1C
  0
MLINESTYLE
  5
1C
102
{ACAD_REACTORS
330
1B
102
}
100
AcDbMlineStyle
  2
Standard
 70
               0
  3

 62
               0
 51
90.0
 52
90.0
 71
               2
 49
0.5
 62
             256
  6
ByLayer
 49
-0.5
 62
             256
  6
ByLayer
  0
ENDSEC
  0
EOF
