  0
SECTION
  2
HEADER
  9
$ACADVER
  1
AC1012
  9
$DWGCODEPAGE
  3
dos932
  9
$INSBASE
 10
0.0
 20
0.0
 30
0.0
  9
$EXTMIN
 10
-399.25
 20
-276.75
 30
0.0
  9
$EXTMAX
 10
406.09414987197181
 20
276.25
 30
0.0
  9
$LIMMIN
 10
-399.25
 20
-276.75
  9
$LIMMAX
 10
406.09414987197181
 20
276.25
  9
$ORTHOMODE
 70
               0
  9
$REGENMODE
 70
               1
  9
$FILLMODE
 70
               1
  9
$QTEXTMODE
 70
               0
  9
$MIRRTEXT
 70
               1
  9
$DRAGMODE
 70
               2
  9
$LTSCALE
 40
1.0
  9
$OSMODE
 70
               0
  9
$ATTMODE
 70
               1
  9
$TEXTSIZE
 40
3.2000000476837158
  9
$TRACEWID
 40
0.05
  9
$TEXTSTYLE
  7
MX_NOTE_STANDARD
  9
$CLAYER
  8
0
  9
$CELTYPE
  6
CONTINUOUS
  9
$CECOLOR
 62
             256
  9
$CELTSCALE
 40
1.0
  9
$DELOBJ
 70
               1
  9
$DISPSILH
 70
               0
  9
$DIMSCALE
 40
1.0
  9
$DIMASZ
 40
2.5
  9
$DIMEXO
 40
1.5
  9
$DIMDLI
 40
3.75
  9
$DIMRND
 40
0.0
  9
$DIMDLE
 40
0.0
  9
$DIMEXE
 40
1.5
  9
$DIMTP
 40
0.0
  9
$DIMTM
 40
0.0
  9
$DIMTXT
 40
3.2000000476837158
  9
$DIMCEN
 40
2.5
  9
$DIMTSZ
 40
0.0
  9
$DIMTOL
 70
               0
  9
$DIMLIM
 70
               0
  9
$DIMTIH
 70
               0
  9
$DIMTOH
 70
               0
  9
$DIMSE1
 70
               0
  9
$DIMSE2
 70
               0
  9
$DIMTAD
 70
               1
  9
$DIMZIN
 70
               8
  9
$DIMBLK
  1

  9
$DIMASO
 70
               1
  9
$DIMSHO
 70
               1
  9
$DIMPOST
  1

  9
$DIMAPOST
  1

  9
$DIMALT
 70
               0
  9
$DIMALTD
 70
               4
  9
$DIMALTF
 40
0.03937007874016
  9
$DIMLFAC
 40
1.0
  9
$DIMTOFL
 70
               1
  9
$DIMTVP
 40
0.0
  9
$DIMTIX
 70
               0
  9
$DIMSOXD
 70
               0
  9
$DIMSAH
 70
               0
  9
$DIMBLK1
  1

  9
$DIMBLK2
  1

  9
$DIMSTYLE
  2
MXDIMSTYLE
  9
$DIMCLRD
 70
               0
  9
$DIMCLRE
 70
               0
  9
$DIMCLRT
 70
               0
  9
$DIMTFAC
 40
1.0
  9
$DIMGAP
 40
1.0
  9
$DIMJUST
 70
               0
  9
$DIMSD1
 70
               0
  9
$DIMSD2
 70
               0
  9
$DIMTOLJ
 70
               1
  9
$DIMTZIN
 70
               0
  9
$DIMALTZ
 70
               0
  9
$DIMALTTZ
 70
               0
  9
$DIMFIT
 70
               3
  9
$DIMUPT
 70
               1
  9
$DIMUNIT
 70
               2
  9
$DIMDEC
 70
               4
  9
$DIMTDEC
 70
               4
  9
$DIMALTU
 70
               2
  9
$DIMALTTD
 70
               4
  9
$DIMTXSTY
  7
MX_NOTE_STANDARD
  9
$DIMAUNIT
 70
               0
  9
$LUNITS
 70
               2
  9
$LUPREC
 70
               4
  9
$SKETCHINC
 40
0.1
  9
$FILLETRAD
 40
0.0
  9
$AUNITS
 70
               0
  9
$AUPREC
 70
               0
  9
$MENU
  1
acad
  9
$ELEVATION
 40
0.0
  9
$PELEVATION
 40
0.0
  9
$THICKNESS
 40
0.0
  9
$LIMCHECK
 70
               0
  9
$BLIPMODE
 70
               1
  9
$CHAMFERA
 40
0.0
  9
$CHAMFERB
 40
0.0
  9
$CHAMFERC
 40
0.0
  9
$CHAMFERD
 40
0.0
  9
$SKPOLY
 70
               0
  9
$TDCREATE
 40
2453378.356539352
  9
$TDUPDATE
 40
2453378.356539352
  9
$TDINDWG
 40
0.0000000000
  9
$TDUSRTIMER
 40
0.0000000000
  9
$USRTIMER
 70
               1
  9
$ANGBASE
 50
0.0
  9
$ANGDIR
 70
               0
  9
$PDMODE
 70
               0
  9
$PDSIZE
 40
0.0
  9
$PLINEWID
 40
0.0
  9
$COORDS
 70
               1
  9
$SPLFRAME
 70
               0
  9
$SPLINETYPE
 70
               6
  9
$SPLINESEGS
 70
               8
  9
$ATTDIA
 70
               0
  9
$ATTREQ
 70
               1
  9
$HANDLING
 70
               1
  9
$HANDSEED
  5
772
  9
$SURFTAB1
 70
               6
  9
$SURFTAB2
 70
               6
  9
$SURFTYPE
 70
               6
  9
$SURFU
 70
               6
  9
$SURFV
 70
               6
  9
$UCSNAME
  2

  9
$UCSORG
 10
0.0
 20
0.0
 30
0.0
  9
$UCSXDIR
 10
1.0
 20
0.0
 30
0.0
  9
$UCSYDIR
 10
0.0
 20
1.0
 30
0.0
  9
$PUCSNAME
  2

  9
$PUCSORG
 10
0.0
 20
0.0
 30
0.0
  9
$PUCSXDIR
 10
1.0
 20
0.0
 30
0.0
  9
$PUCSYDIR
 10
0.0
 20
1.0
 30
0.0
  9
$USERI1
 70
               0
  9
$USERI2
 70
               0
  9
$USERI3
 70
               0
  9
$USERI4
 70
               0
  9
$USERI5
 70
               0
  9
$USERR1
 40
0.0
  9
$USERR2
 40
0.0
  9
$USERR3
 40
0.0
  9
$USERR4
 40
0.0
  9
$USERR5
 40
0.0
  9
$WORLDVIEW
 70
               1
  9
$SHADEDGE
 70
               3
  9
$SHADEDIF
 70
              70
  9
$TILEMODE
 70
               1
  9
$MAXACTVP
 70
              16
  9
$PINSBASE
 10
0.0
 20
0.0
 30
0.0
  9
$PLIMCHECK
 70
               0
  9
$PEXTMIN
 10
1.0000000000000000E+20
 20
1.0000000000000000E+20
 30
1.0000000000000000E+20
  9
$PEXTMAX
 10
-1.0000000000000000E+20
 20
-1.0000000000000000E+20
 30
-1.0000000000000000E+20
  9
$PLIMMIN
 10
0.0
 20
0.0
  9
$PLIMMAX
 10
12.0
 20
9.0
  9
$UNITMODE
 70
               0
  9
$VISRETAIN
 70
               0
  9
$PLINEGEN
 70
               1
  9
$PSLTSCALE
 70
               0
  9
$TREEDEPTH
 70
            3020
  9
$PICKSTYLE
 70
               1
  9
$CMLSTYLE
  2
Standard
  9
$CMLJUST
 70
               0
  9
$CMLSCALE
 40
1.0
  9
$SAVEIMAGES
 70
               0
  0
ENDSEC
  0
SECTION
  2
CLASSES
  0
CLASS
  1
LWPOLYLINE
  2
AcDbPolyline
  3
"AutoCAD"
 90
        0
280
               0
281
               1
  0
CLASS
  1
IMAGE
  2
AcDbRasterImage
  3
ISM
 90
      127
280
               0
281
               1
  0
CLASS
  1
OLE2FRAME
  2
AcDbOle2Frame
  3
""
 90
        0
280
               0
281
               1
  0
CLASS
  1
HATCH
  2
AcDbHatch
  3
"ACAD_SEDONA"
 90
        0
280
               0
281
               1
  0
CLASS
  1
DICTIONARYVAR
  2
AcDbDictionaryVar
  3
"AutoCAD"
 90
        0
280
               0
281
               0
  0
CLASS
  1
RASTERVARIABLES
  2
AcDbRasterVariables
  3
ISM
 90
        0
280
               0
281
               0
  0
CLASS
  1
IMAGEDEF
  2
AcDbRasterImageDef
  3
ISM
 90
        0
280
               0
281
               0
  0
CLASS
  1
IMAGEDEF_REACTOR
  2
AcDbRasterImageDefReactor
  3
ISM
 90
        1
280
               0
281
               0
  0
CLASS
  1
IDBUFFER
  2
AcDbIdBuffer
  3
"Acad"
 90
        0
280
               0
281
               0
  0
CLASS
  1
SPATIAL_FILTER
  2
AcDbSpatialFilter
  3
"Acad"
 90
        0
280
               0
281
               0
  0
CLASS
  1
XRECORD
  2
AcDbXrecord
  3
"<Built In>"
 90
        0
280
               0
281
               0
  0
CLASS
  1
SORTENTSTABLE
  2
AcDbSortentsTable
  3
"AutoCAD"
 90
        0
280
               0
281
               0
  0
CLASS
  1
LAYER_INDEX
  2
AcDbLayerIndex
  3
"Acad"
 90
        0
280
               0
281
               0
  0
CLASS
  1
SPATIAL_INDEX
  2
AcDbSpatialIndex
  3
"Acad"
 90
        0
280
               0
281
               0
  0
CLASS
  1
OBJECT_PTR
  2
CAseDLPNTableRecord
  3
"ASE-LPNTableRecord"
 90
        1
280
               0
281
               0
  0
CLASS
  1
LAYOUT
  2
AcDbLayout
  3
"AutoCAD 2000"
 90
        1
280
               0
281
               0
  0
CLASS
  1
PLOTSETTINGS
  2
AcDbPlotSettings
  3
"AutoCAD 2000"
 90
        1
280
               0
281
               0
  0
CLASS
  1
ACDBDICTIONARYWDFLT
  2
AcDbDictionaryWithDefault
  3
"AutoCAD 2000"
 90
        1
280
               0
281
               0
  0
CLASS
  1
ACDBPLACEHOLDER
  2
AcDbPlaceHolder
  3
"AutoCAD 2000"
 90
        1
280
               0
281
               0
  0
ENDSEC
  0
SECTION
  2
TABLES
  0
TABLE
  2
VPORT
  5
7
100
AcDbSymbolTable
 70
               1
  0
VPORT
  5
15
100
AcDbSymbolTableRecord
100
AcDbViewportTableRecord
  2
*ACTIVE
 70
               0
 10
0.0
 20
0.0
 11
1.0
 21
1.0
 12
3.4220749359859042
 22
-0.25
 13
0.0
 23
0.0
 14
1.0
 24
1.0
 15
0.0
 25
0.0
 16
0.0
 26
0.0
 36
1.0
 17
0.0
 27
0.0
 37
0.0
 40
558.52999999999997
 41
1.7320508075688772
 42
50.0
 43
0.0
 44
0.0
 50
0.0
 51
0.0
 71
               0
 72
             100
 73
               1
 74
               1
 75
               0
 76
               0
 77
               0
 78
               0
  0
ENDTAB
  0
TABLE
  2
LTYPE
  5
4
100
AcDbSymbolTable
 70
               5
  0
LTYPE
  5
11
100
AcDbSymbolTableRecord
100
AcDbLinetypeTableRecord
  2
BYBLOCK
 70
              64
  3

 72
              65
 73
               0
 40
0.0
  0
LTYPE
  5
12
100
AcDbSymbolTableRecord
100
AcDbLinetypeTableRecord
  2
BYLAYER
 70
              64
  3

 72
              65
 73
               0
 40
0.0
  0
LTYPE
  5
13
100
AcDbSymbolTableRecord
100
AcDbLinetypeTableRecord
  2
CONTINUOUS
 70
              64
  3
Solid line
 72
              65
 73
               0
 40
0.0
  0
LTYPE
  5
D1
100
AcDbSymbolTableRecord
100
AcDbLinetypeTableRecord
  2
DASHED
 70
              64
  3
Dashed __ __ __ __ __ __ __ __ __ __ __ __ __ _
 72
              65
 73
               2
 40
4.0
 49
2.0
 74
               0
 49
-2.0
 74
               0
  0
LTYPE
  5
76E
100
AcDbSymbolTableRecord
100
AcDbLinetypeTableRecord
  2
CENTER
 70
              64
  3
Center ____ _ ____ _ ____ _ ____ _ ____ _ ____
 72
              65
 73
               4
 40
26.0
 49
20.0
 74
               0
 49
-2.0
 74
               0
 49
2.0
 74
               0
 49
-2.0
 74
               0
  0
ENDTAB
  0
TABLE
  2
LAYER
  5
2
100
AcDbSymbolTable
 70
               2
  0
LAYER
  5
14
100
AcDbSymbolTableRecord
100
AcDbLayerTableRecord
  2
0
 70
               0
 62
               7
  6
CONTINUOUS
  0
LAYER
  5
1D
100
AcDbSymbolTableRecord
100
AcDbLayerTableRecord
  2
DEFPOINTS
 70
               0
 62
               7
  6
CONTINUOUS
  0
ENDTAB
  0
TABLE
  2
STYLE
  5
3
100
AcDbSymbolTable
 70
               1
  0
STYLE
  5
17
100
AcDbSymbolTableRecord
100
AcDbTextStyleTableRecord
  2
MX_NOTE_STANDARD
 70
               0
 40
0.0
 41
1.0
 50
0.0
 71
               0
 42
3.2000000476837158
  3
txt.shx
  4
extfont.shx
  0
ENDTAB
  0
TABLE
  2
VIEW
  5
5
100
AcDbSymbolTable
 70
               0
  0
ENDTAB
  0
TABLE
  2
UCS
  5
6
100
AcDbSymbolTable
 70
               0
  0
ENDTAB
  0
TABLE
  2
APPID
  5
8
100
AcDbSymbolTable
 70
               1
  0
APPID
  5
16
100
AcDbSymbolTableRecord
100
AcDbRegAppTableRecord
  2
ACAD
 70
               0
  0
ENDTAB
  0
TABLE
  2
DIMSTYLE
  5
9
100
AcDbSymbolTable
 70
               1
  0
DIMSTYLE
105
18
100
AcDbSymbolTableRecord
100
AcDbDimStyleTableRecord
  2
MXDIMSTYLE
 70
               0
  3

  4

  5

  6

  7

 40
1.0
 41
2.5
 42
1.5
 43
3.75
 44
1.5
 45
0.0
 46
0.0
 47
0.0
 48
0.0
 71
               0
 72
               0
 73
               0
 74
               0
 75
               0
 76
               0
 77
               1
 78
               8
140
3.2000000476837158
141
2.5
142
0.0
143
0.03937007874016
144
1.0
145
0.0
146
1.0
147
1.0
170
               0
171
               4
172
               1
173
               0
174
               0
175
               0
176
               0
177
               0
178
               0
270
               2
271
               4
272
               4
273
               2
274
               4
275
               0
280
               0
281
               0
282
               0
283
               1
284
               0
285
               0
286
               0
287
               3
288
               1
340
17
  0
ENDTAB
  0
TABLE
  2
BLOCK_RECORD
  5
1
100
AcDbSymbolTable
 70
              15
  0
BLOCK_RECORD
  5
A
100
AcDbSymbolTableRecord
100
AcDbBlockTableRecord
  2
*MODEL_SPACE
  0
BLOCK_RECORD
  5
B
100
AcDbSymbolTableRecord
100
AcDbBlockTableRecord
  2
*PAPER_SPACE
  0
BLOCK_RECORD
  5
1E
100
AcDbSymbolTableRecord
100
AcDbBlockTableRecord
  2
F18T-1
  0
BLOCK_RECORD
  5
1F
100
AcDbSymbolTableRecord
100
AcDbBlockTableRecord
  2
F18T-2
  0
BLOCK_RECORD
  5
20
100
AcDbSymbolTableRecord
100
AcDbBlockTableRecord
  2
F18T-3
  0
BLOCK_RECORD
  5
21
100
AcDbSymbolTableRecord
100
AcDbBlockTableRecord
  2
F18T-4
  0
BLOCK_RECORD
  5
22
100
AcDbSymbolTableRecord
100
AcDbBlockTableRecord
  2
F18T-5
  0
BLOCK_RECORD
  5
23
100
AcDbSymbolTableRecord
100
AcDbBlockTableRecord
  2
F18T-6
  0
BLOCK_RECORD
  5
24
100
AcDbSymbolTableRecord
100
AcDbBlockTableRecord
  2
F18T-7
  0
BLOCK_RECORD
  5
25
100
AcDbSymbolTableRecord
100
AcDbBlockTableRecord
  2
F18T-8
  0
BLOCK_RECORD
  5
26
100
AcDbSymbolTableRecord
100
AcDbBlockTableRecord
  2
F18T-9
  0
BLOCK_RECORD
  5
27
100
AcDbSymbolTableRecord
100
AcDbBlockTableRecord
  2
F18T-10
  0
BLOCK_RECORD
  5
28
100
AcDbSymbolTableRecord
100
AcDbBlockTableRecord
  2
F18T-11
  0
BLOCK_RECORD
  5
29
100
AcDbSymbolTableRecord
100
AcDbBlockTableRecord
  2
F18T-12
  0
BLOCK_RECORD
  5
2A
100
AcDbSymbolTableRecord
100
AcDbBlockTableRecord
  2
F18T-13
  0
BLOCK_RECORD
  5
2B
100
AcDbSymbolTableRecord
100
AcDbBlockTableRecord
  2
F18T-14
  0
BLOCK_RECORD
  5
2C
100
AcDbSymbolTableRecord
100
AcDbBlockTableRecord
  2
F18T-15
  0
ENDTAB
  0
ENDSEC
  0
SECTION
  2
BLOCKS
  0
BLOCK
  5
D
100
AcDbEntity
  8
0
100
AcDbBlockBegin
  2
*MODEL_SPACE
 70
               0
 10
0.0
 20
0.0
 30
0.0
  3
*MODEL_SPACE
  1

  0
ENDBLK
  5
E
100
AcDbEntity
  8
0
100
AcDbBlockEnd
  0
BLOCK
  5
F
100
AcDbEntity
 67
               1
  8
0
100
AcDbBlockBegin
  2
*PAPER_SPACE
 70
               0
 10
0.0
 20
0.0
 30
0.0
  3
*PAPER_SPACE
  1

  0
ENDBLK
  5
10
100
AcDbEntity
 67
               1
  8
0
100
AcDbBlockEnd
  0
BLOCK
  5
2D
100
AcDbEntity
  8
0
100
AcDbBlockBegin
  2
F18T-1
 70
               0
 10
0.0
 20
0.0
 30
0.0
  3
F18T-1
  1

  0
LINE
  5
2E
100
AcDbEntity
  8
0
  6
CONTINUOUS
 62
               7
100
AcDbLine
 10
8.5
 20
10.500015258789062
 30
0.0
 11
18.5
 21
10.500015258789062
 31
0.0
  0
LINE
  5
2F
100
AcDbEntity
  8
0
  6
CONTINUOUS
 62
               2
100
AcDbLine
 10
11.0
 20
16.70001220703125
 30
0.0
 11
16.0
 21
16.70001220703125
 31
0.0
  0
LINE
  5
30
100
AcDbEntity
  8
0
  6
CONTINUOUS
 62
               2
100
AcDbLine
 10
13.5
 20
-82.8028564453125
 30
0.0
 11
13.5
 21
65.755081176757813
 31
0.0
  0
LINE
  5
31
100
AcDbEntity
  8
0
  6
CONTINUOUS
 62
               4
100
AcDbLine
 10
8.5000152587890625
 20
44.000015258789063
 30
0.0
 11
18.500015258789063
 21
44.000015258789063
 31
0.0
  0
LINE
  5
32
100
AcDbEntity
  8
0
  6
CONTINUOUS
 62
               7
100
AcDbLine
 10
8.5
 20
20.000015258789063
 30
0.0
 11
18.5
 21
20.000015258789063
 31
0.0
  0
LINE
  5
33
100
AcDbEntity
  8
0
  6
CONTINUOUS
 62
               7
100
AcDbLine
 10
11.573211669921875
 20
16.400009155273438
 30
0.0
 11
15.426788330078125
 21
16.400009155273438
 31
0.0
  0
LINE
  5
34
100
AcDbEntity
  8
0
  6
CONTINUOUS
 62
               7
100
AcDbLine
 10
11.573211669921875
 20
17.000015258789063
 30
0.0
 11
15.426788330078125
 21
17.000015258789063
 31
0.0
  0
LINE
  5
35
100
AcDbEntity
  8
0
  6
CONTINUOUS
 62
               4
100
AcDbLine
 10
8.5500030517578125
 20
44.000015258789063
 30
0.0
 11
8.5500030517578125
 21
57.500015258789063
 31
0.0
  0
LINE
  5
36
100
AcDbEntity
  8
0
  6
CONTINUOUS
 62
               4
100
AcDbLine
 10
18.000015258789063
 20
53.000015258789063
 30
0.0
 11
9.0000152587890625
 21
53.000015258789063
 31
0.0
  0
LINE
  5
37
100
AcDbEntity
  8
0
  6
CONTINUOUS
 62
               2
100
AcDbLine
 10
18.449996948242188
 20
48.500015258789063
 30
0.0
 11
8.5500030517578125
 21
48.500015258789063
 31
0.0
  0
LINE
  5
38
100
AcDbEntity
  8
0
  6
CONTINUOUS
 62
               4
100
AcDbLine
 10
18.449996948242188
 20
44.000015258789063
 30
0.0
 11
18.449996948242188
 21
57.500015258789063
 31
0.0
  0
LINE
  5
39
100
AcDbEntity
  8
0
  6
CONTINUOUS
 62
               4
100
AcDbLine
 10
8.5500030517578125
 20
57.500015258789063
 30
0.0
 11
10.000015258789062
 21
57.500015258789063
 31
0.0
  0
LINE
  5
3A
100
AcDbEntity
  8
0
  6
CONTINUOUS
 62
               4
100
AcDbLine
 10
9.4499969482421875
 20
53.000015258789063
 30
0.0
 11
9.4499969482421875
 21
55.500015258789063
 31
0.0
  0
LINE
  5
3B
100
AcDbEntity
  8
0
  6
CONTINUOUS
 62
               4
100
AcDbLine
 10
17.550003051757813
 20
53.000015258789063
 30
0.0
 11
17.550003051757813
 21
55.500015258789063
 31
0.0
  0
LINE
  5
3C
100
AcDbEntity
  8
0
  6
CONTINUOUS
 62
               4
100
AcDbLine
 10
17.0
 20
53.49847412109375
 30
0.0
 11
17.0
 21
64.000015258789063
 31
0.0
  0
LINE
  5
3D
100
AcDbEntity
  8
0
  6
CONTINUOUS
 62
               4
100
AcDbLine
 10
10.0
 20
53.49847412109375
 30
0.0
 11
10.0
 21
64.000015258789063
 31
0.0
  0
LINE
  5
3E
100
AcDbEntity
  8
0
  6
CONTINUOUS
 62
               4
100
AcDbLine
 10
10.000015258789062
 20
53.49847412109375
 30
0.0
 11
17.000015258789063
 21
53.49847412109375
 31
0.0
  0
LINE
  5
3F
100
AcDbEntity
  8
0
  6
CONTINUOUS
 62
               4
100
AcDbLine
 10
10.000015258789062
 20
57.056167602539062
 30
0.0
 11
17.000015258789063
 21
57.056167602539062
 31
0.0
  0
LINE
  5
40
100
AcDbEntity
  8
0
  6
CONTINUOUS
 62
               4
100
AcDbLine
 10
10.000015258789062
 20
62.500015258789063
 30
0.0
 11
17.000015258789063
 21
62.500015258789063
 31
0.0
  0
LINE
  5
41
100
AcDbEntity
  8
0
  6
CONTINUOUS
 62
               4
100
AcDbLine
 10
8.600006103515625
 20
64.000015258789063
 30
0.0
 11
18.400009155273438
 21
64.000015258789063
 31
0.0
  0
LINE
  5
42
100
AcDbEntity
  8
0
  6
CONTINUOUS
 62
               4
100
AcDbLine
 10
17.000015258789063
 20
57.500015258789063
 30
0.0
 11
18.449996948242188
 21
57.500015258789063
 31
0.0
  0
LINE
  5
43
100
AcDbEntity
  8
0
  6
CONTINUOUS
 62
               4
100
AcDbLine
 10
17.000015258789063
 20
56.500015258789063
 30
0.0
 11
17.550003051757813
 21
56.500015258789063
 31
0.0
  0
LINE
  5
44
100
AcDbEntity
  8
0
  6
CONTINUOUS
 62
               4
100
AcDbLine
 10
17.000015258789063
 20
55.500015258789063
 30
0.0
 11
17.550003051757813
 21
55.500015258789063
 31
0.0
  0
LINE
  5
45
100
AcDbEntity
  8
0
  6
CONTINUOUS
 62
               4
100
AcDbLine
 10
9.4499969482421875
 20
56.500015258789063
 30
0.0
 11
10.000015258789062
 21
56.500015258789063
 31
0.0
  0
LINE
  5
46
100
AcDbEntity
  8
0
  6
CONTINUOUS
 62
               4
100
AcDbLine
 10
9.4499969482421875
 20
55.500015258789063
 30
0.0
 11
10.000015258789062
 21
55.500015258789063
 31
0.0
  0
LINE
  5
47
100
AcDbEntity
  8
0
  6
CONTINUOUS
 62
               4
100
AcDbLine
 10
9.4499969482421875
 20
56.500015258789063
 30
0.0
 11
9.4499969482421875
 21
57.500015258789063
 31
0.0
  0
LINE
  5
48
100
AcDbEntity
  8
0
  6
CONTINUOUS
 62
               4
100
AcDbLine
 10
17.550003051757813
 20
56.500015258789063
 30
0.0
 11
17.550003051757813
 21
57.500015258789063
 31
0.0
  0
LINE
  5
49
100
AcDbEntity
  8
0
  6
CONTINUOUS
 62
               4
100
AcDbLine
 10
12.215011596679688
 20
68.17333984375
 30
0.0
 11
12.215011596679688
 21
72.000015258789063
 31
0.0
  0
LINE
  5
4A
100
AcDbEntity
  8
0
  6
CONTINUOUS
 62
               4
100
AcDbLine
 10
10.784988403320313
 20
67.7901611328125
 30
0.0
 11
10.784988403320313
 21
72.000015258789063
 31
0.0
  0
LINE
  5
4B
100
AcDbEntity
  8
0
  6
CONTINUOUS
 62
               4
100
AcDbLine
 10
10.784988403320313
 20
72.000015258789063
 30
0.0
 11
12.214996337890625
 21
72.000015258789063
 31
0.0
  0
LINE
  5
4C
100
AcDbEntity
  8
0
  6
CONTINUOUS
 62
               4
100
AcDbLine
 10
11.900009155273437
 20
72.000015258789063
 30
0.0
 11
11.900009155273437
 21
77.000015258789063
 31
0.0
  0
LINE
  5
4D
100
AcDbEntity
  8
0
  6
CONTINUOUS
 62
               4
100
AcDbLine
 10
11.099990844726563
 20
72.000015258789063
 30
0.0
 11
11.099990844726563
 21
77.000015258789063
 31
0.0
  0
LINE
  5
4E
100
AcDbEntity
  8
0
  6
CONTINUOUS
 62
               4
100
AcDbLine
 10
11.099990844726563
 20
77.000015258789063
 30
0.0
 11
11.899993896484375
 21
77.000015258789063
 31
0.0
  0
LINE
  5
4F
100
AcDbEntity
  8
0
  6
CONTINUOUS
 62
               4
100
AcDbLine
 10
12.215011596679688
 20
64.000015258789063
 30
0.0
 11
12.215011596679688
 21
67.1380615234375
 31
0.0
  0
LINE
  5
50
100
AcDbEntity
  8
0
  6
CONTINUOUS
 62
               4
100
AcDbLine
 10
10.784988403320313
 20
64.000015258789063
 30
0.0
 11
10.784988403320313
 21
66.7548828125
 31
0.0
  0
LINE
  5
51
100
AcDbEntity
  8
0
  6
CONTINUOUS
 62
               7
100
AcDbLine
 10
18.5
 20
9.0000152587890625
 30
0.0
 11
18.5
 21
19.900009155273438
 31
0.0
  0
LINE
  5
52
100
AcDbEntity
  8
0
  6
CONTINUOUS
 62
               7
100
AcDbLine
 10
8.5
 20
9.0000152587890625
 30
0.0
 11
8.5
 21
19.900009155273438
 31
0.0
  0
LINE
  5
53
100
AcDbEntity
  8
0
  6
CONTINUOUS
 62
               4
100
AcDbLine
 10
18.400009155273438
 20
57.500015258789063
 30
0.0
 11
18.400009155273438
 21
64.000015258789063
 31
0.0
  0
LINE
  5
54
100
AcDbEntity
  8
0
  6
CONTINUOUS
 62
               4
100
AcDbLine
 10
8.600006103515625
 20
57.500015258789063
 30
0.0
 11
8.600006103515625
 21
64.000015258789063
 31
0.0
  0
LINE
  5
55
100
AcDbEntity
  8
0
  6
CONTINUOUS
 62
               4
100
AcDbLine
 10
9.5
 20
57.500015258789063
 30
0.0
 11
9.5
 21
64.000015258789063
 31
0.0
  0
LINE
  5
56
100
AcDbEntity
  8
0
  6
CONTINUOUS
 62
               4
100
AcDbLine
 10
17.5
 20
57.500015258789063
 30
0.0
 11
17.5
 21
64.000015258789063
 31
0.0
  0
LINE
  5
57
100
AcDbEntity
  8
0
  6
CONTINUOUS
 62
               7
100
AcDbLine
 10
4.5
 20
-3.4999847412109375
 30
0.0
 11
22.5
 21
-3.4999847412109375
 31
0.0
  0
LINE
  5
58
100
AcDbEntity
  8
0
  6
CONTINUOUS
 62
               7
100
AcDbLine
 10
22.5
 20
-78.999984741210938
 30
0.0
 11
22.5
 21
-53.145614624023437
 31
0.0
  0
LINE
  5
59
100
AcDbEntity
  8
0
  6
CONTINUOUS
 62
               7
100
AcDbLine
 10
4.5
 20
-78.999984741210938
 30
0.0
 11
4.5
 21
-51.565994262695313
 31
0.0
  0
LINE
  5
5A
100
AcDbEntity
  8
0
  6
CONTINUOUS
 62
               7
100
AcDbLine
 10
4.5
 20
6.5000152587890625
 30
0.0
 11
22.5
 21
6.5000152587890625
 31
0.0
  0
LINE
  5
5B
100
AcDbEntity
  8
0
  6
CONTINUOUS
 62
               7
100
AcDbLine
 10
4.5
 20
-56.499984741210937
 30
0.0
 11
22.5
 21
-56.499984741210937
 31
0.0
  0
LINE
  5
5C
100
AcDbEntity
  8
0
  6
CONTINUOUS
 62
               7
100
AcDbLine
 10
4.5
 20
-68.499984741210937
 30
0.0
 11
22.5
 21
-68.499984741210937
 31
0.0
  0
LINE
  5
5D
100
AcDbEntity
  8
0
  6
CONTINUOUS
 62
               7
100
AcDbLine
 10
4.5
 20
-3.6999969482421875
 30
0.0
 11
22.5
 21
-3.6999969482421875
 31
0.0
  0
LINE
  5
5E
100
AcDbEntity
  8
0
  6
CONTINUOUS
 62
               7
100
AcDbLine
 10
4.5
 20
-56.299972534179688
 30
0.0
 11
22.5
 21
-56.299972534179688
 31
0.0
  0
LINE
  5
5F
100
AcDbEntity
  8
0
  6
CONTINUOUS
 62
               7
100
AcDbLine
 10
20.0
 20
-6.9999847412109375
 30
0.0
 11
22.266677856445313
 21
-6.9999847412109375
 31
0.0
  0
LINE
  5
60
100
AcDbEntity
  8
0
  6
CONTINUOUS
 62
               7
100
AcDbLine
 10
20.0
 20
-12.999984741210938
 30
0.0
 11
22.266677856445313
 21
-12.999984741210938
 31
0.0
  0
LINE
  5
61
100
AcDbEntity
  8
0
  6
CONTINUOUS
 62
               7
100
AcDbLine
 10
4.5
 20
-52.999984741210937
 30
0.0
 11
7.0
 21
-52.999984741210937
 31
0.0
  0
LINE
  5
62
100
AcDbEntity
  8
0
  6
CONTINUOUS
 62
               7
100
AcDbLine
 10
4.5
 20
-46.999988555908203
 30
0.0
 11
7.0
 21
-46.999988555908203
 31
0.0
  0
LINE
  5
63
100
AcDbEntity
  8
0
  6
CONTINUOUS
 62
               7
100
AcDbLine
 10
17.0
 20
-51.999969482421875
 30
0.0
 11
17.0
 21
-56.299972534179688
 31
0.0
  0
LINE
  5
64
100
AcDbEntity
  8
0
  6
CONTINUOUS
 62
               7
100
AcDbLine
 10
10.0
 20
-7.999969482421875
 30
0.0
 11
10.0
 21
-3.699981689453125
 31
0.0
  0
LINE
  5
65
100
AcDbEntity
  8
0
  6
CONTINUOUS
 62
               7
100
AcDbLine
 10
7.0
 20
-10.999984741210938
 30
0.0
 11
4.5
 21
-10.999984741210938
 31
0.0
  0
LINE
  5
66
100
AcDbEntity
  8
0
  6
CONTINUOUS
 62
               7
100
AcDbLine
 10
20.0
 20
-48.999977111816406
 30
0.0
 11
22.5
 21
-48.999977111816406
 31
0.0
  0
LINE
  5
67
100
AcDbEntity
  8
0
  6
CONTINUOUS
 62
               7
100
AcDbLine
 10
4.5
 20
-54.299972534179688
 30
0.0
 11
17.0
 21
-54.299972534179688
 31
0.0
  0
LINE
  5
68
100
AcDbEntity
  8
0
  6
CONTINUOUS
 62
               7
100
AcDbLine
 10
10.0
 20
-5.6999969482421875
 30
0.0
 11
22.5
 21
-5.6999969482421875
 31
0.0
  0
LINE
  5
69
100
AcDbEntity
  8
0
  6
CONTINUOUS
 62
               7
100
AcDbLine
 10
21.060658523992061
 20
-11.060648439533907
 30
0.0
 11
18.93933239768694
 21
-8.9393310751171384
 31
0.0
  0
LINE
  5
6A
100
AcDbEntity
  8
0
  6
CONTINUOUS
 62
               7
100
AcDbLine
 10
8.0606543225185305
 20
-9.0606350682123775
 30
0.0
 11
5.9393417042629153
 21
-6.9393070719584102
 31
0.0
  0
LINE
  5
6B
100
AcDbEntity
  8
0
  6
CONTINUOUS
 62
               7
100
AcDbLine
 10
5.9393418862595695
 20
-9.0606345766981917
 30
0.0
 11
8.0606643392815727
 21
-6.9393164152106124
 31
0.0
  0
LINE
  5
6C
100
AcDbEntity
  8
0
  6
CONTINUOUS
 62
               7
100
AcDbLine
 10
18.93934845485478
 20
-11.060620494361615
 30
0.0
 11
21.060677702806288
 21
-8.9393089489896056
 31
0.0
  0
LINE
  5
6D
100
AcDbEntity
  8
0
  6
CONTINUOUS
 62
               7
100
AcDbLine
 10
5.0
 20
-79.499984741210938
 30
0.0
 11
22.0
 21
-79.499984741210938
 31
0.0
  0
LINE
  5
6E
100
AcDbEntity
  8
0
  6
CONTINUOUS
 62
               7
100
AcDbLine
 10
21.0
 20
-67.499984741210938
 30
0.0
 11
6.0
 21
-67.499984741210938
 31
0.0
  0
LINE
  5
6F
100
AcDbEntity
  8
0
  6
CONTINUOUS
 62
               7
100
AcDbLine
 10
21.0
 20
-67.499984741210938
 30
0.0
 11
21.0
 21
-57.499984741210937
 31
0.0
  0
LINE
  5
70
100
AcDbEntity
  8
0
  6
CONTINUOUS
 62
               7
100
AcDbLine
 10
6.0
 20
-67.499984741210938
 30
0.0
 11
6.0
 21
-57.499984741210937
 31
0.0
  0
LINE
  5
71
100
AcDbEntity
  8
0
  6
CONTINUOUS
 62
               7
100
AcDbLine
 10
6.0
 20
-57.499984741210937
 30
0.0
 11
21.0
 21
-57.499984741210937
 31
0.0
  0
LINE
  5
72
100
AcDbEntity
  8
0
  6
CONTINUOUS
 62
               7
100
AcDbLine
 10
20.0
 20
-66.499984741210938
 30
0.0
 11
7.0
 21
-66.499984741210938
 31
0.0
  0
LINE
  5
73
100
AcDbEntity
  8
0
  6
CONTINUOUS
 62
               7
100
AcDbLine
 10
7.0
 20
-58.499984741210938
 30
0.0
 11
20.0
 21
-58.499984741210938
 31
0.0
  0
LINE
  5
74
100
AcDbEntity
  8
0
  6
CONTINUOUS
 62
               7
100
AcDbLine
 10
20.0
 20
-66.499984741210938
 30
0.0
 11
20.0
 21
-58.499984741210938
 31
0.0
  0
LINE
  5
75
100
AcDbEntity
  8
0
  6
CONTINUOUS
 62
               7
100
AcDbLine
 10
7.0
 20
-66.499984741210938
 30
0.0
 11
7.0
 21
-58.499984741210938
 31
0.0
  0
LINE
  5
76
100
AcDbEntity
  8
0
  6
CONTINUOUS
 62
               7
100
AcDbLine
 10
20.999995890035564
 20
-67.499982858136434
 30
0.0
 11
19.999994828446063
 21
-66.499981796546933
 31
0.0
  0
LINE
  5
77
100
AcDbEntity
  8
0
  6
CONTINUOUS
 62
               7
100
AcDbLine
 10
19.999973059601871
 20
-58.499949174800349
 30
0.0
 11
20.999973193959704
 21
-57.499947101685393
 31
0.0
  0
LINE
  5
78
100
AcDbEntity
  8
0
  6
CONTINUOUS
 62
               7
100
AcDbLine
 10
6.0000201744360311
 20
-57.499960146185913
 30
0.0
 11
7.000019297268409
 21
-58.499963146532536
 31
0.0
  0
LINE
  5
79
100
AcDbEntity
  8
0
  6
CONTINUOUS
 62
               7
100
AcDbLine
 10
6.9999951901873487
 20
-66.499961735348222
 30
0.0
 11
5.9999917683874173
 21
-67.499953693231646
 31
0.0
  0
LINE
  5
7A
100
AcDbEntity
  8
0
  6
CONTINUOUS
 62
               7
100
AcDbLine
 10
7.0
 20
-68.499984741210937
 30
0.0
 11
7.0
 21
-67.499984741210938
 31
0.0
  0
LINE
  5
7B
100
AcDbEntity
  8
0
  6
CONTINUOUS
 62
               7
100
AcDbLine
 10
4.5
 20
-65.499984741210937
 30
0.0
 11
6.0
 21
-65.499984741210937
 31
0.0
  0
LINE
  5
7C
100
AcDbEntity
  8
0
  6
CONTINUOUS
 62
               7
100
AcDbLine
 10
7.0
 20
-57.499984741210937
 30
0.0
 11
7.0
 21
-56.499984741210937
 31
0.0
  0
LINE
  5
7D
100
AcDbEntity
  8
0
  6
CONTINUOUS
 62
               7
100
AcDbLine
 10
4.5
 20
-59.499984741210938
 30
0.0
 11
6.0
 21
-59.499984741210938
 31
0.0
  0
LINE
  5
7E
100
AcDbEntity
  8
0
  6
CONTINUOUS
 62
               7
100
AcDbLine
 10
20.0
 20
-57.499984741210937
 30
0.0
 11
20.0
 21
-56.499984741210937
 31
0.0
  0
LINE
  5
7F
100
AcDbEntity
  8
0
  6
CONTINUOUS
 62
               7
100
AcDbLine
 10
21.0
 20
-59.499984741210938
 30
0.0
 11
22.5
 21
-59.499984741210938
 31
0.0
  0
LINE
  5
80
100
AcDbEntity
  8
0
  6
CONTINUOUS
 62
               7
100
AcDbLine
 10
20.0
 20
-68.5
 30
0.0
 11
20.0
 21
-67.499984741210938
 31
0.0
  0
LINE
  5
81
100
AcDbEntity
  8
0
  6
CONTINUOUS
 62
               7
100
AcDbLine
 10
21.0
 20
-65.499984741210937
 30
0.0
 11
22.5
 21
-65.499984741210937
 31
0.0
  0
LINE
  5
82
100
AcDbEntity
  8
0
  6
CONTINUOUS
 62
               7
100
AcDbLine
 10
-3.5
 20
-65.999984741210938
 30
0.0
 11
4.5
 21
-65.999984741210938
 31
0.0
  0
LINE
  5
83
100
AcDbEntity
  8
0
  6
CONTINUOUS
 62
               7
100
AcDbLine
 10
-3.5
 20
6.0
 30
0.0
 11
4.5
 21
6.0
 31
0.0
  0
LINE
  5
84
100
AcDbEntity
  8
0
  6
CONTINUOUS
 62
               7
100
AcDbLine
 10
30.5
 20
-65.999984741210938
 30
0.0
 11
30.5
 21
6.0000152587890625
 31
0.0
  0
LINE
  5
85
100
AcDbEntity
  8
0
  6
CONTINUOUS
 62
               7
100
AcDbLine
 10
-3.5
 20
-65.999984741210938
 30
0.0
 11
-3.5
 21
6.0000152587890625
 31
0.0
  0
LINE
  5
86
100
AcDbEntity
  8
0
  6
CONTINUOUS
 62
               7
100
AcDbLine
 10
22.5
 20
-65.999984741210938
 30
0.0
 11
30.5
 21
-65.999984741210938
 31
0.0
  0
LINE
  5
87
100
AcDbEntity
  8
0
  6
CONTINUOUS
 62
               7
100
AcDbLine
 10
22.5
 20
6.0
 30
0.0
 11
30.5
 21
6.0
 31
0.0
  0
LINE
  5
88
100
AcDbEntity
  8
0
  6
CONTINUOUS
 62
               2
100
AcDbLine
 10
-3.25
 20
-59.999984741210938
 30
0.0
 11
3.25
 21
-59.999984741210938
 31
0.0
  0
LINE
  5
89
100
AcDbEntity
  8
0
  6
CONTINUOUS
 62
               2
100
AcDbLine
 10
-3.25
 20
0.0
 30
0.0
 11
3.25
 21
0.0
 31
0.0
  0
LINE
  5
8A
100
AcDbEntity
  8
0
  6
CONTINUOUS
 62
               2
100
AcDbLine
 10
0.0
 20
-63.249984741210937
 30
0.0
 11
0.0
 21
-56.749984741210938
 31
0.0
  0
LINE
  5
8B
100
AcDbEntity
  8
0
  6
CONTINUOUS
 62
               2
100
AcDbLine
 10
0.0
 20
-3.2499847412109375
 30
0.0
 11
0.0
 21
3.2500152587890625
 31
0.0
  0
LINE
  5
8C
100
AcDbEntity
  8
0
  6
CONTINUOUS
 62
               7
100
AcDbLine
 10
18.939349338372267
 20
-53.06064522959241
 30
0.0
 11
21.060654564521428
 21
-50.939331241605032
 31
0.0
  0
LINE
  5
8D
100
AcDbEntity
  8
0
  6
CONTINUOUS
 62
               7
100
AcDbLine
 10
21.060635142393039
 20
-53.060631223949713
 30
0.0
 11
18.939326697609431
 21
-50.939320633409807
 31
0.0
  0
LINE
  5
8E
100
AcDbEntity
  8
0
  6
CONTINUOUS
 62
               7
100
AcDbLine
 10
5.9393477157369716
 20
-51.060624301348412
 30
0.0
 11
8.0606622191289716
 21
-48.939295492832571
 31
0.0
  0
LINE
  5
8F
100
AcDbEntity
  8
0
  6
CONTINUOUS
 62
               7
100
AcDbLine
 10
8.0606631628916148
 20
-51.060638998944341
 30
0.0
 11
5.9393450014040354
 21
-48.939316367108404
 31
0.0
  0
LINE
  5
90
100
AcDbEntity
  8
0
  6
CONTINUOUS
 62
               7
100
AcDbLine
 10
4.5
 20
-48.433948516845703
 30
0.0
 11
4.5
 21
-9.1456146240234375
 31
0.0
  0
LINE
  5
91
100
AcDbEntity
  8
0
  6
CONTINUOUS
 62
               7
100
AcDbLine
 10
4.5
 20
-6.854339599609375
 30
0.0
 11
4.5
 21
6.5000152587890625
 31
0.0
  0
LINE
  5
92
100
AcDbEntity
  8
0
  6
CONTINUOUS
 62
               7
100
AcDbLine
 10
22.5
 20
-8.43389892578125
 30
0.0
 11
22.5
 21
6.5000152587890625
 31
0.0
  0
LINE
  5
93
100
AcDbEntity
  8
0
  6
CONTINUOUS
 62
               7
100
AcDbLine
 10
22.5
 20
-50.854324340820312
 30
0.0
 11
22.5
 21
-11.5660400390625
 31
0.0
  0
CIRCLE
  5
94
100
AcDbEntity
  8
0
  6
CONTINUOUS
 62
               7
100
AcDbCircle
 10
13.5
 20
16.70001220703125
 30
0.0
 40
2.0
  0
CIRCLE
  5
95
100
AcDbEntity
  8
0
  6
CONTINUOUS
 62
               7
100
AcDbCircle
 10
13.5
 20
16.70001220703125
 30
0.0
 40
1.9499998092651367
  0
ARC
  5
96
100
AcDbEntity
  8
0
  6
CONTINUOUS
 62
               4
100
AcDbCircle
 10
17.949996948242188
 20
52.500015258789063
 30
0.0
 40
0.5
100
AcDbArc
 50
359.99994535848583
 51
89.999982013910454
  0
ARC
  5
97
100
AcDbEntity
  8
0
  6
CONTINUOUS
 62
               4
100
AcDbCircle
 10
9.0500030517578125
 20
52.500015258789063
 30
0.0
 40
0.5
100
AcDbArc
 50
89.999982013910454
 51
179.99996402782091
  0
CIRCLE
  5
98
100
AcDbEntity
  8
0
  6
CONTINUOUS
 62
               7
100
AcDbCircle
 10
7.0
 20
-7.999969482421875
 30
0.0
 40
2.75
  0
ARC
  5
99
100
AcDbEntity
  8
0
  6
CONTINUOUS
 62
               7
100
AcDbCircle
 10
20.0
 20
-9.999969482421875
 30
0.0
 40
3.0
100
AcDbArc
 50
89.999982013910454
 51
269.99994604173139
  0
ARC
  5
9A
100
AcDbEntity
  8
0
  6
CONTINUOUS
 62
               7
100
AcDbCircle
 10
7.0
 20
-49.999973297119141
 30
0.0
 40
3.0
100
AcDbArc
 50
269.99996334457541
 51
89.999982013910454
  0
ARC
  5
9B
100
AcDbEntity
  8
0
  6
CONTINUOUS
 62
               7
100
AcDbCircle
 10
7.0
 20
-7.999969482421875
 30
0.0
 40
3.0
100
AcDbArc
 50
270.00001798608872
 51
0.00001366037834
  0
ARC
  5
9C
100
AcDbEntity
  8
0
  6
CONTINUOUS
 62
               7
100
AcDbCircle
 10
20.0
 20
-51.999969482421875
 30
0.0
 40
3.0
100
AcDbArc
 50
89.999982013910454
 51
179.99996402782091
  0
CIRCLE
  5
9D
100
AcDbEntity
  8
0
  6
CONTINUOUS
 62
               7
100
AcDbCircle
 10
20.000015258789063
 20
-9.999969482421875
 30
0.0
 40
2.75
  0
ARC
  5
9E
100
AcDbEntity
  8
0
  6
CONTINUOUS
 62
               7
100
AcDbCircle
 10
5.0
 20
-78.999969482421875
 30
0.0
 40
0.5
100
AcDbArc
 50
180.0000359721783
 51
269.99996334457541
  0
ARC
  5
9F
100
AcDbEntity
  8
0
  6
CONTINUOUS
 62
               7
100
AcDbCircle
 10
22.0
 20
-78.999984741210938
 30
0.0
 40
0.5
100
AcDbArc
 50
270.00001798608872
 51
0.00001366037834
  0
CIRCLE
  5
A0
100
AcDbEntity
  8
0
  6
CONTINUOUS
 62
               7
100
AcDbCircle
 10
0.0
 20
-59.999984741210938
 30
0.0
 40
2.25
  0
CIRCLE
  5
A1
100
AcDbEntity
  8
0
  6
CONTINUOUS
 62
               7
100
AcDbCircle
 10
0.0
 20
0.0000152587890625
 30
0.0
 40
2.25
  0
CIRCLE
  5
A2
100
AcDbEntity
  8
0
  6
CONTINUOUS
 62
               7
100
AcDbCircle
 10
20.0
 20
-51.999969482421875
 30
0.0
 40
2.75
  0
CIRCLE
  5
A3
100
AcDbEntity
  8
0
  6
CONTINUOUS
 62
               7
100
AcDbCircle
 10
7.0000152587890625
 20
-49.999969482421875
 30
0.0
 40
2.75
  0
ARC
  5
A4
100
AcDbEntity
  8
0
  6
CONTINUOUS
 62
               7
100
AcDbCircle
 10
19.500045776367188
 20
9.5000762939453125
 30
0.0
 40
2.5000734329223633
100
AcDbArc
 50
191.53802865027069
 51
319.45917312476763
  0
CIRCLE
  5
A5
100
AcDbEntity
  8
0
  6
CONTINUOUS
 62
               7
100
AcDbCircle
 10
20.000015258789063
 20
-9.999969482421875
 30
0.0
 40
2.9499998092651367
  0
CIRCLE
  5
A6
100
AcDbEntity
  8
0
  6
CONTINUOUS
 62
               7
100
AcDbCircle
 10
7.0000152587890625
 20
-49.999969482421875
 30
0.0
 40
2.9499998092651367
  0
LINE
  5
A7
100
AcDbEntity
  8
0
  6
CONTINUOUS
 62
               7
100
AcDbLine
 10
6.5
 20
9.0000152587890625
 30
0.0
 11
20.5
 21
9.0000152587890625
 31
0.0
  0
LINE
  5
A8
100
AcDbEntity
  8
0
  6
CONTINUOUS
 62
               7
100
AcDbLine
 10
6.5000012403838241
 20
9.000018275096636
 30
0.0
 11
4.4999971410729245
 21
6.5000131509580115
 31
0.0
  0
LINE
  5
A9
100
AcDbEntity
  8
0
  6
CONTINUOUS
 62
               7
100
AcDbLine
 10
20.499994339160821
 20
9.0000114239068125
 30
0.0
 11
22.499994268182263
 21
6.5000115126300102
 31
0.0
  0
LINE
  5
AA
100
AcDbEntity
  8
0
  6
CONTINUOUS
 62
             200
100
AcDbLine
 10
9.5000067357523221
 20
66.410571779948441
 30
0.0
 11
13.555798423071906
 21
67.497317896343134
 31
0.0
  0
LINE
  5
AB
100
AcDbEntity
  8
0
  6
CONTINUOUS
 62
             200
100
AcDbLine
 10
9.5000020425704861
 20
67.445846689444807
 30
0.0
 11
13.534482324307135
 21
68.526882431876118
 31
0.0
  0
LINE
  5
AC
100
AcDbEntity
  8
0
  6
CONTINUOUS
 62
               4
100
AcDbLine
 10
18.5
 20
19.900009155273438
 30
0.0
 11
18.5
 21
44.000015258789063
 31
0.0
  0
LINE
  5
AD
100
AcDbEntity
  8
0
  6
CONTINUOUS
 62
               4
100
AcDbLine
 10
8.5
 20
19.900009155273438
 30
0.0
 11
8.5
 21
44.000015258789063
 31
0.0
  0
ENDBLK
  5
AE
100
AcDbEntity
  8
0
100
AcDbBlockEnd
  0
BLOCK
  5
AF
100
AcDbEntity
  8
0
100
AcDbBlockBegin
  2
F18T-2
 70
               0
 10
0.0
 20
0.0
 30
0.0
  3
F18T-2
  1

  0
LINE
  5
B0
100
AcDbEntity
  8
0
  6
CONTINUOUS
 62
               7
100
AcDbLine
 10
4.999969482421875
 20
30.999969482421875
 30
0.0
 11
14.999969482421875
 21
30.999969482421875
 31
0.0
  0
LINE
  5
B1
100
AcDbEntity
  8
0
  6
CONTINUOUS
 62
               4
100
AcDbLine
 10
4.9999847412109375
 20
64.499984741210937
 30
0.0
 11
14.999984741210938
 21
64.499984741210937
 31
0.0
  0
LINE
  5
B2
100
AcDbEntity
  8
0
  6
CONTINUOUS
 62
               7
100
AcDbLine
 10
4.999969482421875
 20
40.499969482421875
 30
0.0
 11
14.999969482421875
 21
40.499969482421875
 31
0.0
  0
LINE
  5
B3
100
AcDbEntity
  8
0
  6
CONTINUOUS
 62
               4
100
AcDbLine
 10
5.0499725341796875
 20
64.499969482421875
 30
0.0
 11
5.0499725341796875
 21
84.499969482421875
 31
0.0
  0
LINE
  5
B4
100
AcDbEntity
  8
0
  6
CONTINUOUS
 62
               4
100
AcDbLine
 10
14.949966430664062
 20
64.499969482421875
 30
0.0
 11
14.949966430664062
 21
84.499969482421875
 31
0.0
  0
LINE
  5
B5
100
AcDbEntity
  8
0
  6
CONTINUOUS
 62
               4
100
AcDbLine
 10
11.284957885742188
 20
84.499969482421875
 30
0.0
 11
11.284957885742188
 21
88.326644897460938
 31
0.0
  0
LINE
  5
B6
100
AcDbEntity
  8
0
  6
CONTINUOUS
 62
               4
100
AcDbLine
 10
12.714981079101563
 20
84.499969482421875
 30
0.0
 11
12.714981079101563
 21
88.709808349609375
 31
0.0
  0
LINE
  5
B7
100
AcDbEntity
  8
0
  6
CONTINUOUS
 62
               4
100
AcDbLine
 10
11.599960327148438
 20
92.499969482421875
 30
0.0
 11
11.599960327148438
 21
97.499969482421875
 31
0.0
  0
LINE
  5
B8
100
AcDbEntity
  8
0
  6
CONTINUOUS
 62
               4
100
AcDbLine
 10
12.399978637695313
 20
92.499969482421875
 30
0.0
 11
12.399978637695313
 21
97.499969482421875
 31
0.0
  0
LINE
  5
B9
100
AcDbEntity
  8
0
  6
CONTINUOUS
 62
               4
100
AcDbLine
 10
11.599960327148438
 20
97.499969482421875
 30
0.0
 11
12.39996337890625
 21
97.499969482421875
 31
0.0
  0
LINE
  5
BA
100
AcDbEntity
  8
0
  6
CONTINUOUS
 62
               4
100
AcDbLine
 10
11.284957885742188
 20
92.499969482421875
 30
0.0
 11
12.7149658203125
 21
92.499969482421875
 31
0.0
  0
LINE
  5
BB
100
AcDbEntity
  8
0
  6
CONTINUOUS
 62
               4
100
AcDbLine
 10
11.284957885742188
 20
89.361923217773438
 30
0.0
 11
11.284957885742188
 21
92.499969482421875
 31
0.0
  0
LINE
  5
BC
100
AcDbEntity
  8
0
  6
CONTINUOUS
 62
               4
100
AcDbLine
 10
12.714981079101563
 20
89.745086669921875
 30
0.0
 11
12.714981079101563
 21
92.499969482421875
 31
0.0
  0
LINE
  5
BD
100
AcDbEntity
  8
0
  6
CONTINUOUS
 62
               4
100
AcDbLine
 10
5.0499725341796875
 20
84.499969482421875
 30
0.0
 11
14.949966430664062
 21
84.499969482421875
 31
0.0
  0
LINE
  5
BE
100
AcDbEntity
  8
0
  6
CONTINUOUS
 62
               7
100
AcDbLine
 10
14.999969482421875
 20
29.499969482421875
 30
0.0
 11
14.999969482421875
 21
40.499969482421875
 31
0.0
  0
LINE
  5
BF
100
AcDbEntity
  8
0
  6
CONTINUOUS
 62
               7
100
AcDbLine
 10
4.999969482421875
 20
29.499969482421875
 30
0.0
 11
4.999969482421875
 21
40.499969482421875
 31
0.0
  0
LINE
  5
C0
100
AcDbEntity
  8
0
  6
CONTINUOUS
 62
               7
100
AcDbLine
 10
18.999969482421875
 20
-58.500030517578125
 30
0.0
 11
18.999969482421875
 21
-36.500030517578125
 31
0.0
  0
LINE
  5
C1
100
AcDbEntity
  8
0
  6
CONTINUOUS
 62
               7
100
AcDbLine
 10
0.999969482421875
 20
-58.500030517578125
 30
0.0
 11
0.999969482421875
 21
-36.500030517578125
 31
0.0
  0
LINE
  5
C2
100
AcDbEntity
  8
0
  6
CONTINUOUS
 62
               7
100
AcDbLine
 10
0.999969482421875
 20
26.999969482421875
 30
0.0
 11
18.999969482421875
 21
26.999969482421875
 31
0.0
  0
LINE
  5
C3
100
AcDbEntity
  8
0
  6
CONTINUOUS
 62
               7
100
AcDbLine
 10
1.499969482421875
 20
-59.000030517578125
 30
0.0
 11
18.499969482421875
 21
-59.000030517578125
 31
0.0
  0
LINE
  5
C4
100
AcDbEntity
  8
0
  6
CONTINUOUS
 62
               7
100
AcDbLine
 10
7.1999664306640625
 20
-59.000030517578125
 30
0.0
 11
7.1999664306640625
 21
-56.500030517578125
 31
0.0
  0
LINE
  5
C5
100
AcDbEntity
  8
0
  6
CONTINUOUS
 62
               7
100
AcDbLine
 10
0.999969482421875
 20
-56.500030517578125
 30
0.0
 11
7.1999664306640625
 21
-56.500030517578125
 31
0.0
  0
LINE
  5
C6
100
AcDbEntity
  8
0
  6
CONTINUOUS
 62
               7
100
AcDbLine
 10
2.749969482421875
 20
-58.500030517578125
 30
0.0
 11
5.249969482421875
 21
-58.500030517578125
 31
0.0
  0
LINE
  5
C7
100
AcDbEntity
  8
0
  6
CONTINUOUS
 62
               7
100
AcDbLine
 10
1.249969482421875
 20
-57.000030517578125
 30
0.0
 11
1.249969482421875
 21
-56.500030517578125
 31
0.0
  0
LINE
  5
C8
100
AcDbEntity
  8
0
  6
CONTINUOUS
 62
               7
100
AcDbLine
 10
6.749969482421875
 20
-57.000030517578125
 30
0.0
 11
6.749969482421875
 21
-56.500030517578125
 31
0.0
  0
LINE
  5
C9
100
AcDbEntity
  8
0
  6
CONTINUOUS
 62
               2
100
AcDbLine
 10
9.999969482421875
 20
-62.302902221679688
 30
0.0
 11
9.999969482421875
 21
86.255035400390625
 31
0.0
  0
LINE
  5
CA
100
AcDbEntity
  8
0
  6
CONTINUOUS
 62
               2
100
AcDbLine
 10
19.999969482421875
 20
-9.5000343322753906
 30
0.0
 11
-1.1715087890625
 21
-9.5000343322753906
 31
0.0
  0
LINE
  5
CB
100
AcDbEntity
  8
0
  6
CONTINUOUS
 62
               7
100
AcDbLine
 10
18.999969482421875
 20
17.499969482421875
 30
0.0
 11
18.999969482421875
 21
26.999969482421875
 31
0.0
  0
LINE
  5
CC
100
AcDbEntity
  8
0
  6
CONTINUOUS
 62
               7
100
AcDbLine
 10
0.999969482421875
 20
17.499969482421875
 30
0.0
 11
0.999969482421875
 21
26.999969482421875
 31
0.0
  0
LINE
  5
CD
100
AcDbEntity
  8
0
  6
CONTINUOUS
 62
               7
100
AcDbLine
 10
0.999969482421875
 20
-48.000030517578125
 30
0.0
 11
18.999969482421875
 21
-48.000030517578125
 31
0.0
  0
LINE
  5
CE
100
AcDbEntity
  8
0
  6
CONTINUOUS
 62
               2
100
AcDbLine
 10
11.499969482421875
 20
21.499954223632812
 30
0.0
 11
8.499969482421875
 21
21.499954223632812
 31
0.0
  0
LINE
  5
CF
100
AcDbEntity
  8
0
  6
CONTINUOUS
 62
               7
100
AcDbLine
 10
-0.000030517578125
 20
-36.500030517578125
 30
0.0
 11
-0.000030517578125
 21
17.499969482421875
 31
0.0
  0
LINE
  5
D0
100
AcDbEntity
  8
0
  6
CONTINUOUS
 62
               7
100
AcDbLine
 10
19.999969482421875
 20
-36.500030517578125
 30
0.0
 11
19.999969482421875
 21
17.499969482421875
 31
0.0
  0
LINE
  5
D2
100
AcDbEntity
  8
0
  6
DASHED
 62
               4
100
AcDbLine
 10
21.5999755859375
 20
-59.4000244140625
 30
0.0
 11
21.5999755859375
 21
9.9999542236328125
 31
0.0
  0
LINE
  5
D3
100
AcDbEntity
  8
0
  6
DASHED
 62
               4
100
AcDbLine
 10
19.999969482421875
 20
9.9999542236328125
 30
0.0
 11
21.5999755859375
 21
9.9999542236328125
 31
0.0
  0
LINE
  5
D4
100
AcDbEntity
  8
0
  6
DASHED
 62
               4
100
AcDbLine
 10
0.999969482421875
 20
-59.4000244140625
 30
0.0
 11
19.999969482421875
 21
-59.4000244140625
 31
0.0
  0
LINE
  5
D5
100
AcDbEntity
  8
0
  6
DASHED
 62
               4
100
AcDbLine
 10
0.999969482421875
 20
-61.000030517578125
 30
0.0
 11
19.999969482421875
 21
-61.000030517578125
 31
0.0
  0
LINE
  5
D6
100
AcDbEntity
  8
0
  6
DASHED
 62
               4
100
AcDbLine
 10
0.999969482421875
 20
-59.4000244140625
 30
0.0
 11
0.999969482421875
 21
-61.000030517578125
 31
0.0
  0
LINE
  5
D7
100
AcDbEntity
  8
0
  6
DASHED
 62
               4
100
AcDbLine
 10
19.999969482421875
 20
-36.500030517578125
 30
0.0
 11
19.999969482421875
 21
-61.000030517578125
 31
0.0
  0
LINE
  5
D8
100
AcDbEntity
  8
0
  6
DASHED
 62
               4
100
AcDbLine
 10
-2.28155517578125
 20
3.999969482421875
 30
0.0
 11
-0.000030517578125
 21
3.999969482421875
 31
0.0
  0
LINE
  5
D9
100
AcDbEntity
  8
0
  6
DASHED
 62
               4
100
AcDbLine
 10
-2.28155517578125
 20
-4.0000267028808594
 30
0.0
 11
-0.000030517578125
 21
-4.0000267028808594
 31
0.0
  0
LINE
  5
DA
100
AcDbEntity
  8
0
  6
CONTINUOUS
 62
               4
100
AcDbLine
 10
9.3999786376953125
 20
74.999969482421875
 30
0.0
 11
10.5999755859375
 21
74.999969482421875
 31
0.0
  0
LINE
  5
DB
100
AcDbEntity
  8
0
  6
CONTINUOUS
 62
               4
100
AcDbLine
 10
10.5999755859375
 20
77.999954223632813
 30
0.0
 11
10.5999755859375
 21
74.999954223632812
 31
0.0
  0
LINE
  5
DC
100
AcDbEntity
  8
0
  6
CONTINUOUS
 62
               4
100
AcDbLine
 10
9.3999786376953125
 20
77.999954223632813
 30
0.0
 11
9.3999786376953125
 21
74.999954223632812
 31
0.0
  0
LINE
  5
DD
100
AcDbEntity
  8
0
  6
CONTINUOUS
 62
               4
100
AcDbLine
 10
11.099965904932674
 20
77.999958753026135
 30
0.0
 11
10.599963688262164
 21
77.499959908107144
 31
0.0
  0
LINE
  5
DE
100
AcDbEntity
  8
0
  6
CONTINUOUS
 62
               4
100
AcDbLine
 10
8.8999710892203439
 20
77.999951671417875
 30
0.0
 11
9.3999718307495641
 21
77.499951351357595
 31
0.0
  0
LINE
  5
DF
100
AcDbEntity
  8
0
  6
CONTINUOUS
 62
               4
100
AcDbLine
 10
5.0499725341796875
 20
83.499969482421875
 30
0.0
 11
14.949966430664062
 21
83.499969482421875
 31
0.0
  0
LINE
  5
E0
100
AcDbEntity
  8
0
  6
CONTINUOUS
 62
               4
100
AcDbLine
 10
5.0499725341796875
 20
77.999969482421875
 30
0.0
 11
9.3999786376953125
 21
77.999969482421875
 31
0.0
  0
LINE
  5
E1
100
AcDbEntity
  8
0
  6
CONTINUOUS
 62
               4
100
AcDbLine
 10
10.5999755859375
 20
77.999969482421875
 30
0.0
 11
14.949966430664062
 21
77.999969482421875
 31
0.0
  0
LINE
  5
E2
100
AcDbEntity
  8
0
  6
DASHED
 62
               4
100
AcDbLine
 10
-2.28155517578125
 20
-15.000022888183594
 30
0.0
 11
-0.000030517578125
 21
-15.000022888183594
 31
0.0
  0
LINE
  5
E3
100
AcDbEntity
  8
0
  6
DASHED
 62
               4
100
AcDbLine
 10
-2.28155517578125
 20
-23.000030517578125
 30
0.0
 11
-0.000030517578125
 21
-23.000030517578125
 31
0.0
  0
ARC
  5
E4
100
AcDbEntity
  8
0
  6
CONTINUOUS
 62
               7
100
AcDbCircle
 10
1.499969482421875
 20
-58.500015258789062
 30
0.0
 40
0.5
100
AcDbArc
 50
180.0000359721783
 51
269.99996334457541
  0
ARC
  5
E5
100
AcDbEntity
  8
0
  6
CONTINUOUS
 62
               7
100
AcDbCircle
 10
18.499969482421875
 20
-58.500030517578125
 30
0.0
 40
0.5
100
AcDbArc
 50
270.00001798608872
 51
0.00001366037834
  0
ARC
  5
E6
100
AcDbEntity
  8
0
  6
CONTINUOUS
 62
               7
100
AcDbCircle
 10
16.000015258789063
 20
30.000030517578125
 30
0.0
 40
2.5000734329223633
100
AcDbArc
 50
191.53802865027069
 51
319.45935412478065
  0
ARC
  5
E7
100
AcDbEntity
  8
0
  6
CONTINUOUS
 62
               7
100
AcDbCircle
 10
5.249969482421875
 20
-57.000030517578125
 30
0.0
 40
1.5
100
AcDbArc
 50
270.00001798608872
 51
0.0000546415133601
  0
ARC
  5
E8
100
AcDbEntity
  8
0
  6
CONTINUOUS
 62
               7
100
AcDbCircle
 10
2.749969482421875
 20
-57.000030517578125
 30
0.0
 40
1.5
100
AcDbArc
 50
180.0000359721783
 51
270.00001798608872
  0
CIRCLE
  5
E9
100
AcDbEntity
  8
0
  6
CONTINUOUS
 62
               7
100
AcDbCircle
 10
9.999969482421875
 20
-9.5000381469726562
 30
0.0
 40
5.7224998474121094
  0
CIRCLE
  5
EA
100
AcDbEntity
  8
0
  6
CONTINUOUS
 62
               2
100
AcDbCircle
 10
9.999969482421875
 20
-9.5000381469726562
 30
0.0
 40
6.5784997940063477
  0
CIRCLE
  5
EB
100
AcDbEntity
  8
0
  6
CONTINUOUS
 62
               7
100
AcDbCircle
 10
9.999969482421875
 20
21.499954223632812
 30
0.0
 40
0.6000000238418579
  0
ARC
  5
EC
100
AcDbEntity
  8
0
  6
DASHED
 62
               4
100
AcDbCircle
 10
19.999969482421875
 20
-59.4000244140625
 30
0.0
 40
1.5999994277954102
100
AcDbArc
 50
270.00001798608872
 51
0.0
  0
ARC
  5
ED
100
AcDbEntity
  8
0
  6
DASHED
 62
               4
100
AcDbCircle
 10
2.3999786376953125
 20
-0.0000343322753906
 30
0.0
 40
6.5
100
AcDbArc
 50
146.20571797697198
 51
213.79426472018321
  0
ARC
  5
EE
100
AcDbEntity
  8
0
  6
DASHED
 62
               4
100
AcDbCircle
 10
-2.28155517578125
 20
3.1332855224609375
 30
0.0
 40
0.8666666746139526
100
AcDbArc
 50
89.999982013910454
 51
146.20571797697198
  0
ARC
  5
EF
100
AcDbEntity
  8
0
  6
DASHED
 62
               4
100
AcDbCircle
 10
-2.28155517578125
 20
-3.1333656311035156
 30
0.0
 40
0.8666666746139526
100
AcDbArc
 50
213.79433666454057
 51
270.00007262760209
  0
ARC
  5
F0
100
AcDbEntity
  8
0
  6
DASHED
 62
               4
100
AcDbCircle
 10
-2.28155517578125
 20
-15.86669921875
 30
0.0
 40
0.8666666746139526
100
AcDbArc
 50
89.999982013910454
 51
146.20571797697198
  0
ARC
  5
F1
100
AcDbEntity
  8
0
  6
DASHED
 62
               4
100
AcDbCircle
 10
2.3999786376953125
 20
-19.000029563903809
 30
0.0
 40
6.5
100
AcDbArc
 50
146.20571797697198
 51
213.79426472018321
  0
ARC
  5
F2
100
AcDbEntity
  8
0
  6
DASHED
 62
               4
100
AcDbCircle
 10
-2.28155517578125
 20
-22.13336181640625
 30
0.0
 40
0.8666666746139526
100
AcDbArc
 50
213.79433666454057
 51
270.00007262760209
  0
LINE
  5
F3
100
AcDbEntity
  8
0
  6
CONTINUOUS
 62
               7
100
AcDbLine
 10
2.999969482421875
 20
29.499969482421875
 30
0.0
 11
16.999969482421875
 21
29.499969482421875
 31
0.0
  0
LINE
  5
F4
100
AcDbEntity
  8
0
  6
CONTINUOUS
 62
               7
100
AcDbLine
 10
0.9999774457028252
 20
26.999971779341649
 30
0.0
 11
2.9999720129235357
 21
29.499964988367537
 31
0.0
  0
LINE
  5
F5
100
AcDbEntity
  8
0
  6
CONTINUOUS
 62
               7
100
AcDbLine
 10
16.999969728806718
 20
29.499969754412632
 30
0.0
 11
18.999973828117618
 21
26.999964630274008
 31
0.0
  0
LINE
  5
F6
100
AcDbEntity
  8
0
  6
CONTINUOUS
 62
               2
100
AcDbLine
 10
15.510986328125
 20
-28.500030517578125
 30
0.0
 11
0.488983154296875
 21
-28.500030517578125
 31
0.0
  0
LINE
  5
F7
100
AcDbEntity
  8
0
  6
CONTINUOUS
 62
               2
100
AcDbLine
 10
19.510971069335938
 20
9.499969482421875
 30
0.0
 11
4.488983154296875
 21
9.499969482421875
 31
0.0
  0
LINE
  5
F8
100
AcDbEntity
  8
0
  6
CONTINUOUS
 62
               2
100
AcDbLine
 10
11.999969482421875
 20
2.0111846923828125
 30
0.0
 11
11.999969482421875
 21
17.07843017578125
 31
0.0
  0
LINE
  5
F9
100
AcDbEntity
  8
0
  6
CONTINUOUS
 62
               2
100
AcDbLine
 10
7.999969482421875
 20
-35.98876953125
 30
0.0
 11
7.999969482421875
 21
-20.921524047851563
 31
0.0
  0
CIRCLE
  5
FA
100
AcDbEntity
  8
0
  6
CONTINUOUS
 62
               7
100
AcDbCircle
 10
11.999969482421875
 20
9.499969482421875
 30
0.0
 40
5.7224998474121094
  0
CIRCLE
  5
FB
100
AcDbEntity
  8
0
  6
CONTINUOUS
 62
               2
100
AcDbCircle
 10
11.999969482421875
 20
9.499969482421875
 30
0.0
 40
6.5784997940063477
  0
CIRCLE
  5
FC
100
AcDbEntity
  8
0
  6
CONTINUOUS
 62
               7
100
AcDbCircle
 10
7.999969482421875
 20
-28.500030517578125
 30
0.0
 40
5.7224998474121094
  0
CIRCLE
  5
FD
100
AcDbEntity
  8
0
  6
CONTINUOUS
 62
               2
100
AcDbCircle
 10
7.999969482421875
 20
-28.500030517578125
 30
0.0
 40
6.5784997940063477
  0
LINE
  5
FE
100
AcDbEntity
  8
0
  6
DASHED
 62
               4
100
AcDbLine
 10
-1.000030517578125
 20
-23.000030517578125
 30
0.0
 11
-1.000030517578125
 21
-15.000022888183594
 31
0.0
  0
LINE
  5
FF
100
AcDbEntity
  8
0
  6
DASHED
 62
               4
100
AcDbLine
 10
-1.000030517578125
 20
-4.0000267028808594
 30
0.0
 11
-1.000030517578125
 21
3.999969482421875
 31
0.0
  0
LINE
  5
100
100
AcDbEntity
  8
0
  6
DASHED
 62
               4
100
AcDbLine
 10
-1.0000166506415553
 20
-0.9815187087815502
 30
0.0
 11
-0.0000226743577514
 21
-0.4041719070237377
 31
0.0
  0
LINE
  5
101
100
AcDbEntity
  8
0
  6
DASHED
 62
               4
100
AcDbLine
 10
-1.0000184396876648
 20
0.4041349873978106
 30
0.0
 11
-0.0000244634038609
 21
0.9814817891556231
 31
0.0
  0
LINE
  5
102
100
AcDbEntity
  8
0
  6
DASHED
 62
               4
100
AcDbLine
 10
-1.0000163228160091
 20
-19.981518765067449
 30
0.0
 11
-0.0000223465322051
 21
-19.404171963309636
 31
0.0
  0
LINE
  5
103
100
AcDbEntity
  8
0
  6
DASHED
 62
               4
100
AcDbLine
 10
-1.0000181118621185
 20
-18.595865068888088
 30
0.0
 11
-0.0000241355783146
 21
-18.018518267130275
 31
0.0
  0
LINE
  5
104
100
AcDbEntity
  8
0
  6
DASHED
 62
               4
100
AcDbLine
 10
23.199966430664062
 20
-21.500030517578125
 30
0.0
 11
23.199966430664062
 21
-16.500022888183594
 31
0.0
  0
LINE
  5
105
100
AcDbEntity
  8
0
  6
DASHED
 62
               4
100
AcDbLine
 10
22.0999755859375
 20
-21.500030517578125
 30
0.0
 11
23.199966430664062
 21
-21.500030517578125
 31
0.0
  0
LINE
  5
106
100
AcDbEntity
  8
0
  6
DASHED
 62
               4
100
AcDbLine
 10
22.0999755859375
 20
-16.500022888183594
 30
0.0
 11
23.199966430664062
 21
-16.500022888183594
 31
0.0
  0
ARC
  5
107
100
AcDbEntity
  8
0
  6
DASHED
 62
               4
100
AcDbCircle
 10
22.0999755859375
 20
-16.000022888183594
 30
0.0
 40
0.5
100
AcDbArc
 50
179.99998133066492
 51
270.00001798608872
  0
ARC
  5
108
100
AcDbEntity
  8
0
  6
DASHED
 62
               4
100
AcDbCircle
 10
22.0999755859375
 20
-22.000030517578125
 30
0.0
 40
0.5
100
AcDbArc
 50
89.999982013910454
 51
179.99996402782091
  0
LINE
  5
109
100
AcDbEntity
  8
0
  6
DASHED
 62
               4
100
AcDbLine
 10
23.199966430664062
 20
-2.5000286102294922
 30
0.0
 11
23.199966430664062
 21
2.499969482421875
 31
0.0
  0
LINE
  5
10A
100
AcDbEntity
  8
0
  6
DASHED
 62
               4
100
AcDbLine
 10
22.0999755859375
 20
-2.5000286102294922
 30
0.0
 11
23.199966430664062
 21
-2.5000286102294922
 31
0.0
  0
LINE
  5
10B
100
AcDbEntity
  8
0
  6
DASHED
 62
               4
100
AcDbLine
 10
22.0999755859375
 20
2.499969482421875
 30
0.0
 11
23.199966430664062
 21
2.499969482421875
 31
0.0
  0
ARC
  5
10C
100
AcDbEntity
  8
0
  6
DASHED
 62
               4
100
AcDbCircle
 10
22.0999755859375
 20
2.999969482421875
 30
0.0
 40
0.5
100
AcDbArc
 50
179.99998133066492
 51
270.00001798608872
  0
ARC
  5
10D
100
AcDbEntity
  8
0
  6
DASHED
 62
               4
100
AcDbCircle
 10
22.0999755859375
 20
-3.0000286102294922
 30
0.0
 40
0.5
100
AcDbArc
 50
89.999982013910454
 51
179.99996402782091
  0
LINE
  5
10E
100
AcDbEntity
  8
0
  6
CONTINUOUS
 62
               7
100
AcDbLine
 10
19.999969482421875
 20
-36.500030517578125
 30
0.0
 11
-0.000030517578125
 21
-36.500030517578125
 31
0.0
  0
LINE
  5
10F
100
AcDbEntity
  8
0
  6
CONTINUOUS
 62
               7
100
AcDbLine
 10
19.999969482421875
 20
17.499969482421875
 30
0.0
 11
-0.000030517578125
 21
17.499969482421875
 31
0.0
  0
LINE
  5
110
100
AcDbEntity
  8
0
  6
CONTINUOUS
 62
             200
100
AcDbLine
 10
9.8749127777631145
 20
87.948817313546186
 30
0.0
 11
14.049930455534195
 21
89.067509938066905
 31
0.0
  0
LINE
  5
111
100
AcDbEntity
  8
0
  6
CONTINUOUS
 62
             200
100
AcDbLine
 10
9.839142763506473
 20
88.974508934063195
 30
0.0
 11
14.049925762352359
 21
90.102784847563271
 31
0.0
  0
LINE
  5
112
100
AcDbEntity
  8
0
  6
CONTINUOUS
 62
               4
100
AcDbLine
 10
14.949966430664062
 20
73.499954223632813
 30
0.0
 11
5.0499725341796875
 21
73.499954223632813
 31
0.0
  0
LINE
  5
113
100
AcDbEntity
  8
0
  6
CONTINUOUS
 62
               4
100
AcDbLine
 10
11.169969482421877
 20
59.199984741210955
 30
0.0
 11
12.829969482421873
 21
59.199984741210955
 31
0.0
  0
LINE
  5
114
100
AcDbEntity
  8
0
  6
CONTINUOUS
 62
               4
100
AcDbLine
 10
7.1699694824218767
 20
59.199984741210955
 30
0.0
 11
8.8299694824218733
 21
59.199984741210955
 31
0.0
  0
LINE
  5
115
100
AcDbEntity
  8
0
  6
CONTINUOUS
 62
               4
100
AcDbLine
 10
12.829969482421873
 20
59.199984741210955
 30
0.0
 11
12.829969482421873
 21
64.499984741210937
 31
0.0
  0
LINE
  5
116
100
AcDbEntity
  8
0
  6
CONTINUOUS
 62
               4
100
AcDbLine
 10
11.169969482421877
 20
59.199984741210955
 30
0.0
 11
11.169969482421877
 21
64.499984741210937
 31
0.0
  0
LINE
  5
117
100
AcDbEntity
  8
0
  6
CONTINUOUS
 62
               4
100
AcDbLine
 10
8.8299694824218733
 20
59.199984741210955
 30
0.0
 11
8.8299694824218733
 21
64.499984741210937
 31
0.0
  0
LINE
  5
118
100
AcDbEntity
  8
0
  6
CONTINUOUS
 62
               4
100
AcDbLine
 10
7.1699694824218767
 20
59.199984741210955
 30
0.0
 11
7.1699694824218767
 21
64.499984741210937
 31
0.0
  0
LINE
  5
119
100
AcDbEntity
  8
0
  6
CONTINUOUS
 62
               4
100
AcDbLine
 10
12.599969482421869
 20
59.199984741210955
 30
0.0
 11
12.599969482421869
 21
64.499984741210937
 31
0.0
  0
LINE
  5
11A
100
AcDbEntity
  8
0
  6
CONTINUOUS
 62
               4
100
AcDbLine
 10
11.399969482421881
 20
59.199984741210955
 30
0.0
 11
11.399969482421881
 21
64.499984741210937
 31
0.0
  0
LINE
  5
11B
100
AcDbEntity
  8
0
  6
CONTINUOUS
 62
               4
100
AcDbLine
 10
8.5999694824218693
 20
59.199984741210955
 30
0.0
 11
8.5999694824218693
 21
64.499984741210937
 31
0.0
  0
LINE
  5
11C
100
AcDbEntity
  8
0
  6
CONTINUOUS
 62
               4
100
AcDbLine
 10
7.3999694824218807
 20
59.199984741210955
 30
0.0
 11
7.3999694824218807
 21
64.499984741210937
 31
0.0
  0
LINE
  5
11D
100
AcDbEntity
  8
0
  6
CONTINUOUS
 62
               4
100
AcDbLine
 10
14.299969482421872
 20
57.499954223632813
 30
0.0
 11
14.999969482421875
 21
57.499954223632813
 31
0.0
  0
LINE
  5
11E
100
AcDbEntity
  8
0
  6
CONTINUOUS
 62
               4
100
AcDbLine
 10
5.6165210589663275
 20
57.499954223632813
 30
0.0
 11
5.6165210589663275
 21
64.499984741210937
 31
0.0
  0
LINE
  5
11F
100
AcDbEntity
  8
0
  6
CONTINUOUS
 62
               4
100
AcDbLine
 10
14.299969482421872
 20
57.499954223632813
 30
0.0
 11
14.299969482421872
 21
64.499984741210937
 31
0.0
  0
LINE
  5
120
100
AcDbEntity
  8
0
  6
CONTINUOUS
 62
               4
100
AcDbLine
 10
4.999969482421875
 20
57.499954223632813
 30
0.0
 11
5.6165210604667664
 21
57.499954223632813
 31
0.0
  0
LINE
  5
121
100
AcDbEntity
  8
0
  6
CONTINUOUS
 62
               4
100
AcDbLine
 10
4.9999847412109375
 20
64.499984741210937
 30
0.0
 11
14.999984741210938
 21
64.499984741210937
 31
0.0
  0
LINE
  5
122
100
AcDbEntity
  8
0
  6
CONTINUOUS
 62
               4
100
AcDbLine
 10
14.999969482421875
 20
40.499969482421875
 30
0.0
 11
14.999969482421875
 21
64.499969482421875
 31
0.0
  0
LINE
  5
123
100
AcDbEntity
  8
0
  6
CONTINUOUS
 62
               4
100
AcDbLine
 10
4.999969482421875
 20
40.499969482421875
 30
0.0
 11
4.999969482421875
 21
64.499969482421875
 31
0.0
  0
ENDBLK
  5
124
100
AcDbEntity
  8
0
100
AcDbBlockEnd
  0
BLOCK
  5
125
100
AcDbEntity
  8
0
100
AcDbBlockBegin
  2
F18T-3
 70
               0
 10
0.0
 20
0.0
 30
0.0
  3
F18T-3
  1

  0
LINE
  5
126
100
AcDbEntity
  8
0
  6
CONTINUOUS
 62
               2
100
AcDbLine
 10
-10.0
 20
-62.302867889404297
 30
0.0
 11
-10.0
 21
86.255069732666016
 31
0.0
  0
LINE
  5
127
100
AcDbEntity
  8
0
  6
CONTINUOUS
 62
               7
100
AcDbLine
 10
-19.0
 20
17.000003814697266
 30
0.0
 11
-1.0
 21
17.000003814697266
 31
0.0
  0
LINE
  5
128
100
AcDbEntity
  8
0
  6
CONTINUOUS
 62
               7
100
AcDbLine
 10
-19.0
 20
-47.999996185302734
 30
0.0
 11
-1.0
 21
-47.999996185302734
 31
0.0
  0
LINE
  5
129
100
AcDbEntity
  8
0
  6
CONTINUOUS
 62
               7
100
AcDbLine
 10
-19.0
 20
16.799991607666016
 30
0.0
 11
-1.0
 21
16.799991607666016
 31
0.0
  0
LINE
  5
12A
100
AcDbEntity
  8
0
  6
CONTINUOUS
 62
               7
100
AcDbLine
 10
-19.0
 20
-35.799983978271484
 30
0.0
 11
-1.0
 21
-35.799983978271484
 31
0.0
  0
LINE
  5
12B
100
AcDbEntity
  8
0
  6
CONTINUOUS
 62
               7
100
AcDbLine
 10
-3.5
 20
13.500003814697266
 30
0.0
 11
-1.0
 21
13.500003814697266
 31
0.0
  0
LINE
  5
12C
100
AcDbEntity
  8
0
  6
CONTINUOUS
 62
               7
100
AcDbLine
 10
-3.5
 20
7.5000038146972656
 30
0.0
 11
-1.0
 21
7.5000038146972656
 31
0.0
  0
LINE
  5
12D
100
AcDbEntity
  8
0
  6
CONTINUOUS
 62
               7
100
AcDbLine
 10
-19.0
 20
-32.499996185302734
 30
0.0
 11
-16.5
 21
-32.499996185302734
 31
0.0
  0
LINE
  5
12E
100
AcDbEntity
  8
0
  6
CONTINUOUS
 62
               7
100
AcDbLine
 10
-19.0
 20
-26.499996185302734
 30
0.0
 11
-16.5
 21
-26.499996185302734
 31
0.0
  0
LINE
  5
12F
100
AcDbEntity
  8
0
  6
CONTINUOUS
 62
               7
100
AcDbLine
 10
-13.5
 20
12.500019073486328
 30
0.0
 11
-13.5
 21
16.800006866455078
 31
0.0
  0
LINE
  5
130
100
AcDbEntity
  8
0
  6
CONTINUOUS
 62
               7
100
AcDbLine
 10
-16.5
 20
9.5000038146972656
 30
0.0
 11
-19.0
 21
9.5000038146972656
 31
0.0
  0
LINE
  5
131
100
AcDbEntity
  8
0
  6
CONTINUOUS
 62
               7
100
AcDbLine
 10
-19.0
 20
-33.799983978271484
 30
0.0
 11
-6.5
 21
-33.799983978271484
 31
0.0
  0
LINE
  5
132
100
AcDbEntity
  8
0
  6
CONTINUOUS
 62
               7
100
AcDbLine
 10
-13.5
 20
14.799991607666016
 30
0.0
 11
-1.0
 21
14.799991607666016
 31
0.0
  0
LINE
  5
133
100
AcDbEntity
  8
0
  6
CONTINUOUS
 62
               7
100
AcDbLine
 10
-2.5
 20
-46.999996185302734
 30
0.0
 11
-17.5
 21
-46.999996185302734
 31
0.0
  0
LINE
  5
134
100
AcDbEntity
  8
0
  6
CONTINUOUS
 62
               7
100
AcDbLine
 10
-2.5
 20
-46.999996185302734
 30
0.0
 11
-2.5
 21
-36.999996185302734
 31
0.0
  0
LINE
  5
135
100
AcDbEntity
  8
0
  6
CONTINUOUS
 62
               7
100
AcDbLine
 10
-17.5
 20
-46.999996185302734
 30
0.0
 11
-17.5
 21
-36.999996185302734
 31
0.0
  0
LINE
  5
136
100
AcDbEntity
  8
0
  6
CONTINUOUS
 62
               7
100
AcDbLine
 10
-17.5
 20
-36.999996185302734
 30
0.0
 11
-2.5
 21
-36.999996185302734
 31
0.0
  0
LINE
  5
137
100
AcDbEntity
  8
0
  6
CONTINUOUS
 62
               7
100
AcDbLine
 10
-3.5
 20
-45.999996185302734
 30
0.0
 11
-16.5
 21
-45.999996185302734
 31
0.0
  0
LINE
  5
138
100
AcDbEntity
  8
0
  6
CONTINUOUS
 62
               7
100
AcDbLine
 10
-16.5
 20
-37.999996185302734
 30
0.0
 11
-3.5
 21
-37.999996185302734
 31
0.0
  0
LINE
  5
139
100
AcDbEntity
  8
0
  6
CONTINUOUS
 62
               7
100
AcDbLine
 10
-3.5
 20
-45.999996185302734
 30
0.0
 11
-3.5
 21
-37.999996185302734
 31
0.0
  0
LINE
  5
13A
100
AcDbEntity
  8
0
  6
CONTINUOUS
 62
               7
100
AcDbLine
 10
-16.5
 20
-45.999996185302734
 30
0.0
 11
-16.5
 21
-37.999996185302734
 31
0.0
  0
LINE
  5
13B
100
AcDbEntity
  8
0
  6
CONTINUOUS
 62
               7
100
AcDbLine
 10
-2.5000037259005694
 20
-47.00000415692466
 30
0.0
 11
-3.5000047874900702
 21
-46.00000309533516
 31
0.0
  0
LINE
  5
13C
100
AcDbEntity
  8
0
  6
CONTINUOUS
 62
               7
100
AcDbLine
 10
-3.5000582928541917
 20
-37.999952476917315
 30
0.0
 11
-2.5000581584963584
 21
-36.999950403802359
 31
0.0
  0
LINE
  5
13D
100
AcDbEntity
  8
0
  6
CONTINUOUS
 62
               7
100
AcDbLine
 10
-17.499976828145009
 20
-36.999977567560563
 30
0.0
 11
-16.499977705312631
 21
-37.999980567907187
 31
0.0
  0
LINE
  5
13E
100
AcDbEntity
  8
0
  6
CONTINUOUS
 62
               7
100
AcDbLine
 10
-16.500014875938177
 20
-45.99998505772146
 30
0.0
 11
-17.500010879850379
 21
-46.999969597802192
 31
0.0
  0
LINE
  5
13F
100
AcDbEntity
  8
0
  6
CONTINUOUS
 62
               7
100
AcDbLine
 10
-16.5
 20
-47.999996185302734
 30
0.0
 11
-16.5
 21
-46.999996185302734
 31
0.0
  0
LINE
  5
140
100
AcDbEntity
  8
0
  6
CONTINUOUS
 62
               7
100
AcDbLine
 10
-19.0
 20
-44.999996185302734
 30
0.0
 11
-17.5
 21
-44.999996185302734
 31
0.0
  0
LINE
  5
141
100
AcDbEntity
  8
0
  6
CONTINUOUS
 62
               7
100
AcDbLine
 10
-16.5
 20
-36.999996185302734
 30
0.0
 11
-16.5
 21
-35.999996185302734
 31
0.0
  0
LINE
  5
142
100
AcDbEntity
  8
0
  6
CONTINUOUS
 62
               7
100
AcDbLine
 10
-19.0
 20
-38.999996185302734
 30
0.0
 11
-17.5
 21
-38.999996185302734
 31
0.0
  0
LINE
  5
143
100
AcDbEntity
  8
0
  6
CONTINUOUS
 62
               7
100
AcDbLine
 10
-3.5
 20
-36.999996185302734
 30
0.0
 11
-3.5
 21
-35.999996185302734
 31
0.0
  0
LINE
  5
144
100
AcDbEntity
  8
0
  6
CONTINUOUS
 62
               7
100
AcDbLine
 10
-2.5
 20
-38.999996185302734
 30
0.0
 11
-1.0
 21
-38.999996185302734
 31
0.0
  0
LINE
  5
145
100
AcDbEntity
  8
0
  6
CONTINUOUS
 62
               7
100
AcDbLine
 10
-3.5
 20
-48.000011444091797
 30
0.0
 11
-3.5
 21
-46.999996185302734
 31
0.0
  0
LINE
  5
146
100
AcDbEntity
  8
0
  6
CONTINUOUS
 62
               7
100
AcDbLine
 10
-2.5
 20
-44.999996185302734
 30
0.0
 11
-1.0
 21
-44.999996185302734
 31
0.0
  0
LINE
  5
147
100
AcDbEntity
  8
0
  6
CONTINUOUS
 62
               7
100
AcDbLine
 10
0.0
 20
-36.499996185302734
 30
0.0
 11
0.0
 21
17.500003814697266
 31
0.0
  0
LINE
  5
148
100
AcDbEntity
  8
0
  6
CONTINUOUS
 62
               7
100
AcDbLine
 10
-20.0
 20
-36.499996185302734
 30
0.0
 11
-20.0
 21
17.500003814697266
 31
0.0
  0
LINE
  5
149
100
AcDbEntity
  8
0
  6
CONTINUOUS
 62
               7
100
AcDbLine
 10
-18.5
 20
-58.999996185302734
 30
0.0
 11
-1.5
 21
-58.999996185302734
 31
0.0
  0
LINE
  5
14A
100
AcDbEntity
  8
0
  6
CONTINUOUS
 62
               7
100
AcDbLine
 10
-15.0
 20
31.000003814697266
 30
0.0
 11
-5.0
 21
31.000003814697266
 31
0.0
  0
LINE
  5
14B
100
AcDbEntity
  8
0
  6
CONTINUOUS
 62
               2
100
AcDbLine
 10
-12.5
 20
37.200000762939453
 30
0.0
 11
-7.5
 21
37.200000762939453
 31
0.0
  0
LINE
  5
14C
100
AcDbEntity
  8
0
  6
CONTINUOUS
 62
               4
100
AcDbLine
 10
-14.999984741210938
 20
64.500019073486328
 30
0.0
 11
-4.9999847412109375
 21
64.500019073486328
 31
0.0
  0
LINE
  5
14D
100
AcDbEntity
  8
0
  6
CONTINUOUS
 62
               7
100
AcDbLine
 10
-15.0
 20
40.500003814697266
 30
0.0
 11
-5.0
 21
40.500003814697266
 31
0.0
  0
LINE
  5
14E
100
AcDbEntity
  8
0
  6
CONTINUOUS
 62
               7
100
AcDbLine
 10
-11.926788330078125
 20
36.899997711181641
 30
0.0
 11
-8.073211669921875
 21
36.899997711181641
 31
0.0
  0
LINE
  5
14F
100
AcDbEntity
  8
0
  6
CONTINUOUS
 62
               7
100
AcDbLine
 10
-11.926788330078125
 20
37.500003814697266
 30
0.0
 11
-8.073211669921875
 21
37.500003814697266
 31
0.0
  0
LINE
  5
150
100
AcDbEntity
  8
0
  6
CONTINUOUS
 62
               4
100
AcDbLine
 10
-14.949996948242188
 20
64.500003814697266
 30
0.0
 11
-14.949996948242188
 21
78.000003814697266
 31
0.0
  0
LINE
  5
151
100
AcDbEntity
  8
0
  6
CONTINUOUS
 62
               4
100
AcDbLine
 10
-5.4999847412109375
 20
73.500019073486328
 30
0.0
 11
-14.499984741210938
 21
73.500019073486328
 31
0.0
  0
LINE
  5
152
100
AcDbEntity
  8
0
  6
CONTINUOUS
 62
               2
100
AcDbLine
 10
-5.0500030517578125
 20
69.000019073486328
 30
0.0
 11
-14.949996948242188
 21
69.000019073486328
 31
0.0
  0
LINE
  5
153
100
AcDbEntity
  8
0
  6
CONTINUOUS
 62
               4
100
AcDbLine
 10
-5.0500030517578125
 20
64.500003814697266
 30
0.0
 11
-5.0500030517578125
 21
78.000003814697266
 31
0.0
  0
LINE
  5
154
100
AcDbEntity
  8
0
  6
CONTINUOUS
 62
               4
100
AcDbLine
 10
-14.949996948242188
 20
78.000003814697266
 30
0.0
 11
-13.499984741210937
 21
78.000003814697266
 31
0.0
  0
LINE
  5
155
100
AcDbEntity
  8
0
  6
CONTINUOUS
 62
               4
100
AcDbLine
 10
-14.050003051757813
 20
73.500003814697266
 30
0.0
 11
-14.050003051757813
 21
76.000003814697266
 31
0.0
  0
LINE
  5
156
100
AcDbEntity
  8
0
  6
CONTINUOUS
 62
               4
100
AcDbLine
 10
-5.9499969482421875
 20
73.500003814697266
 30
0.0
 11
-5.9499969482421875
 21
76.000003814697266
 31
0.0
  0
LINE
  5
157
100
AcDbEntity
  8
0
  6
CONTINUOUS
 62
               4
100
AcDbLine
 10
-6.5
 20
73.998462677001953
 30
0.0
 11
-6.5
 21
84.500003814697266
 31
0.0
  0
LINE
  5
158
100
AcDbEntity
  8
0
  6
CONTINUOUS
 62
               4
100
AcDbLine
 10
-13.5
 20
73.998462677001953
 30
0.0
 11
-13.5
 21
84.500003814697266
 31
0.0
  0
LINE
  5
159
100
AcDbEntity
  8
0
  6
CONTINUOUS
 62
               4
100
AcDbLine
 10
-13.499984741210937
 20
73.998477935791016
 30
0.0
 11
-6.4999847412109375
 21
73.998477935791016
 31
0.0
  0
LINE
  5
15A
100
AcDbEntity
  8
0
  6
CONTINUOUS
 62
               4
100
AcDbLine
 10
-13.499984741210937
 20
77.556156158447266
 30
0.0
 11
-6.4999847412109375
 21
77.556156158447266
 31
0.0
  0
LINE
  5
15B
100
AcDbEntity
  8
0
  6
CONTINUOUS
 62
               4
100
AcDbLine
 10
-13.499984741210937
 20
83.000003814697266
 30
0.0
 11
-6.4999847412109375
 21
83.000003814697266
 31
0.0
  0
LINE
  5
15C
100
AcDbEntity
  8
0
  6
CONTINUOUS
 62
               4
100
AcDbLine
 10
-14.899993896484375
 20
84.500003814697266
 30
0.0
 11
-5.0999908447265625
 21
84.500003814697266
 31
0.0
  0
LINE
  5
15D
100
AcDbEntity
  8
0
  6
CONTINUOUS
 62
               4
100
AcDbLine
 10
-6.4999847412109375
 20
78.000003814697266
 30
0.0
 11
-5.0500030517578125
 21
78.000003814697266
 31
0.0
  0
LINE
  5
15E
100
AcDbEntity
  8
0
  6
CONTINUOUS
 62
               4
100
AcDbLine
 10
-6.4999847412109375
 20
77.000003814697266
 30
0.0
 11
-5.9499969482421875
 21
77.000003814697266
 31
0.0
  0
LINE
  5
15F
100
AcDbEntity
  8
0
  6
CONTINUOUS
 62
               4
100
AcDbLine
 10
-6.4999847412109375
 20
76.000003814697266
 30
0.0
 11
-5.9499969482421875
 21
76.000003814697266
 31
0.0
  0
LINE
  5
160
100
AcDbEntity
  8
0
  6
CONTINUOUS
 62
               4
100
AcDbLine
 10
-14.050003051757813
 20
77.000003814697266
 30
0.0
 11
-13.499984741210937
 21
77.000003814697266
 31
0.0
  0
LINE
  5
161
100
AcDbEntity
  8
0
  6
CONTINUOUS
 62
               4
100
AcDbLine
 10
-14.050003051757813
 20
76.000003814697266
 30
0.0
 11
-13.499984741210937
 21
76.000003814697266
 31
0.0
  0
LINE
  5
162
100
AcDbEntity
  8
0
  6
CONTINUOUS
 62
               4
100
AcDbLine
 10
-14.050003051757813
 20
77.000003814697266
 30
0.0
 11
-14.050003051757813
 21
78.000003814697266
 31
0.0
  0
LINE
  5
163
100
AcDbEntity
  8
0
  6
CONTINUOUS
 62
               4
100
AcDbLine
 10
-5.9499969482421875
 20
77.000003814697266
 30
0.0
 11
-5.9499969482421875
 21
78.000003814697266
 31
0.0
  0
LINE
  5
164
100
AcDbEntity
  8
0
  6
CONTINUOUS
 62
               4
100
AcDbLine
 10
-11.284988403320313
 20
88.673328399658203
 30
0.0
 11
-11.284988403320313
 21
92.500003814697266
 31
0.0
  0
LINE
  5
165
100
AcDbEntity
  8
0
  6
CONTINUOUS
 62
               4
100
AcDbLine
 10
-12.715011596679687
 20
88.290149688720703
 30
0.0
 11
-12.715011596679687
 21
92.500003814697266
 31
0.0
  0
LINE
  5
166
100
AcDbEntity
  8
0
  6
CONTINUOUS
 62
               4
100
AcDbLine
 10
-12.715011596679687
 20
92.500003814697266
 30
0.0
 11
-11.285003662109375
 21
92.500003814697266
 31
0.0
  0
LINE
  5
167
100
AcDbEntity
  8
0
  6
CONTINUOUS
 62
               4
100
AcDbLine
 10
-11.599990844726563
 20
92.500003814697266
 30
0.0
 11
-11.599990844726563
 21
97.500003814697266
 31
0.0
  0
LINE
  5
168
100
AcDbEntity
  8
0
  6
CONTINUOUS
 62
               4
100
AcDbLine
 10
-12.400009155273438
 20
92.500003814697266
 30
0.0
 11
-12.400009155273438
 21
97.500003814697266
 31
0.0
  0
LINE
  5
169
100
AcDbEntity
  8
0
  6
CONTINUOUS
 62
               4
100
AcDbLine
 10
-12.400009155273438
 20
97.500003814697266
 30
0.0
 11
-11.600006103515625
 21
97.500003814697266
 31
0.0
  0
LINE
  5
16A
100
AcDbEntity
  8
0
  6
CONTINUOUS
 62
               4
100
AcDbLine
 10
-11.284988403320313
 20
84.500003814697266
 30
0.0
 11
-11.284988403320313
 21
87.638050079345703
 31
0.0
  0
LINE
  5
16B
100
AcDbEntity
  8
0
  6
CONTINUOUS
 62
               4
100
AcDbLine
 10
-12.715011596679687
 20
84.500003814697266
 30
0.0
 11
-12.715011596679687
 21
87.254871368408203
 31
0.0
  0
LINE
  5
16C
100
AcDbEntity
  8
0
  6
CONTINUOUS
 62
               7
100
AcDbLine
 10
-5.0
 20
29.500003814697266
 30
0.0
 11
-5.0
 21
40.500003814697266
 31
0.0
  0
LINE
  5
16D
100
AcDbEntity
  8
0
  6
CONTINUOUS
 62
               7
100
AcDbLine
 10
-15.0
 20
29.500003814697266
 30
0.0
 11
-15.0
 21
40.500003814697266
 31
0.0
  0
LINE
  5
16E
100
AcDbEntity
  8
0
  6
CONTINUOUS
 62
               4
100
AcDbLine
 10
-5.0999908447265625
 20
78.000003814697266
 30
0.0
 11
-5.0999908447265625
 21
84.500003814697266
 31
0.0
  0
LINE
  5
16F
100
AcDbEntity
  8
0
  6
CONTINUOUS
 62
               4
100
AcDbLine
 10
-14.899993896484375
 20
78.000003814697266
 30
0.0
 11
-14.899993896484375
 21
84.500003814697266
 31
0.0
  0
LINE
  5
170
100
AcDbEntity
  8
0
  6
CONTINUOUS
 62
               4
100
AcDbLine
 10
-14.0
 20
78.000003814697266
 30
0.0
 11
-14.0
 21
84.500003814697266
 31
0.0
  0
LINE
  5
171
100
AcDbEntity
  8
0
  6
CONTINUOUS
 62
               4
100
AcDbLine
 10
-6.0
 20
78.000003814697266
 30
0.0
 11
-6.0
 21
84.500003814697266
 31
0.0
  0
LINE
  5
172
100
AcDbEntity
  8
0
  6
CONTINUOUS
 62
               7
100
AcDbLine
 10
-19.0
 20
27.000003814697266
 30
0.0
 11
-1.0
 21
27.000003814697266
 31
0.0
  0
LINE
  5
173
100
AcDbEntity
  8
0
  6
CONTINUOUS
 62
               7
100
AcDbLine
 10
-1.0
 20
-58.499996185302734
 30
0.0
 11
-1.0
 21
8.9448280334472656
 31
0.0
  0
LINE
  5
174
100
AcDbEntity
  8
0
  6
CONTINUOUS
 62
               7
100
AcDbLine
 10
-19.0
 20
-58.499996185302734
 30
0.0
 11
-19.0
 21
-31.053295135498047
 31
0.0
  0
LINE
  5
175
100
AcDbEntity
  8
0
  6
CONTINUOUS
 62
               2
100
AcDbLine
 10
-20.0
 20
0.0
 30
0.0
 11
3.8292388916015625
 21
0.0
 31
0.0
  0
LINE
  5
176
100
AcDbEntity
  8
0
  6
CONTINUOUS
 62
               2
100
AcDbLine
 10
-20.0
 20
-19.0
 30
0.0
 11
3.5814361572265625
 21
-19.0
 31
0.0
  0
LINE
  5
177
100
AcDbEntity
  8
0
  6
CONTINUOUS
 62
               7
100
AcDbLine
 10
-3.5
 20
-28.499996185302734
 30
0.0
 11
-1.0
 21
-28.499996185302734
 31
0.0
  0
LINE
  5
178
100
AcDbEntity
  8
0
  6
CONTINUOUS
 62
               7
100
AcDbLine
 10
-6.5
 20
-31.499980926513672
 30
0.0
 11
-6.5
 21
-35.799983978271484
 31
0.0
  0
LINE
  5
179
100
AcDbEntity
  8
0
  6
CONTINUOUS
 62
               7
100
AcDbLine
 10
-17.560643174952929
 20
-30.560650748211629
 30
0.0
 11
-15.439322688884204
 21
-28.439330440956837
 31
0.0
  0
LINE
  5
17A
100
AcDbEntity
  8
0
  6
CONTINUOUS
 62
               7
100
AcDbLine
 10
-17.560632295952018
 20
-28.439319561956836
 30
0.0
 11
-15.439311988697227
 21
-30.560640048025562
 31
0.0
  0
LINE
  5
17B
100
AcDbEntity
  8
0
  6
CONTINUOUS
 62
               7
100
AcDbLine
 10
-4.5606612794535977
 20
-32.560642713999187
 30
0.0
 11
-2.4393407933848721
 21
-30.439322406744395
 31
0.0
  0
LINE
  5
17C
100
AcDbEntity
  8
0
  6
CONTINUOUS
 62
               7
100
AcDbLine
 10
-4.5606611900466305
 20
-30.439322317337428
 30
0.0
 11
-2.4393408827918392
 21
-32.560642803406154
 31
0.0
  0
LINE
  5
17D
100
AcDbEntity
  8
0
  6
CONTINUOUS
 62
               7
100
AcDbLine
 10
-4.5606487196928356
 20
9.4393496949614928
 30
0.0
 11
-2.43932823362411
 21
11.560670002216284
 31
0.0
  0
LINE
  5
17E
100
AcDbEntity
  8
0
  6
CONTINUOUS
 62
               7
100
AcDbLine
 10
-4.5606378406928343
 20
11.560659302029308
 30
0.0
 11
-2.439317533438043
 21
9.439338815960582
 31
0.0
  0
LINE
  5
17F
100
AcDbEntity
  8
0
  6
CONTINUOUS
 62
               7
100
AcDbLine
 10
-17.560662983972179
 20
11.439352450343904
 30
0.0
 11
-15.439342497903453
 21
13.560672757598695
 31
0.0
  0
LINE
  5
180
100
AcDbEntity
  8
0
  6
CONTINUOUS
 62
               7
100
AcDbLine
 10
-17.560652104971268
 20
13.560683636598696
 30
0.0
 11
-15.439331797716477
 21
11.439363150529971
 31
0.0
  0
LINE
  5
181
100
AcDbEntity
  8
0
  6
DASHED
 62
               4
100
AcDbLine
 10
-21.599990844726562
 20
-59.399990081787109
 30
0.0
 11
-21.599990844726562
 21
9.9999885559082031
 31
0.0
  0
LINE
  5
182
100
AcDbEntity
  8
0
  6
DASHED
 62
               4
100
AcDbLine
 10
-20.0
 20
9.9999885559082031
 30
0.0
 11
-21.599990844726562
 21
9.9999885559082031
 31
0.0
  0
LINE
  5
183
100
AcDbEntity
  8
0
  6
DASHED
 62
               4
100
AcDbLine
 10
-20.0
 20
-36.499996185302734
 30
0.0
 11
-20.0
 21
-59.399990081787109
 31
0.0
  0
LINE
  5
184
100
AcDbEntity
  8
0
  6
DASHED
 62
               4
100
AcDbLine
 10
-1.0
 20
-59.399990081787109
 30
0.0
 11
-20.0
 21
-59.399990081787109
 31
0.0
  0
LINE
  5
185
100
AcDbEntity
  8
0
  6
DASHED
 62
               4
100
AcDbLine
 10
-1.0
 20
-60.999996185302734
 30
0.0
 11
-20.0
 21
-60.999996185302734
 31
0.0
  0
LINE
  5
186
100
AcDbEntity
  8
0
  6
DASHED
 62
               4
100
AcDbLine
 10
-1.0
 20
-59.399990081787109
 30
0.0
 11
-1.0
 21
-60.999996185302734
 31
0.0
  0
LINE
  5
187
100
AcDbEntity
  8
0
  6
DASHED
 62
               4
100
AcDbLine
 10
2.281524658203125
 20
4.0000038146972656
 30
0.0
 11
0.0
 21
4.0000038146972656
 31
0.0
  0
LINE
  5
188
100
AcDbEntity
  8
0
  6
DASHED
 62
               4
100
AcDbLine
 10
2.281524658203125
 20
-3.9999923706054687
 30
0.0
 11
0.0
 21
-3.9999923706054687
 31
0.0
  0
LINE
  5
189
100
AcDbEntity
  8
0
  6
DASHED
 62
               4
100
AcDbLine
 10
2.281524658203125
 20
-14.999988555908203
 30
0.0
 11
0.0
 21
-14.999988555908203
 31
0.0
  0
LINE
  5
18A
100
AcDbEntity
  8
0
  6
DASHED
 62
               4
100
AcDbLine
 10
2.281524658203125
 20
-22.999996185302734
 30
0.0
 11
0.0
 21
-22.999996185302734
 31
0.0
  0
ARC
  5
18B
100
AcDbEntity
  8
0
  6
CONTINUOUS
 62
               7
100
AcDbCircle
 10
-3.5
 20
10.500019073486328
 30
0.0
 40
3.0
100
AcDbArc
 50
89.999982013910454
 51
269.99994604173139
  0
ARC
  5
18C
100
AcDbEntity
  8
0
  6
CONTINUOUS
 62
               7
100
AcDbCircle
 10
-16.5
 20
-29.499980926513672
 30
0.0
 40
3.0
100
AcDbArc
 50
269.99996334457541
 51
89.999982013910454
  0
ARC
  5
18D
100
AcDbEntity
  8
0
  6
CONTINUOUS
 62
               7
100
AcDbCircle
 10
-16.5
 20
12.500019073486328
 30
0.0
 40
3.0
100
AcDbArc
 50
270.00001798608872
 51
0.00001366037834
  0
ARC
  5
18E
100
AcDbEntity
  8
0
  6
CONTINUOUS
 62
               7
100
AcDbCircle
 10
-1.5
 20
-58.499996185302734
 30
0.0
 40
0.5
100
AcDbArc
 50
270.00001798608872
 51
0.00001366037834
  0
ARC
  5
18F
100
AcDbEntity
  8
0
  6
CONTINUOUS
 62
               7
100
AcDbCircle
 10
-18.5
 20
-58.499980926513672
 30
0.0
 40
0.5
100
AcDbArc
 50
180.0000359721783
 51
269.99996334457541
  0
ARC
  5
190
100
AcDbEntity
  8
0
  6
CONTINUOUS
 62
               7
100
AcDbCircle
 10
-3.9999542236328125
 20
30.000064849853516
 30
0.0
 40
2.5000734329223633
100
AcDbArc
 50
191.53802865027069
 51
319.45933021911856
  0
CIRCLE
  5
191
100
AcDbEntity
  8
0
  6
CONTINUOUS
 62
               7
100
AcDbCircle
 10
-10.0
 20
37.200000762939453
 30
0.0
 40
2.0
  0
CIRCLE
  5
192
100
AcDbEntity
  8
0
  6
CONTINUOUS
 62
               7
100
AcDbCircle
 10
-10.0
 20
37.200000762939453
 30
0.0
 40
1.9499998092651367
  0
ARC
  5
193
100
AcDbEntity
  8
0
  6
CONTINUOUS
 62
               4
100
AcDbCircle
 10
-5.5500030517578125
 20
73.000019073486328
 30
0.0
 40
0.5
100
AcDbArc
 50
359.99994535848583
 51
89.999982013910454
  0
ARC
  5
194
100
AcDbEntity
  8
0
  6
CONTINUOUS
 62
               4
100
AcDbCircle
 10
-14.449996948242188
 20
73.000019073486328
 30
0.0
 40
0.5
100
AcDbArc
 50
89.999982013910454
 51
179.99996402782091
  0
CIRCLE
  5
195
100
AcDbEntity
  8
0
  6
CONTINUOUS
 62
               7
100
AcDbCircle
 10
-10.0
 20
0.0
 30
0.0
 40
9.0
  0
CIRCLE
  5
196
100
AcDbEntity
  8
0
  6
CONTINUOUS
 62
               7
100
AcDbCircle
 10
-10.0
 20
-19.0
 30
0.0
 40
9.0
  0
CIRCLE
  5
197
100
AcDbEntity
  8
0
  6
CONTINUOUS
 62
               7
100
AcDbCircle
 10
-10.0
 20
0.0
 30
0.0
 40
5.6799993515014648
  0
CIRCLE
  5
198
100
AcDbEntity
  8
0
  6
CONTINUOUS
 62
               2
100
AcDbCircle
 10
-10.0
 20
0.0
 30
0.0
 40
6.5
  0
CIRCLE
  5
199
100
AcDbEntity
  8
0
  6
CONTINUOUS
 62
               2
100
AcDbCircle
 10
-10.0
 20
-19.0
 30
0.0
 40
6.5
  0
CIRCLE
  5
19A
100
AcDbEntity
  8
0
  6
CONTINUOUS
 62
               7
100
AcDbCircle
 10
-10.0
 20
-19.0
 30
0.0
 40
5.6799993515014648
  0
ARC
  5
19B
100
AcDbEntity
  8
0
  6
CONTINUOUS
 62
               7
100
AcDbCircle
 10
-3.5
 20
-31.499980926513672
 30
0.0
 40
3.0
100
AcDbArc
 50
89.999982013910454
 51
179.99996402782091
  0
CIRCLE
  5
19C
100
AcDbEntity
  8
0
  6
CONTINUOUS
 62
               7
100
AcDbCircle
 10
-16.499984741210937
 20
-29.499980926513672
 30
0.0
 40
2.7999992370605469
  0
CIRCLE
  5
19D
100
AcDbEntity
  8
0
  6
CONTINUOUS
 62
               7
100
AcDbCircle
 10
-3.5
 20
-31.499965667724609
 30
0.0
 40
2.7999992370605469
  0
CIRCLE
  5
19E
100
AcDbEntity
  8
0
  6
CONTINUOUS
 62
               7
100
AcDbCircle
 10
-3.5
 20
10.500003814697266
 30
0.0
 40
2.7999992370605469
  0
CIRCLE
  5
19F
100
AcDbEntity
  8
0
  6
CONTINUOUS
 62
               7
100
AcDbCircle
 10
-16.5
 20
12.500019073486328
 30
0.0
 40
2.7999992370605469
  0
ARC
  5
1A0
100
AcDbEntity
  8
0
  6
DASHED
 62
               4
100
AcDbCircle
 10
-20.0
 20
-59.399990081787109
 30
0.0
 40
1.5999994277954102
100
AcDbArc
 50
179.99996402782091
 51
269.99994604173139
  0
ARC
  5
1A1
100
AcDbEntity
  8
0
  6
DASHED
 62
               4
100
AcDbCircle
 10
-2.4000091552734375
 20
0.0
 30
0.0
 40
6.5
100
AcDbArc
 50
326.20568564725858
 51
33.794232390470569
  0
ARC
  5
1A2
100
AcDbEntity
  8
0
  6
DASHED
 62
               4
100
AcDbCircle
 10
2.281524658203125
 20
3.1333198547363281
 30
0.0
 40
0.8666666746139526
100
AcDbArc
 50
33.79423239047059
 51
89.999927372397096
  0
ARC
  5
1A3
100
AcDbEntity
  8
0
  6
DASHED
 62
               4
100
AcDbCircle
 10
2.281524658203125
 20
-3.133331298828125
 30
0.0
 40
0.8666666746139526
100
AcDbArc
 50
269.99996334457541
 51
326.20568564725858
  0
ARC
  5
1A4
100
AcDbEntity
  8
0
  6
DASHED
 62
               4
100
AcDbCircle
 10
2.281524658203125
 20
-15.866664886474609
 30
0.0
 40
0.8666666746139526
100
AcDbArc
 50
33.79423239047059
 51
89.999927372397096
  0
ARC
  5
1A5
100
AcDbEntity
  8
0
  6
DASHED
 62
               4
100
AcDbCircle
 10
-2.4000091552734375
 20
-18.999995231628418
 30
0.0
 40
6.5
100
AcDbArc
 50
326.20568564725858
 51
33.794232390470569
  0
ARC
  5
1A6
100
AcDbEntity
  8
0
  6
DASHED
 62
               4
100
AcDbCircle
 10
2.281524658203125
 20
-22.133327484130859
 30
0.0
 40
0.8666666746139526
100
AcDbArc
 50
269.99996334457541
 51
326.20568564725858
  0
LINE
  5
1A7
100
AcDbEntity
  8
0
  6
CONTINUOUS
 62
               7
100
AcDbLine
 10
-17.0
 20
29.500003814697266
 30
0.0
 11
-3.0
 21
29.500003814697266
 31
0.0
  0
LINE
  5
1A8
100
AcDbEntity
  8
0
  6
CONTINUOUS
 62
               7
100
AcDbLine
 10
-19.00000436762457
 20
26.999996579526851
 30
0.0
 11
-17.00000026831367
 21
29.500001703665475
 31
0.0
  0
LINE
  5
1A9
100
AcDbEntity
  8
0
  6
CONTINUOUS
 62
               7
100
AcDbLine
 10
-2.9999930203402982
 20
29.499989788552739
 30
0.0
 11
-0.9999984531195878
 21
26.999996579526851
 31
0.0
  0
LINE
  5
1AA
100
AcDbEntity
  8
0
  6
DASHED
 62
               4
100
AcDbLine
 10
1.0
 20
4.0000038146972656
 30
0.0
 11
1.0
 21
-3.9999923706054687
 31
0.0
  0
LINE
  5
1AB
100
AcDbEntity
  8
0
  6
DASHED
 62
               4
100
AcDbLine
 10
0.0000003053664841
 20
-0.4041516563456753
 30
0.0
 11
1.00000749614901
 21
-0.981506087498019
 31
0.0
  0
LINE
  5
1AC
100
AcDbEntity
  8
0
  6
DASHED
 62
               4
100
AcDbLine
 10
0.0000020944125936
 20
0.9815020398336856
 30
0.0
 11
1.0000092851951194
 21
0.4041476086813418
 31
0.0
  0
LINE
  5
1AD
100
AcDbEntity
  8
0
  6
DASHED
 62
               4
100
AcDbLine
 10
0.0000131920396598
 20
-19.404159342026105
 30
0.0
 11
1.0000071683234637
 21
-19.981506143783918
 31
0.0
  0
LINE
  5
1AE
100
AcDbEntity
  8
0
  6
DASHED
 62
               4
100
AcDbLine
 10
0.0000017665870473
 20
-18.018498016452213
 30
0.0
 11
1.0000089573695732
 21
-18.595852447604557
 31
0.0
  0
LINE
  5
1AF
100
AcDbEntity
  8
0
  6
DASHED
 62
               4
100
AcDbLine
 10
1.0
 20
-14.999988555908203
 30
0.0
 11
1.0
 21
-22.999996185302734
 31
0.0
  0
CIRCLE
  5
1B0
100
AcDbEntity
  8
0
  6
CONTINUOUS
 62
               7
100
AcDbCircle
 10
-16.499984741210937
 20
-29.499980926513672
 30
0.0
 40
2.9499998092651367
  0
LINE
  5
1B1
100
AcDbEntity
  8
0
  6
CONTINUOUS
 62
               7
100
AcDbLine
 10
-19.0
 20
-27.946666717529297
 30
0.0
 11
-19.0
 21
27.000003814697266
 31
0.0
  0
CIRCLE
  5
1B2
100
AcDbEntity
  8
0
  6
CONTINUOUS
 62
               7
100
AcDbCircle
 10
-3.5
 20
10.500003814697266
 30
0.0
 40
2.9499998092651367
  0
LINE
  5
1B3
100
AcDbEntity
  8
0
  6
CONTINUOUS
 62
               7
100
AcDbLine
 10
-1.0
 20
12.055240631103516
 30
0.0
 11
-1.0
 21
27.000003814697266
 31
0.0
  0
LINE
  5
1B4
100
AcDbEntity
  8
0
  6
DASHED
 62
               4
100
AcDbLine
 10
-23.199981689453125
 20
2.5000038146972514
 30
0.0
 11
-23.199981689453125
 21
-2.5000000000000284
 31
0.0
  0
LINE
  5
1B5
100
AcDbEntity
  8
0
  6
DASHED
 62
               4
100
AcDbLine
 10
-22.099990844726563
 20
2.5000038146972514
 30
0.0
 11
-23.199981689453125
 21
2.5000038146972514
 31
0.0
  0
LINE
  5
1B6
100
AcDbEntity
  8
0
  6
DASHED
 62
               4
100
AcDbLine
 10
-22.099990844726563
 20
-2.5000000000000284
 30
0.0
 11
-23.199981689453125
 21
-2.5000000000000284
 31
0.0
  0
ARC
  5
1B7
100
AcDbEntity
  8
0
  6
DASHED
 62
               4
100
AcDbCircle
 10
-22.099990844726563
 20
-3.0
 30
0.0
 40
0.5
100
AcDbArc
 50
359.9999813306639
 51
90.000036655423813
  0
ARC
  5
1B8
100
AcDbEntity
  8
0
  6
DASHED
 62
               4
100
AcDbCircle
 10
-22.099990844726563
 20
3.0000038146972656
 30
0.0
 40
0.5
100
AcDbArc
 50
269.99996334457541
 51
359.99996402782114
  0
LINE
  5
1B9
100
AcDbEntity
  8
0
  6
DASHED
 62
               4
100
AcDbLine
 10
-23.199981689453125
 20
-16.500000000000028
 30
0.0
 11
-23.199981689453125
 21
-21.499996185302763
 31
0.0
  0
LINE
  5
1BA
100
AcDbEntity
  8
0
  6
DASHED
 62
               4
100
AcDbLine
 10
-22.099990844726563
 20
-16.500000000000028
 30
0.0
 11
-23.199981689453125
 21
-16.500000000000028
 31
0.0
  0
LINE
  5
1BB
100
AcDbEntity
  8
0
  6
DASHED
 62
               4
100
AcDbLine
 10
-22.099990844726563
 20
-21.499996185302763
 30
0.0
 11
-23.199981689453125
 21
-21.499996185302763
 31
0.0
  0
ARC
  5
1BC
100
AcDbEntity
  8
0
  6
DASHED
 62
               4
100
AcDbCircle
 10
-22.099990844726563
 20
-21.999996185302734
 30
0.0
 40
0.5
100
AcDbArc
 50
359.9999813306639
 51
90.000036655423813
  0
ARC
  5
1BD
100
AcDbEntity
  8
0
  6
DASHED
 62
               4
100
AcDbCircle
 10
-22.099990844726563
 20
-16.0
 30
0.0
 40
0.5
100
AcDbArc
 50
269.99996334457541
 51
359.99996402782114
  0
LINE
  5
1BE
100
AcDbEntity
  8
0
  6
CONTINUOUS
 62
               7
100
AcDbLine
 10
-20.0
 20
17.500003814697266
 30
0.0
 11
-19.0
 21
17.500003814697266
 31
0.0
  0
LINE
  5
1BF
100
AcDbEntity
  8
0
  6
CONTINUOUS
 62
               7
100
AcDbLine
 10
-1.0
 20
17.500003814697266
 30
0.0
 11
0.0
 21
17.500003814697266
 31
0.0
  0
LINE
  5
1C0
100
AcDbEntity
  8
0
  6
CONTINUOUS
 62
               7
100
AcDbLine
 10
-20.0
 20
-36.499996185302734
 30
0.0
 11
-19.0
 21
-36.499996185302734
 31
0.0
  0
LINE
  5
1C1
100
AcDbEntity
  8
0
  6
CONTINUOUS
 62
               7
100
AcDbLine
 10
-1.0
 20
-36.499996185302734
 30
0.0
 11
0.0
 21
-36.499996185302734
 31
0.0
  0
LINE
  5
1C2
100
AcDbEntity
  8
0
  6
CONTINUOUS
 62
               7
100
AcDbLine
 10
-19.0
 20
-35.999996185302734
 30
0.0
 11
-1.0
 21
-35.999996185302734
 31
0.0
  0
LINE
  5
1C3
100
AcDbEntity
  8
0
  6
CONTINUOUS
 62
             200
100
AcDbLine
 10
-14.000004201542652
 20
86.910566353472859
 30
0.0
 11
-9.6111394729624635
 21
88.086559123041923
 31
0.0
  0
LINE
  5
1C4
100
AcDbEntity
  8
0
  6
CONTINUOUS
 62
             200
100
AcDbLine
 10
-13.999994155866261
 20
87.945845212234417
 30
0.0
 11
-9.5954182537104771
 21
89.126047778110475
 31
0.0
  0
LINE
  5
1C5
100
AcDbEntity
  8
0
  6
CONTINUOUS
 62
               4
100
AcDbLine
 10
-5.0
 20
40.500003814697266
 30
0.0
 11
-5.0
 21
64.500003814697266
 31
0.0
  0
LINE
  5
1C6
100
AcDbEntity
  8
0
  6
CONTINUOUS
 62
               4
100
AcDbLine
 10
-15.0
 20
40.500003814697266
 30
0.0
 11
-15.0
 21
64.500003814697266
 31
0.0
  0
ENDBLK
  5
1C7
100
AcDbEntity
  8
0
100
AcDbBlockEnd
  0
BLOCK
  5
1C8
100
AcDbEntity
  8
0
100
AcDbBlockBegin
  2
F18T-4
 70
               0
 10
0.0
 20
0.0
 30
0.0
  3
F18T-4
  1

  0
LINE
  5
1C9
100
AcDbEntity
  8
0
  6
CONTINUOUS
 62
               7
100
AcDbLine
 10
30.500045776367188
 20
-4.0000152587890625
 30
0.0
 11
30.500045776367188
 21
-1.0000152587890625
 31
0.0
  0
LINE
  5
1CA
100
AcDbEntity
  8
0
  6
CONTINUOUS
 62
             200
100
AcDbLine
 10
-9.4999847412109375
 20
-15.000015258789063
 30
0.0
 11
-16.499984741210937
 21
-15.000015258789063
 31
0.0
  0
LINE
  5
1CB
100
AcDbEntity
  8
0
  6
CONTINUOUS
 62
             200
100
AcDbLine
 10
-13.0
 20
-18.500015258789063
 30
0.0
 11
-13.0
 21
-11.500015258789063
 31
0.0
  0
LINE
  5
1CC
100
AcDbEntity
  8
0
  6
CONTINUOUS
 62
               2
100
AcDbLine
 10
50.285659790039063
 20
-10.000015258789062
 30
0.0
 11
-19.742141723632812
 21
-10.000015258789062
 31
0.0
  0
LINE
  5
1CD
100
AcDbEntity
  8
0
  6
CONTINUOUS
 62
               7
100
AcDbLine
 10
48.000030517578125
 20
-19.000015258789063
 30
0.0
 11
4.0000152587890625
 21
-19.000015258789063
 31
0.0
  0
LINE
  5
1CE
100
AcDbEntity
  8
0
  6
CONTINUOUS
 62
               7
100
AcDbLine
 10
48.000030517578125
 20
-1.0000152587890625
 30
0.0
 11
4.0000152587890625
 21
-1.0000152587890625
 31
0.0
  0
LINE
  5
1CF
100
AcDbEntity
  8
0
  6
CONTINUOUS
 62
               7
100
AcDbLine
 10
43.500030517578125
 20
-18.500015258789063
 30
0.0
 11
43.500030517578125
 21
-1.5000152587890625
 31
0.0
  0
LINE
  5
1D0
100
AcDbEntity
  8
0
  6
CONTINUOUS
 62
               7
100
AcDbLine
 10
38.500030517578125
 20
-18.500015258789063
 30
0.0
 11
38.500030517578125
 21
-1.5000152587890625
 31
0.0
  0
LINE
  5
1D1
100
AcDbEntity
  8
0
  6
DASHED
 62
               4
100
AcDbLine
 10
22.000015258789063
 20
-19.000015258789063
 30
0.0
 11
22.000015258789063
 21
1.5999908447265625
 31
0.0
  0
LINE
  5
1D2
100
AcDbEntity
  8
0
  6
DASHED
 62
               4
100
AcDbLine
 10
-18.0
 20
-19.000015258789063
 30
0.0
 11
-18.0
 21
-0.0000152587890625
 31
0.0
  0
LINE
  5
1D3
100
AcDbEntity
  8
0
  6
DASHED
 62
               4
100
AcDbLine
 10
-6.9999847412109375
 20
-19.000015258789063
 30
0.0
 11
-18.0
 21
-19.000015258789063
 31
0.0
  0
LINE
  5
1D4
100
AcDbEntity
  8
0
  6
DASHED
 62
               4
100
AcDbLine
 10
22.000015258789063
 20
-0.0000152587890625
 30
0.0
 11
4.0000152587890625
 21
-0.0000152587890625
 31
0.0
  0
LINE
  5
1D5
100
AcDbEntity
  8
0
  6
DASHED
 62
               4
100
AcDbLine
 10
22.000015258789063
 20
1.5999908447265625
 30
0.0
 11
-7.9999847412109375
 21
1.5999908447265625
 31
0.0
  0
LINE
  5
1D6
100
AcDbEntity
  8
0
  6
DASHED
 62
               4
100
AcDbLine
 10
-7.9999847412109375
 20
-0.0000152587890625
 30
0.0
 11
-7.9999847412109375
 21
1.5999908447265625
 31
0.0
  0
LINE
  5
1D7
100
AcDbEntity
  8
0
  6
CONTINUOUS
 62
             200
100
AcDbLine
 10
-13.0
 20
-0.5000152587890625
 30
0.0
 11
-13.0
 21
-7.5000152587890625
 31
0.0
  0
LINE
  5
1D8
100
AcDbEntity
  8
0
  6
CONTINUOUS
 62
             200
100
AcDbLine
 10
-9.4999847412109375
 20
-4.0000152587890625
 30
0.0
 11
-16.499984741210937
 21
-4.0000152587890625
 31
0.0
  0
LINE
  5
1D9
100
AcDbEntity
  8
0
  6
CONTINUOUS
 62
               7
100
AcDbLine
 10
48.500030517578125
 20
-18.500015258789063
 30
0.0
 11
48.500030517578125
 21
-1.5000152587890625
 31
0.0
  0
LINE
  5
1DA
100
AcDbEntity
  8
0
  6
CONTINUOUS
 62
               7
100
AcDbLine
 10
40.500030517578125
 20
-16.500015258789063
 30
0.0
 11
40.500030517578125
 21
-3.5000152587890625
 31
0.0
  0
LINE
  5
1DB
100
AcDbEntity
  8
0
  6
CONTINUOUS
 62
               7
100
AcDbLine
 10
39.500030517578125
 20
-17.500015258789063
 30
0.0
 11
39.500030517578125
 21
-2.5000152587890625
 31
0.0
  0
LINE
  5
1DC
100
AcDbEntity
  8
0
  6
CONTINUOUS
 62
               7
100
AcDbLine
 10
39.500030517578125
 20
-17.500015258789063
 30
0.0
 11
38.500030517578125
 21
-17.500015258789063
 31
0.0
  0
LINE
  5
1DD
100
AcDbEntity
  8
0
  6
CONTINUOUS
 62
               7
100
AcDbLine
 10
39.500030517578125
 20
-2.5000152587890625
 30
0.0
 11
38.500030517578125
 21
-2.5000152587890625
 31
0.0
  0
LINE
  5
1DE
100
AcDbEntity
  8
0
  6
CONTINUOUS
 62
               7
100
AcDbLine
 10
39.500079312309936
 20
-17.500014072046724
 30
0.0
 11
40.500080542487012
 21
-16.500013179044799
 31
0.0
  0
LINE
  5
1DF
100
AcDbEntity
  8
0
  6
CONTINUOUS
 62
               7
100
AcDbLine
 10
40.500035613886212
 20
-3.4999966809537
 30
0.0
 11
39.500033877946407
 21
-2.4999962937145028
 31
0.0
  0
LINE
  5
1E0
100
AcDbEntity
  8
0
  6
CONTINUOUS
 62
               7
100
AcDbLine
 10
4.0000152587890625
 20
-20.000015258789063
 30
0.0
 11
4.0000152587890625
 21
-0.0000152587890625
 31
0.0
  0
LINE
  5
1E1
100
AcDbEntity
  8
0
  6
CONTINUOUS
 62
               7
100
AcDbLine
 10
-6.9999847412109375
 20
-20.000015258789063
 30
0.0
 11
-6.9999847412109375
 21
-0.0000152587890625
 31
0.0
  0
LINE
  5
1E2
100
AcDbEntity
  8
0
  6
CONTINUOUS
 62
               7
100
AcDbLine
 10
4.0000152587890625
 20
-20.000015258789063
 30
0.0
 11
-6.9999847412109375
 21
-20.000015258789063
 31
0.0
  0
LINE
  5
1E3
100
AcDbEntity
  8
0
  6
CONTINUOUS
 62
               7
100
AcDbLine
 10
32.439413185031299
 20
-5.0606866791704306
 30
0.0
 11
34.560734386355762
 21
-2.9393670871713766
 31
0.0
  0
LINE
  5
1E4
100
AcDbEntity
  8
0
  6
CONTINUOUS
 62
               7
100
AcDbLine
 10
32.43939241049884
 20
-2.9393878616874645
 30
0.0
 11
34.560701212908498
 21
-5.0606982734143457
 31
0.0
  0
LINE
  5
1E5
100
AcDbEntity
  8
0
  6
CONTINUOUS
 62
               7
100
AcDbLine
 10
10.5
 20
-16.000015258789063
 30
0.0
 11
10.5
 21
-19.000015258789063
 31
0.0
  0
LINE
  5
1E6
100
AcDbEntity
  8
0
  6
CONTINUOUS
 62
               7
100
AcDbLine
 10
7.5000152587890625
 20
-13.000015258789062
 30
0.0
 11
4.5000152587890625
 21
-13.000015258789062
 31
0.0
  0
LINE
  5
1E7
100
AcDbEntity
  8
0
  6
CONTINUOUS
 62
               7
100
AcDbLine
 10
8.5606888789752702
 20
-17.060725922241545
 30
0.0
 11
6.4393689293483476
 21
-14.939405078544951
 31
0.0
  0
LINE
  5
1E8
100
AcDbEntity
  8
0
  6
CONTINUOUS
 62
               7
100
AcDbLine
 10
8.560732484397704
 20
-14.939340788027948
 30
0.0
 11
6.4394008511053471
 21
-17.060671527246086
 31
0.0
  0
LINE
  5
1E9
100
AcDbEntity
  8
0
  6
CONTINUOUS
 62
               7
100
AcDbLine
 10
36.500015258789063
 20
-4.0000152587890625
 30
0.0
 11
36.500015258789063
 21
-1.0000152587890625
 31
0.0
  0
LINE
  5
1EA
100
AcDbEntity
  8
0
  6
DASHED
 62
               4
100
AcDbLine
 10
-6.9999847412109375
 20
-0.0000152587890625
 30
0.0
 11
-18.0
 21
-0.0000152587890625
 31
0.0
  0
LINE
  5
1EB
100
AcDbEntity
  8
0
  6
DASHED
 62
               4
100
AcDbLine
 10
-3.9999847412109375
 20
-22.281539916992188
 30
0.0
 11
-3.9999847412109375
 21
-20.000015258789063
 31
0.0
  0
LINE
  5
1EC
100
AcDbEntity
  8
0
  6
DASHED
 62
               4
100
AcDbLine
 10
4.0000152587890625
 20
-22.281539916992188
 30
0.0
 11
4.0000152587890625
 21
-20.000015258789063
 31
0.0
  0
ARC
  5
1ED
100
AcDbEntity
  8
0
  6
CONTINUOUS
 62
               7
100
AcDbCircle
 10
33.500045776367188
 20
-4.0000152587890625
 30
0.0
 40
3.0
100
AcDbArc
 50
179.99996402782091
 51
0.0000919801827092
  0
ARC
  5
1EE
100
AcDbEntity
  8
0
  6
CONTINUOUS
 62
               7
100
AcDbCircle
 10
38.000030517578125
 20
-18.500015258789063
 30
0.0
 40
0.5
100
AcDbArc
 50
270.00001798608872
 51
0.0
  0
ARC
  5
1EF
100
AcDbEntity
  8
0
  6
CONTINUOUS
 62
               7
100
AcDbCircle
 10
38.000030517578125
 20
-1.5000152587890625
 30
0.0
 40
0.5
100
AcDbArc
 50
359.99998633962088
 51
89.999982013910454
  0
ARC
  5
1F0
100
AcDbEntity
  8
0
  6
CONTINUOUS
 62
               7
100
AcDbCircle
 10
43.000030517578125
 20
-18.500015258789063
 30
0.0
 40
0.5
100
AcDbArc
 50
270.00001798608872
 51
0.0
  0
ARC
  5
1F1
100
AcDbEntity
  8
0
  6
CONTINUOUS
 62
               7
100
AcDbCircle
 10
43.000030517578125
 20
-1.5000152587890625
 30
0.0
 40
0.5
100
AcDbArc
 50
359.99998633962088
 51
89.999982013910454
  0
CIRCLE
  5
1F2
100
AcDbEntity
  8
0
  6
DASHED
 62
               4
100
AcDbCircle
 10
-12.999984741210938
 20
-15.0
 30
0.0
 40
2.25
  0
CIRCLE
  5
1F3
100
AcDbEntity
  8
0
  6
DASHED
 62
               4
100
AcDbCircle
 10
-12.999984741210938
 20
-4.0000152587890625
 30
0.0
 40
2.25
  0
ARC
  5
1F4
100
AcDbEntity
  8
0
  6
CONTINUOUS
 62
               7
100
AcDbCircle
 10
48.000030517578125
 20
-18.500015258789063
 30
0.0
 40
0.5
100
AcDbArc
 50
270.00001798608872
 51
0.0
  0
ARC
  5
1F5
100
AcDbEntity
  8
0
  6
CONTINUOUS
 62
               7
100
AcDbCircle
 10
48.000030517578125
 20
-1.5000152587890625
 30
0.0
 40
0.5
100
AcDbArc
 50
359.99998633962088
 51
89.999982013910454
  0
CIRCLE
  5
1F6
100
AcDbEntity
  8
0
  6
CONTINUOUS
 62
               7
100
AcDbCircle
 10
33.500030517578125
 20
-4.0000152587890625
 30
0.0
 40
2.7999992370605469
  0
ARC
  5
1F7
100
AcDbEntity
  8
0
  6
CONTINUOUS
 62
               7
100
AcDbCircle
 10
7.5000152587890625
 20
-16.000015258789063
 30
0.0
 40
3.0
100
AcDbArc
 50
0.0
 51
89.999982013910454
  0
CIRCLE
  5
1F8
100
AcDbEntity
  8
0
  6
CONTINUOUS
 62
               7
100
AcDbCircle
 10
7.5000152587890625
 20
-16.000015258789063
 30
0.0
 40
2.7999992370605469
  0
ARC
  5
1F9
100
AcDbEntity
  8
0
  6
DASHED
 62
               4
100
AcDbCircle
 10
-3.1333160400390625
 20
-22.281539916992188
 30
0.0
 40
0.8666666746139526
100
AcDbArc
 50
179.99996402782091
 51
236.20569999088247
  0
ARC
  5
1FA
100
AcDbEntity
  8
0
  6
DASHED
 62
               4
100
AcDbCircle
 10
0.0000152587890625
 20
-17.600006103515625
 30
0.0
 40
6.5
100
AcDbArc
 50
236.20577193523982
 51
303.79429135769436
  0
ARC
  5
1FB
100
AcDbEntity
  8
0
  6
DASHED
 62
               4
100
AcDbCircle
 10
3.1333465576171875
 20
-22.281539916992188
 30
0.0
 40
0.8666666746139526
100
AcDbArc
 50
303.79430501807269
 51
0.0000273207566801
  0
LINE
  5
1FC
100
AcDbEntity
  8
0
  6
DASHED
 62
               4
100
AcDbLine
 10
4.0000152587890625
 20
-21.000015258789063
 30
0.0
 11
-3.9999847412109375
 21
-21.000015258789063
 31
0.0
  0
LINE
  5
1FD
100
AcDbEntity
  8
0
  6
DASHED
 62
               4
100
AcDbLine
 10
0.4041836292299195
 20
-20.000018542799808
 30
0.0
 11
0.981530430987732
 21
-21.000012519083612
 31
0.0
  0
LINE
  5
1FE
100
AcDbEntity
  8
0
  6
DASHED
 62
               4
100
AcDbLine
 10
-0.9814700669494414
 20
-20.000020331845917
 30
0.0
 11
-0.4041232651916289
 21
-21.000014308129721
 31
0.0
  0
LINE
  5
1FF
100
AcDbEntity
  8
0
  6
DASHED
 62
               4
100
AcDbLine
 10
2.5000152587890625
 20
3.1999816894531534
 30
0.0
 11
-2.4999847412109375
 21
3.1999816894531534
 31
0.0
  0
LINE
  5
200
100
AcDbEntity
  8
0
  6
DASHED
 62
               4
100
AcDbLine
 10
2.5000152587890625
 20
2.0999908447265909
 30
0.0
 11
2.5000152587890625
 21
3.1999816894531534
 31
0.0
  0
LINE
  5
201
100
AcDbEntity
  8
0
  6
DASHED
 62
               4
100
AcDbLine
 10
-2.4999847412109375
 20
2.0999908447265909
 30
0.0
 11
-2.4999847412109375
 21
3.1999816894531534
 31
0.0
  0
ARC
  5
202
100
AcDbEntity
  8
0
  6
DASHED
 62
               4
100
AcDbCircle
 10
-2.9999847412109375
 20
2.0999908447265625
 30
0.0
 40
0.5
100
AcDbArc
 50
269.99996334457541
 51
0.0000179860890374
  0
ARC
  5
203
100
AcDbEntity
  8
0
  6
DASHED
 62
               4
100
AcDbCircle
 10
3.0000152587890625
 20
2.0999908447265625
 30
0.0
 40
0.5
100
AcDbArc
 50
179.99996402782091
 51
269.99994604173139
  0
LINE
  5
204
100
AcDbEntity
  8
0
  6
CONTINUOUS
 62
               7
100
AcDbLine
 10
4.0000152587890625
 20
-0.0000152587890625
 30
0.0
 11
-6.9999847412109375
 21
-0.0000152587890625
 31
0.0
  0
LINE
  5
205
100
AcDbEntity
  8
0
  6
CONTINUOUS
 62
               7
100
AcDbLine
 10
4.5000152587890625
 20
-19.000015258789063
 30
0.0
 11
4.5000152587890625
 21
-1.0000152587890625
 31
0.0
  0
ENDBLK
  5
206
100
AcDbEntity
  8
0
100
AcDbBlockEnd
  0
BLOCK
  5
207
100
AcDbEntity
  8
0
100
AcDbBlockBegin
  2
F18T-5
 70
               0
 10
0.0
 20
0.0
 30
0.0
  3
F18T-5
  1

  0
LINE
  5
208
100
AcDbEntity
  8
0
  6
CONTINUOUS
 62
               4
100
AcDbLine
 10
0.0
 20
24.0
 30
0.0
 11
10.0
 21
24.0
 31
0.0
  0
LINE
  5
209
100
AcDbEntity
  8
0
  6
CONTINUOUS
 62
               4
100
AcDbLine
 10
0.05
 20
24.0
 30
0.0
 11
0.05
 21
32.5
 31
0.0
  0
LINE
  5
20A
100
AcDbEntity
  8
0
  6
CONTINUOUS
 62
               4
100
AcDbLine
 10
9.5
 20
33.0
 30
0.0
 11
0.5
 21
33.0
 31
0.0
  0
LINE
  5
20B
100
AcDbEntity
  8
0
  6
CONTINUOUS
 62
               4
100
AcDbLine
 10
9.9499999999999993
 20
28.5
 30
0.0
 11
0.05
 21
28.5
 31
0.0
  0
LINE
  5
20C
100
AcDbEntity
  8
0
  6
CONTINUOUS
 62
               4
100
AcDbLine
 10
9.9499999999999993
 20
24.0
 30
0.0
 11
9.9499999999999993
 21
32.5
 31
0.0
  0
LINE
  5
20D
100
AcDbEntity
  8
0
  6
CONTINUOUS
 62
               4
100
AcDbLine
 10
0.0
 20
0.0
 30
0.0
 11
0.0
 21
24.0
 31
0.0
  0
LINE
  5
20E
100
AcDbEntity
  8
0
  6
CONTINUOUS
 62
               4
100
AcDbLine
 10
10.0
 20
0.0
 30
0.0
 11
10.0
 21
24.0
 31
0.0
  0
ARC
  5
20F
100
AcDbEntity
  8
0
  6
CONTINUOUS
 62
               4
100
AcDbCircle
 10
9.4499984741187646
 20
32.499998474118769
 30
0.0
 40
0.5000015258835625
100
AcDbArc
 50
0.0001748525759638
 51
89.999825147423834
  0
ARC
  5
210
100
AcDbEntity
  8
0
  6
CONTINUOUS
 62
               4
100
AcDbCircle
 10
0.5500015258812345
 20
32.499998474118769
 30
0.0
 40
0.5000015258835628
100
AcDbArc
 50
90.000174852575768
 51
179.99982514742368
  0
LINE
  5
211
100
AcDbEntity
  8
0
  6
CONTINUOUS
 62
               7
100
AcDbLine
 10
0.0
 20
0.0
 30
0.0
 11
10.0
 21
0.0
 31
0.0
  0
ENDBLK
  5
212
100
AcDbEntity
  8
0
100
AcDbBlockEnd
  0
BLOCK
  5
213
100
AcDbEntity
  8
0
100
AcDbBlockBegin
  2
F18T-6
 70
               0
 10
0.0
 20
0.0
 30
0.0
  3
F18T-6
  1

  0
LINE
  5
214
100
AcDbEntity
  8
0
  6
CONTINUOUS
 62
               4
100
AcDbLine
 10
27.0
 20
23.999999913736957
 30
0.0
 11
27.0
 21
-0.0000000862630429
 31
0.0
  0
LINE
  5
215
100
AcDbEntity
  8
0
  6
CONTINUOUS
 62
               4
100
AcDbLine
 10
-0.0000000000000036
 20
16.999999913736957
 30
0.0
 11
0.0000000000000071
 21
0.0000049999999874
 31
0.0
  0
LINE
  5
216
100
AcDbEntity
  8
0
  6
CONTINUOUS
 62
               4
100
AcDbLine
 10
1.3999999999999915
 20
16.999999913736957
 30
0.0
 11
1.3999999999999915
 21
25.499999909445421
 31
0.0
  0
LINE
  5
217
100
AcDbEntity
  8
0
  6
CONTINUOUS
 62
               4
100
AcDbLine
 10
-10.000000000000014
 20
25.499999913736957
 30
0.0
 11
-10.000000000000014
 21
16.999999913736957
 31
0.0
  0
LINE
  5
218
100
AcDbEntity
  8
0
  6
CONTINUOUS
 62
               4
100
AcDbLine
 10
-10.000000000000014
 20
25.499999913736957
 30
0.0
 11
1.3999999999999915
 21
25.499999913736957
 31
0.0
  0
LINE
  5
219
100
AcDbEntity
  8
0
  6
CONTINUOUS
 62
               4
100
AcDbLine
 10
-10.000000000000014
 20
16.999999913736957
 30
0.0
 11
1.3999999999999915
 21
16.999999913736957
 31
0.0
  0
LINE
  5
21A
100
AcDbEntity
  8
0
  6
CONTINUOUS
 62
               4
100
AcDbLine
 10
27.0
 20
23.999999913736957
 30
0.0
 11
1.3999999999999915
 21
23.999999913736957
 31
0.0
  0
LINE
  5
21B
100
AcDbEntity
  8
0
  6
CONTINUOUS
 62
               4
100
AcDbLine
 10
14.295000000000009
 20
23.999999913736957
 30
0.0
 11
12.795000000000009
 21
23.999999913736957
 31
0.0
  0
LINE
  5
21C
100
AcDbEntity
  8
0
  6
CONTINUOUS
 62
               4
100
AcDbLine
 10
1.4999999999999964
 20
25.599999913736951
 30
0.0
 11
-3.0000000000000142
 21
25.599999913736951
 31
0.0
  0
ARC
  5
21D
100
AcDbEntity
  8
0
  6
CONTINUOUS
 62
               4
100
AcDbCircle
 10
-2.5015404500182825
 20
32.501540363755225
 30
0.0
 40
0.4984619302958243
100
AcDbArc
 50
89.822932465397898
 51
180.17706753460195
  0
LINE
  5
21E
100
AcDbEntity
  8
0
  6
CONTINUOUS
 62
               4
100
AcDbLine
 10
-3.0000000000000142
 20
32.499999913736957
 30
0.0
 11
-3.0000000000000142
 21
25.599999913736951
 31
0.0
  0
LINE
  5
21F
100
AcDbEntity
  8
0
  6
CONTINUOUS
 62
               4
100
AcDbLine
 10
1.4999999999999964
 20
25.599999913736951
 30
0.0
 11
1.4999999999999964
 21
23.999999913736957
 31
0.0
  0
ARC
  5
220
100
AcDbEntity
  8
0
  6
CONTINUOUS
 62
               4
100
AcDbCircle
 10
25.501123948313893
 20
28.179394315853983
 30
0.0
 40
1.4988865337462252
100
AcDbArc
 50
0.2142776266259142
 51
24.039904443234629
  0
ARC
  5
221
100
AcDbEntity
  8
0
  6
CONTINUOUS
 62
               4
100
AcDbCircle
 10
24.675687863874504
 20
32.50267102581455
 30
0.0
 40
0.4973293636201366
100
AcDbArc
 50
24.005903588636794
 51
90.079246697133684
  0
LINE
  5
222
100
AcDbEntity
  8
0
  6
CONTINUOUS
 62
               4
100
AcDbLine
 10
25.129999999999999
 20
32.704999913736941
 30
0.0
 11
26.870000000000008
 21
28.789999913736949
 31
0.0
  0
LINE
  5
223
100
AcDbEntity
  8
0
  6
CONTINUOUS
 62
               4
100
AcDbLine
 10
24.674999999999994
 20
32.999999913736957
 30
0.0
 11
-2.503080900033293
 21
32.999999913736957
 31
0.0
  0
LINE
  5
224
100
AcDbEntity
  8
0
  6
CONTINUOUS
 62
               4
100
AcDbLine
 10
27.000000000000004
 20
28.184999913736931
 30
0.0
 11
27.000000000000004
 21
23.999999913736957
 31
0.0
  0
LINE
  5
225
100
AcDbEntity
  8
0
  6
CONTINUOUS
 62
             200
100
AcDbLine
 10
-20.089214565994553
 20
24.164996126888383
 30
0.0
 11
-21.946103769656474
 21
17.234991332879673
 31
0.0
  0
LINE
  5
226
100
AcDbEntity
  8
0
  6
CONTINUOUS
 62
             200
100
AcDbLine
 10
-19.053935707232995
 20
24.165006172564773
 30
0.0
 11
-20.910828860160109
 21
17.234986639697837
 31
0.0
  0
LINE
  5
227
100
AcDbEntity
  8
0
  6
CONTINUOUS
 62
               4
100
AcDbLine
 10
-20.491119384765625
 20
22.665023717447895
 30
0.0
 11
-24.500015258789063
 21
22.665023717447895
 31
0.0
  0
LINE
  5
228
100
AcDbEntity
  8
0
  6
CONTINUOUS
 62
               4
100
AcDbLine
 10
-20.874298095703125
 20
21.235015782877582
 30
0.0
 11
-24.500015258789063
 21
21.235015782877582
 31
0.0
  0
LINE
  5
229
100
AcDbEntity
  8
0
  6
CONTINUOUS
 62
               4
100
AcDbLine
 10
-21.160995483398438
 20
20.165023717447895
 30
0.0
 11
-24.500015258789063
 21
20.165023717447895
 31
0.0
  0
LINE
  5
22A
100
AcDbEntity
  8
0
  6
CONTINUOUS
 62
               4
100
AcDbLine
 10
-21.544174194335937
 20
18.735015782877582
 30
0.0
 11
-24.500015258789063
 21
18.735015782877582
 31
0.0
  0
LINE
  5
22B
100
AcDbEntity
  8
0
  6
CONTINUOUS
 62
               4
100
AcDbLine
 10
-24.5
 20
22.665008458658832
 30
0.0
 11
-24.5
 21
21.23500052408852
 31
0.0
  0
LINE
  5
22C
100
AcDbEntity
  8
0
  6
CONTINUOUS
 62
               4
100
AcDbLine
 10
-24.5
 20
18.73500052408852
 30
0.0
 11
-24.5
 21
20.165008458658832
 31
0.0
  0
LINE
  5
22D
100
AcDbEntity
  8
0
  6
CONTINUOUS
 62
               4
100
AcDbLine
 10
-29.5
 20
22.350006017252582
 30
0.0
 11
-29.5
 21
21.55000296549477
 31
0.0
  0
LINE
  5
22E
100
AcDbEntity
  8
0
  6
CONTINUOUS
 62
               4
100
AcDbLine
 10
-24.500015258789063
 20
21.55000296549477
 30
0.0
 11
-29.5
 21
21.55000296549477
 31
0.0
  0
LINE
  5
22F
100
AcDbEntity
  8
0
  6
CONTINUOUS
 62
               4
100
AcDbLine
 10
-24.500015258789063
 20
22.350006017252582
 30
0.0
 11
-29.5
 21
22.350006017252582
 31
0.0
  0
LINE
  5
230
100
AcDbEntity
  8
0
  6
CONTINUOUS
 62
               4
100
AcDbLine
 10
-16.5
 20
20.165023717447895
 30
0.0
 11
-20.125717163085938
 21
20.165023717447895
 31
0.0
  0
LINE
  5
231
100
AcDbEntity
  8
0
  6
CONTINUOUS
 62
               4
100
AcDbLine
 10
-16.5
 20
18.735015782877582
 30
0.0
 11
-20.508895874023438
 21
18.735015782877582
 31
0.0
  0
LINE
  5
232
100
AcDbEntity
  8
0
  6
CONTINUOUS
 62
               4
100
AcDbLine
 10
-16.5
 20
21.235015782877582
 30
0.0
 11
-19.839019775390625
 21
21.235015782877582
 31
0.0
  0
LINE
  5
233
100
AcDbEntity
  8
0
  6
CONTINUOUS
 62
               4
100
AcDbLine
 10
-16.5
 20
22.665023717447895
 30
0.0
 11
-19.455841064453125
 21
22.665023717447895
 31
0.0
  0
LINE
  5
234
100
AcDbEntity
  8
0
  6
CONTINUOUS
 62
               4
100
AcDbLine
 10
-24.500015258789063
 20
19.05000296549477
 30
0.0
 11
-29.5
 21
19.05000296549477
 31
0.0
  0
LINE
  5
235
100
AcDbEntity
  8
0
  6
CONTINUOUS
 62
               4
100
AcDbLine
 10
-24.500015258789063
 20
19.850006017252582
 30
0.0
 11
-29.5
 21
19.850006017252582
 31
0.0
  0
LINE
  5
236
100
AcDbEntity
  8
0
  6
CONTINUOUS
 62
               4
100
AcDbLine
 10
-29.5
 20
19.05000296549477
 30
0.0
 11
-29.5
 21
19.850006017252582
 31
0.0
  0
LINE
  5
237
100
AcDbEntity
  8
0
  6
CONTINUOUS
 62
               4
100
AcDbLine
 10
-15.0
 20
27.499999913736957
 30
0.0
 11
-16.5
 21
27.499999913736957
 31
0.0
  0
LINE
  5
238
100
AcDbEntity
  8
0
  6
CONTINUOUS
 62
               4
100
AcDbLine
 10
-15.499999958178705
 20
25.499978352823547
 30
0.0
 11
-16.499994209762917
 21
26.077324672805645
 31
0.0
  0
LINE
  5
239
100
AcDbEntity
  8
0
  6
CONTINUOUS
 62
               4
100
AcDbLine
 10
-10.0
 20
25.499999913736957
 30
0.0
 11
-16.5
 21
25.499999913736957
 31
0.0
  0
LINE
  5
23A
100
AcDbEntity
  8
0
  6
CONTINUOUS
 62
               4
100
AcDbLine
 10
-5.998454579468671
 20
26.500071061293767
 30
0.0
 11
-9.5561426631575159
 21
27.000070384309566
 31
0.0
  0
LINE
  5
23B
100
AcDbEntity
  8
0
  6
CONTINUOUS
 62
               4
100
AcDbLine
 10
-9.55615234375
 20
26.999999913736957
 30
0.0
 11
-15.0
 21
26.999999913736957
 31
0.0
  0
LINE
  5
23C
100
AcDbEntity
  8
0
  6
CONTINUOUS
 62
               4
100
AcDbLine
 10
-15.5
 20
16.499999913736957
 30
0.0
 11
-15.5
 21
16.999999913736957
 31
0.0
  0
LINE
  5
23D
100
AcDbEntity
  8
0
  6
CONTINUOUS
 62
               4
100
AcDbLine
 10
-15.5
 20
16.499999913736957
 30
0.0
 11
-16.5
 21
16.499999913736957
 31
0.0
  0
LINE
  5
23E
100
AcDbEntity
  8
0
  6
CONTINUOUS
 62
               4
100
AcDbLine
 10
-10.0
 20
16.999999913736957
 30
0.0
 11
-15.5
 21
16.999999913736957
 31
0.0
  0
LINE
  5
23F
100
AcDbEntity
  8
0
  6
CONTINUOUS
 62
               4
100
AcDbLine
 10
-15.0
 20
26.999999913736957
 30
0.0
 11
-15.0
 21
27.499999913736957
 31
0.0
  0
LINE
  5
240
100
AcDbEntity
  8
0
  6
CONTINUOUS
 62
               4
100
AcDbLine
 10
-5.9984588623046875
 20
25.499999913736957
 30
0.0
 11
-5.9984588623046875
 21
26.499999913736957
 31
0.0
  0
LINE
  5
241
100
AcDbEntity
  8
0
  6
CONTINUOUS
 62
               4
100
AcDbLine
 10
-16.5
 20
26.07734671549477
 30
0.0
 11
-16.5
 21
27.499999913736957
 31
0.0
  0
LINE
  5
242
100
AcDbEntity
  8
0
  6
CONTINUOUS
 62
               4
100
AcDbLine
 10
-10.0
 20
25.449996861979145
 30
0.0
 11
-10.0
 21
25.499999913736957
 31
0.0
  0
LINE
  5
243
100
AcDbEntity
  8
0
  6
CONTINUOUS
 62
               4
100
AcDbLine
 10
-16.5
 20
16.499999913736957
 30
0.0
 11
-16.5
 21
25.499999913736957
 31
0.0
  0
LINE
  5
244
100
AcDbEntity
  8
0
  6
CONTINUOUS
 62
               7
100
AcDbLine
 10
0.0
 20
0.0000049999999874
 30
0.0
 11
27.0
 21
0.0000049999999874
 31
0.0
  0
ENDBLK
  5
245
100
AcDbEntity
  8
0
100
AcDbBlockEnd
  0
BLOCK
  5
246
100
AcDbEntity
  8
0
100
AcDbBlockBegin
  2
F18T-7
 70
               0
 10
0.0
 20
0.0
 30
0.0
  3
F18T-7
  1

  0
LINE
  5
247
100
AcDbEntity
  8
0
  6
CONTINUOUS
 62
               4
100
AcDbLine
 10
-26.999999999999993
 20
24.0
 30
0.0
 11
-26.999999999999993
 21
0.0
 31
0.0
  0
LINE
  5
248
100
AcDbEntity
  8
0
  6
CONTINUOUS
 62
               4
100
AcDbLine
 10
0.0000000000000142
 20
17.0
 30
0.0
 11
0.0
 21
0.0000050862630303
 31
0.0
  0
LINE
  5
249
100
AcDbEntity
  8
0
  6
CONTINUOUS
 62
               4
100
AcDbLine
 10
-1.3999999999999844
 20
17.0
 30
0.0
 11
-1.3999999999999844
 21
25.499999995708464
 31
0.0
  0
LINE
  5
24A
100
AcDbEntity
  8
0
  6
CONTINUOUS
 62
               4
100
AcDbLine
 10
10.000000000000014
 20
25.5
 30
0.0
 11
10.000000000000014
 21
17.0
 31
0.0
  0
LINE
  5
24B
100
AcDbEntity
  8
0
  6
CONTINUOUS
 62
               4
100
AcDbLine
 10
10.000000000000014
 20
25.5
 30
0.0
 11
-1.3999999999999844
 21
25.5
 31
0.0
  0
LINE
  5
24C
100
AcDbEntity
  8
0
  6
CONTINUOUS
 62
               4
100
AcDbLine
 10
10.000000000000014
 20
17.0
 30
0.0
 11
-1.3999999999999844
 21
17.0
 31
0.0
  0
LINE
  5
24D
100
AcDbEntity
  8
0
  6
CONTINUOUS
 62
               4
100
AcDbLine
 10
-26.999999999999993
 20
24.0
 30
0.0
 11
-1.3999999999999844
 21
24.0
 31
0.0
  0
LINE
  5
24E
100
AcDbEntity
  8
0
  6
CONTINUOUS
 62
               4
100
AcDbLine
 10
-14.295000000000002
 20
24.0
 30
0.0
 11
-12.795000000000002
 21
24.0
 31
0.0
  0
LINE
  5
24F
100
AcDbEntity
  8
0
  6
CONTINUOUS
 62
               4
100
AcDbLine
 10
-1.4999999999999858
 20
25.599999999999994
 30
0.0
 11
3.0000000000000213
 21
25.599999999999994
 31
0.0
  0
ARC
  5
250
100
AcDbEntity
  8
0
  6
CONTINUOUS
 62
               4
100
AcDbCircle
 10
2.5015404500182896
 20
32.501540450018268
 30
0.0
 40
0.4984619302958243
100
AcDbArc
 50
359.82293246539683
 51
90.17706753460169
  0
LINE
  5
251
100
AcDbEntity
  8
0
  6
CONTINUOUS
 62
               4
100
AcDbLine
 10
3.0000000000000213
 20
32.5
 30
0.0
 11
3.0000000000000213
 21
25.599999999999994
 31
0.0
  0
LINE
  5
252
100
AcDbEntity
  8
0
  6
CONTINUOUS
 62
               4
100
AcDbLine
 10
-1.4999999999999858
 20
25.599999999999994
 30
0.0
 11
-1.4999999999999858
 21
24.0
 31
0.0
  0
ARC
  5
253
100
AcDbEntity
  8
0
  6
CONTINUOUS
 62
               4
100
AcDbCircle
 10
-25.501123948313886
 20
28.179394402117026
 30
0.0
 40
1.4988865337462252
100
AcDbArc
 50
155.96009555676497
 51
179.78572237337372
  0
ARC
  5
254
100
AcDbEntity
  8
0
  6
CONTINUOUS
 62
               4
100
AcDbCircle
 10
-24.675687863874497
 20
32.502671112077593
 30
0.0
 40
0.4973293636201366
100
AcDbArc
 50
89.920753302865904
 51
155.99409641136279
  0
LINE
  5
255
100
AcDbEntity
  8
0
  6
CONTINUOUS
 62
               4
100
AcDbLine
 10
-25.129999999999992
 20
32.704999999999984
 30
0.0
 11
-26.870000000000001
 21
28.789999999999992
 31
0.0
  0
LINE
  5
256
100
AcDbEntity
  8
0
  6
CONTINUOUS
 62
               4
100
AcDbLine
 10
-24.674999999999986
 20
33.0
 30
0.0
 11
2.5030809000332965
 21
33.0
 31
0.0
  0
LINE
  5
257
100
AcDbEntity
  8
0
  6
CONTINUOUS
 62
               4
100
AcDbLine
 10
-26.999999999999996
 20
28.184999999999974
 30
0.0
 11
-26.999999999999996
 21
24.0
 31
0.0
  0
LINE
  5
258
100
AcDbEntity
  8
0
  6
CONTINUOUS
 62
             200
100
AcDbLine
 10
20.089214565994567
 20
24.164996213151426
 30
0.0
 11
21.946103769656489
 21
17.234991419142716
 31
0.0
  0
LINE
  5
259
100
AcDbEntity
  8
0
  6
CONTINUOUS
 62
             200
100
AcDbLine
 10
19.053935707233009
 20
24.165006258827816
 30
0.0
 11
20.910828860160123
 21
17.23498672596088
 31
0.0
  0
LINE
  5
25A
100
AcDbEntity
  8
0
  6
CONTINUOUS
 62
               4
100
AcDbLine
 10
20.491119384765639
 20
22.665023803710938
 30
0.0
 11
24.500015258789077
 21
22.665023803710938
 31
0.0
  0
LINE
  5
25B
100
AcDbEntity
  8
0
  6
CONTINUOUS
 62
               4
100
AcDbLine
 10
20.874298095703139
 20
21.235015869140625
 30
0.0
 11
24.500015258789077
 21
21.235015869140625
 31
0.0
  0
LINE
  5
25C
100
AcDbEntity
  8
0
  6
CONTINUOUS
 62
               4
100
AcDbLine
 10
21.160995483398452
 20
20.165023803710937
 30
0.0
 11
24.500015258789077
 21
20.165023803710937
 31
0.0
  0
LINE
  5
25D
100
AcDbEntity
  8
0
  6
CONTINUOUS
 62
               4
100
AcDbLine
 10
21.544174194335952
 20
18.735015869140625
 30
0.0
 11
24.500015258789077
 21
18.735015869140625
 31
0.0
  0
LINE
  5
25E
100
AcDbEntity
  8
0
  6
CONTINUOUS
 62
               4
100
AcDbLine
 10
24.500000000000014
 20
22.665008544921875
 30
0.0
 11
24.500000000000014
 21
21.235000610351563
 31
0.0
  0
LINE
  5
25F
100
AcDbEntity
  8
0
  6
CONTINUOUS
 62
               4
100
AcDbLine
 10
24.500000000000014
 20
18.735000610351563
 30
0.0
 11
24.500000000000014
 21
20.165008544921875
 31
0.0
  0
LINE
  5
260
100
AcDbEntity
  8
0
  6
CONTINUOUS
 62
               4
100
AcDbLine
 10
29.500000000000014
 20
22.350006103515625
 30
0.0
 11
29.500000000000014
 21
21.550003051757813
 31
0.0
  0
LINE
  5
261
100
AcDbEntity
  8
0
  6
CONTINUOUS
 62
               4
100
AcDbLine
 10
24.500015258789077
 20
21.550003051757813
 30
0.0
 11
29.500000000000014
 21
21.550003051757813
 31
0.0
  0
LINE
  5
262
100
AcDbEntity
  8
0
  6
CONTINUOUS
 62
               4
100
AcDbLine
 10
24.500015258789077
 20
22.350006103515625
 30
0.0
 11
29.500000000000014
 21
22.350006103515625
 31
0.0
  0
LINE
  5
263
100
AcDbEntity
  8
0
  6
CONTINUOUS
 62
               4
100
AcDbLine
 10
16.500000000000014
 20
20.165023803710937
 30
0.0
 11
20.125717163085952
 21
20.165023803710937
 31
0.0
  0
LINE
  5
264
100
AcDbEntity
  8
0
  6
CONTINUOUS
 62
               4
100
AcDbLine
 10
16.500000000000014
 20
18.735015869140625
 30
0.0
 11
20.508895874023452
 21
18.735015869140625
 31
0.0
  0
LINE
  5
265
100
AcDbEntity
  8
0
  6
CONTINUOUS
 62
               4
100
AcDbLine
 10
16.500000000000014
 20
21.235015869140625
 30
0.0
 11
19.839019775390639
 21
21.235015869140625
 31
0.0
  0
LINE
  5
266
100
AcDbEntity
  8
0
  6
CONTINUOUS
 62
               4
100
AcDbLine
 10
16.500000000000014
 20
22.665023803710938
 30
0.0
 11
19.455841064453139
 21
22.665023803710938
 31
0.0
  0
LINE
  5
267
100
AcDbEntity
  8
0
  6
CONTINUOUS
 62
               4
100
AcDbLine
 10
24.500015258789077
 20
19.050003051757812
 30
0.0
 11
29.500000000000014
 21
19.050003051757812
 31
0.0
  0
LINE
  5
268
100
AcDbEntity
  8
0
  6
CONTINUOUS
 62
               4
100
AcDbLine
 10
24.500015258789077
 20
19.850006103515625
 30
0.0
 11
29.500000000000014
 21
19.850006103515625
 31
0.0
  0
LINE
  5
269
100
AcDbEntity
  8
0
  6
CONTINUOUS
 62
               4
100
AcDbLine
 10
29.500000000000014
 20
19.050003051757812
 30
0.0
 11
29.500000000000014
 21
19.850006103515625
 31
0.0
  0
LINE
  5
26A
100
AcDbEntity
  8
0
  6
CONTINUOUS
 62
               4
100
AcDbLine
 10
15.000000000000014
 20
27.5
 30
0.0
 11
16.500000000000014
 21
27.5
 31
0.0
  0
LINE
  5
26B
100
AcDbEntity
  8
0
  6
CONTINUOUS
 62
               4
100
AcDbLine
 10
15.499999958178719
 20
25.49997843908659
 30
0.0
 11
16.499994209762932
 21
26.077324759068688
 31
0.0
  0
LINE
  5
26C
100
AcDbEntity
  8
0
  6
CONTINUOUS
 62
               4
100
AcDbLine
 10
10.000000000000007
 20
25.5
 30
0.0
 11
16.500000000000014
 21
25.5
 31
0.0
  0
LINE
  5
26D
100
AcDbEntity
  8
0
  6
CONTINUOUS
 62
               4
100
AcDbLine
 10
5.9984545794686781
 20
26.50007114755681
 30
0.0
 11
9.556142663157523
 21
27.000070470572609
 31
0.0
  0
LINE
  5
26E
100
AcDbEntity
  8
0
  6
CONTINUOUS
 62
               4
100
AcDbLine
 10
9.5561523437500071
 20
27.0
 30
0.0
 11
15.000000000000014
 21
27.0
 31
0.0
  0
LINE
  5
26F
100
AcDbEntity
  8
0
  6
CONTINUOUS
 62
               4
100
AcDbLine
 10
15.500000000000014
 20
16.5
 30
0.0
 11
15.500000000000014
 21
17.0
 31
0.0
  0
LINE
  5
270
100
AcDbEntity
  8
0
  6
CONTINUOUS
 62
               4
100
AcDbLine
 10
15.500000000000014
 20
16.5
 30
0.0
 11
16.500000000000014
 21
16.5
 31
0.0
  0
LINE
  5
271
100
AcDbEntity
  8
0
  6
CONTINUOUS
 62
               4
100
AcDbLine
 10
10.000000000000007
 20
17.0
 30
0.0
 11
15.500000000000014
 21
17.0
 31
0.0
  0
LINE
  5
272
100
AcDbEntity
  8
0
  6
CONTINUOUS
 62
               4
100
AcDbLine
 10
15.000000000000014
 20
27.0
 30
0.0
 11
15.000000000000014
 21
27.5
 31
0.0
  0
LINE
  5
273
100
AcDbEntity
  8
0
  6
CONTINUOUS
 62
               4
100
AcDbLine
 10
5.9984588623046946
 20
25.5
 30
0.0
 11
5.9984588623046946
 21
26.5
 31
0.0
  0
LINE
  5
274
100
AcDbEntity
  8
0
  6
CONTINUOUS
 62
               4
100
AcDbLine
 10
16.500000000000014
 20
26.077346801757813
 30
0.0
 11
16.500000000000014
 21
27.5
 31
0.0
  0
LINE
  5
275
100
AcDbEntity
  8
0
  6
CONTINUOUS
 62
               4
100
AcDbLine
 10
10.000000000000007
 20
25.449996948242187
 30
0.0
 11
10.000000000000007
 21
25.5
 31
0.0
  0
LINE
  5
276
100
AcDbEntity
  8
0
  6
CONTINUOUS
 62
               4
100
AcDbLine
 10
16.500000000000014
 20
16.5
 30
0.0
 11
16.500000000000014
 21
25.5
 31
0.0
  0
LINE
  5
277
100
AcDbEntity
  8
0
  6
CONTINUOUS
 62
               7
100
AcDbLine
 10
-26.999999999999986
 20
0.0
 30
0.0
 11
0.0000000000000142
 21
0.0
 31
0.0
  0
ENDBLK
  5
278
100
AcDbEntity
  8
0
100
AcDbBlockEnd
  0
BLOCK
  5
279
100
AcDbEntity
  8
0
100
AcDbBlockBegin
  2
F18T-8
 70
               0
 10
0.0
 20
0.0
 30
0.0
  3
F18T-8
  1

  0
LINE
  5
27A
100
AcDbEntity
  8
0
  6
CONTINUOUS
 62
               2
100
AcDbLine
 10
-3.9999847412109375
 20
-0.0000569605341525
 30
0.0
 11
4.0000152587890625
 21
-0.0000569605341525
 31
0.0
  0
LINE
  5
27B
100
AcDbEntity
  8
0
  6
CONTINUOUS
 62
               2
100
AcDbLine
 10
-3.9999847412109375
 20
-60.000056960534152
 30
0.0
 11
4.0000152587890625
 21
-60.000056960534152
 31
0.0
  0
LINE
  5
27C
100
AcDbEntity
  8
0
  6
CONTINUOUS
 62
               7
100
AcDbLine
 10
62.500015258789063
 20
-3.500072219323215
 30
0.0
 11
30.500015258789063
 21
-3.500072219323215
 31
0.0
  0
LINE
  5
27D
100
AcDbEntity
  8
0
  6
CONTINUOUS
 62
               7
100
AcDbLine
 10
30.500015258789063
 20
-79.000056960534152
 30
0.0
 11
30.500015258789063
 21
6.499927780676785
 31
0.0
  0
LINE
  5
27E
100
AcDbEntity
  8
0
  6
CONTINUOUS
 62
               7
100
AcDbLine
 10
62.500015258789063
 20
-59.500056960534152
 30
0.0
 11
62.500015258789063
 21
6.4999430394658475
 31
0.0
  0
LINE
  5
27F
100
AcDbEntity
  8
0
  6
CONTINUOUS
 62
               7
100
AcDbLine
 10
64.500015258789063
 20
-56.500056960534152
 30
0.0
 11
30.500015258789063
 21
-56.500056960534152
 31
0.0
  0
LINE
  5
280
100
AcDbEntity
  8
0
  6
CONTINUOUS
 62
               7
100
AcDbLine
 10
64.500015258789063
 20
-68.500056960534152
 30
0.0
 11
30.500015258789063
 21
-68.500056960534152
 31
0.0
  0
LINE
  5
281
100
AcDbEntity
  8
0
  6
CONTINUOUS
 62
               7
100
AcDbLine
 10
64.500015258789063
 20
-79.000056960534152
 30
0.0
 11
64.500015258789063
 21
-67.500056960534152
 31
0.0
  0
LINE
  5
282
100
AcDbEntity
  8
0
  6
CONTINUOUS
 62
               7
100
AcDbLine
 10
67.500015258789063
 20
-54.300060012291965
 30
0.0
 11
67.500015258789063
 21
-5.7000691675654025
 31
0.0
  0
LINE
  5
283
100
AcDbEntity
  8
0
  6
CONTINUOUS
 62
               7
100
AcDbLine
 10
65.500015258789063
 20
-56.300044753502902
 30
0.0
 11
62.500015258789063
 21
-56.300044753502902
 31
0.0
  0
LINE
  5
284
100
AcDbEntity
  8
0
  6
CONTINUOUS
 62
               7
100
AcDbLine
 10
65.500015258789063
 20
-3.7000691675654025
 30
0.0
 11
62.500015258789063
 21
-3.7000691675654025
 31
0.0
  0
LINE
  5
285
100
AcDbEntity
  8
0
  6
CONTINUOUS
 62
               7
100
AcDbLine
 10
67.50001880612399
 20
-5.700065031762847
 30
0.0
 11
65.500033373071346
 21
-3.700067629056889
 31
0.0
  0
LINE
  5
286
100
AcDbEntity
  8
0
  6
CONTINUOUS
 62
               7
100
AcDbLine
 10
67.500021183338731
 20
-54.300041165678067
 30
0.0
 11
65.500015182645484
 21
-56.300039411342823
 31
0.0
  0
LINE
  5
287
100
AcDbEntity
  8
0
  6
CONTINUOUS
 62
               7
100
AcDbLine
 10
64.000015258789063
 20
-79.500056960534152
 30
0.0
 11
31.000015258789063
 21
-79.500056960534152
 31
0.0
  0
LINE
  5
288
100
AcDbEntity
  8
0
  6
CONTINUOUS
 62
               2
100
AcDbLine
 10
62.000015258789063
 20
16.699939987708035
 30
0.0
 11
59.300018310546875
 21
16.699939987708035
 31
0.0
  0
LINE
  5
289
100
AcDbEntity
  8
0
  6
CONTINUOUS
 62
               7
100
AcDbLine
 10
61.000015258789063
 20
14.749943039465848
 30
0.0
 11
61.000015258789063
 21
16.399936935950223
 31
0.0
  0
LINE
  5
28A
100
AcDbEntity
  8
0
  6
CONTINUOUS
 62
               7
100
AcDbLine
 10
61.000015258789063
 20
14.749943039465848
 30
0.0
 11
60.000015258789063
 21
14.749943039465848
 31
0.0
  0
LINE
  5
28B
100
AcDbEntity
  8
0
  6
CONTINUOUS
 62
               7
100
AcDbLine
 10
61.000015258789063
 20
18.649936935950223
 30
0.0
 11
60.000015258789063
 21
18.649936935950223
 31
0.0
  0
LINE
  5
28C
100
AcDbEntity
  8
0
  6
CONTINUOUS
 62
               7
100
AcDbLine
 10
60.400009155273438
 20
16.399936935950223
 30
0.0
 11
60.400009155273438
 21
16.999927780676785
 31
0.0
  0
LINE
  5
28D
100
AcDbEntity
  8
0
  6
CONTINUOUS
 62
               7
100
AcDbLine
 10
61.000015258789063
 20
16.399936935950223
 30
0.0
 11
60.400009155273438
 21
16.399936935950223
 31
0.0
  0
LINE
  5
28E
100
AcDbEntity
  8
0
  6
CONTINUOUS
 62
               7
100
AcDbLine
 10
61.000015258789063
 20
16.999943039465848
 30
0.0
 11
60.400009155273438
 21
16.999943039465848
 31
0.0
  0
LINE
  5
28F
100
AcDbEntity
  8
0
  6
CONTINUOUS
 62
               7
100
AcDbLine
 10
61.000015258789063
 20
16.999927780676785
 30
0.0
 11
61.000015258789063
 21
18.649936935950223
 31
0.0
  0
LINE
  5
290
100
AcDbEntity
  8
0
  6
CONTINUOUS
 62
               7
100
AcDbLine
 10
60.000015258789063
 20
8.9999430394658475
 30
0.0
 11
60.000015258789063
 21
19.999927780676785
 31
0.0
  0
LINE
  5
291
100
AcDbEntity
  8
0
  6
CONTINUOUS
 62
               7
100
AcDbLine
 10
33.000015258789063
 20
8.9999430394658475
 30
0.0
 11
33.000015258789063
 21
19.999927780676785
 31
0.0
  0
LINE
  5
292
100
AcDbEntity
  8
0
  6
CONTINUOUS
 62
               7
100
AcDbLine
 10
64.500015258789063
 20
-65.600047805260715
 30
0.0
 11
64.500015258789063
 21
-59.400050857018527
 31
0.0
  0
LINE
  5
293
100
AcDbEntity
  8
0
  6
CONTINUOUS
 62
               7
100
AcDbLine
 10
66.500015258789063
 20
-66.500056960534152
 30
0.0
 11
66.500015258789063
 21
-58.500056960534152
 31
0.0
  0
LINE
  5
294
100
AcDbEntity
  8
0
  6
CONTINUOUS
 62
               7
100
AcDbLine
 10
65.499984491331816
 20
-57.500085470552335
 30
0.0
 11
66.499991453489827
 21
-58.500088639474853
 31
0.0
  0
LINE
  5
295
100
AcDbEntity
  8
0
  6
CONTINUOUS
 62
               7
100
AcDbLine
 10
65.500069205896807
 20
-67.500100554831079
 30
0.0
 11
66.500051891534213
 21
-66.500102612182673
 31
0.0
  0
LINE
  5
296
100
AcDbEntity
  8
0
  6
CONTINUOUS
 62
               7
100
AcDbLine
 10
65.300018310546875
 20
-65.600047805260715
 30
0.0
 11
65.300018310546875
 21
-59.400050857018527
 31
0.0
  0
LINE
  5
297
100
AcDbEntity
  8
0
  6
CONTINUOUS
 62
               7
100
AcDbLine
 10
65.500015258789063
 20
-67.500056960534152
 30
0.0
 11
65.500015258789063
 21
-57.500056960534152
 31
0.0
  0
LINE
  5
298
100
AcDbEntity
  8
0
  6
CONTINUOUS
 62
               7
100
AcDbLine
 10
64.500015258789063
 20
-65.500056960534152
 30
0.0
 11
62.500015258789063
 21
-65.500056960534152
 31
0.0
  0
LINE
  5
299
100
AcDbEntity
  8
0
  6
CONTINUOUS
 62
               7
100
AcDbLine
 10
64.500015258789063
 20
-59.500056960534152
 30
0.0
 11
62.500015258789063
 21
-59.500056960534152
 31
0.0
  0
LINE
  5
29A
100
AcDbEntity
  8
0
  6
CONTINUOUS
 62
               7
100
AcDbLine
 10
63.500015258789063
 20
-68.500056960534152
 30
0.0
 11
63.500015258789063
 21
-67.500056960534152
 31
0.0
  0
LINE
  5
29B
100
AcDbEntity
  8
0
  6
CONTINUOUS
 62
               7
100
AcDbLine
 10
62.500015258789063
 20
-68.500056960534152
 30
0.0
 11
62.500015258789063
 21
-65.500056960534152
 31
0.0
  0
LINE
  5
29C
100
AcDbEntity
  8
0
  6
CONTINUOUS
 62
               7
100
AcDbLine
 10
63.500015258789063
 20
-59.500056960534152
 30
0.0
 11
63.500015258789063
 21
-59.400050857018527
 31
0.0
  0
LINE
  5
29D
100
AcDbEntity
  8
0
  6
CONTINUOUS
 62
               7
100
AcDbLine
 10
62.600021362304688
 20
-67.500056960534152
 30
0.0
 11
62.600021362304688
 21
-65.600047805260715
 31
0.0
  0
LINE
  5
29E
100
AcDbEntity
  8
0
  6
CONTINUOUS
 62
               7
100
AcDbLine
 10
65.300018310546875
 20
-59.400050857018527
 30
0.0
 11
62.600021362304688
 21
-59.400050857018527
 31
0.0
  0
LINE
  5
29F
100
AcDbEntity
  8
0
  6
CONTINUOUS
 62
               7
100
AcDbLine
 10
65.300018310546875
 20
-65.600047805260715
 30
0.0
 11
62.600021362304688
 21
-65.600047805260715
 31
0.0
  0
LINE
  5
2A0
100
AcDbEntity
  8
0
  6
CONTINUOUS
 62
               7
100
AcDbLine
 10
62.600021362304688
 20
-59.400050857018527
 30
0.0
 11
62.600021362304688
 21
-57.500056960534152
 31
0.0
  0
LINE
  5
2A1
100
AcDbEntity
  8
0
  6
CONTINUOUS
 62
               7
100
AcDbLine
 10
65.500015258789063
 20
-67.500056960534152
 30
0.0
 11
62.600021362304688
 21
-67.500056960534152
 31
0.0
  0
LINE
  5
2A2
100
AcDbEntity
  8
0
  6
CONTINUOUS
 62
               7
100
AcDbLine
 10
65.500015258789063
 20
-57.500056960534152
 30
0.0
 11
62.600021362304688
 21
-57.500056960534152
 31
0.0
  0
LINE
  5
2A3
100
AcDbEntity
  8
0
  6
CONTINUOUS
 62
               7
100
AcDbLine
 10
64.500015258789063
 20
-57.500056960534152
 30
0.0
 11
64.500015258789063
 21
-56.500056960534152
 31
0.0
  0
LINE
  5
2A4
100
AcDbEntity
  8
0
  6
CONTINUOUS
 62
               7
100
AcDbLine
 10
63.500015258789063
 20
-65.600047805260715
 30
0.0
 11
63.500015258789063
 21
-65.500056960534152
 31
0.0
  0
LINE
  5
2A5
100
AcDbEntity
  8
0
  6
CONTINUOUS
 62
               7
100
AcDbLine
 10
63.500015258789063
 20
-57.500056960534152
 30
0.0
 11
63.500015258789063
 21
-56.500056960534152
 31
0.0
  0
LINE
  5
2A6
100
AcDbEntity
  8
0
  6
CONTINUOUS
 62
               7
100
AcDbLine
 10
67.500015258789063
 20
-11.000072219323215
 30
0.0
 11
65.500015258789063
 21
-11.000072219323215
 31
0.0
  0
LINE
  5
2A7
100
AcDbEntity
  8
0
  6
CONTINUOUS
 62
               7
100
AcDbLine
 10
67.500015258789063
 20
-47.000064589928684
 30
0.0
 11
62.500015258789063
 21
-47.000064589928684
 31
0.0
  0
LINE
  5
2A8
100
AcDbEntity
  8
0
  6
CONTINUOUS
 62
               7
100
AcDbLine
 10
67.500015258789063
 20
-53.000056960534152
 30
0.0
 11
62.500015258789063
 21
-53.000056960534152
 31
0.0
  0
LINE
  5
2A9
100
AcDbEntity
  8
0
  6
CONTINUOUS
 62
               7
100
AcDbLine
 10
30.000015258789063
 20
5.999927780676785
 30
0.0
 11
0.0
 21
5.999927780676785
 31
0.0
  0
LINE
  5
2AA
100
AcDbEntity
  8
0
  6
CONTINUOUS
 62
               7
100
AcDbLine
 10
30.000015258789063
 20
-66.000056960534152
 30
0.0
 11
0.0000152587890625
 21
-66.000056960534152
 31
0.0
  0
LINE
  5
2AB
100
AcDbEntity
  8
0
  6
CONTINUOUS
 62
               7
100
AcDbLine
 10
30.000015258789063
 20
-66.000056960534152
 30
0.0
 11
30.000015258789063
 21
5.999927780676785
 31
0.0
  0
LINE
  5
2AC
100
AcDbEntity
  8
0
  6
CONTINUOUS
 62
               7
100
AcDbLine
 10
62.500015258789063
 20
6.4999430394658475
 30
0.0
 11
30.500015258789063
 21
6.4999430394658475
 31
0.0
  0
LINE
  5
2AD
100
AcDbEntity
  8
0
  6
CONTINUOUS
 62
               2
100
AcDbLine
 10
17.578506469726563
 20
-42.500060775231418
 30
0.0
 11
2.4215087890625
 21
-42.500060775231418
 31
0.0
  0
LINE
  5
2AE
100
AcDbEntity
  8
0
  6
CONTINUOUS
 62
               7
100
AcDbLine
 10
0.0
 20
-66.000072219323215
 30
0.0
 11
0.0
 21
5.999927780676785
 31
0.0
  0
LINE
  5
2AF
100
AcDbEntity
  8
0
  6
CONTINUOUS
 62
               2
100
AcDbLine
 10
17.578506469726563
 20
-22.500056960534152
 30
0.0
 11
2.4215087890625
 21
-22.500056960534152
 31
0.0
  0
LINE
  5
2B0
100
AcDbEntity
  8
0
  6
CONTINUOUS
 62
               2
100
AcDbLine
 10
10.000015258789062
 20
-50.078563430260715
 30
0.0
 11
10.000015258789062
 21
-14.921565749596652
 31
0.0
  0
LINE
  5
2B1
100
AcDbEntity
  8
0
  6
CONTINUOUS
 62
               7
100
AcDbLine
 10
62.700027465820313
 20
-79.500056960534152
 30
0.0
 11
62.700027465820313
 21
-77.000056960534152
 31
0.0
  0
LINE
  5
2B2
100
AcDbEntity
  8
0
  6
CONTINUOUS
 62
               7
100
AcDbLine
 10
56.300018310546875
 20
-79.500056960534152
 30
0.0
 11
56.300018310546875
 21
-77.000056960534152
 31
0.0
  0
LINE
  5
2B3
100
AcDbEntity
  8
0
  6
CONTINUOUS
 62
               7
100
AcDbLine
 10
62.700027465820313
 20
-77.000056960534152
 30
0.0
 11
56.300018310546875
 21
-77.000056960534152
 31
0.0
  0
LINE
  5
2B4
100
AcDbEntity
  8
0
  6
CONTINUOUS
 62
               7
100
AcDbLine
 10
60.750015258789062
 20
-79.000056960534152
 30
0.0
 11
58.250015258789063
 21
-79.000056960534152
 31
0.0
  0
LINE
  5
2B5
100
AcDbEntity
  8
0
  6
CONTINUOUS
 62
               7
100
AcDbLine
 10
62.250015258789063
 20
-77.500056960534152
 30
0.0
 11
62.250015258789063
 21
-77.000056960534152
 31
0.0
  0
LINE
  5
2B6
100
AcDbEntity
  8
0
  6
CONTINUOUS
 62
               7
100
AcDbLine
 10
56.750015258789062
 20
-77.500056960534152
 30
0.0
 11
56.750015258789062
 21
-77.000056960534152
 31
0.0
  0
LINE
  5
2B7
100
AcDbEntity
  8
0
  6
CONTINUOUS
 62
               7
100
AcDbLine
 10
65.500015258789063
 20
-11.000072219323215
 30
0.0
 11
65.500015258789063
 21
-3.7000691675654025
 31
0.0
  0
LINE
  5
2B8
100
AcDbEntity
  8
0
  6
CONTINUOUS
 62
               7
100
AcDbLine
 10
66.000015258789063
 20
-10.750087478112277
 30
0.0
 11
65.500015258789063
 21
-10.750087478112277
 31
0.0
  0
LINE
  5
2B9
100
AcDbEntity
  8
0
  6
CONTINUOUS
 62
               7
100
AcDbLine
 10
66.000015258789063
 20
-5.2500874781122775
 30
0.0
 11
65.500015258789063
 21
-5.2500874781122775
 31
0.0
  0
LINE
  5
2BA
100
AcDbEntity
  8
0
  6
CONTINUOUS
 62
               7
100
AcDbLine
 10
34.000015258789063
 20
10.499927780676785
 30
0.0
 11
33.000015258789063
 21
10.499927780676785
 31
0.0
  0
LINE
  5
2BB
100
AcDbEntity
  8
0
  6
CONTINUOUS
 62
               7
100
AcDbLine
 10
34.000015258789063
 20
8.9999430394658475
 30
0.0
 11
34.000015258789063
 21
10.499927780676785
 31
0.0
  0
LINE
  5
2BC
100
AcDbEntity
  8
0
  6
CONTINUOUS
 62
               7
100
AcDbLine
 10
55.700027465820312
 20
10.499927780676785
 30
0.0
 11
36.500015258789063
 21
10.499927780676785
 31
0.0
  0
LINE
  5
2BD
100
AcDbEntity
  8
0
  6
CONTINUOUS
 62
               7
100
AcDbLine
 10
36.500015258789063
 20
8.9999430394658475
 30
0.0
 11
36.500015258789063
 21
10.499927780676785
 31
0.0
  0
LINE
  5
2BE
100
AcDbEntity
  8
0
  6
CONTINUOUS
 62
               7
100
AcDbLine
 10
55.700027465820312
 20
8.9999430394658475
 30
0.0
 11
55.700027465820312
 21
10.499927780676785
 31
0.0
  0
LINE
  5
2BF
100
AcDbEntity
  8
0
  6
CONTINUOUS
 62
               7
100
AcDbLine
 10
58.700027465820313
 20
8.9999430394658475
 30
0.0
 11
58.700027465820313
 21
10.499927780676785
 31
0.0
  0
LINE
  5
2C0
100
AcDbEntity
  8
0
  6
CONTINUOUS
 62
               7
100
AcDbLine
 10
60.000015258789063
 20
10.499927780676785
 30
0.0
 11
58.700027465820313
 21
10.499927780676785
 31
0.0
  0
ARC
  5
2C1
100
AcDbEntity
  8
0
  6
CONTINUOUS
 62
               7
100
AcDbCircle
 10
31.000015258789063
 20
-79.000056960534152
 30
0.0
 40
0.5
100
AcDbArc
 50
180.0000359721783
 51
270.00007262760209
  0
ARC
  5
2C2
100
AcDbEntity
  8
0
  6
CONTINUOUS
 62
               7
100
AcDbCircle
 10
64.000015258789063
 20
-79.000056960534152
 30
0.0
 40
0.5
100
AcDbArc
 50
270.00007262760209
 51
0.0000409811350201
  0
CIRCLE
  5
2C3
100
AcDbEntity
  8
0
  6
CONTINUOUS
 62
               2
100
AcDbCircle
 10
10.000015258789062
 20
-42.500064589928684
 30
0.0
 40
6.5784997940063477
  0
CIRCLE
  5
2C4
100
AcDbEntity
  8
0
  6
CONTINUOUS
 62
               7
100
AcDbCircle
 10
10.000015258789062
 20
-42.500064589928684
 30
0.0
 40
5.7224998474121094
  0
CIRCLE
  5
2C5
100
AcDbEntity
  8
0
  6
CONTINUOUS
 62
               7
100
AcDbCircle
 10
10.000015258789062
 20
-22.500056960534152
 30
0.0
 40
5.7224998474121094
  0
CIRCLE
  5
2C6
100
AcDbEntity
  8
0
  6
CONTINUOUS
 62
               2
100
AcDbCircle
 10
10.000015258789062
 20
-22.500056960534152
 30
0.0
 40
6.5784997940063477
  0
ARC
  5
2C7
100
AcDbEntity
  8
0
  6
CONTINUOUS
 62
               7
100
AcDbCircle
 10
33.499984741210938
 20
9.5000040746220975
 30
0.0
 40
2.5000734329223633
100
AcDbArc
 50
220.54026862095205
 51
348.46195609548801
  0
ARC
  5
2C8
100
AcDbEntity
  8
0
  6
CONTINUOUS
 62
               7
100
AcDbCircle
 10
58.250015258789063
 20
-77.500056960534152
 30
0.0
 40
1.5
100
AcDbArc
 50
179.99998133066492
 51
270.00001798608872
  0
ARC
  5
2C9
100
AcDbEntity
  8
0
  6
CONTINUOUS
 62
               7
100
AcDbCircle
 10
60.750015258789062
 20
-77.500056960534152
 30
0.0
 40
1.5
100
AcDbArc
 50
270.00001798608872
 51
0.0
  0
ARC
  5
2CA
100
AcDbEntity
  8
0
  6
CONTINUOUS
 62
               7
100
AcDbCircle
 10
66.000015258789063
 20
-6.7500874781122775
 30
0.0
 40
1.5
100
AcDbArc
 50
0.0
 51
89.999982013910454
  0
ARC
  5
2CB
100
AcDbEntity
  8
0
  6
CONTINUOUS
 62
               7
100
AcDbCircle
 10
66.000015258789063
 20
-9.2500874781122775
 30
0.0
 40
1.5
100
AcDbArc
 50
270.00001798608872
 51
0.0
  0
LINE
  5
2CC
100
AcDbEntity
  8
0
  6
CONTINUOUS
 62
               7
100
AcDbLine
 10
65.199996948242188
 20
-48.750060775231418
 30
0.0
 11
65.199996948242188
 21
-51.250056960534152
 31
0.0
  0
LINE
  5
2CD
100
AcDbEntity
  8
0
  6
CONTINUOUS
 62
               7
100
AcDbLine
 10
63.70001220703125
 20
-47.250060775231418
 30
0.0
 11
63.20001220703125
 21
-47.250060775231418
 31
0.0
  0
LINE
  5
2CE
100
AcDbEntity
  8
0
  6
CONTINUOUS
 62
               7
100
AcDbLine
 10
63.70001220703125
 20
-52.75004170174509
 30
0.0
 11
63.20001220703125
 21
-52.75004170174509
 31
0.0
  0
ARC
  5
2CF
100
AcDbEntity
  8
0
  6
CONTINUOUS
 62
               7
100
AcDbCircle
 10
63.699996948242188
 20
-51.250056960534152
 30
0.0
 40
1.5
100
AcDbArc
 50
269.99990870306209
 51
359.99994604173207
  0
ARC
  5
2D0
100
AcDbEntity
  8
0
  6
CONTINUOUS
 62
               7
100
AcDbCircle
 10
63.699996948242188
 20
-48.750076034020481
 30
0.0
 40
1.5
100
AcDbArc
 50
0.0000179860890374
 51
89.999982013910454
  0
LINE
  5
2D1
100
AcDbEntity
  8
0
  6
CONTINUOUS
 62
               7
100
AcDbLine
 10
63.20001220703125
 20
-52.95005390877634
 30
0.0
 11
63.20001220703125
 21
-47.050063826989231
 31
0.0
  0
LINE
  5
2D2
100
AcDbEntity
  8
0
  6
CONTINUOUS
 62
               7
100
AcDbLine
 10
62.500027118471166
 20
-49.650070509991991
 30
0.0
 11
63.200034451072838
 21
-49.462504108953425
 31
0.0
  0
LINE
  5
2D3
100
AcDbEntity
  8
0
  6
CONTINUOUS
 62
               7
100
AcDbLine
 10
63.200013820174092
 20
-50.350063487690619
 30
0.0
 11
62.500021183236015
 21
-50.537625896269361
 31
0.0
  0
LINE
  5
2D4
100
AcDbEntity
  8
0
  6
CONTINUOUS
 62
               7
100
AcDbLine
 10
63.20001220703125
 20
-52.95005390877634
 30
0.0
 11
62.500015258789063
 21
-52.95005390877634
 31
0.0
  0
LINE
  5
2D5
100
AcDbEntity
  8
0
  6
CONTINUOUS
 62
               7
100
AcDbLine
 10
63.20001220703125
 20
-47.050063826989231
 30
0.0
 11
62.500015258789063
 21
-47.050063826989231
 31
0.0
  0
LINE
  5
2D6
100
AcDbEntity
  8
0
  6
CONTINUOUS
 62
               7
100
AcDbLine
 10
60.500015258789063
 20
8.9999430394658475
 30
0.0
 11
32.500015258789063
 21
8.9999430394658475
 31
0.0
  0
LINE
  5
2D7
100
AcDbEntity
  8
0
  6
CONTINUOUS
 62
               7
100
AcDbLine
 10
30.500010217552472
 20
6.4999473360078923
 30
0.0
 11
32.500010146573914
 21
8.9999472472846946
 31
0.0
  0
LINE
  5
2D8
100
AcDbEntity
  8
0
  6
CONTINUOUS
 62
               7
100
AcDbLine
 10
62.500012060673726
 20
6.4999379528566124
 30
0.0
 11
60.500007961362826
 21
8.9999430769952369
 31
0.0
  0
LINE
  5
2D9
100
AcDbEntity
  8
0
  6
CONTINUOUS
 62
               4
100
AcDbLine
 10
44.100015258789085
 20
52.999927780676785
 30
0.0
 11
57.675015258789017
 21
52.999927780676785
 31
0.0
  0
LINE
  5
2DA
100
AcDbEntity
  8
0
  6
CONTINUOUS
 62
               4
100
AcDbLine
 10
33.000015258789063
 20
52.499927780676785
 30
0.0
 11
33.000015258789063
 21
43.999927780676785
 31
0.0
  0
LINE
  5
2DB
100
AcDbEntity
  8
0
  6
CONTINUOUS
 62
               4
100
AcDbLine
 10
53.000015258789063
 20
46.399927780676791
 30
0.0
 11
53.000015258789063
 21
45.449927780676802
 31
0.0
  0
LINE
  5
2DC
100
AcDbEntity
  8
0
  6
CONTINUOUS
 62
               4
100
AcDbLine
 10
40.100015258789085
 20
46.399927780676791
 30
0.0
 11
40.100015258789085
 21
45.449927780676802
 31
0.0
  0
LINE
  5
2DD
100
AcDbEntity
  8
0
  6
CONTINUOUS
 62
               4
100
AcDbLine
 10
55.100015258789085
 20
46.399927780676791
 30
0.0
 11
53.000015258789063
 21
46.399927780676791
 31
0.0
  0
LINE
  5
2DE
100
AcDbEntity
  8
0
  6
CONTINUOUS
 62
               4
100
AcDbLine
 10
40.100015258789085
 20
46.399927780676791
 30
0.0
 11
38.000015258789062
 21
46.399927780676791
 31
0.0
  0
LINE
  5
2DF
100
AcDbEntity
  8
0
  6
CONTINUOUS
 62
               4
100
AcDbLine
 10
60.000015258789063
 20
48.179927780676792
 30
0.0
 11
60.000015258789063
 21
43.999927780676785
 31
0.0
  0
LINE
  5
2E0
100
AcDbEntity
  8
0
  6
CONTINUOUS
 62
               4
100
AcDbLine
 10
58.130015258789058
 20
52.704927780676798
 30
0.0
 11
59.870015258789067
 21
48.789927780676777
 31
0.0
  0
ARC
  5
2E1
100
AcDbEntity
  8
0
  6
CONTINUOUS
 62
               4
100
AcDbCircle
 10
57.67403609735311
 20
52.50002771812305
 30
0.0
 40
0.4999010215015999
100
AcDbArc
 50
24.197376208904771
 51
89.887774076864815
  0
ARC
  5
2E2
100
AcDbEntity
  8
0
  6
CONTINUOUS
 62
               4
100
AcDbCircle
 10
58.502035654149608
 20
48.179538684606086
 30
0.0
 40
1.4979796551727449
100
AcDbArc
 50
0.0148824203654679
 51
24.046309772710686
  0
LINE
  5
2E3
100
AcDbEntity
  8
0
  6
CONTINUOUS
 62
               4
100
AcDbLine
 10
55.100015258789085
 20
46.399927780676791
 30
0.0
 11
55.100015258789085
 21
45.449927780676802
 31
0.0
  0
LINE
  5
2E4
100
AcDbEntity
  8
0
  6
CONTINUOUS
 62
               4
100
AcDbLine
 10
38.000015258789062
 20
46.399927780676791
 30
0.0
 11
38.000015258789062
 21
45.449927780676802
 31
0.0
  0
LINE
  5
2E5
100
AcDbEntity
  8
0
  6
CONTINUOUS
 62
               4
100
AcDbLine
 10
40.100015258789085
 20
45.449927780676802
 30
0.0
 11
38.000015258789062
 21
45.449927780676802
 31
0.0
  0
LINE
  5
2E6
100
AcDbEntity
  8
0
  6
CONTINUOUS
 62
               4
100
AcDbLine
 10
55.100015258789085
 20
45.449927780676802
 30
0.0
 11
53.000015258789063
 21
45.449927780676802
 31
0.0
  0
LINE
  5
2E7
100
AcDbEntity
  8
0
  6
CONTINUOUS
 62
               4
100
AcDbLine
 10
35.500015258789063
 20
57.499927780676785
 30
0.0
 11
35.500015258789063
 21
52.999927780676785
 31
0.0
  0
LINE
  5
2E8
100
AcDbEntity
  8
0
  6
CONTINUOUS
 62
               4
100
AcDbLine
 10
35.500015258789063
 20
52.999927780676785
 30
0.0
 11
33.500015258789063
 21
52.999927780676785
 31
0.0
  0
ARC
  5
2E9
100
AcDbEntity
  8
0
  6
CONTINUOUS
 62
               4
100
AcDbCircle
 10
33.500015258789063
 20
52.499927780676785
 30
0.0
 40
0.5
100
AcDbArc
 50
89.999999999999815
 51
179.99999999999963
  0
LINE
  5
2EA
100
AcDbEntity
  8
0
  6
CONTINUOUS
 62
               4
100
AcDbLine
 10
47.750015258789063
 20
44.499927780676785
 30
0.0
 11
47.750015258789063
 21
43.999927780676785
 31
0.0
  0
LINE
  5
2EB
100
AcDbEntity
  8
0
  6
CONTINUOUS
 62
               4
100
AcDbLine
 10
45.250015258789063
 20
44.499927780676785
 30
0.0
 11
45.250015258789063
 21
43.999927780676785
 31
0.0
  0
LINE
  5
2EC
100
AcDbEntity
  8
0
  6
CONTINUOUS
 62
               4
100
AcDbLine
 10
45.250015258789063
 20
44.499927780676785
 30
0.0
 11
47.750015258789063
 21
44.499927780676785
 31
0.0
  0
LINE
  5
2ED
100
AcDbEntity
  8
0
  6
CONTINUOUS
 62
             200
100
AcDbLine
 10
42.8150096018868
 20
69.464392595755612
 30
0.0
 11
35.884999448367694
 21
65.463340691240205
 31
0.0
  0
LINE
  5
2EE
100
AcDbEntity
  8
0
  6
CONTINUOUS
 62
             200
100
AcDbLine
 10
42.815034150261113
 20
70.619033590611593
 30
0.0
 11
35.885005058697629
 21
66.617985026830297
 31
0.0
  0
LINE
  5
2EF
100
AcDbEntity
  8
0
  6
CONTINUOUS
 62
               4
100
AcDbLine
 10
37.38501892089846
 20
63.999927780676785
 30
0.0
 11
37.38501892089846
 21
66.329349777747098
 31
0.0
  0
LINE
  5
2F0
100
AcDbEntity
  8
0
  6
CONTINUOUS
 62
               4
100
AcDbLine
 10
38.815026855468773
 20
63.999927780676785
 30
0.0
 11
38.815026855468773
 21
67.154957077551785
 31
0.0
  0
LINE
  5
2F1
100
AcDbEntity
  8
0
  6
CONTINUOUS
 62
               4
100
AcDbLine
 10
37.70002136230471
 20
76.999927780676785
 30
0.0
 11
38.500024414062523
 21
76.999927780676785
 31
0.0
  0
LINE
  5
2F2
100
AcDbEntity
  8
0
  6
CONTINUOUS
 62
               4
100
AcDbLine
 10
37.70002136230471
 20
71.999927780676785
 30
0.0
 11
37.70002136230471
 21
76.999912521887723
 31
0.0
  0
LINE
  5
2F3
100
AcDbEntity
  8
0
  6
CONTINUOUS
 62
               4
100
AcDbLine
 10
38.500024414062523
 20
71.999927780676785
 30
0.0
 11
38.500024414062523
 21
76.999927780676785
 31
0.0
  0
LINE
  5
2F4
100
AcDbEntity
  8
0
  6
CONTINUOUS
 62
               4
100
AcDbLine
 10
37.38501892089846
 20
71.999927780676785
 30
0.0
 11
38.815026855468773
 21
71.999927780676785
 31
0.0
  0
LINE
  5
2F5
100
AcDbEntity
  8
0
  6
CONTINUOUS
 62
               4
100
AcDbLine
 10
37.38501892089846
 20
67.484043381262723
 30
0.0
 11
37.38501892089846
 21
71.999927780676785
 31
0.0
  0
LINE
  5
2F6
100
AcDbEntity
  8
0
  6
CONTINUOUS
 62
               4
100
AcDbLine
 10
38.815026855468773
 20
68.309665939856473
 30
0.0
 11
38.815026855468773
 21
71.999927780676785
 31
0.0
  0
LINE
  5
2F7
100
AcDbEntity
  8
0
  6
CONTINUOUS
 62
               7
100
AcDbLine
 10
33.000015258789063
 20
19.999927780676785
 30
0.0
 11
60.000015258789063
 21
19.999927780676785
 31
0.0
  0
LINE
  5
2F8
100
AcDbEntity
  8
0
  6
CONTINUOUS
 62
               4
100
AcDbLine
 10
41.315026855468773
 20
69.753040573645535
 30
0.0
 11
41.315026855468773
 21
71.999927780676785
 31
0.0
  0
LINE
  5
2F9
100
AcDbEntity
  8
0
  6
CONTINUOUS
 62
               4
100
AcDbLine
 10
39.88501892089846
 20
68.927418015051785
 30
0.0
 11
39.88501892089846
 21
71.999927780676785
 31
0.0
  0
LINE
  5
2FA
100
AcDbEntity
  8
0
  6
CONTINUOUS
 62
               4
100
AcDbLine
 10
41.315026855468773
 20
71.999927780676785
 30
0.0
 11
39.88501892089846
 21
71.999927780676785
 31
0.0
  0
LINE
  5
2FB
100
AcDbEntity
  8
0
  6
CONTINUOUS
 62
               4
100
AcDbLine
 10
39.88501892089846
 20
63.999927780676785
 30
0.0
 11
39.88501892089846
 21
67.77272441153616
 31
0.0
  0
LINE
  5
2FC
100
AcDbEntity
  8
0
  6
CONTINUOUS
 62
               4
100
AcDbLine
 10
41.315026855468773
 20
63.999927780676785
 30
0.0
 11
41.315026855468773
 21
68.598331711340848
 31
0.0
  0
LINE
  5
2FD
100
AcDbEntity
  8
0
  6
CONTINUOUS
 62
               4
100
AcDbLine
 10
41.000024414062523
 20
71.999927780676785
 30
0.0
 11
41.000024414062523
 21
76.999927780676785
 31
0.0
  0
LINE
  5
2FE
100
AcDbEntity
  8
0
  6
CONTINUOUS
 62
               4
100
AcDbLine
 10
40.20002136230471
 20
71.999927780676785
 30
0.0
 11
40.20002136230471
 21
76.999927780676785
 31
0.0
  0
LINE
  5
2FF
100
AcDbEntity
  8
0
  6
CONTINUOUS
 62
               4
100
AcDbLine
 10
41.000024414062523
 20
76.999927780676785
 30
0.0
 11
40.20002136230471
 21
76.999927780676785
 31
0.0
  0
LINE
  5
300
100
AcDbEntity
  8
0
  6
CONTINUOUS
 62
               4
100
AcDbLine
 10
46.150018310546898
 20
62.499927780676785
 30
0.0
 11
46.150018310546898
 21
63.999927780676785
 31
0.0
  0
LINE
  5
301
100
AcDbEntity
  8
0
  6
CONTINUOUS
 62
               4
100
AcDbLine
 10
44.150059770393113
 20
62.99988672357847
 30
0.0
 11
44.727411586157018
 21
63.99989542853325
 31
0.0
  0
LINE
  5
302
100
AcDbEntity
  8
0
  6
CONTINUOUS
 62
               4
100
AcDbLine
 10
44.150018310546898
 20
57.499927780676785
 30
0.0
 11
44.150018310546898
 21
63.999927780676785
 31
0.0
  0
LINE
  5
303
100
AcDbEntity
  8
0
  6
CONTINUOUS
 62
               4
100
AcDbLine
 10
45.150016561025609
 20
53.498378522436155
 30
0.0
 11
45.6500156699027
 21
57.056066606125
 31
0.0
  0
LINE
  5
304
100
AcDbEntity
  8
0
  6
CONTINUOUS
 62
               4
100
AcDbLine
 10
45.650018310546898
 20
57.056080124426785
 30
0.0
 11
45.650018310546898
 21
62.499927780676785
 31
0.0
  0
LINE
  5
305
100
AcDbEntity
  8
0
  6
CONTINUOUS
 62
               4
100
AcDbLine
 10
35.150003051757835
 20
62.999927780676785
 30
0.0
 11
35.650003051757835
 21
62.999927780676785
 31
0.0
  0
LINE
  5
306
100
AcDbEntity
  8
0
  6
CONTINUOUS
 62
               4
100
AcDbLine
 10
35.150018310546898
 20
62.999927780676785
 30
0.0
 11
35.150018310546898
 21
63.999927780676785
 31
0.0
  0
LINE
  5
307
100
AcDbEntity
  8
0
  6
CONTINUOUS
 62
               4
100
AcDbLine
 10
35.650018310546898
 20
57.499927780676785
 30
0.0
 11
35.650018310546898
 21
62.999927780676785
 31
0.0
  0
LINE
  5
308
100
AcDbEntity
  8
0
  6
CONTINUOUS
 62
               4
100
AcDbLine
 10
44.150015468196784
 20
53.498401932546926
 30
0.0
 11
44.099994914890544
 21
53.548422485853166
 31
0.0
  0
LINE
  5
309
100
AcDbEntity
  8
0
  6
CONTINUOUS
 62
               4
100
AcDbLine
 10
45.650010681152366
 20
62.499927780676785
 30
0.0
 11
46.150010681152366
 21
62.499927780676785
 31
0.0
  0
LINE
  5
30A
100
AcDbEntity
  8
0
  6
CONTINUOUS
 62
               4
100
AcDbLine
 10
44.150018310546898
 20
54.998386642981473
 30
0.0
 11
44.150018310546898
 21
57.499927780676785
 31
0.0
  0
LINE
  5
30B
100
AcDbEntity
  8
0
  6
CONTINUOUS
 62
               4
100
AcDbLine
 10
44.150018310546898
 20
53.498386642981473
 30
0.0
 11
45.150010681152366
 21
53.498386642981473
 31
0.0
  0
LINE
  5
30C
100
AcDbEntity
  8
0
  6
CONTINUOUS
 62
               4
100
AcDbLine
 10
44.100015258789085
 20
54.998386642981473
 30
0.0
 11
44.150018310546898
 21
54.998386642981473
 31
0.0
  0
LINE
  5
30D
100
AcDbEntity
  8
0
  6
CONTINUOUS
 62
               4
100
AcDbLine
 10
44.72736511230471
 20
63.999927780676785
 30
0.0
 11
46.150010681152366
 21
63.999927780676785
 31
0.0
  0
LINE
  5
30E
100
AcDbEntity
  8
0
  6
CONTINUOUS
 62
               4
100
AcDbLine
 10
35.500015258789063
 20
57.499927780676785
 30
0.0
 11
44.150018310546898
 21
57.499927780676785
 31
0.0
  0
LINE
  5
30F
100
AcDbEntity
  8
0
  6
CONTINUOUS
 62
               4
100
AcDbLine
 10
35.150003051757835
 20
63.999927780676785
 30
0.0
 11
44.150003051757835
 21
63.999927780676785
 31
0.0
  0
LINE
  5
310
100
AcDbEntity
  8
0
  6
CONTINUOUS
 62
               4
100
AcDbLine
 10
44.100015258789085
 20
57.499927780676785
 30
0.0
 11
44.100015258789085
 21
52.999927780676785
 31
0.0
  0
LINE
  5
311
100
AcDbEntity
  8
0
  6
CONTINUOUS
 62
               4
100
AcDbLine
 10
33.000015258789063
 20
43.999927780676785
 30
0.0
 11
60.000007629394531
 21
43.999927780676785
 31
0.0
  0
LINE
  5
312
100
AcDbEntity
  8
0
  6
CONTINUOUS
 62
               4
100
AcDbLine
 10
34.600015258789085
 20
36.999927780676785
 30
0.0
 11
34.600015258789085
 21
43.999927780676785
 31
0.0
  0
LINE
  5
313
100
AcDbEntity
  8
0
  6
CONTINUOUS
 62
               4
100
AcDbLine
 10
33.700015258789051
 20
36.999927780676785
 30
0.0
 11
33.700015258789051
 21
43.999927780676785
 31
0.0
  0
LINE
  5
314
100
AcDbEntity
  8
0
  6
CONTINUOUS
 62
               4
100
AcDbLine
 10
33.000015258789063
 20
36.999927780676785
 30
0.0
 11
34.600015258789085
 21
36.999927780676785
 31
0.0
  0
LINE
  5
315
100
AcDbEntity
  8
0
  6
CONTINUOUS
 62
               4
100
AcDbLine
 10
60.000015258789063
 20
19.999927780676785
 30
0.0
 11
60.000015258789063
 21
43.999927780676785
 31
0.0
  0
LINE
  5
316
100
AcDbEntity
  8
0
  6
CONTINUOUS
 62
               4
100
AcDbLine
 10
33.000015258789063
 20
19.999927780676785
 30
0.0
 11
33.000015258789063
 21
43.999927780676785
 31
0.0
  0
LINE
  5
317
100
AcDbEntity
  8
0
  6
CONTINUOUS
 62
               7
100
AcDbLine
 10
30.500013258094867
 20
-3.5000645899287619
 30
0.0
 11
30.000013258094871
 21
-3.500064627677709
 31
0.0
  0
LINE
  5
318
100
AcDbEntity
  8
0
  6
CONTINUOUS
 62
               7
100
AcDbLine
 10
30.500017259483258
 20
-56.500064589928606
 30
0.0
 11
30.000017259483258
 21
-56.500064627677553
 31
0.0
  0
LINE
  5
319
100
AcDbEntity
  8
0
  6
CONTINUOUS
 62
               7
100
AcDbLine
 10
30.500012786233032
 20
2.7499354100712239
 30
0.0
 11
30.000012786233032
 21
2.7499353723222768
 31
0.0
  0
LINE
  5
31A
100
AcDbEntity
  8
0
  6
CONTINUOUS
 62
               7
100
AcDbLine
 10
30.500013050475662
 20
-0.750064589928769
 30
0.0
 11
30.000013050475662
 21
-0.7500646276777161
 31
0.0
  0
ENDBLK
  5
31B
100
AcDbEntity
  8
0
100
AcDbBlockEnd
  0
BLOCK
  5
31C
100
AcDbEntity
  8
0
100
AcDbBlockBegin
  2
F18T-9
 70
               0
 10
0.0
 20
0.0
 30
0.0
  3
F18T-9
  1

  0
LINE
  5
31D
100
AcDbEntity
  8
0
  6
CONTINUOUS
 62
               2
100
AcDbLine
 10
-3.9999542236328125
 20
-0.00006103515625
 30
0.0
 11
4.0000457763671875
 21
-0.00006103515625
 31
0.0
  0
LINE
  5
31E
100
AcDbEntity
  8
0
  6
CONTINUOUS
 62
               2
100
AcDbLine
 10
-3.9999542236328125
 20
-60.00006103515625
 30
0.0
 11
4.0000457763671875
 21
-60.00006103515625
 31
0.0
  0
LINE
  5
31F
100
AcDbEntity
  8
0
  6
CONTINUOUS
 62
               7
100
AcDbLine
 10
-62.499984741210938
 20
-3.50006103515625
 30
0.0
 11
-30.499969482421875
 21
-3.50006103515625
 31
0.0
  0
LINE
  5
320
100
AcDbEntity
  8
0
  6
CONTINUOUS
 62
               7
100
AcDbLine
 10
-30.499969482421875
 20
-79.000045776367188
 30
0.0
 11
-30.499969482421875
 21
6.49993896484375
 31
0.0
  0
LINE
  5
321
100
AcDbEntity
  8
0
  6
CONTINUOUS
 62
               7
100
AcDbLine
 10
-62.499984741210938
 20
-59.500045776367188
 30
0.0
 11
-62.499984741210938
 21
6.4999542236328125
 31
0.0
  0
LINE
  5
322
100
AcDbEntity
  8
0
  6
CONTINUOUS
 62
               7
100
AcDbLine
 10
-64.499984741210937
 20
-56.500045776367188
 30
0.0
 11
-30.499984741210937
 21
-56.500045776367188
 31
0.0
  0
LINE
  5
323
100
AcDbEntity
  8
0
  6
CONTINUOUS
 62
               7
100
AcDbLine
 10
-64.499984741210937
 20
-68.500045776367187
 30
0.0
 11
-30.499984741210937
 21
-68.500045776367187
 31
0.0
  0
LINE
  5
324
100
AcDbEntity
  8
0
  6
CONTINUOUS
 62
               7
100
AcDbLine
 10
-64.499984741210937
 20
-79.000045776367188
 30
0.0
 11
-64.499984741210937
 21
-67.500045776367188
 31
0.0
  0
LINE
  5
325
100
AcDbEntity
  8
0
  6
CONTINUOUS
 62
               7
100
AcDbLine
 10
-67.499984741210938
 20
-54.300048828125
 30
0.0
 11
-67.499984741210938
 21
-5.7000579833984375
 31
0.0
  0
LINE
  5
326
100
AcDbEntity
  8
0
  6
CONTINUOUS
 62
               7
100
AcDbLine
 10
-65.499984741210937
 20
-56.300033569335938
 30
0.0
 11
-62.499984741210938
 21
-56.300033569335938
 31
0.0
  0
LINE
  5
327
100
AcDbEntity
  8
0
  6
CONTINUOUS
 62
               7
100
AcDbLine
 10
-65.499984741210937
 20
-3.7000579833984375
 30
0.0
 11
-62.499984741210938
 21
-3.7000579833984375
 31
0.0
  0
LINE
  5
328
100
AcDbEntity
  8
0
  6
CONTINUOUS
 62
               7
100
AcDbLine
 10
-67.499989171510606
 20
-5.7000526673582499
 30
0.0
 11
-65.499980304828568
 21
-3.7000571190947085
 31
0.0
  0
LINE
  5
329
100
AcDbEntity
  8
0
  6
CONTINUOUS
 62
               7
100
AcDbLine
 10
-67.499988564816704
 20
-54.300038579499414
 30
0.0
 11
-65.500002963177394
 21
-56.30003564503204
 31
0.0
  0
LINE
  5
32A
100
AcDbEntity
  8
0
  6
CONTINUOUS
 62
               7
100
AcDbLine
 10
-63.999984741210938
 20
-79.500045776367188
 30
0.0
 11
-30.999984741210938
 21
-79.500045776367188
 31
0.0
  0
LINE
  5
32B
100
AcDbEntity
  8
0
  6
CONTINUOUS
 62
               2
100
AcDbLine
 10
-61.999984741210938
 20
16.699951171875
 30
0.0
 11
-59.299972534179688
 21
16.699951171875
 31
0.0
  0
LINE
  5
32C
100
AcDbEntity
  8
0
  6
CONTINUOUS
 62
               7
100
AcDbLine
 10
-59.999984741210938
 20
19.899948120117188
 30
0.0
 11
-32.999969482421875
 21
19.899948120117188
 31
0.0
  0
LINE
  5
32D
100
AcDbEntity
  8
0
  6
CONTINUOUS
 62
               7
100
AcDbLine
 10
-60.999984741210937
 20
14.749954223632813
 30
0.0
 11
-60.999984741210937
 21
16.399948120117188
 31
0.0
  0
LINE
  5
32E
100
AcDbEntity
  8
0
  6
CONTINUOUS
 62
               7
100
AcDbLine
 10
-60.999969482421875
 20
14.749954223632813
 30
0.0
 11
-59.999984741210938
 21
14.749954223632813
 31
0.0
  0
LINE
  5
32F
100
AcDbEntity
  8
0
  6
CONTINUOUS
 62
               7
100
AcDbLine
 10
-60.999969482421875
 20
18.649948120117188
 30
0.0
 11
-59.999984741210938
 21
18.649948120117188
 31
0.0
  0
LINE
  5
330
100
AcDbEntity
  8
0
  6
CONTINUOUS
 62
               7
100
AcDbLine
 10
-60.399978637695313
 20
16.399948120117188
 30
0.0
 11
-60.399978637695313
 21
16.99993896484375
 31
0.0
  0
LINE
  5
331
100
AcDbEntity
  8
0
  6
CONTINUOUS
 62
               7
100
AcDbLine
 10
-60.999969482421875
 20
16.399948120117188
 30
0.0
 11
-60.399978637695313
 21
16.399948120117188
 31
0.0
  0
LINE
  5
332
100
AcDbEntity
  8
0
  6
CONTINUOUS
 62
               7
100
AcDbLine
 10
-60.999969482421875
 20
16.999954223632813
 30
0.0
 11
-60.399978637695313
 21
16.999954223632813
 31
0.0
  0
LINE
  5
333
100
AcDbEntity
  8
0
  6
CONTINUOUS
 62
               7
100
AcDbLine
 10
-60.999984741210937
 20
16.99993896484375
 30
0.0
 11
-60.999984741210937
 21
18.649948120117188
 31
0.0
  0
LINE
  5
334
100
AcDbEntity
  8
0
  6
CONTINUOUS
 62
               7
100
AcDbLine
 10
-59.999984741210938
 20
8.9999542236328125
 30
0.0
 11
-59.999984741210938
 21
19.899948120117188
 31
0.0
  0
LINE
  5
335
100
AcDbEntity
  8
0
  6
CONTINUOUS
 62
               7
100
AcDbLine
 10
-32.999984741210938
 20
8.9999542236328125
 30
0.0
 11
-32.999984741210938
 21
19.899948120117188
 31
0.0
  0
LINE
  5
336
100
AcDbEntity
  8
0
  6
CONTINUOUS
 62
               7
100
AcDbLine
 10
-64.499984741210937
 20
-65.60003662109375
 30
0.0
 11
-64.499984741210937
 21
-59.400039672851563
 31
0.0
  0
LINE
  5
337
100
AcDbEntity
  8
0
  6
CONTINUOUS
 62
               7
100
AcDbLine
 10
-66.499984741210938
 20
-66.500045776367188
 30
0.0
 11
-66.499984741210938
 21
-58.500045776367188
 31
0.0
  0
LINE
  5
338
100
AcDbEntity
  8
0
  6
CONTINUOUS
 62
               7
100
AcDbLine
 10
-65.499987099516147
 20
-57.500067669272539
 30
0.0
 11
-66.499986222348525
 21
-58.500070669619163
 31
0.0
  0
LINE
  5
339
100
AcDbEntity
  8
0
  6
CONTINUOUS
 62
               7
100
AcDbLine
 10
-65.500044672514377
 20
-67.500102561704807
 30
0.0
 11
-66.500045734103878
 21
-66.500101500115306
 31
0.0
  0
LINE
  5
33A
100
AcDbEntity
  8
0
  6
CONTINUOUS
 62
               7
100
AcDbLine
 10
-65.299972534179688
 20
-65.60003662109375
 30
0.0
 11
-65.299972534179688
 21
-59.400039672851563
 31
0.0
  0
LINE
  5
33B
100
AcDbEntity
  8
0
  6
CONTINUOUS
 62
               7
100
AcDbLine
 10
-65.499984741210937
 20
-67.500045776367188
 30
0.0
 11
-65.499984741210937
 21
-57.500045776367188
 31
0.0
  0
LINE
  5
33C
100
AcDbEntity
  8
0
  6
CONTINUOUS
 62
               7
100
AcDbLine
 10
-64.499984741210937
 20
-65.500045776367188
 30
0.0
 11
-62.499984741210938
 21
-65.500045776367188
 31
0.0
  0
LINE
  5
33D
100
AcDbEntity
  8
0
  6
CONTINUOUS
 62
               7
100
AcDbLine
 10
-64.499984741210937
 20
-59.500045776367188
 30
0.0
 11
-62.499984741210938
 21
-59.500045776367188
 31
0.0
  0
LINE
  5
33E
100
AcDbEntity
  8
0
  6
CONTINUOUS
 62
               7
100
AcDbLine
 10
-63.499984741210938
 20
-68.500045776367187
 30
0.0
 11
-63.499984741210938
 21
-67.500045776367188
 31
0.0
  0
LINE
  5
33F
100
AcDbEntity
  8
0
  6
CONTINUOUS
 62
               7
100
AcDbLine
 10
-62.499984741210938
 20
-68.500045776367187
 30
0.0
 11
-62.499984741210938
 21
-65.500045776367188
 31
0.0
  0
LINE
  5
340
100
AcDbEntity
  8
0
  6
CONTINUOUS
 62
               7
100
AcDbLine
 10
-63.499984741210938
 20
-59.500045776367188
 30
0.0
 11
-63.499984741210938
 21
-59.400039672851563
 31
0.0
  0
LINE
  5
341
100
AcDbEntity
  8
0
  6
CONTINUOUS
 62
               7
100
AcDbLine
 10
-62.5999755859375
 20
-67.500045776367188
 30
0.0
 11
-62.5999755859375
 21
-65.60003662109375
 31
0.0
  0
LINE
  5
342
100
AcDbEntity
  8
0
  6
CONTINUOUS
 62
               7
100
AcDbLine
 10
-65.299972534179688
 20
-59.400039672851563
 30
0.0
 11
-62.5999755859375
 21
-59.400039672851563
 31
0.0
  0
LINE
  5
343
100
AcDbEntity
  8
0
  6
CONTINUOUS
 62
               7
100
AcDbLine
 10
-65.299972534179688
 20
-65.60003662109375
 30
0.0
 11
-62.599990844726563
 21
-65.60003662109375
 31
0.0
  0
LINE
  5
344
100
AcDbEntity
  8
0
  6
CONTINUOUS
 62
               7
100
AcDbLine
 10
-62.5999755859375
 20
-59.400039672851563
 30
0.0
 11
-62.5999755859375
 21
-57.500045776367188
 31
0.0
  0
LINE
  5
345
100
AcDbEntity
  8
0
  6
CONTINUOUS
 62
               7
100
AcDbLine
 10
-65.499984741210937
 20
-67.500045776367188
 30
0.0
 11
-62.599990844726563
 21
-67.500045776367188
 31
0.0
  0
LINE
  5
346
100
AcDbEntity
  8
0
  6
CONTINUOUS
 62
               7
100
AcDbLine
 10
-65.499984741210937
 20
-57.500045776367188
 30
0.0
 11
-62.5999755859375
 21
-57.500045776367188
 31
0.0
  0
LINE
  5
347
100
AcDbEntity
  8
0
  6
CONTINUOUS
 62
               7
100
AcDbLine
 10
-64.499984741210937
 20
-57.500045776367188
 30
0.0
 11
-64.499984741210937
 21
-56.500045776367188
 31
0.0
  0
LINE
  5
348
100
AcDbEntity
  8
0
  6
CONTINUOUS
 62
               7
100
AcDbLine
 10
-63.499984741210938
 20
-65.60003662109375
 30
0.0
 11
-63.499984741210938
 21
-65.500045776367188
 31
0.0
  0
LINE
  5
349
100
AcDbEntity
  8
0
  6
CONTINUOUS
 62
               7
100
AcDbLine
 10
-63.499984741210938
 20
-57.500045776367188
 30
0.0
 11
-63.499984741210938
 21
-56.500045776367188
 31
0.0
  0
LINE
  5
34A
100
AcDbEntity
  8
0
  6
CONTINUOUS
 62
               7
100
AcDbLine
 10
-67.499984741210938
 20
-49.000038146972656
 30
0.0
 11
-65.499984741210937
 21
-49.000038146972656
 31
0.0
  0
LINE
  5
34B
100
AcDbEntity
  8
0
  6
CONTINUOUS
 62
               7
100
AcDbLine
 10
-67.499984741210938
 20
-13.000045776367188
 30
0.0
 11
-62.499984741210938
 21
-13.000045776367188
 31
0.0
  0
LINE
  5
34C
100
AcDbEntity
  8
0
  6
CONTINUOUS
 62
               7
100
AcDbLine
 10
-67.499984741210938
 20
-7.0000457763671875
 30
0.0
 11
-62.499984741210938
 21
-7.0000457763671875
 31
0.0
  0
LINE
  5
34D
100
AcDbEntity
  8
0
  6
CONTINUOUS
 62
               2
100
AcDbLine
 10
-27.578475952148438
 20
-30.000049591064453
 30
0.0
 11
-12.421463012695313
 21
-30.000049591064453
 31
0.0
  0
LINE
  5
34E
100
AcDbEntity
  8
0
  6
CONTINUOUS
 62
               7
100
AcDbLine
 10
-29.999969482421875
 20
5.99993896484375
 30
0.0
 11
0.0000457763671875
 21
5.99993896484375
 31
0.0
  0
LINE
  5
34F
100
AcDbEntity
  8
0
  6
CONTINUOUS
 62
               7
100
AcDbLine
 10
-29.999984741210937
 20
-66.000045776367188
 30
0.0
 11
0.0000152587890625
 21
-66.000045776367188
 31
0.0
  0
LINE
  5
350
100
AcDbEntity
  8
0
  6
CONTINUOUS
 62
               7
100
AcDbLine
 10
-29.999969482421875
 20
-66.000045776367188
 30
0.0
 11
-29.999969482421875
 21
5.99993896484375
 31
0.0
  0
LINE
  5
351
100
AcDbEntity
  8
0
  6
CONTINUOUS
 62
               7
100
AcDbLine
 10
-62.499984741210938
 20
6.4999542236328125
 30
0.0
 11
-30.499969482421875
 21
6.4999542236328125
 31
0.0
  0
LINE
  5
352
100
AcDbEntity
  8
0
  6
CONTINUOUS
 62
               2
100
AcDbLine
 10
-22.578475952148438
 20
-50.000049591064453
 30
0.0
 11
-7.4214630126953125
 21
-50.000049591064453
 31
0.0
  0
LINE
  5
353
100
AcDbEntity
  8
0
  6
CONTINUOUS
 62
               2
100
AcDbLine
 10
-22.578475952148438
 20
-10.00006103515625
 30
0.0
 11
-7.4214630126953125
 21
-10.00006103515625
 31
0.0
  0
LINE
  5
354
100
AcDbEntity
  8
0
  6
CONTINUOUS
 62
               2
100
AcDbLine
 10
-28.499969482421875
 20
0.99993896484375
 30
0.0
 11
-21.499954223632812
 21
0.99993896484375
 31
0.0
  0
LINE
  5
355
100
AcDbEntity
  8
0
  6
CONTINUOUS
 62
               2
100
AcDbLine
 10
-24.999954223632812
 20
-2.50006103515625
 30
0.0
 11
-24.999954223632812
 21
4.49993896484375
 31
0.0
  0
LINE
  5
356
100
AcDbEntity
  8
0
  6
CONTINUOUS
 62
               2
100
AcDbLine
 10
-19.999954223632813
 20
-37.57855224609375
 30
0.0
 11
-19.999954223632813
 21
-22.421554565429687
 31
0.0
  0
LINE
  5
357
100
AcDbEntity
  8
0
  6
CONTINUOUS
 62
               7
100
AcDbLine
 10
0.0000457763671875
 20
-66.00006103515625
 30
0.0
 11
0.0000457763671875
 21
5.99993896484375
 31
0.0
  0
LINE
  5
358
100
AcDbEntity
  8
0
  6
CONTINUOUS
 62
               2
100
AcDbLine
 10
-14.999954223632813
 20
-57.57855224609375
 30
0.0
 11
-14.999954223632813
 21
-2.4215545654296875
 31
0.0
  0
LINE
  5
359
100
AcDbEntity
  8
0
  6
CONTINUOUS
 62
               7
100
AcDbLine
 10
-36.699966430664062
 20
-79.500045776367188
 30
0.0
 11
-36.699966430664062
 21
-77.000045776367188
 31
0.0
  0
LINE
  5
35A
100
AcDbEntity
  8
0
  6
CONTINUOUS
 62
               7
100
AcDbLine
 10
-30.499969482421875
 20
-77.000045776367188
 30
0.0
 11
-36.699966430664062
 21
-77.000045776367188
 31
0.0
  0
LINE
  5
35B
100
AcDbEntity
  8
0
  6
CONTINUOUS
 62
               7
100
AcDbLine
 10
-32.249969482421875
 20
-79.000045776367188
 30
0.0
 11
-34.749969482421875
 21
-79.000045776367188
 31
0.0
  0
LINE
  5
35C
100
AcDbEntity
  8
0
  6
CONTINUOUS
 62
               7
100
AcDbLine
 10
-30.749969482421875
 20
-77.500045776367188
 30
0.0
 11
-30.749969482421875
 21
-77.000045776367188
 31
0.0
  0
LINE
  5
35D
100
AcDbEntity
  8
0
  6
CONTINUOUS
 62
               7
100
AcDbLine
 10
-36.249969482421875
 20
-77.500045776367188
 30
0.0
 11
-36.249969482421875
 21
-77.000045776367188
 31
0.0
  0
LINE
  5
35E
100
AcDbEntity
  8
0
  6
CONTINUOUS
 62
               7
100
AcDbLine
 10
-65.499984741210937
 20
-56.300033569335938
 30
0.0
 11
-65.499984741210937
 21
-49.000038146972656
 31
0.0
  0
LINE
  5
35F
100
AcDbEntity
  8
0
  6
CONTINUOUS
 62
               7
100
AcDbLine
 10
-65.999984741210938
 20
-54.750015258789063
 30
0.0
 11
-65.499984741210937
 21
-54.750015258789063
 31
0.0
  0
LINE
  5
360
100
AcDbEntity
  8
0
  6
CONTINUOUS
 62
               7
100
AcDbLine
 10
-65.999984741210938
 20
-49.250026702880859
 30
0.0
 11
-65.499984741210937
 21
-49.250026702880859
 31
0.0
  0
LINE
  5
361
100
AcDbEntity
  8
0
  6
CONTINUOUS
 62
               7
100
AcDbLine
 10
-58.999984741210938
 20
8.9999542236328125
 30
0.0
 11
-58.999984741210938
 21
10.49993896484375
 31
0.0
  0
LINE
  5
362
100
AcDbEntity
  8
0
  6
CONTINUOUS
 62
               7
100
AcDbLine
 10
-59.999984741210938
 20
10.49993896484375
 30
0.0
 11
-58.999984741210938
 21
10.49993896484375
 31
0.0
  0
LINE
  5
363
100
AcDbEntity
  8
0
  6
CONTINUOUS
 62
               7
100
AcDbLine
 10
-56.999984741210937
 20
10.49993896484375
 30
0.0
 11
-37.29998779296875
 21
10.49993896484375
 31
0.0
  0
LINE
  5
364
100
AcDbEntity
  8
0
  6
CONTINUOUS
 62
               7
100
AcDbLine
 10
-56.999984741210937
 20
8.9999542236328125
 30
0.0
 11
-56.999984741210937
 21
10.49993896484375
 31
0.0
  0
LINE
  5
365
100
AcDbEntity
  8
0
  6
CONTINUOUS
 62
               7
100
AcDbLine
 10
-37.29998779296875
 20
8.9999542236328125
 30
0.0
 11
-37.29998779296875
 21
10.49993896484375
 31
0.0
  0
LINE
  5
366
100
AcDbEntity
  8
0
  6
CONTINUOUS
 62
               7
100
AcDbLine
 10
-34.29998779296875
 20
8.9999542236328125
 30
0.0
 11
-34.29998779296875
 21
10.49993896484375
 31
0.0
  0
LINE
  5
367
100
AcDbEntity
  8
0
  6
CONTINUOUS
 62
               7
100
AcDbLine
 10
-34.29998779296875
 20
10.49993896484375
 30
0.0
 11
-32.999984741210938
 21
10.49993896484375
 31
0.0
  0
ARC
  5
368
100
AcDbEntity
  8
0
  6
CONTINUOUS
 62
               7
100
AcDbCircle
 10
-30.999984741210938
 20
-79.000045776367188
 30
0.0
 40
0.5
100
AcDbArc
 50
270.00001798608872
 51
0.00001366037834
  0
ARC
  5
369
100
AcDbEntity
  8
0
  6
CONTINUOUS
 62
               7
100
AcDbCircle
 10
-63.999984741210938
 20
-79.000045776367188
 30
0.0
 40
0.5
100
AcDbArc
 50
180.0000359721783
 51
269.99996334457541
  0
CIRCLE
  5
36A
100
AcDbEntity
  8
0
  6
CONTINUOUS
 62
               2
100
AcDbCircle
 10
-14.999984741210938
 20
-50.000053405761719
 30
0.0
 40
6.5784997940063477
  0
CIRCLE
  5
36B
100
AcDbEntity
  8
0
  6
CONTINUOUS
 62
               2
100
AcDbCircle
 10
-19.999984741210937
 20
-30.000053405761719
 30
0.0
 40
6.5784997940063477
  0
CIRCLE
  5
36C
100
AcDbEntity
  8
0
  6
CONTINUOUS
 62
               2
100
AcDbCircle
 10
-14.999954223632813
 20
-10.00006103515625
 30
0.0
 40
6.5784997940063477
  0
CIRCLE
  5
36D
100
AcDbEntity
  8
0
  6
CONTINUOUS
 62
               2
100
AcDbCircle
 10
-24.999954223632812
 20
0.99993896484375
 30
0.0
 40
2.5
  0
CIRCLE
  5
36E
100
AcDbEntity
  8
0
  6
CONTINUOUS
 62
               7
100
AcDbCircle
 10
-14.999984741210938
 20
-50.000053405761719
 30
0.0
 40
5.7224998474121094
  0
CIRCLE
  5
36F
100
AcDbEntity
  8
0
  6
CONTINUOUS
 62
               7
100
AcDbCircle
 10
-19.999984741210937
 20
-30.000053405761719
 30
0.0
 40
5.7224998474121094
  0
CIRCLE
  5
370
100
AcDbEntity
  8
0
  6
CONTINUOUS
 62
               7
100
AcDbCircle
 10
-14.999954223632813
 20
-10.00006103515625
 30
0.0
 40
5.7224998474121094
  0
CIRCLE
  5
371
100
AcDbEntity
  8
0
  6
CONTINUOUS
 62
               7
100
AcDbCircle
 10
-24.999954223632812
 20
0.99993896484375
 30
0.0
 40
2.0669994354248047
  0
ARC
  5
372
100
AcDbEntity
  8
0
  6
CONTINUOUS
 62
               7
100
AcDbCircle
 10
-59.500015258789063
 20
9.5000152587890625
 30
0.0
 40
2.5000734329223633
100
AcDbArc
 50
220.54026862095205
 51
348.46195609548801
  0
ARC
  5
373
100
AcDbEntity
  8
0
  6
CONTINUOUS
 62
               7
100
AcDbCircle
 10
-34.749969482421875
 20
-77.500045776367188
 30
0.0
 40
1.5
100
AcDbArc
 50
179.99998133066492
 51
270.00001798608872
  0
ARC
  5
374
100
AcDbEntity
  8
0
  6
CONTINUOUS
 62
               7
100
AcDbCircle
 10
-32.249969482421875
 20
-77.500045776367188
 30
0.0
 40
1.5
100
AcDbArc
 50
270.00001798608872
 51
0.0
  0
ARC
  5
375
100
AcDbEntity
  8
0
  6
CONTINUOUS
 62
               7
100
AcDbCircle
 10
-65.999984741210938
 20
-53.250015258789063
 30
0.0
 40
1.5
100
AcDbArc
 50
179.99998133066492
 51
270.00001798608872
  0
ARC
  5
376
100
AcDbEntity
  8
0
  6
CONTINUOUS
 62
               7
100
AcDbCircle
 10
-65.999984741210938
 20
-50.750015258789063
 30
0.0
 40
1.5
100
AcDbArc
 50
89.999982013910454
 51
179.99996402782091
  0
LINE
  5
377
100
AcDbEntity
  8
0
  6
CONTINUOUS
 62
               7
100
AcDbLine
 10
-65.199966430664062
 20
-11.250045776367202
 30
0.0
 11
-65.199966430664062
 21
-8.7500457763671875
 31
0.0
  0
LINE
  5
378
100
AcDbEntity
  8
0
  6
CONTINUOUS
 62
               7
100
AcDbLine
 10
-63.699981689453125
 20
-12.750045776367202
 30
0.0
 11
-63.199981689453125
 21
-12.750045776367202
 31
0.0
  0
LINE
  5
379
100
AcDbEntity
  8
0
  6
CONTINUOUS
 62
               7
100
AcDbLine
 10
-63.699981689453125
 20
-7.25006103515625
 30
0.0
 11
-63.199981689453125
 21
-7.25006103515625
 31
0.0
  0
ARC
  5
37A
100
AcDbEntity
  8
0
  6
CONTINUOUS
 62
               7
100
AcDbCircle
 10
-63.699966430664063
 20
-8.7500457763671875
 30
0.0
 40
1.5
100
AcDbArc
 50
89.999927372397096
 51
179.99996402782091
  0
ARC
  5
37B
100
AcDbEntity
  8
0
  6
CONTINUOUS
 62
               7
100
AcDbCircle
 10
-63.699966430664063
 20
-11.250030517578125
 30
0.0
 40
1.5
100
AcDbArc
 50
180.0000359721783
 51
269.99996334457541
  0
LINE
  5
37C
100
AcDbEntity
  8
0
  6
CONTINUOUS
 62
               7
100
AcDbLine
 10
-63.199981689453125
 20
-7.050048828125
 30
0.0
 11
-63.199981689453125
 21
-12.950042724609389
 31
0.0
  0
LINE
  5
37D
100
AcDbEntity
  8
0
  6
CONTINUOUS
 62
               7
100
AcDbLine
 10
-62.499984370829452
 20
-10.350033967043146
 30
0.0
 11
-63.199991703431124
 21
-10.537600368081712
 31
0.0
  0
LINE
  5
37E
100
AcDbEntity
  8
0
  6
CONTINUOUS
 62
               7
100
AcDbLine
 10
-63.199967712670286
 20
-9.6500376619593453
 30
0.0
 11
-62.499975075732209
 21
-9.4624752533806031
 31
0.0
  0
LINE
  5
37F
100
AcDbEntity
  8
0
  6
CONTINUOUS
 62
               7
100
AcDbLine
 10
-63.199981689453125
 20
-7.050048828125
 30
0.0
 11
-62.499984741210938
 21
-7.050048828125
 31
0.0
  0
LINE
  5
380
100
AcDbEntity
  8
0
  6
CONTINUOUS
 62
               7
100
AcDbLine
 10
-63.199981689453125
 20
-12.950042724609389
 30
0.0
 11
-62.499984741210938
 21
-12.950042724609389
 31
0.0
  0
LINE
  5
381
100
AcDbEntity
  8
0
  6
CONTINUOUS
 62
               7
100
AcDbLine
 10
-60.499984741210937
 20
8.9999542236328125
 30
0.0
 11
-32.499969482421875
 21
8.9999542236328125
 31
0.0
  0
LINE
  5
382
100
AcDbEntity
  8
0
  6
CONTINUOUS
 62
               7
100
AcDbLine
 10
-62.499986765260473
 20
6.4999515200461246
 30
0.0
 11
-60.499982665949574
 21
8.9999566441847492
 31
0.0
  0
LINE
  5
383
100
AcDbEntity
  8
0
  6
CONTINUOUS
 62
               7
100
AcDbLine
 10
-30.499961687669384
 20
6.4999515200461246
 30
0.0
 11
-32.499965786980283
 21
8.9999566441847492
 31
0.0
  0
LINE
  5
384
100
AcDbEntity
  8
0
  6
CONTINUOUS
 62
               4
100
AcDbLine
 10
-44.099984741210932
 20
52.99993896484375
 30
0.0
 11
-57.67498474121092
 21
52.99993896484375
 31
0.0
  0
LINE
  5
385
100
AcDbEntity
  8
0
  6
CONTINUOUS
 62
               4
100
AcDbLine
 10
-35.499984741210938
 20
52.99993896484375
 30
0.0
 11
-33.499984741210938
 21
52.99993896484375
 31
0.0
  0
LINE
  5
386
100
AcDbEntity
  8
0
  6
CONTINUOUS
 62
               4
100
AcDbLine
 10
-35.149972534179682
 20
62.99993896484375
 30
0.0
 11
-35.649972534179682
 21
62.99993896484375
 31
0.0
  0
LINE
  5
387
100
AcDbEntity
  8
0
  6
CONTINUOUS
 62
               4
100
AcDbLine
 10
-35.149972534179682
 20
63.99993896484375
 30
0.0
 11
-44.149972534179682
 21
63.99993896484375
 31
0.0
  0
LINE
  5
388
100
AcDbEntity
  8
0
  6
CONTINUOUS
 62
               4
100
AcDbLine
 10
-32.999984741210938
 20
43.99993896484375
 30
0.0
 11
-59.999977111816406
 21
43.99993896484375
 31
0.0
  0
LINE
  5
389
100
AcDbEntity
  8
0
  6
CONTINUOUS
 62
               4
100
AcDbLine
 10
-35.499984741210938
 20
57.49993896484375
 30
0.0
 11
-44.149987792968744
 21
57.49993896484375
 31
0.0
  0
LINE
  5
38A
100
AcDbEntity
  8
0
  6
CONTINUOUS
 62
               4
100
AcDbLine
 10
-44.727334594726557
 20
63.99993896484375
 30
0.0
 11
-46.149980163574213
 21
63.99993896484375
 31
0.0
  0
LINE
  5
38B
100
AcDbEntity
  8
0
  6
CONTINUOUS
 62
               4
100
AcDbLine
 10
-44.099984741210932
 20
54.998397827148438
 30
0.0
 11
-44.149987792968744
 21
54.998397827148438
 31
0.0
  0
LINE
  5
38C
100
AcDbEntity
  8
0
  6
CONTINUOUS
 62
               4
100
AcDbLine
 10
-44.149987792968744
 20
53.498397827148438
 30
0.0
 11
-45.149980163574213
 21
53.498397827148438
 31
0.0
  0
LINE
  5
38D
100
AcDbEntity
  8
0
  6
CONTINUOUS
 62
               4
100
AcDbLine
 10
-44.149987792968744
 20
54.998397827148438
 30
0.0
 11
-44.149987792968744
 21
57.49993896484375
 31
0.0
  0
LINE
  5
38E
100
AcDbEntity
  8
0
  6
CONTINUOUS
 62
               4
100
AcDbLine
 10
-45.649980163574213
 20
62.49993896484375
 30
0.0
 11
-46.149980163574213
 21
62.49993896484375
 31
0.0
  0
LINE
  5
38F
100
AcDbEntity
  8
0
  6
CONTINUOUS
 62
               4
100
AcDbLine
 10
-44.149984950618631
 20
53.498413116713891
 30
0.0
 11
-44.099964397312391
 21
53.548433670020131
 31
0.0
  0
LINE
  5
390
100
AcDbEntity
  8
0
  6
CONTINUOUS
 62
               4
100
AcDbLine
 10
-35.649987792968744
 20
57.49993896484375
 30
0.0
 11
-35.649987792968744
 21
62.99993896484375
 31
0.0
  0
LINE
  5
391
100
AcDbEntity
  8
0
  6
CONTINUOUS
 62
               4
100
AcDbLine
 10
-45.649987792968744
 20
57.05609130859375
 30
0.0
 11
-45.649987792968744
 21
62.49993896484375
 31
0.0
  0
LINE
  5
392
100
AcDbEntity
  8
0
  6
CONTINUOUS
 62
               4
100
AcDbLine
 10
-45.149986043447456
 20
53.49838970660312
 30
0.0
 11
-45.649985152324547
 21
57.056077790291965
 31
0.0
  0
LINE
  5
393
100
AcDbEntity
  8
0
  6
CONTINUOUS
 62
               4
100
AcDbLine
 10
-44.149987792968744
 20
57.49993896484375
 30
0.0
 11
-44.149987792968744
 21
63.99993896484375
 31
0.0
  0
LINE
  5
394
100
AcDbEntity
  8
0
  6
CONTINUOUS
 62
               4
100
AcDbLine
 10
-44.15002925281496
 20
62.999897907745435
 30
0.0
 11
-44.727381068578865
 21
63.999906612700215
 31
0.0
  0
LINE
  5
395
100
AcDbEntity
  8
0
  6
CONTINUOUS
 62
               4
100
AcDbLine
 10
-46.149987792968744
 20
62.49993896484375
 30
0.0
 11
-46.149987792968744
 21
63.99993896484375
 31
0.0
  0
LINE
  5
396
100
AcDbEntity
  8
0
  6
CONTINUOUS
 62
               4
100
AcDbLine
 10
-40.999993896484369
 20
76.999923706054688
 30
0.0
 11
-40.199990844726557
 21
76.999923706054688
 31
0.0
  0
LINE
  5
397
100
AcDbEntity
  8
0
  6
CONTINUOUS
 62
               4
100
AcDbLine
 10
-40.199990844726557
 20
71.99993896484375
 30
0.0
 11
-40.199990844726557
 21
76.99993896484375
 31
0.0
  0
LINE
  5
398
100
AcDbEntity
  8
0
  6
CONTINUOUS
 62
               4
100
AcDbLine
 10
-40.999993896484369
 20
71.99993896484375
 30
0.0
 11
-40.999993896484369
 21
76.99993896484375
 31
0.0
  0
LINE
  5
399
100
AcDbEntity
  8
0
  6
CONTINUOUS
 62
               4
100
AcDbLine
 10
-41.314996337890619
 20
63.99993896484375
 30
0.0
 11
-41.314996337890619
 21
68.598342895507813
 31
0.0
  0
LINE
  5
39A
100
AcDbEntity
  8
0
  6
CONTINUOUS
 62
               4
100
AcDbLine
 10
-39.884988403320307
 20
63.99993896484375
 30
0.0
 11
-39.884988403320307
 21
67.772735595703125
 31
0.0
  0
LINE
  5
39B
100
AcDbEntity
  8
0
  6
CONTINUOUS
 62
               4
100
AcDbLine
 10
-41.314996337890619
 20
71.99993896484375
 30
0.0
 11
-39.884988403320307
 21
71.99993896484375
 31
0.0
  0
LINE
  5
39C
100
AcDbEntity
  8
0
  6
CONTINUOUS
 62
               4
100
AcDbLine
 10
-39.884988403320307
 20
68.92742919921875
 30
0.0
 11
-39.884988403320307
 21
71.99993896484375
 31
0.0
  0
LINE
  5
39D
100
AcDbEntity
  8
0
  6
CONTINUOUS
 62
               4
100
AcDbLine
 10
-41.314996337890619
 20
69.7530517578125
 30
0.0
 11
-41.314996337890619
 21
71.99993896484375
 31
0.0
  0
LINE
  5
39E
100
AcDbEntity
  8
0
  6
CONTINUOUS
 62
               4
100
AcDbLine
 10
-38.814996337890619
 20
68.309677124023438
 30
0.0
 11
-38.814996337890619
 21
71.99993896484375
 31
0.0
  0
LINE
  5
39F
100
AcDbEntity
  8
0
  6
CONTINUOUS
 62
               4
100
AcDbLine
 10
-37.384988403320307
 20
67.484054565429688
 30
0.0
 11
-37.384988403320307
 21
71.99993896484375
 31
0.0
  0
LINE
  5
3A0
100
AcDbEntity
  8
0
  6
CONTINUOUS
 62
               4
100
AcDbLine
 10
-37.384988403320307
 20
71.99993896484375
 30
0.0
 11
-38.814996337890619
 21
71.99993896484375
 31
0.0
  0
LINE
  5
3A1
100
AcDbEntity
  8
0
  6
CONTINUOUS
 62
               4
100
AcDbLine
 10
-38.499993896484369
 20
71.99993896484375
 30
0.0
 11
-38.499993896484369
 21
76.99993896484375
 31
0.0
  0
LINE
  5
3A2
100
AcDbEntity
  8
0
  6
CONTINUOUS
 62
               4
100
AcDbLine
 10
-37.699990844726557
 20
71.99993896484375
 30
0.0
 11
-37.699990844726557
 21
76.999923706054688
 31
0.0
  0
LINE
  5
3A3
100
AcDbEntity
  8
0
  6
CONTINUOUS
 62
               4
100
AcDbLine
 10
-37.699990844726557
 20
76.999923706054688
 30
0.0
 11
-38.499993896484369
 21
76.999923706054688
 31
0.0
  0
LINE
  5
3A4
100
AcDbEntity
  8
0
  6
CONTINUOUS
 62
               4
100
AcDbLine
 10
-38.814996337890619
 20
63.99993896484375
 30
0.0
 11
-38.814996337890619
 21
67.15496826171875
 31
0.0
  0
LINE
  5
3A5
100
AcDbEntity
  8
0
  6
CONTINUOUS
 62
               4
100
AcDbLine
 10
-37.384988403320307
 20
63.99993896484375
 30
0.0
 11
-37.384988403320307
 21
66.329360961914063
 31
0.0
  0
LINE
  5
3A6
100
AcDbEntity
  8
0
  6
CONTINUOUS
 62
             200
100
AcDbLine
 10
-42.815003632682959
 20
70.619044774778558
 30
0.0
 11
-35.884974541119476
 21
66.617996210997262
 31
0.0
  0
LINE
  5
3A7
100
AcDbEntity
  8
0
  6
CONTINUOUS
 62
             200
100
AcDbLine
 10
-42.814979084308646
 20
69.464403779922577
 30
0.0
 11
-35.88496893078954
 21
65.46335187540717
 31
0.0
  0
LINE
  5
3A8
100
AcDbEntity
  8
0
  6
CONTINUOUS
 62
               4
100
AcDbLine
 10
-35.499984741210938
 20
57.49993896484375
 30
0.0
 11
-35.499984741210938
 21
52.99993896484375
 31
0.0
  0
LINE
  5
3A9
100
AcDbEntity
  8
0
  6
CONTINUOUS
 62
               4
100
AcDbLine
 10
-44.099984741210932
 20
57.49993896484375
 30
0.0
 11
-44.099984741210932
 21
52.99993896484375
 31
0.0
  0
LINE
  5
3AA
100
AcDbEntity
  8
0
  6
CONTINUOUS
 62
               4
100
AcDbLine
 10
-55.099984741210932
 20
45.449938964843767
 30
0.0
 11
-52.999984741210937
 21
45.449938964843767
 31
0.0
  0
LINE
  5
3AB
100
AcDbEntity
  8
0
  6
CONTINUOUS
 62
               4
100
AcDbLine
 10
-40.099984741210932
 20
45.449938964843767
 30
0.0
 11
-37.999984741210937
 21
45.449938964843767
 31
0.0
  0
LINE
  5
3AC
100
AcDbEntity
  8
0
  6
CONTINUOUS
 62
               4
100
AcDbLine
 10
-37.999984741210937
 20
46.399938964843756
 30
0.0
 11
-37.999984741210937
 21
45.449938964843767
 31
0.0
  0
LINE
  5
3AD
100
AcDbEntity
  8
0
  6
CONTINUOUS
 62
               4
100
AcDbLine
 10
-55.099984741210932
 20
46.399938964843756
 30
0.0
 11
-55.099984741210932
 21
45.449938964843767
 31
0.0
  0
LINE
  5
3AE
100
AcDbEntity
  8
0
  6
CONTINUOUS
 62
               4
100
AcDbLine
 10
-40.099984741210932
 20
46.399938964843756
 30
0.0
 11
-37.999984741210937
 21
46.399938964843756
 31
0.0
  0
LINE
  5
3AF
100
AcDbEntity
  8
0
  6
CONTINUOUS
 62
               4
100
AcDbLine
 10
-55.099984741210932
 20
46.399938964843756
 30
0.0
 11
-52.999984741210937
 21
46.399938964843756
 31
0.0
  0
LINE
  5
3B0
100
AcDbEntity
  8
0
  6
CONTINUOUS
 62
               4
100
AcDbLine
 10
-47.749984741210938
 20
44.49993896484375
 30
0.0
 11
-45.249984741210938
 21
44.49993896484375
 31
0.0
  0
LINE
  5
3B1
100
AcDbEntity
  8
0
  6
CONTINUOUS
 62
               4
100
AcDbLine
 10
-40.099984741210932
 20
46.399938964843756
 30
0.0
 11
-40.099984741210932
 21
45.449938964843767
 31
0.0
  0
LINE
  5
3B2
100
AcDbEntity
  8
0
  6
CONTINUOUS
 62
               4
100
AcDbLine
 10
-52.999984741210937
 20
46.399938964843756
 30
0.0
 11
-52.999984741210937
 21
45.449938964843767
 31
0.0
  0
LINE
  5
3B3
100
AcDbEntity
  8
0
  6
CONTINUOUS
 62
               4
100
AcDbLine
 10
-47.749984741210938
 20
44.49993896484375
 30
0.0
 11
-47.749984741210938
 21
43.99993896484375
 31
0.0
  0
LINE
  5
3B4
100
AcDbEntity
  8
0
  6
CONTINUOUS
 62
               4
100
AcDbLine
 10
-45.249984741210938
 20
44.49993896484375
 30
0.0
 11
-45.249984741210938
 21
43.99993896484375
 31
0.0
  0
ARC
  5
3B5
100
AcDbEntity
  8
0
  6
CONTINUOUS
 62
               4
100
AcDbCircle
 10
-58.502005136571512
 20
48.179549868773051
 30
0.0
 40
1.4979796551727449
100
AcDbArc
 50
155.95369022728892
 51
179.98511757963411
  0
ARC
  5
3B6
100
AcDbEntity
  8
0
  6
CONTINUOUS
 62
               4
100
AcDbCircle
 10
-57.674005579774985
 20
52.500038902290015
 30
0.0
 40
0.4999010215015999
100
AcDbArc
 50
90.112225923134773
 51
155.80262379109485
  0
LINE
  5
3B7
100
AcDbEntity
  8
0
  6
CONTINUOUS
 62
               4
100
AcDbLine
 10
-58.129984741210933
 20
52.704938964843763
 30
0.0
 11
-59.869984741210942
 21
48.789938964843742
 31
0.0
  0
LINE
  5
3B8
100
AcDbEntity
  8
0
  6
CONTINUOUS
 62
               4
100
AcDbLine
 10
-59.999984741210938
 20
48.179938964843757
 30
0.0
 11
-59.999984741210938
 21
43.99993896484375
 31
0.0
  0
ARC
  5
3B9
100
AcDbEntity
  8
0
  6
CONTINUOUS
 62
               4
100
AcDbCircle
 10
-33.499984741210938
 20
52.49993896484375
 30
0.0
 40
0.5
100
AcDbArc
 50
0.0
 51
89.999999999999815
  0
LINE
  5
3BA
100
AcDbEntity
  8
0
  6
CONTINUOUS
 62
               4
100
AcDbLine
 10
-35.149987792968744
 20
62.99993896484375
 30
0.0
 11
-35.149987792968744
 21
63.99993896484375
 31
0.0
  0
LINE
  5
3BB
100
AcDbEntity
  8
0
  6
CONTINUOUS
 62
               4
100
AcDbLine
 10
-32.999984741210938
 20
52.49993896484375
 30
0.0
 11
-32.999984741210938
 21
43.99993896484375
 31
0.0
  0
LINE
  5
3BC
100
AcDbEntity
  8
0
  6
CONTINUOUS
 62
               4
100
AcDbLine
 10
-32.999984741210938
 20
36.99993896484375
 30
0.0
 11
-34.599984741210932
 21
36.99993896484375
 31
0.0
  0
LINE
  5
3BD
100
AcDbEntity
  8
0
  6
CONTINUOUS
 62
               4
100
AcDbLine
 10
-33.69998474121094
 20
36.99993896484375
 30
0.0
 11
-33.69998474121094
 21
43.99993896484375
 31
0.0
  0
LINE
  5
3BE
100
AcDbEntity
  8
0
  6
CONTINUOUS
 62
               4
100
AcDbLine
 10
-34.599984741210932
 20
36.99993896484375
 30
0.0
 11
-34.599984741210932
 21
43.99993896484375
 31
0.0
  0
LINE
  5
3BF
100
AcDbEntity
  8
0
  6
CONTINUOUS
 62
               4
100
AcDbLine
 10
-32.999984741210938
 20
19.899948120117188
 30
0.0
 11
-32.999984741210938
 21
43.99993896484375
 31
0.0
  0
LINE
  5
3C0
100
AcDbEntity
  8
0
  6
CONTINUOUS
 62
               4
100
AcDbLine
 10
-59.999984741210938
 20
19.899948120117188
 30
0.0
 11
-59.999984741210938
 21
43.99993896484375
 31
0.0
  0
LINE
  5
3C1
100
AcDbEntity
  8
0
  6
CONTINUOUS
 62
               7
100
AcDbLine
 10
-30.499982740516742
 20
-3.5000534057617969
 30
0.0
 11
-29.999982740516742
 21
-3.500053443510744
 31
0.0
  0
LINE
  5
3C2
100
AcDbEntity
  8
0
  6
CONTINUOUS
 62
               7
100
AcDbLine
 10
-30.499986741905133
 20
-56.500053405761641
 30
0.0
 11
-29.999986741905136
 21
-56.500053443510588
 31
0.0
  0
LINE
  5
3C3
100
AcDbEntity
  8
0
  6
CONTINUOUS
 62
               7
100
AcDbLine
 10
-30.4999822686549
 20
2.7499465942381889
 30
0.0
 11
-29.999982268654904
 21
2.7499465564892418
 31
0.0
  0
LINE
  5
3C4
100
AcDbEntity
  8
0
  6
CONTINUOUS
 62
               7
100
AcDbLine
 10
-30.49998253289753
 20
-0.750053405761804
 30
0.0
 11
-29.999982532897533
 21
-0.7500534435107511
 31
0.0
  0
ENDBLK
  5
3C5
100
AcDbEntity
  8
0
100
AcDbBlockEnd
  0
BLOCK
  5
3C6
100
AcDbEntity
  8
0
100
AcDbBlockBegin
  2
F18T-10
 70
               0
 10
0.0
 20
0.0
 30
0.0
  3
F18T-10
  1

  0
LINE
  5
3C7
100
AcDbEntity
  8
0
  6
CONTINUOUS
 62
               7
100
AcDbLine
 10
-3.5
 20
30.0
 30
0.0
 11
-3.5
 21
0.0
 31
0.0
  0
LINE
  5
3C8
100
AcDbEntity
  8
0
  6
CONTINUOUS
 62
               7
100
AcDbLine
 10
30.5
 20
30.0
 30
0.0
 11
30.5
 21
0.0
 31
0.0
  0
LINE
  5
3C9
100
AcDbEntity
  8
0
  6
CONTINUOUS
 62
               7
100
AcDbLine
 10
-3.5
 20
0.0
 30
0.0
 11
30.5
 21
0.0
 31
0.0
  0
LINE
  5
3CA
100
AcDbEntity
  8
0
  6
CONTINUOUS
 62
               7
100
AcDbLine
 10
-3.5
 20
30.0
 30
0.0
 11
30.5
 21
30.0
 31
0.0
  0
LINE
  5
3CB
100
AcDbEntity
  8
0
  6
CONTINUOUS
 62
               7
100
AcDbLine
 10
7.5
 20
56.5
 30
0.0
 11
4.5
 21
56.5
 31
0.0
  0
LINE
  5
3CC
100
AcDbEntity
  8
0
  6
CONTINUOUS
 62
               7
100
AcDbLine
 10
22.0
 20
64.5
 30
0.0
 11
5.0
 21
64.5
 31
0.0
  0
LINE
  5
3CD
100
AcDbEntity
  8
0
  6
CONTINUOUS
 62
               7
100
AcDbLine
 10
4.5
 20
67.0
 30
0.0
 11
4.5
 21
30.0
 31
0.0
  0
LINE
  5
3CE
100
AcDbEntity
  8
0
  6
CONTINUOUS
 62
               7
100
AcDbLine
 10
22.5
 20
67.0
 30
0.0
 11
22.5
 21
30.0
 31
0.0
  0
LINE
  5
3CF
100
AcDbEntity
  8
0
  6
CONTINUOUS
 62
               2
100
AcDbLine
 10
13.5
 20
75.060000000000002
 30
0.0
 11
13.5
 21
-5.2000000000000002
 31
0.0
  0
LINE
  5
3D0
100
AcDbEntity
  8
0
  6
CONTINUOUS
 62
               7
100
AcDbLine
 10
7.0
 20
66.5
 30
0.0
 11
6.0
 21
65.5
 31
0.0
  0
LINE
  5
3D1
100
AcDbEntity
  8
0
  6
CONTINUOUS
 62
               7
100
AcDbLine
 10
21.0
 20
65.5
 30
0.0
 11
20.0
 21
66.5
 31
0.0
  0
LINE
  5
3D2
100
AcDbEntity
  8
0
  6
CONTINUOUS
 62
               7
100
AcDbLine
 10
6.0
 20
65.5
 30
0.0
 11
6.0
 21
64.5
 31
0.0
  0
LINE
  5
3D3
100
AcDbEntity
  8
0
  6
CONTINUOUS
 62
               7
100
AcDbLine
 10
7.5
 20
62.5
 30
0.0
 11
4.5
 21
62.5
 31
0.0
  0
LINE
  5
3D4
100
AcDbEntity
  8
0
  6
CONTINUOUS
 62
               7
100
AcDbLine
 10
18.43
 20
34.560000000000002
 30
0.0
 11
20.559999999999999
 21
32.43
 31
0.0
  0
LINE
  5
3D5
100
AcDbEntity
  8
0
  6
CONTINUOUS
 62
               7
100
AcDbLine
 10
20.559999999999999
 20
34.560000000000002
 30
0.0
 11
18.43
 21
32.43
 31
0.0
  0
LINE
  5
3D6
100
AcDbEntity
  8
0
  6
CONTINUOUS
 62
               7
100
AcDbLine
 10
16.5
 20
33.5
 30
0.0
 11
16.5
 21
30.5
 31
0.0
  0
LINE
  5
3D7
100
AcDbEntity
  8
0
  6
CONTINUOUS
 62
               7
100
AcDbLine
 10
4.5
 20
30.5
 30
0.0
 11
4.5
 21
30.0
 31
0.0
  0
LINE
  5
3D8
100
AcDbEntity
  8
0
  6
CONTINUOUS
 62
               7
100
AcDbLine
 10
22.5
 20
30.5
 30
0.0
 11
22.5
 21
30.0
 31
0.0
  0
LINE
  5
3D9
100
AcDbEntity
  8
0
  6
CONTINUOUS
 62
               7
100
AcDbLine
 10
19.5
 20
36.5
 30
0.0
 11
22.5
 21
36.5
 31
0.0
  0
LINE
  5
3DA
100
AcDbEntity
  8
0
  6
CONTINUOUS
 62
               7
100
AcDbLine
 10
21.0
 20
65.5
 30
0.0
 11
21.0
 21
64.5
 31
0.0
  0
LINE
  5
3DB
100
AcDbEntity
  8
0
  6
CONTINUOUS
 62
               7
100
AcDbLine
 10
20.0
 20
66.5
 30
0.0
 11
7.0
 21
66.5
 31
0.0
  0
LINE
  5
3DC
100
AcDbEntity
  8
0
  6
CONTINUOUS
 62
               7
100
AcDbLine
 10
6.4299999999999997
 20
58.43
 30
0.0
 11
8.5600000000000005
 21
60.560000000000002
 31
0.0
  0
LINE
  5
3DD
100
AcDbEntity
  8
0
  6
CONTINUOUS
 62
               7
100
AcDbLine
 10
8.5600000000000005
 20
58.43
 30
0.0
 11
6.4299999999999997
 21
60.560000000000002
 31
0.0
  0
LINE
  5
3DE
100
AcDbEntity
  8
0
  6
CONTINUOUS
 62
               7
100
AcDbLine
 10
22.5
 20
30.5
 30
0.0
 11
4.5
 21
30.5
 31
0.0
  0
LINE
  5
3DF
100
AcDbEntity
  8
0
  6
CONTINUOUS
 62
               7
100
AcDbLine
 10
5.0
 20
67.5
 30
0.0
 11
22.0
 21
67.5
 31
0.0
  0
LINE
  5
3E0
100
AcDbEntity
  8
0
  6
CONTINUOUS
 62
               7
100
AcDbLine
 10
6.0
 20
65.5
 30
0.0
 11
21.0
 21
65.5
 31
0.0
  0
LINE
  5
3E1
100
AcDbEntity
  8
0
  6
CONTINUOUS
 62
               2
100
AcDbLine
 10
0.0
 20
3.0
 30
0.0
 11
0.0
 21
-3.0
 31
0.0
  0
ARC
  5
3E2
100
AcDbEntity
  8
0
  6
CONTINUOUS
 62
               7
100
AcDbCircle
 10
22.0
 20
67.0
 30
0.0
 40
0.5
100
AcDbArc
 50
0.0
 51
89.999999999999815
  0
ARC
  5
3E3
100
AcDbEntity
  8
0
  6
CONTINUOUS
 62
               7
100
AcDbCircle
 10
5.0
 20
67.0
 30
0.0
 40
0.5
100
AcDbArc
 50
89.999999999999815
 51
179.99999999999963
  0
ARC
  5
3E4
100
AcDbEntity
  8
0
  6
CONTINUOUS
 62
               7
100
AcDbCircle
 10
19.5
 20
33.5
 30
0.0
 40
3.0
100
AcDbArc
 50
89.999999999999815
 51
179.99999999999963
  0
CIRCLE
  5
3E5
100
AcDbEntity
  8
0
  6
CONTINUOUS
 62
               7
100
AcDbCircle
 10
19.5
 20
33.5
 30
0.0
 40
2.7999992370605469
  0
CIRCLE
  5
3E6
100
AcDbEntity
  8
0
  6
CONTINUOUS
 62
               7
100
AcDbCircle
 10
7.5
 20
59.5
 30
0.0
 40
2.7999992370605469
  0
ARC
  5
3E7
100
AcDbEntity
  8
0
  6
CONTINUOUS
 62
               7
100
AcDbCircle
 10
22.0
 20
64.0
 30
0.0
 40
0.5
100
AcDbArc
 50
0.0
 51
89.999999999999815
  0
ARC
  5
3E8
100
AcDbEntity
  8
0
  6
CONTINUOUS
 62
               7
100
AcDbCircle
 10
5.0
 20
64.0
 30
0.0
 40
0.5
100
AcDbArc
 50
89.999999999999815
 51
179.99999999999963
  0
ARC
  5
3E9
100
AcDbEntity
  8
0
  6
CONTINUOUS
 62
               7
100
AcDbCircle
 10
7.5
 20
59.5
 30
0.0
 40
3.0
100
AcDbArc
 50
269.99999999999937
 51
89.999999999999801
  0
ENDBLK
  5
3EA
100
AcDbEntity
  8
0
100
AcDbBlockEnd
  0
BLOCK
  5
3EB
100
AcDbEntity
  8
0
100
AcDbBlockBegin
  2
F18T-11
 70
               0
 10
0.0
 20
0.0
 30
0.0
  3
F18T-11
  1

  0
LINE
  5
3EC
100
AcDbEntity
  8
0
  6
CONTINUOUS
 62
               7
100
AcDbLine
 10
36.500015258789063
 20
16.999988555908203
 30
0.0
 11
4.5
 21
16.999988555908203
 31
0.0
  0
LINE
  5
3ED
100
AcDbEntity
  8
0
  6
CONTINUOUS
 62
               7
100
AcDbLine
 10
38.500015258789063
 20
-35.999996185302734
 30
0.0
 11
4.5
 21
-35.999996185302734
 31
0.0
  0
LINE
  5
3EE
100
AcDbEntity
  8
0
  6
CONTINUOUS
 62
               7
100
AcDbLine
 10
-7.0
 20
-36.499996185302734
 30
0.0
 11
-7.0
 21
17.500003814697266
 31
0.0
  0
LINE
  5
3EF
100
AcDbEntity
  8
0
  6
CONTINUOUS
 62
               2
100
AcDbLine
 10
3.5
 20
-19.0
 30
0.0
 11
-3.5
 21
-19.0
 31
0.0
  0
LINE
  5
3F0
100
AcDbEntity
  8
0
  6
DASHED
 62
               4
100
AcDbLine
 10
22.0
 20
-60.999996185302734
 30
0.0
 11
-18.0
 21
-60.999996185302734
 31
0.0
  0
LINE
  5
3F1
100
AcDbEntity
  8
0
  6
DASHED
 62
               4
100
AcDbLine
 10
-18.0
 20
-60.999996185302734
 30
0.0
 11
-18.0
 21
-59.399990081787109
 31
0.0
  0
LINE
  5
3F2
100
AcDbEntity
  8
0
  6
DASHED
 62
               4
100
AcDbLine
 10
-8.0
 20
-59.399990081787109
 30
0.0
 11
-18.0
 21
-59.399990081787109
 31
0.0
  0
LINE
  5
3F3
100
AcDbEntity
  8
0
  6
DASHED
 62
               4
100
AcDbLine
 10
22.0
 20
-60.999996185302734
 30
0.0
 11
22.0
 21
9.9999885559082031
 31
0.0
  0
LINE
  5
3F4
100
AcDbEntity
  8
0
  6
DASHED
 62
               4
100
AcDbLine
 10
22.0
 20
9.9999885559082031
 30
0.0
 11
-8.0
 21
9.9999885559082031
 31
0.0
  0
LINE
  5
3F5
100
AcDbEntity
  8
0
  6
CONTINUOUS
 62
               2
100
AcDbLine
 10
0.0
 20
3.4999885559082031
 30
0.0
 11
0.0
 21
-3.5
 31
0.0
  0
LINE
  5
3F6
100
AcDbEntity
  8
0
  6
CONTINUOUS
 62
               2
100
AcDbLine
 10
3.5
 20
0.0
 30
0.0
 11
-3.5
 21
0.0
 31
0.0
  0
LINE
  5
3F7
100
AcDbEntity
  8
0
  6
DASHED
 62
               4
100
AcDbLine
 10
-8.0
 20
9.9999885559082031
 30
0.0
 11
-8.0
 21
-60.999996185302734
 31
0.0
  0
LINE
  5
3F8
100
AcDbEntity
  8
0
  6
CONTINUOUS
 62
               2
100
AcDbLine
 10
0.0
 20
-22.499996185302734
 30
0.0
 11
0.0
 21
-15.5
 31
0.0
  0
LINE
  5
3F9
100
AcDbEntity
  8
0
  6
CONTINUOUS
 62
               7
100
AcDbLine
 10
4.5
 20
-58.499980926513672
 30
0.0
 11
4.5
 21
26.999988555908203
 31
0.0
  0
LINE
  5
3FA
100
AcDbEntity
  8
0
  6
CONTINUOUS
 62
               7
100
AcDbLine
 10
36.5
 20
-38.999980926513672
 30
0.0
 11
36.5
 21
27.000003814697266
 31
0.0
  0
LINE
  5
3FB
100
AcDbEntity
  8
0
  6
CONTINUOUS
 62
               7
100
AcDbLine
 10
38.5
 20
-47.999980926513672
 30
0.0
 11
4.5
 21
-47.999980926513672
 31
0.0
  0
LINE
  5
3FC
100
AcDbEntity
  8
0
  6
CONTINUOUS
 62
               7
100
AcDbLine
 10
38.5
 20
-58.499996185302734
 30
0.0
 11
38.5
 21
-46.999980926513672
 31
0.0
  0
LINE
  5
3FD
100
AcDbEntity
  8
0
  6
CONTINUOUS
 62
               7
100
AcDbLine
 10
38.0
 20
-58.999980926513672
 30
0.0
 11
5.0
 21
-58.999980926513672
 31
0.0
  0
LINE
  5
3FE
100
AcDbEntity
  8
0
  6
CONTINUOUS
 62
               2
100
AcDbLine
 10
36.0
 20
37.200000762939453
 30
0.0
 11
33.29998779296875
 21
37.200000762939453
 31
0.0
  0
LINE
  5
3FF
100
AcDbEntity
  8
0
  6
CONTINUOUS
 62
               7
100
AcDbLine
 10
35.0
 20
35.250003814697266
 30
0.0
 11
35.0
 21
36.899997711181641
 31
0.0
  0
LINE
  5
400
100
AcDbEntity
  8
0
  6
CONTINUOUS
 62
               7
100
AcDbLine
 10
35.0
 20
35.250003814697266
 30
0.0
 11
34.0
 21
35.250003814697266
 31
0.0
  0
LINE
  5
401
100
AcDbEntity
  8
0
  6
CONTINUOUS
 62
               7
100
AcDbLine
 10
35.0
 20
39.149997711181641
 30
0.0
 11
34.0
 21
39.149997711181641
 31
0.0
  0
LINE
  5
402
100
AcDbEntity
  8
0
  6
CONTINUOUS
 62
               7
100
AcDbLine
 10
34.399993896484375
 20
36.899997711181641
 30
0.0
 11
34.399993896484375
 21
37.499988555908203
 31
0.0
  0
LINE
  5
403
100
AcDbEntity
  8
0
  6
CONTINUOUS
 62
               7
100
AcDbLine
 10
35.0
 20
36.899997711181641
 30
0.0
 11
34.399993896484375
 21
36.899997711181641
 31
0.0
  0
LINE
  5
404
100
AcDbEntity
  8
0
  6
CONTINUOUS
 62
               7
100
AcDbLine
 10
35.0
 20
37.500003814697266
 30
0.0
 11
34.399993896484375
 21
37.500003814697266
 31
0.0
  0
LINE
  5
405
100
AcDbEntity
  8
0
  6
CONTINUOUS
 62
               7
100
AcDbLine
 10
35.0
 20
37.499988555908203
 30
0.0
 11
35.0
 21
39.149997711181641
 31
0.0
  0
LINE
  5
406
100
AcDbEntity
  8
0
  6
CONTINUOUS
 62
               7
100
AcDbLine
 10
34.0
 20
29.500003814697266
 30
0.0
 11
34.0
 21
40.499988555908203
 31
0.0
  0
LINE
  5
407
100
AcDbEntity
  8
0
  6
CONTINUOUS
 62
               7
100
AcDbLine
 10
7.0
 20
29.500003814697266
 30
0.0
 11
7.0
 21
40.499988555908203
 31
0.0
  0
LINE
  5
408
100
AcDbEntity
  8
0
  6
CONTINUOUS
 62
               7
100
AcDbLine
 10
38.5
 20
-45.099987030029297
 30
0.0
 11
38.5
 21
-38.899990081787109
 31
0.0
  0
LINE
  5
409
100
AcDbEntity
  8
0
  6
CONTINUOUS
 62
               7
100
AcDbLine
 10
40.5
 20
-45.999980926513672
 30
0.0
 11
40.5
 21
-37.999980926513672
 31
0.0
  0
LINE
  5
40A
100
AcDbEntity
  8
0
  6
CONTINUOUS
 62
               7
100
AcDbLine
 10
39.499970461450346
 20
-37.000038762223653
 30
0.0
 11
40.499973461796969
 21
-38.000037969349819
 31
0.0
  0
LINE
  5
40B
100
AcDbEntity
  8
0
  6
CONTINUOUS
 62
               7
100
AcDbLine
 10
39.500020113481185
 20
-47.00002080474485
 30
0.0
 11
40.500003473463039
 21
-46.000022187741706
 31
0.0
  0
LINE
  5
40C
100
AcDbEntity
  8
0
  6
CONTINUOUS
 62
               7
100
AcDbLine
 10
39.300003051757813
 20
-45.099987030029297
 30
0.0
 11
39.300003051757813
 21
-38.899990081787109
 31
0.0
  0
LINE
  5
40D
100
AcDbEntity
  8
0
  6
CONTINUOUS
 62
               7
100
AcDbLine
 10
39.5
 20
-46.999980926513672
 30
0.0
 11
39.5
 21
-36.999980926513672
 31
0.0
  0
LINE
  5
40E
100
AcDbEntity
  8
0
  6
CONTINUOUS
 62
               7
100
AcDbLine
 10
38.5
 20
-44.999980926513672
 30
0.0
 11
36.5
 21
-44.999980926513672
 31
0.0
  0
LINE
  5
40F
100
AcDbEntity
  8
0
  6
CONTINUOUS
 62
               7
100
AcDbLine
 10
38.5
 20
-38.999980926513672
 30
0.0
 11
36.5
 21
-38.999980926513672
 31
0.0
  0
LINE
  5
410
100
AcDbEntity
  8
0
  6
CONTINUOUS
 62
               7
100
AcDbLine
 10
37.5
 20
-47.999980926513672
 30
0.0
 11
37.5
 21
-46.999980926513672
 31
0.0
  0
LINE
  5
411
100
AcDbEntity
  8
0
  6
CONTINUOUS
 62
               7
100
AcDbLine
 10
36.5
 20
-47.999980926513672
 30
0.0
 11
36.5
 21
-44.999980926513672
 31
0.0
  0
LINE
  5
412
100
AcDbEntity
  8
0
  6
CONTINUOUS
 62
               7
100
AcDbLine
 10
37.5
 20
-38.999980926513672
 30
0.0
 11
37.5
 21
-38.899990081787109
 31
0.0
  0
LINE
  5
413
100
AcDbEntity
  8
0
  6
CONTINUOUS
 62
               7
100
AcDbLine
 10
36.599990844726563
 20
-46.999980926513672
 30
0.0
 11
36.599990844726563
 21
-45.099987030029297
 31
0.0
  0
LINE
  5
414
100
AcDbEntity
  8
0
  6
CONTINUOUS
 62
               7
100
AcDbLine
 10
39.300003051757813
 20
-38.899990081787109
 30
0.0
 11
36.600006103515625
 21
-38.899990081787109
 31
0.0
  0
LINE
  5
415
100
AcDbEntity
  8
0
  6
CONTINUOUS
 62
               7
100
AcDbLine
 10
39.300003051757813
 20
-45.099987030029297
 30
0.0
 11
36.600006103515625
 21
-45.099987030029297
 31
0.0
  0
LINE
  5
416
100
AcDbEntity
  8
0
  6
CONTINUOUS
 62
               7
100
AcDbLine
 10
36.599990844726563
 20
-38.899990081787109
 30
0.0
 11
36.599990844726563
 21
-36.999980926513672
 31
0.0
  0
LINE
  5
417
100
AcDbEntity
  8
0
  6
CONTINUOUS
 62
               7
100
AcDbLine
 10
39.5
 20
-46.999980926513672
 30
0.0
 11
36.600006103515625
 21
-46.999980926513672
 31
0.0
  0
LINE
  5
418
100
AcDbEntity
  8
0
  6
CONTINUOUS
 62
               7
100
AcDbLine
 10
39.5
 20
-36.999980926513672
 30
0.0
 11
36.600006103515625
 21
-36.999980926513672
 31
0.0
  0
LINE
  5
419
100
AcDbEntity
  8
0
  6
CONTINUOUS
 62
               7
100
AcDbLine
 10
38.5
 20
-36.999980926513672
 30
0.0
 11
38.5
 21
-35.999996185302734
 31
0.0
  0
LINE
  5
41A
100
AcDbEntity
  8
0
  6
CONTINUOUS
 62
               7
100
AcDbLine
 10
37.5
 20
-45.099987030029297
 30
0.0
 11
37.5
 21
-44.999980926513672
 31
0.0
  0
LINE
  5
41B
100
AcDbEntity
  8
0
  6
CONTINUOUS
 62
               7
100
AcDbLine
 10
37.5
 20
-36.999980926513672
 30
0.0
 11
37.5
 21
-35.999996185302734
 31
0.0
  0
LINE
  5
41C
100
AcDbEntity
  8
0
  6
CONTINUOUS
 62
               7
100
AcDbLine
 10
36.5
 20
27.000003814697266
 30
0.0
 11
4.5
 21
27.000003814697266
 31
0.0
  0
LINE
  5
41D
100
AcDbEntity
  8
0
  6
CONTINUOUS
 62
               7
100
AcDbLine
 10
36.699996948242188
 20
-58.999980926513672
 30
0.0
 11
36.699996948242188
 21
-56.499980926513672
 31
0.0
  0
LINE
  5
41E
100
AcDbEntity
  8
0
  6
CONTINUOUS
 62
               7
100
AcDbLine
 10
30.300003051757812
 20
-58.999980926513672
 30
0.0
 11
30.300003051757812
 21
-56.499980926513672
 31
0.0
  0
LINE
  5
41F
100
AcDbEntity
  8
0
  6
CONTINUOUS
 62
               7
100
AcDbLine
 10
36.699996948242188
 20
-56.499980926513672
 30
0.0
 11
30.300003051757812
 21
-56.499980926513672
 31
0.0
  0
LINE
  5
420
100
AcDbEntity
  8
0
  6
CONTINUOUS
 62
               7
100
AcDbLine
 10
34.75
 20
-58.499980926513672
 30
0.0
 11
32.25
 21
-58.499980926513672
 31
0.0
  0
LINE
  5
421
100
AcDbEntity
  8
0
  6
CONTINUOUS
 62
               7
100
AcDbLine
 10
36.25
 20
-56.999980926513672
 30
0.0
 11
36.25
 21
-56.499980926513672
 31
0.0
  0
LINE
  5
422
100
AcDbEntity
  8
0
  6
CONTINUOUS
 62
               7
100
AcDbLine
 10
30.75
 20
-56.999980926513672
 30
0.0
 11
30.75
 21
-56.499980926513672
 31
0.0
  0
LINE
  5
423
100
AcDbEntity
  8
0
  6
CONTINUOUS
 62
               7
100
AcDbLine
 10
8.0
 20
30.999988555908203
 30
0.0
 11
7.0
 21
30.999988555908203
 31
0.0
  0
LINE
  5
424
100
AcDbEntity
  8
0
  6
CONTINUOUS
 62
               7
100
AcDbLine
 10
8.0
 20
29.500003814697266
 30
0.0
 11
8.0
 21
30.999988555908203
 31
0.0
  0
LINE
  5
425
100
AcDbEntity
  8
0
  6
CONTINUOUS
 62
               7
100
AcDbLine
 10
29.699996948242187
 20
30.999988555908203
 30
0.0
 11
10.5
 21
30.999988555908203
 31
0.0
  0
LINE
  5
426
100
AcDbEntity
  8
0
  6
CONTINUOUS
 62
               7
100
AcDbLine
 10
10.5
 20
29.500003814697266
 30
0.0
 11
10.5
 21
30.999988555908203
 31
0.0
  0
LINE
  5
427
100
AcDbEntity
  8
0
  6
CONTINUOUS
 62
               7
100
AcDbLine
 10
29.699996948242187
 20
29.500003814697266
 30
0.0
 11
29.699996948242187
 21
30.999988555908203
 31
0.0
  0
LINE
  5
428
100
AcDbEntity
  8
0
  6
CONTINUOUS
 62
               7
100
AcDbLine
 10
32.699996948242188
 20
29.500003814697266
 30
0.0
 11
32.699996948242188
 21
30.999988555908203
 31
0.0
  0
LINE
  5
429
100
AcDbEntity
  8
0
  6
CONTINUOUS
 62
               7
100
AcDbLine
 10
34.0
 20
30.999988555908203
 30
0.0
 11
32.699996948242188
 21
30.999988555908203
 31
0.0
  0
CIRCLE
  5
42A
100
AcDbEntity
  8
0
  6
CONTINUOUS
 62
               7
100
AcDbCircle
 10
0.0
 20
0.0
 30
0.0
 40
2.25
  0
CIRCLE
  5
42B
100
AcDbEntity
  8
0
  6
CONTINUOUS
 62
               7
100
AcDbCircle
 10
0.0
 20
-19.0
 30
0.0
 40
2.25
  0
ARC
  5
42C
100
AcDbEntity
  8
0
  6
CONTINUOUS
 62
               7
100
AcDbCircle
 10
5.0
 20
-58.499980926513672
 30
0.0
 40
0.5
100
AcDbArc
 50
179.99998133066492
 51
270.00007262760209
  0
ARC
  5
42D
100
AcDbEntity
  8
0
  6
CONTINUOUS
 62
               7
100
AcDbCircle
 10
38.0
 20
-58.499980926513672
 30
0.0
 40
0.5
100
AcDbArc
 50
270.00007262760209
 51
0.0000409811350201
  0
ARC
  5
42E
100
AcDbEntity
  8
0
  6
CONTINUOUS
 62
               7
100
AcDbCircle
 10
7.499969482421875
 20
30.000064849853516
 30
0.0
 40
2.5000734329223633
100
AcDbArc
 50
220.54037790397877
 51
348.46195609548801
  0
ARC
  5
42F
100
AcDbEntity
  8
0
  6
CONTINUOUS
 62
               7
100
AcDbCircle
 10
32.25
 20
-56.999980926513672
 30
0.0
 40
1.5
100
AcDbArc
 50
179.99998133066492
 51
270.00001798608872
  0
ARC
  5
430
100
AcDbEntity
  8
0
  6
CONTINUOUS
 62
               7
100
AcDbCircle
 10
34.75
 20
-56.999980926513672
 30
0.0
 40
1.5
100
AcDbArc
 50
270.00001798608872
 51
0.0
  0
LINE
  5
431
100
AcDbEntity
  8
0
  6
CONTINUOUS
 62
               7
100
AcDbLine
 10
34.5
 20
29.500003814697266
 30
0.0
 11
6.5
 21
29.500003814697266
 31
0.0
  0
LINE
  5
432
100
AcDbEntity
  8
0
  6
CONTINUOUS
 62
               7
100
AcDbLine
 10
36.500008615770412
 20
27.000010310413984
 30
0.0
 11
34.50000868674897
 21
29.500010221690786
 31
0.0
  0
LINE
  5
433
100
AcDbEntity
  8
0
  6
CONTINUOUS
 62
               7
100
AcDbLine
 10
4.4999957511698767
 20
27.000011352986348
 30
0.0
 11
6.4999998504807763
 21
29.500016477124973
 31
0.0
  0
LINE
  5
434
100
AcDbEntity
  8
0
  6
CONTINUOUS
 62
               7
100
AcDbLine
 10
-7.0
 20
17.500003814697266
 30
0.0
 11
4.0
 21
17.500003814697266
 31
0.0
  0
LINE
  5
435
100
AcDbEntity
  8
0
  6
CONTINUOUS
 62
               7
100
AcDbLine
 10
-7.0
 20
-36.499996185302734
 30
0.0
 11
4.0
 21
-36.499996185302734
 31
0.0
  0
LINE
  5
436
100
AcDbEntity
  8
0
  6
CONTINUOUS
 62
               7
100
AcDbLine
 10
4.0
 20
-36.499996185302734
 30
0.0
 11
4.0
 21
17.500003814697266
 31
0.0
  0
LINE
  5
437
100
AcDbEntity
  8
0
  6
CONTINUOUS
 62
               4
100
AcDbLine
 10
18.099999999999994
 20
73.499988555908203
 30
0.0
 11
31.674999999999983
 21
73.499988555908203
 31
0.0
  0
LINE
  5
438
100
AcDbEntity
  8
0
  6
CONTINUOUS
 62
               4
100
AcDbLine
 10
34.0
 20
40.499988555908203
 30
0.0
 11
34.0
 21
64.499988555908203
 31
0.0
  0
LINE
  5
439
100
AcDbEntity
  8
0
  6
CONTINUOUS
 62
               4
100
AcDbLine
 10
7.0
 20
40.499988555908203
 30
0.0
 11
7.0
 21
64.499988555908203
 31
0.0
  0
LINE
  5
43A
100
AcDbEntity
  8
0
  6
CONTINUOUS
 62
               4
100
AcDbLine
 10
7.0
 20
72.999988555908203
 30
0.0
 11
7.0
 21
64.499988555908203
 31
0.0
  0
LINE
  5
43B
100
AcDbEntity
  8
0
  6
CONTINUOUS
 62
               4
100
AcDbLine
 10
27.0
 20
66.899988555908209
 30
0.0
 11
27.0
 21
65.94998855590822
 31
0.0
  0
LINE
  5
43C
100
AcDbEntity
  8
0
  6
CONTINUOUS
 62
               4
100
AcDbLine
 10
14.099999999999994
 20
66.899988555908209
 30
0.0
 11
14.099999999999994
 21
65.94998855590822
 31
0.0
  0
LINE
  5
43D
100
AcDbEntity
  8
0
  6
CONTINUOUS
 62
               4
100
AcDbLine
 10
29.099999999999994
 20
66.899988555908209
 30
0.0
 11
27.0
 21
66.899988555908209
 31
0.0
  0
LINE
  5
43E
100
AcDbEntity
  8
0
  6
CONTINUOUS
 62
               4
100
AcDbLine
 10
14.099999999999994
 20
66.899988555908209
 30
0.0
 11
12.0
 21
66.899988555908209
 31
0.0
  0
LINE
  5
43F
100
AcDbEntity
  8
0
  6
CONTINUOUS
 62
               4
100
AcDbLine
 10
34.0
 20
68.67998855590821
 30
0.0
 11
34.0
 21
64.499988555908203
 31
0.0
  0
LINE
  5
440
100
AcDbEntity
  8
0
  6
CONTINUOUS
 62
               4
100
AcDbLine
 10
32.129999999999995
 20
73.204988555908216
 30
0.0
 11
33.870000000000005
 21
69.289988555908195
 31
0.0
  0
ARC
  5
441
100
AcDbEntity
  8
0
  6
CONTINUOUS
 62
               4
100
AcDbCircle
 10
31.674020838564047
 20
73.000088493354468
 30
0.0
 40
0.4999010215015999
100
AcDbArc
 50
24.197376208904771
 51
89.887774076864815
  0
ARC
  5
442
100
AcDbEntity
  8
0
  6
CONTINUOUS
 62
               4
100
AcDbCircle
 10
32.502020395360574
 20
68.679599459837505
 30
0.0
 40
1.4979796551727449
100
AcDbArc
 50
0.0148824203654679
 51
24.046309772710686
  0
LINE
  5
443
100
AcDbEntity
  8
0
  6
CONTINUOUS
 62
               4
100
AcDbLine
 10
29.099999999999994
 20
66.899988555908209
 30
0.0
 11
29.099999999999994
 21
65.94998855590822
 31
0.0
  0
LINE
  5
444
100
AcDbEntity
  8
0
  6
CONTINUOUS
 62
               4
100
AcDbLine
 10
12.0
 20
66.899988555908209
 30
0.0
 11
12.0
 21
65.94998855590822
 31
0.0
  0
LINE
  5
445
100
AcDbEntity
  8
0
  6
CONTINUOUS
 62
               4
100
AcDbLine
 10
14.099999999999994
 20
65.94998855590822
 30
0.0
 11
12.0
 21
65.94998855590822
 31
0.0
  0
LINE
  5
446
100
AcDbEntity
  8
0
  6
CONTINUOUS
 62
               4
100
AcDbLine
 10
29.099999999999994
 20
65.94998855590822
 30
0.0
 11
27.0
 21
65.94998855590822
 31
0.0
  0
LINE
  5
447
100
AcDbEntity
  8
0
  6
CONTINUOUS
 62
               4
100
AcDbLine
 10
9.5
 20
77.999988555908203
 30
0.0
 11
9.5
 21
73.499988555908203
 31
0.0
  0
LINE
  5
448
100
AcDbEntity
  8
0
  6
CONTINUOUS
 62
               4
100
AcDbLine
 10
9.5
 20
73.499988555908203
 30
0.0
 11
7.5
 21
73.499988555908203
 31
0.0
  0
ARC
  5
449
100
AcDbEntity
  8
0
  6
CONTINUOUS
 62
               4
100
AcDbCircle
 10
7.5
 20
72.999988555908203
 30
0.0
 40
0.5
100
AcDbArc
 50
89.999999999999815
 51
179.99999999999963
  0
LINE
  5
44A
100
AcDbEntity
  8
0
  6
CONTINUOUS
 62
               4
100
AcDbLine
 10
21.75
 20
64.999988555908203
 30
0.0
 11
21.75
 21
64.499988555908203
 31
0.0
  0
LINE
  5
44B
100
AcDbEntity
  8
0
  6
CONTINUOUS
 62
               4
100
AcDbLine
 10
19.25
 20
64.999988555908203
 30
0.0
 11
19.25
 21
64.499988555908203
 31
0.0
  0
LINE
  5
44C
100
AcDbEntity
  8
0
  6
CONTINUOUS
 62
               4
100
AcDbLine
 10
19.25
 20
64.999988555908203
 30
0.0
 11
21.75
 21
64.999988555908203
 31
0.0
  0
LINE
  5
44D
100
AcDbEntity
  8
0
  6
CONTINUOUS
 62
             200
100
AcDbLine
 10
16.814994343097709
 20
89.96445337098703
 30
0.0
 11
9.8849841895786028
 21
85.963401466471623
 31
0.0
  0
LINE
  5
44E
100
AcDbEntity
  8
0
  6
CONTINUOUS
 62
             200
100
AcDbLine
 10
16.815018891472022
 20
91.119094365843011
 30
0.0
 11
9.8849897999085385
 21
87.118045802061715
 31
0.0
  0
LINE
  5
44F
100
AcDbEntity
  8
0
  6
CONTINUOUS
 62
               4
100
AcDbLine
 10
11.385003662109369
 20
84.499988555908203
 30
0.0
 11
11.385003662109369
 21
86.829410552978516
 31
0.0
  0
LINE
  5
450
100
AcDbEntity
  8
0
  6
CONTINUOUS
 62
               4
100
AcDbLine
 10
12.815011596679682
 20
84.499988555908203
 30
0.0
 11
12.815011596679682
 21
87.655017852783203
 31
0.0
  0
LINE
  5
451
100
AcDbEntity
  8
0
  6
CONTINUOUS
 62
               4
100
AcDbLine
 10
11.700006103515619
 20
97.499988555908203
 30
0.0
 11
12.500009155273432
 21
97.499988555908203
 31
0.0
  0
LINE
  5
452
100
AcDbEntity
  8
0
  6
CONTINUOUS
 62
               4
100
AcDbLine
 10
11.700006103515619
 20
92.499988555908203
 30
0.0
 11
11.700006103515619
 21
97.499973297119141
 31
0.0
  0
LINE
  5
453
100
AcDbEntity
  8
0
  6
CONTINUOUS
 62
               4
100
AcDbLine
 10
12.500009155273432
 20
92.499988555908203
 30
0.0
 11
12.500009155273432
 21
97.499988555908203
 31
0.0
  0
LINE
  5
454
100
AcDbEntity
  8
0
  6
CONTINUOUS
 62
               4
100
AcDbLine
 10
11.385003662109369
 20
92.499988555908203
 30
0.0
 11
12.815011596679682
 21
92.499988555908203
 31
0.0
  0
LINE
  5
455
100
AcDbEntity
  8
0
  6
CONTINUOUS
 62
               4
100
AcDbLine
 10
11.385003662109369
 20
87.984104156494141
 30
0.0
 11
11.385003662109369
 21
92.499988555908203
 31
0.0
  0
LINE
  5
456
100
AcDbEntity
  8
0
  6
CONTINUOUS
 62
               4
100
AcDbLine
 10
12.815011596679682
 20
88.809726715087891
 30
0.0
 11
12.815011596679682
 21
92.499988555908203
 31
0.0
  0
LINE
  5
457
100
AcDbEntity
  8
0
  6
CONTINUOUS
 62
               7
100
AcDbLine
 10
7.0
 20
40.499988555908203
 30
0.0
 11
34.0
 21
40.499988555908203
 31
0.0
  0
LINE
  5
458
100
AcDbEntity
  8
0
  6
CONTINUOUS
 62
               4
100
AcDbLine
 10
15.315011596679682
 20
90.253101348876953
 30
0.0
 11
15.315011596679682
 21
92.499988555908203
 31
0.0
  0
LINE
  5
459
100
AcDbEntity
  8
0
  6
CONTINUOUS
 62
               4
100
AcDbLine
 10
13.885003662109369
 20
89.427478790283203
 30
0.0
 11
13.885003662109369
 21
92.499988555908203
 31
0.0
  0
LINE
  5
45A
100
AcDbEntity
  8
0
  6
CONTINUOUS
 62
               4
100
AcDbLine
 10
15.315011596679682
 20
92.499988555908203
 30
0.0
 11
13.885003662109369
 21
92.499988555908203
 31
0.0
  0
LINE
  5
45B
100
AcDbEntity
  8
0
  6
CONTINUOUS
 62
               4
100
AcDbLine
 10
13.885003662109369
 20
84.499988555908203
 30
0.0
 11
13.885003662109369
 21
88.272785186767578
 31
0.0
  0
LINE
  5
45C
100
AcDbEntity
  8
0
  6
CONTINUOUS
 62
               4
100
AcDbLine
 10
15.315011596679682
 20
84.499988555908203
 30
0.0
 11
15.315011596679682
 21
89.098392486572266
 31
0.0
  0
LINE
  5
45D
100
AcDbEntity
  8
0
  6
CONTINUOUS
 62
               4
100
AcDbLine
 10
15.000009155273432
 20
92.499988555908203
 30
0.0
 11
15.000009155273432
 21
97.499988555908203
 31
0.0
  0
LINE
  5
45E
100
AcDbEntity
  8
0
  6
CONTINUOUS
 62
               4
100
AcDbLine
 10
14.200006103515619
 20
92.499988555908203
 30
0.0
 11
14.200006103515619
 21
97.499988555908203
 31
0.0
  0
LINE
  5
45F
100
AcDbEntity
  8
0
  6
CONTINUOUS
 62
               4
100
AcDbLine
 10
15.000009155273432
 20
97.499988555908203
 30
0.0
 11
14.200006103515619
 21
97.499988555908203
 31
0.0
  0
LINE
  5
460
100
AcDbEntity
  8
0
  6
CONTINUOUS
 62
               4
100
AcDbLine
 10
20.150003051757807
 20
82.999988555908203
 30
0.0
 11
20.150003051757807
 21
84.499988555908203
 31
0.0
  0
LINE
  5
461
100
AcDbEntity
  8
0
  6
CONTINUOUS
 62
               4
100
AcDbLine
 10
18.150044511604023
 20
83.499947498809888
 30
0.0
 11
18.727396327367927
 21
84.499956203764668
 31
0.0
  0
LINE
  5
462
100
AcDbEntity
  8
0
  6
CONTINUOUS
 62
               4
100
AcDbLine
 10
18.150003051757807
 20
77.999988555908203
 30
0.0
 11
18.150003051757807
 21
84.499988555908203
 31
0.0
  0
LINE
  5
463
100
AcDbEntity
  8
0
  6
CONTINUOUS
 62
               4
100
AcDbLine
 10
19.150001302236518
 20
73.998439297667574
 30
0.0
 11
19.650000411113609
 21
77.556127381356418
 31
0.0
  0
LINE
  5
464
100
AcDbEntity
  8
0
  6
CONTINUOUS
 62
               4
100
AcDbLine
 10
19.650003051757807
 20
77.556140899658203
 30
0.0
 11
19.650003051757807
 21
82.999988555908203
 31
0.0
  0
LINE
  5
465
100
AcDbEntity
  8
0
  6
CONTINUOUS
 62
               4
100
AcDbLine
 10
9.1499877929687443
 20
83.499988555908203
 30
0.0
 11
9.6499877929687443
 21
83.499988555908203
 31
0.0
  0
LINE
  5
466
100
AcDbEntity
  8
0
  6
CONTINUOUS
 62
               4
100
AcDbLine
 10
9.1500030517578068
 20
83.499988555908203
 30
0.0
 11
9.1500030517578068
 21
84.499988555908203
 31
0.0
  0
LINE
  5
467
100
AcDbEntity
  8
0
  6
CONTINUOUS
 62
               4
100
AcDbLine
 10
9.6500030517578068
 20
77.999988555908203
 30
0.0
 11
9.6500030517578068
 21
83.499988555908203
 31
0.0
  0
LINE
  5
468
100
AcDbEntity
  8
0
  6
CONTINUOUS
 62
               4
100
AcDbLine
 10
18.150000209407693
 20
73.998462707778344
 30
0.0
 11
18.099979656101453
 21
74.048483261084584
 31
0.0
  0
LINE
  5
469
100
AcDbEntity
  8
0
  6
CONTINUOUS
 62
               4
100
AcDbLine
 10
19.649995422363276
 20
82.999988555908203
 30
0.0
 11
20.149995422363276
 21
82.999988555908203
 31
0.0
  0
LINE
  5
46A
100
AcDbEntity
  8
0
  6
CONTINUOUS
 62
               4
100
AcDbLine
 10
18.150003051757807
 20
75.498447418212891
 30
0.0
 11
18.150003051757807
 21
77.999988555908203
 31
0.0
  0
LINE
  5
46B
100
AcDbEntity
  8
0
  6
CONTINUOUS
 62
               4
100
AcDbLine
 10
18.150003051757807
 20
73.998447418212891
 30
0.0
 11
19.149995422363276
 21
73.998447418212891
 31
0.0
  0
LINE
  5
46C
100
AcDbEntity
  8
0
  6
CONTINUOUS
 62
               4
100
AcDbLine
 10
18.099999999999994
 20
75.498447418212891
 30
0.0
 11
18.150003051757807
 21
75.498447418212891
 31
0.0
  0
LINE
  5
46D
100
AcDbEntity
  8
0
  6
CONTINUOUS
 62
               4
100
AcDbLine
 10
18.727349853515619
 20
84.499988555908203
 30
0.0
 11
20.149995422363276
 21
84.499988555908203
 31
0.0
  0
LINE
  5
46E
100
AcDbEntity
  8
0
  6
CONTINUOUS
 62
               4
100
AcDbLine
 10
9.5
 20
77.999988555908203
 30
0.0
 11
18.150003051757807
 21
77.999988555908203
 31
0.0
  0
LINE
  5
46F
100
AcDbEntity
  8
0
  6
CONTINUOUS
 62
               4
100
AcDbLine
 10
9.1499877929687443
 20
84.499988555908203
 30
0.0
 11
18.149987792968744
 21
84.499988555908203
 31
0.0
  0
LINE
  5
470
100
AcDbEntity
  8
0
  6
CONTINUOUS
 62
               4
100
AcDbLine
 10
18.099999999999994
 20
77.999988555908203
 30
0.0
 11
18.099999999999994
 21
73.499988555908203
 31
0.0
  0
LINE
  5
471
100
AcDbEntity
  8
0
  6
CONTINUOUS
 62
               4
100
AcDbLine
 10
7.0
 20
64.499988555908203
 30
0.0
 11
33.999992370605469
 21
64.499988555908203
 31
0.0
  0
LINE
  5
472
100
AcDbEntity
  8
0
  6
CONTINUOUS
 62
               4
100
AcDbLine
 10
7.0
 20
57.499988555908203
 30
0.0
 11
8.6000137329101562
 21
57.499988555908203
 31
0.0
  0
LINE
  5
473
100
AcDbEntity
  8
0
  6
CONTINUOUS
 62
               4
100
AcDbLine
 10
7.700013732910179
 20
57.499988555908203
 30
0.0
 11
7.700013732910179
 21
64.499988555908203
 31
0.0
  0
LINE
  5
474
100
AcDbEntity
  8
0
  6
CONTINUOUS
 62
               4
100
AcDbLine
 10
8.6000137329101562
 20
57.499988555908203
 30
0.0
 11
8.6000137329101562
 21
64.499988555908203
 31
0.0
  0
LINE
  5
475
100
AcDbEntity
  8
0
  6
CONTINUOUS
 62
               7
100
AcDbLine
 10
44.500007629394531
 20
-26.499996185302734
 30
0.0
 11
36.5
 21
-26.499996185302734
 31
0.0
  0
LINE
  5
476
100
AcDbEntity
  8
0
  6
CONTINUOUS
 62
               7
100
AcDbLine
 10
41.405267922553264
 20
-32.499996185302734
 30
0.0
 11
36.5
 21
-32.499996185302734
 31
0.0
  0
LINE
  5
477
100
AcDbEntity
  8
0
  6
CONTINUOUS
 62
               7
100
AcDbLine
 10
37.699996948242187
 20
-26.749996185302749
 30
0.0
 11
37.199996948242188
 21
-26.749996185302749
 31
0.0
  0
LINE
  5
478
100
AcDbEntity
  8
0
  6
CONTINUOUS
 62
               7
100
AcDbLine
 10
37.699996948242187
 20
-32.249980926513686
 30
0.0
 11
37.199996948242188
 21
-32.249980926513686
 31
0.0
  0
LINE
  5
479
100
AcDbEntity
  8
0
  6
CONTINUOUS
 62
               2
100
AcDbLine
 10
69.100007629394526
 20
-0.0000038146972656
 30
0.0
 11
35.500007629394531
 21
-0.0000038146972656
 31
0.0
  0
LINE
  5
47A
100
AcDbEntity
  8
0
  6
CONTINUOUS
 62
               7
100
AcDbLine
 10
39.500007629394531
 20
16.799996185302746
 30
0.0
 11
36.500007629394531
 21
16.799996185302746
 31
0.0
  0
LINE
  5
47B
100
AcDbEntity
  8
0
  6
CONTINUOUS
 62
               7
100
AcDbLine
 10
39.500007629394531
 20
-35.800003814697277
 30
0.0
 11
36.500007629394531
 21
-35.800003814697277
 31
0.0
  0
LINE
  5
47C
100
AcDbEntity
  8
0
  6
CONTINUOUS
 62
               2
100
AcDbLine
 10
69.100007629394526
 20
-19.000003814697266
 30
0.0
 11
35.500007629394531
 21
-19.000003814697266
 31
0.0
  0
LINE
  5
47D
100
AcDbEntity
  8
0
  6
CONTINUOUS
 62
               7
100
AcDbLine
 10
41.499999999999943
 20
13.335907784664016
 30
0.0
 11
44.500007629394531
 21
8.1397421474583211
 31
0.0
  0
LINE
  5
47E
100
AcDbEntity
  8
0
  6
CONTINUOUS
 62
               7
100
AcDbLine
 10
39.500007629394531
 20
-35.800003814697277
 30
0.0
 11
44.500007629394531
 21
-27.139749776852852
 31
0.0
  0
LINE
  5
47F
100
AcDbEntity
  8
0
  6
CONTINUOUS
 62
               7
100
AcDbLine
 10
60.300007629394543
 20
-10.000003814697266
 30
0.0
 11
60.300007629394543
 21
-28.000003814697266
 31
0.0
  0
LINE
  5
480
100
AcDbEntity
  8
0
  6
CONTINUOUS
 62
               7
100
AcDbLine
 10
61.500007629394531
 20
-10.000003814697266
 30
0.0
 11
61.500007629394531
 21
-28.000003814697266
 31
0.0
  0
LINE
  5
481
100
AcDbEntity
  8
0
  6
CONTINUOUS
 62
               7
100
AcDbLine
 10
63.864920629394533
 20
-10.000003814697266
 30
0.0
 11
63.864920629394533
 21
-28.000003814697266
 31
0.0
  0
LINE
  5
482
100
AcDbEntity
  8
0
  6
CONTINUOUS
 62
               7
100
AcDbLine
 10
64.300006629394545
 20
-10.753594214697273
 30
0.0
 11
64.300006629394545
 21
-27.246413414697273
 31
0.0
  0
LINE
  5
483
100
AcDbEntity
  8
0
  6
CONTINUOUS
 62
               7
100
AcDbLine
 10
65.900007629394537
 20
-11.900003814697271
 30
0.0
 11
65.900007629394537
 21
-26.100003814697274
 31
0.0
  0
LINE
  5
484
100
AcDbEntity
  8
0
  6
CONTINUOUS
 62
               7
100
AcDbLine
 10
66.400007629394537
 20
-25.000003814697266
 30
0.0
 11
66.000007629394531
 21
-25.000003814697266
 31
0.0
  0
LINE
  5
485
100
AcDbEntity
  8
0
  6
CONTINUOUS
 62
               7
100
AcDbLine
 10
55.600007229394521
 20
-10.000003814697266
 30
0.0
 11
55.600007229394521
 21
-28.000003814697266
 31
0.0
  0
LINE
  5
486
100
AcDbEntity
  8
0
  6
CONTINUOUS
 62
               7
100
AcDbLine
 10
55.400007629394537
 20
-27.800003814697277
 30
0.0
 11
55.200007429394532
 21
-28.000003814697266
 31
0.0
  0
LINE
  5
487
100
AcDbEntity
  8
0
  6
CONTINUOUS
 62
               7
100
AcDbLine
 10
61.300007629394543
 20
-10.700003814697283
 30
0.0
 11
60.400007629394537
 21
-10.700003814697283
 31
0.0
  0
LINE
  5
488
100
AcDbEntity
  8
0
  6
CONTINUOUS
 62
               7
100
AcDbLine
 10
61.300007629394543
 20
-27.300003814697277
 30
0.0
 11
60.400007629394537
 21
-27.300003814697277
 31
0.0
  0
LINE
  5
489
100
AcDbEntity
  8
0
  6
CONTINUOUS
 62
               7
100
AcDbLine
 10
55.20000762939452
 20
-28.000003814697266
 30
0.0
 11
44.003302029394519
 21
-28.000003814697266
 31
0.0
  0
LINE
  5
48A
100
AcDbEntity
  8
0
  6
CONTINUOUS
 62
               7
100
AcDbLine
 10
55.400007629394537
 20
-10.200003814697283
 30
0.0
 11
55.200007429394532
 21
-10.000003814697266
 31
0.0
  0
LINE
  5
48B
100
AcDbEntity
  8
0
  6
CONTINUOUS
 62
               7
100
AcDbLine
 10
60.300007629394543
 20
-10.000003814697266
 30
0.0
 11
60.400007629394537
 21
-10.10000381469726
 31
0.0
  0
LINE
  5
48C
100
AcDbEntity
  8
0
  6
CONTINUOUS
 62
               7
100
AcDbLine
 10
60.300007629394543
 20
-28.000003814697266
 30
0.0
 11
60.400007629394537
 21
-27.900003814697271
 31
0.0
  0
LINE
  5
48D
100
AcDbEntity
  8
0
  6
CONTINUOUS
 62
               7
100
AcDbLine
 10
55.400007029394544
 20
-10.200003814697283
 30
0.0
 11
55.600007229394521
 21
-10.000003814697266
 31
0.0
  0
LINE
  5
48E
100
AcDbEntity
  8
0
  6
CONTINUOUS
 62
               7
100
AcDbLine
 10
60.300007629394543
 20
-10.000003814697266
 30
0.0
 11
55.600007229394521
 21
-10.000003814697266
 31
0.0
  0
LINE
  5
48F
100
AcDbEntity
  8
0
  6
CONTINUOUS
 62
               7
100
AcDbLine
 10
60.300007629394543
 20
-28.000003814697266
 30
0.0
 11
55.600007229394521
 21
-28.000003814697266
 31
0.0
  0
LINE
  5
490
100
AcDbEntity
  8
0
  6
CONTINUOUS
 62
               7
100
AcDbLine
 10
55.400007229394532
 20
-10.200003814697283
 30
0.0
 11
55.400007229394532
 21
-27.800003814697277
 31
0.0
  0
LINE
  5
491
100
AcDbEntity
  8
0
  6
CONTINUOUS
 62
               7
100
AcDbLine
 10
55.400007029394544
 20
-27.800003814697277
 30
0.0
 11
55.600007229394521
 21
-28.000003814697266
 31
0.0
  0
LINE
  5
492
100
AcDbEntity
  8
0
  6
CONTINUOUS
 62
               7
100
AcDbLine
 10
63.86492162939453
 20
-10.000003814697266
 30
0.0
 11
61.500007629394531
 21
-10.000003814697266
 31
0.0
  0
LINE
  5
493
100
AcDbEntity
  8
0
  6
CONTINUOUS
 62
               7
100
AcDbLine
 10
61.300007629394543
 20
-27.800003814697277
 30
0.0
 11
61.500007629394531
 21
-28.000003814697266
 31
0.0
  0
LINE
  5
494
100
AcDbEntity
  8
0
  6
CONTINUOUS
 62
               7
100
AcDbLine
 10
63.86492162939453
 20
-28.000003814697266
 30
0.0
 11
61.500007629394531
 21
-28.000003814697266
 31
0.0
  0
LINE
  5
495
100
AcDbEntity
  8
0
  6
CONTINUOUS
 62
               7
100
AcDbLine
 10
61.300007629394543
 20
-27.800003814697277
 30
0.0
 11
61.300007629394543
 21
-10.200003814697283
 31
0.0
  0
LINE
  5
496
100
AcDbEntity
  8
0
  6
CONTINUOUS
 62
               7
100
AcDbLine
 10
64.300006629394545
 20
-10.753594214697273
 30
0.0
 11
64.900006629394539
 21
-11.100004614697269
 31
0.0
  0
LINE
  5
497
100
AcDbEntity
  8
0
  6
CONTINUOUS
 62
               7
100
AcDbLine
 10
64.300006629394545
 20
-27.246413414697273
 30
0.0
 11
64.900006629394539
 21
-26.900003014697276
 31
0.0
  0
LINE
  5
498
100
AcDbEntity
  8
0
  6
CONTINUOUS
 62
               7
100
AcDbLine
 10
63.864920629394533
 20
-28.000003814697266
 30
0.0
 11
64.300006629394545
 21
-27.246413414697273
 31
0.0
  0
LINE
  5
499
100
AcDbEntity
  8
0
  6
CONTINUOUS
 62
               7
100
AcDbLine
 10
63.864920629394533
 20
-10.000003814697266
 30
0.0
 11
64.300006629394545
 21
-10.753594214697273
 31
0.0
  0
LINE
  5
49A
100
AcDbEntity
  8
0
  6
CONTINUOUS
 62
               7
100
AcDbLine
 10
61.300007629394543
 20
-10.200003814697283
 30
0.0
 11
61.500007629394531
 21
-10.000003814697266
 31
0.0
  0
LINE
  5
49B
100
AcDbEntity
  8
0
  6
CONTINUOUS
 62
               7
100
AcDbLine
 10
64.900006629394539
 20
-11.10000381469726
 30
0.0
 11
64.900006629394539
 21
-26.900003014697276
 31
0.0
  0
LINE
  5
49C
100
AcDbEntity
  8
0
  6
CONTINUOUS
 62
               7
100
AcDbLine
 10
60.400007629394537
 20
-27.900003814697271
 30
0.0
 11
60.400007629394537
 21
-10.10000381469726
 31
0.0
  0
LINE
  5
49D
100
AcDbEntity
  8
0
  6
CONTINUOUS
 62
               7
100
AcDbLine
 10
65.900007629394537
 20
-11.900003814697271
 30
0.0
 11
64.900006629394539
 21
-11.900003814697271
 31
0.0
  0
LINE
  5
49E
100
AcDbEntity
  8
0
  6
CONTINUOUS
 62
               7
100
AcDbLine
 10
66.000007629394531
 20
-12.000003814697266
 30
0.0
 11
66.000007629394531
 21
-26.000003814697266
 31
0.0
  0
LINE
  5
49F
100
AcDbEntity
  8
0
  6
CONTINUOUS
 62
               7
100
AcDbLine
 10
66.000007629394531
 20
-12.000003814697266
 30
0.0
 11
65.900007629394537
 21
-11.900003814697271
 31
0.0
  0
LINE
  5
4A0
100
AcDbEntity
  8
0
  6
CONTINUOUS
 62
               7
100
AcDbLine
 10
66.000007629394531
 20
-26.000003814697266
 30
0.0
 11
65.900007629394537
 21
-26.100003814697274
 31
0.0
  0
LINE
  5
4A1
100
AcDbEntity
  8
0
  6
CONTINUOUS
 62
               7
100
AcDbLine
 10
65.900007629394537
 20
-26.100003814697274
 30
0.0
 11
64.900006629394539
 21
-26.100003814697274
 31
0.0
  0
LINE
  5
4A2
100
AcDbEntity
  8
0
  6
CONTINUOUS
 62
               7
100
AcDbLine
 10
66.400007629394537
 20
-13.000003814697266
 30
0.0
 11
66.000007629394531
 21
-13.000003814697266
 31
0.0
  0
LINE
  5
4A3
100
AcDbEntity
  8
0
  6
CONTINUOUS
 62
               7
100
AcDbLine
 10
67.800688629394529
 20
-10.60000381469726
 30
0.0
 11
66.900007629394537
 21
-10.60000381469726
 31
0.0
  0
LINE
  5
4A4
100
AcDbEntity
  8
0
  6
CONTINUOUS
 62
               7
100
AcDbLine
 10
66.900007629394537
 20
-27.400003814697271
 30
0.0
 11
66.900007629394537
 21
-10.60000381469726
 31
0.0
  0
LINE
  5
4A5
100
AcDbEntity
  8
0
  6
CONTINUOUS
 62
               7
100
AcDbLine
 10
68.100007629394526
 20
-10.900003814697271
 30
0.0
 11
68.100007629394526
 21
-27.100003814697274
 31
0.0
  0
LINE
  5
4A6
100
AcDbEntity
  8
0
  6
CONTINUOUS
 62
               7
100
AcDbLine
 10
67.800688629394529
 20
-27.400003814697271
 30
0.0
 11
66.900007629394537
 21
-27.400003814697271
 31
0.0
  0
ARC
  5
4A7
100
AcDbEntity
  8
0
  6
CONTINUOUS
 62
               7
100
AcDbCircle
 10
66.400007629394537
 20
-25.500003814697266
 30
0.0
 40
0.5
100
AcDbArc
 50
0.0
 51
90.0
  0
ARC
  5
4A8
100
AcDbEntity
  8
0
  6
CONTINUOUS
 62
               7
100
AcDbCircle
 10
67.800007629394543
 20
-10.900003814697271
 30
0.0
 40
0.3
100
AcDbArc
 50
0.0
 51
90.0
  0
ARC
  5
4A9
100
AcDbEntity
  8
0
  6
CONTINUOUS
 62
               7
100
AcDbCircle
 10
66.400007629394537
 20
-12.500003814697266
 30
0.0
 40
0.5
100
AcDbArc
 50
270.0
 51
0.0000000000008142
  0
ARC
  5
4AA
100
AcDbEntity
  8
0
  6
CONTINUOUS
 62
               7
100
AcDbCircle
 10
67.800007629394543
 20
-27.100003814697274
 30
0.0
 40
0.3
100
AcDbArc
 50
270.0
 51
0.0000000000008142
  0
LINE
  5
4AB
100
AcDbEntity
  8
0
  6
CONTINUOUS
 62
               7
100
AcDbLine
 10
44.500007629394531
 20
-27.139749776852867
 30
0.0
 11
44.500007629394531
 21
-9.5000038146972656
 31
0.0
  0
LINE
  5
4AC
100
AcDbEntity
  8
0
  6
CONTINUOUS
 62
               7
100
AcDbLine
 10
55.200007429394532
 20
-28.000003814697266
 30
0.0
 11
55.200007429394532
 21
-9.5000038146972656
 31
0.0
  0
LINE
  5
4AD
100
AcDbEntity
  8
0
  6
CONTINUOUS
 62
               7
100
AcDbLine
 10
44.500007629394531
 20
8.1397421474583211
 30
0.0
 11
44.500007629394531
 21
-9.5000038146972656
 31
0.0
  0
LINE
  5
4AE
100
AcDbEntity
  8
0
  6
CONTINUOUS
 62
               7
100
AcDbLine
 10
39.500007629394531
 20
16.799996185302746
 30
0.0
 11
39.500007629394531
 21
9.4999961733818168
 31
0.0
  0
LINE
  5
4AF
100
AcDbEntity
  8
0
  6
CONTINUOUS
 62
               7
100
AcDbLine
 10
43.714664594478791
 20
9.4999961853027344
 30
0.0
 11
39.500007629394531
 21
9.4999961853027344
 31
0.0
  0
ARC
  5
4B0
100
AcDbEntity
  8
0
  6
CONTINUOUS
 62
               7
100
AcDbCircle
 10
67.800007629394543
 20
8.0999961853027287
 30
0.0
 40
0.3
100
AcDbArc
 50
359.9999999999992
 51
89.99999999999919
  0
ARC
  5
4B1
100
AcDbEntity
  8
0
  6
CONTINUOUS
 62
               7
100
AcDbCircle
 10
66.400007629394537
 20
-6.5000038146972656
 30
0.0
 40
0.5
100
AcDbArc
 50
359.9999999999992
 51
89.99999999999919
  0
ARC
  5
4B2
100
AcDbEntity
  8
0
  6
CONTINUOUS
 62
               7
100
AcDbCircle
 10
67.800007629394543
 20
-8.1000038146972599
 30
0.0
 40
0.3
100
AcDbArc
 50
269.9999999999992
 51
0.0
  0
ARC
  5
4B3
100
AcDbEntity
  8
0
  6
CONTINUOUS
 62
               7
100
AcDbCircle
 10
66.400007629394537
 20
6.4999961853027344
 30
0.0
 40
0.5
100
AcDbArc
 50
269.9999999999992
 51
0.0
  0
LINE
  5
4B4
100
AcDbEntity
  8
0
  6
CONTINUOUS
 62
               7
100
AcDbLine
 10
67.800688629394529
 20
8.3999961853027116
 30
0.0
 11
66.900007629394537
 21
8.3999961853027116
 31
0.0
  0
LINE
  5
4B5
100
AcDbEntity
  8
0
  6
CONTINUOUS
 62
               7
100
AcDbLine
 10
68.100007629394526
 20
-8.1000038146972599
 30
0.0
 11
68.100007629394526
 21
8.0999961853027287
 31
0.0
  0
LINE
  5
4B6
100
AcDbEntity
  8
0
  6
CONTINUOUS
 62
               7
100
AcDbLine
 10
66.900007629394537
 20
8.3999961853027116
 30
0.0
 11
66.900007629394537
 21
-8.4000038146972713
 31
0.0
  0
LINE
  5
4B7
100
AcDbEntity
  8
0
  6
CONTINUOUS
 62
               7
100
AcDbLine
 10
67.800688629394529
 20
-8.4000038146972713
 30
0.0
 11
66.900007629394537
 21
-8.4000038146972713
 31
0.0
  0
LINE
  5
4B8
100
AcDbEntity
  8
0
  6
CONTINUOUS
 62
               7
100
AcDbLine
 10
66.400007629394537
 20
-6.0000038146972656
 30
0.0
 11
66.000007629394531
 21
-6.0000038146972656
 31
0.0
  0
LINE
  5
4B9
100
AcDbEntity
  8
0
  6
CONTINUOUS
 62
               7
100
AcDbLine
 10
65.900007629394537
 20
7.0999961853027287
 30
0.0
 11
64.900006629394539
 21
7.0999961853027287
 31
0.0
  0
LINE
  5
4BA
100
AcDbEntity
  8
0
  6
CONTINUOUS
 62
               7
100
AcDbLine
 10
66.000007629394531
 20
6.9999961853027344
 30
0.0
 11
65.900007629394537
 21
7.0999961853027287
 31
0.0
  0
LINE
  5
4BB
100
AcDbEntity
  8
0
  6
CONTINUOUS
 62
               7
100
AcDbLine
 10
66.000007629394531
 20
-7.0000038146972656
 30
0.0
 11
65.900007629394537
 21
-7.1000038146972599
 31
0.0
  0
LINE
  5
4BC
100
AcDbEntity
  8
0
  6
CONTINUOUS
 62
               7
100
AcDbLine
 10
66.000007629394531
 20
-7.0000038146972656
 30
0.0
 11
66.000007629394531
 21
6.9999961853027344
 31
0.0
  0
LINE
  5
4BD
100
AcDbEntity
  8
0
  6
CONTINUOUS
 62
               7
100
AcDbLine
 10
65.900007629394537
 20
-7.1000038146972599
 30
0.0
 11
64.900006629394539
 21
-7.1000038146972599
 31
0.0
  0
LINE
  5
4BE
100
AcDbEntity
  8
0
  6
CONTINUOUS
 62
               7
100
AcDbLine
 10
60.400007629394537
 20
8.8999961853027116
 30
0.0
 11
60.400007629394537
 21
-8.9000038146972713
 31
0.0
  0
LINE
  5
4BF
100
AcDbEntity
  8
0
  6
CONTINUOUS
 62
               7
100
AcDbLine
 10
64.900006629394539
 20
-7.9000038146972713
 30
0.0
 11
64.900006629394539
 21
7.8999953853027307
 31
0.0
  0
LINE
  5
4C0
100
AcDbEntity
  8
0
  6
CONTINUOUS
 62
               7
100
AcDbLine
 10
61.300007629394543
 20
-8.800003814697277
 30
0.0
 11
61.500007629394531
 21
-9.0000038146972656
 31
0.0
  0
LINE
  5
4C1
100
AcDbEntity
  8
0
  6
CONTINUOUS
 62
               7
100
AcDbLine
 10
63.864920629394533
 20
-9.0000038146972656
 30
0.0
 11
64.300006629394545
 21
-8.2464134146972867
 31
0.0
  0
LINE
  5
4C2
100
AcDbEntity
  8
0
  6
CONTINUOUS
 62
               7
100
AcDbLine
 10
63.864920629394533
 20
8.9999961853027344
 30
0.0
 11
64.300006629394545
 21
8.2464057853027271
 31
0.0
  0
LINE
  5
4C3
100
AcDbEntity
  8
0
  6
CONTINUOUS
 62
               7
100
AcDbLine
 10
64.300006629394545
 20
8.2464057853027271
 30
0.0
 11
64.900006629394539
 21
7.8999953853027307
 31
0.0
  0
LINE
  5
4C4
100
AcDbEntity
  8
0
  6
CONTINUOUS
 62
               7
100
AcDbLine
 10
64.300006629394545
 20
-8.2464134146972867
 30
0.0
 11
64.900006629394539
 21
-7.900003014697262
 31
0.0
  0
LINE
  5
4C5
100
AcDbEntity
  8
0
  6
CONTINUOUS
 62
               7
100
AcDbLine
 10
61.300007629394543
 20
8.7999961853027173
 30
0.0
 11
61.300007629394543
 21
-8.800003814697277
 31
0.0
  0
LINE
  5
4C6
100
AcDbEntity
  8
0
  6
CONTINUOUS
 62
               7
100
AcDbLine
 10
63.86492162939453
 20
8.9999961853027344
 30
0.0
 11
61.500007629394531
 21
8.9999961853027344
 31
0.0
  0
LINE
  5
4C7
100
AcDbEntity
  8
0
  6
CONTINUOUS
 62
               7
100
AcDbLine
 10
61.300007629394543
 20
8.7999961853027173
 30
0.0
 11
61.500007629394531
 21
8.9999961853027344
 31
0.0
  0
LINE
  5
4C8
100
AcDbEntity
  8
0
  6
CONTINUOUS
 62
               7
100
AcDbLine
 10
63.86492162939453
 20
-9.0000038146972656
 30
0.0
 11
61.500007629394531
 21
-9.0000038146972656
 31
0.0
  0
LINE
  5
4C9
100
AcDbEntity
  8
0
  6
CONTINUOUS
 62
               7
100
AcDbLine
 10
55.400007029394544
 20
8.7999961853027173
 30
0.0
 11
55.600007229394521
 21
8.9999961853027344
 31
0.0
  0
LINE
  5
4CA
100
AcDbEntity
  8
0
  6
CONTINUOUS
 62
               7
100
AcDbLine
 10
55.400007229394532
 20
-8.800003814697277
 30
0.0
 11
55.400007229394532
 21
8.7999961853027173
 31
0.0
  0
LINE
  5
4CB
100
AcDbEntity
  8
0
  6
CONTINUOUS
 62
               7
100
AcDbLine
 10
60.300007629394543
 20
8.9999961853027344
 30
0.0
 11
55.600007229394521
 21
8.9999961853027344
 31
0.0
  0
LINE
  5
4CC
100
AcDbEntity
  8
0
  6
CONTINUOUS
 62
               7
100
AcDbLine
 10
60.300007629394543
 20
-9.0000038146972656
 30
0.0
 11
55.600007229394521
 21
-9.0000038146972656
 31
0.0
  0
LINE
  5
4CD
100
AcDbEntity
  8
0
  6
CONTINUOUS
 62
               7
100
AcDbLine
 10
55.400007029394544
 20
-8.800003814697277
 30
0.0
 11
55.600007229394521
 21
-9.0000038146972656
 31
0.0
  0
LINE
  5
4CE
100
AcDbEntity
  8
0
  6
CONTINUOUS
 62
               7
100
AcDbLine
 10
60.300007629394543
 20
8.9999961853027344
 30
0.0
 11
60.400007629394537
 21
8.8999961853027116
 31
0.0
  0
LINE
  5
4CF
100
AcDbEntity
  8
0
  6
CONTINUOUS
 62
               7
100
AcDbLine
 10
60.300007629394543
 20
-9.0000038146972656
 30
0.0
 11
60.400007629394537
 21
-8.9000038146972713
 31
0.0
  0
LINE
  5
4D0
100
AcDbEntity
  8
0
  6
CONTINUOUS
 62
               7
100
AcDbLine
 10
55.400007629394537
 20
-8.800003814697277
 30
0.0
 11
55.200007429394532
 21
-9.0000038146972656
 31
0.0
  0
LINE
  5
4D1
100
AcDbEntity
  8
0
  6
CONTINUOUS
 62
               7
100
AcDbLine
 10
55.20000762939452
 20
8.9999961853027344
 30
0.0
 11
44.003302029394519
 21
8.9999961853027344
 31
0.0
  0
LINE
  5
4D2
100
AcDbEntity
  8
0
  6
CONTINUOUS
 62
               7
100
AcDbLine
 10
61.300007629394543
 20
8.2999961853027173
 30
0.0
 11
60.400007629394537
 21
8.2999961853027173
 31
0.0
  0
LINE
  5
4D3
100
AcDbEntity
  8
0
  6
CONTINUOUS
 62
               7
100
AcDbLine
 10
61.300007629394543
 20
-8.300003814697277
 30
0.0
 11
60.400007629394537
 21
-8.300003814697277
 31
0.0
  0
LINE
  5
4D4
100
AcDbEntity
  8
0
  6
CONTINUOUS
 62
               7
100
AcDbLine
 10
55.200007429394532
 20
8.9999961853027344
 30
0.0
 11
55.200007429394532
 21
-9.5000038146972656
 31
0.0
  0
LINE
  5
4D5
100
AcDbEntity
  8
0
  6
CONTINUOUS
 62
               7
100
AcDbLine
 10
55.400007629394537
 20
8.7999961853027173
 30
0.0
 11
55.200007429394532
 21
8.9999961853027344
 31
0.0
  0
LINE
  5
4D6
100
AcDbEntity
  8
0
  6
CONTINUOUS
 62
               7
100
AcDbLine
 10
55.600007229394521
 20
-9.0000038146972656
 30
0.0
 11
55.600007229394521
 21
8.9999961853027344
 31
0.0
  0
LINE
  5
4D7
100
AcDbEntity
  8
0
  6
CONTINUOUS
 62
               7
100
AcDbLine
 10
66.400007629394537
 20
5.9999961853027344
 30
0.0
 11
66.000007629394531
 21
5.9999961853027344
 31
0.0
  0
LINE
  5
4D8
100
AcDbEntity
  8
0
  6
CONTINUOUS
 62
               7
100
AcDbLine
 10
65.900007629394537
 20
-7.1000038146972599
 30
0.0
 11
65.900007629394537
 21
7.0999961853027287
 31
0.0
  0
LINE
  5
4D9
100
AcDbEntity
  8
0
  6
CONTINUOUS
 62
               7
100
AcDbLine
 10
64.300006629394545
 20
-8.2464134146972867
 30
0.0
 11
64.300006629394545
 21
8.2464057853027271
 31
0.0
  0
LINE
  5
4DA
100
AcDbEntity
  8
0
  6
CONTINUOUS
 62
               7
100
AcDbLine
 10
63.864920629394533
 20
-9.0000038146972656
 30
0.0
 11
63.864920629394533
 21
8.9999961853027344
 31
0.0
  0
LINE
  5
4DB
100
AcDbEntity
  8
0
  6
CONTINUOUS
 62
               7
100
AcDbLine
 10
61.500007629394531
 20
-9.0000038146972656
 30
0.0
 11
61.500007629394531
 21
8.9999961853027344
 31
0.0
  0
LINE
  5
4DC
100
AcDbEntity
  8
0
  6
CONTINUOUS
 62
               7
100
AcDbLine
 10
60.300007629394543
 20
-9.0000038146972656
 30
0.0
 11
60.300007629394543
 21
8.9999961853027344
 31
0.0
  0
LINE
  5
4DD
100
AcDbEntity
  8
0
  6
CONTINUOUS
 62
               7
100
AcDbLine
 10
39.500007629394531
 20
16.799996185302746
 30
0.0
 11
40.431513709076313
 21
15.186580327734561
 31
0.0
  0
LINE
  5
4DE
100
AcDbEntity
  8
0
  6
CONTINUOUS
 62
               7
100
AcDbLine
 10
41.499999999999943
 20
13.749988198280334
 30
0.0
 11
41.499999999999943
 21
11.249988198280334
 31
0.0
  0
ARC
  5
4DF
100
AcDbEntity
  8
0
  6
CONTINUOUS
 62
               7
100
AcDbCircle
 10
37.699981689453125
 20
-28.250011444091797
 30
0.0
 40
1.5
100
AcDbArc
 50
0.0000179860890374
 51
89.999982013910454
  0
ARC
  5
4E0
100
AcDbEntity
  8
0
  6
CONTINUOUS
 62
               7
100
AcDbCircle
 10
37.699981689453125
 20
-30.749996185302734
 30
0.0
 40
1.5
100
AcDbArc
 50
269.99990870306209
 51
359.99994604173207
  0
LINE
  5
4E1
100
AcDbEntity
  8
0
  6
CONTINUOUS
 62
               7
100
AcDbLine
 10
39.199981689453125
 20
-28.249996185302749
 30
0.0
 11
39.199981689453125
 21
-30.749996185302749
 31
0.0
  0
ARC
  5
4E2
100
AcDbEntity
  8
0
  6
CONTINUOUS
 62
               7
100
AcDbCircle
 10
40.0
 20
11.249988555908203
 30
0.0
 40
1.5
100
AcDbArc
 50
270.00001798608872
 51
359.99998633962088
  0
ARC
  5
4E3
100
AcDbEntity
  8
0
  6
CONTINUOUS
 62
               7
100
AcDbCircle
 10
40.0
 20
13.749988555908203
 30
0.0
 40
1.5
100
AcDbArc
 50
359.99998633962088
 51
89.999927372397096
  0
LINE
  5
4E4
100
AcDbEntity
  8
0
  6
CONTINUOUS
 62
               7
100
AcDbLine
 10
40.0
 20
9.7499885559082031
 30
0.0
 11
39.5
 21
9.7499885559082031
 31
0.0
  0
LINE
  5
4E5
100
AcDbEntity
  8
0
  6
CONTINUOUS
 62
               7
100
AcDbLine
 10
40.0
 20
15.249988555908203
 30
0.0
 11
39.5
 21
15.249988555908203
 31
0.0
  0
LINE
  5
4E6
100
AcDbEntity
  8
0
  6
CONTINUOUS
 62
               7
100
AcDbLine
 10
37.199996948242188
 20
-26.549999237060561
 30
0.0
 11
36.5
 21
-26.549999237060561
 31
0.0
  0
LINE
  5
4E7
100
AcDbEntity
  8
0
  6
CONTINUOUS
 62
               7
100
AcDbLine
 10
37.199996948242188
 20
-32.449993133544936
 30
0.0
 11
36.5
 21
-32.449993133544936
 31
0.0
  0
LINE
  5
4E8
100
AcDbEntity
  8
0
  6
CONTINUOUS
 62
               7
100
AcDbLine
 10
37.200015965828243
 20
-29.849997185254324
 30
0.0
 11
36.500023328890165
 21
-30.037559593833066
 31
0.0
  0
LINE
  5
4E9
100
AcDbEntity
  8
0
  6
CONTINUOUS
 62
               7
100
AcDbLine
 10
36.500027125927772
 20
-29.149995836490234
 30
0.0
 11
37.200034458529444
 21
-28.962429435451668
 31
0.0
  0
LINE
  5
4EA
100
AcDbEntity
  8
0
  6
CONTINUOUS
 62
               7
100
AcDbLine
 10
37.199996948242188
 20
-32.449993133544936
 30
0.0
 11
37.199996948242188
 21
-26.549999237060561
 31
0.0
  0
LINE
  5
4EB
100
AcDbEntity
  8
0
  6
CONTINUOUS
 62
               7
100
AcDbLine
 10
55.200007429394532
 20
-9.0000038146972656
 30
0.0
 11
44.500007629394531
 21
-9.0000038146972656
 31
0.0
  0
LINE
  5
4EC
100
AcDbEntity
  8
0
  6
CONTINUOUS
 62
               7
100
AcDbLine
 10
55.200007429394532
 20
-10.000003814697266
 30
0.0
 11
44.500007629394531
 21
-10.000003814697266
 31
0.0
  0
LINE
  5
4ED
100
AcDbEntity
  8
0
  6
CONTINUOUS
 62
             200
100
AcDbLine
 10
-13.0
 20
-55.899996185302733
 30
0.0
 11
-13.0
 21
-64.169996185302736
 31
0.0
  0
LINE
  5
4EE
100
AcDbEntity
  8
0
  6
CONTINUOUS
 62
               7
100
AcDbLine
 10
4.4999979993058066
 20
16.999999999999922
 30
0.0
 11
3.9999979993058079
 21
16.999999962250975
 31
0.0
  0
LINE
  5
4EF
100
AcDbEntity
  8
0
  6
CONTINUOUS
 62
               7
100
AcDbLine
 10
4.5000020006941934
 20
-35.999999999999922
 30
0.0
 11
4.0000020006941952
 21
-36.000000037748869
 31
0.0
  0
ENDBLK
  5
4F0
100
AcDbEntity
  8
0
100
AcDbBlockEnd
  0
BLOCK
  5
4F1
100
AcDbEntity
  8
0
100
AcDbBlockBegin
  2
F18T-12
 70
               0
 10
0.0
 20
0.0
 30
0.0
  3
F18T-12
  1

  0
LINE
  5
4F2
100
AcDbEntity
  8
0
  6
CONTINUOUS
 62
               7
100
AcDbLine
 10
4.999969482421875
 20
31.000015258789063
 30
0.0
 11
14.999969482421875
 21
31.000015258789063
 31
0.0
  0
LINE
  5
4F3
100
AcDbEntity
  8
0
  6
CONTINUOUS
 62
               4
100
AcDbLine
 10
4.9999847412109375
 20
64.500030517578125
 30
0.0
 11
14.999984741210938
 21
64.500030517578125
 31
0.0
  0
LINE
  5
4F4
100
AcDbEntity
  8
0
  6
CONTINUOUS
 62
               7
100
AcDbLine
 10
4.999969482421875
 20
40.500015258789063
 30
0.0
 11
14.999969482421875
 21
40.500015258789063
 31
0.0
  0
LINE
  5
4F5
100
AcDbEntity
  8
0
  6
CONTINUOUS
 62
               4
100
AcDbLine
 10
5.0499725341796875
 20
64.500015258789063
 30
0.0
 11
5.0499725341796875
 21
84.500015258789063
 31
0.0
  0
LINE
  5
4F6
100
AcDbEntity
  8
0
  6
CONTINUOUS
 62
               4
100
AcDbLine
 10
14.949966430664062
 20
64.500015258789063
 30
0.0
 11
14.949966430664062
 21
84.500015258789063
 31
0.0
  0
LINE
  5
4F7
100
AcDbEntity
  8
0
  6
CONTINUOUS
 62
               4
100
AcDbLine
 10
11.284957885742188
 20
84.500015258789063
 30
0.0
 11
11.284957885742188
 21
88.326690673828125
 31
0.0
  0
LINE
  5
4F8
100
AcDbEntity
  8
0
  6
CONTINUOUS
 62
               4
100
AcDbLine
 10
12.714981079101563
 20
84.500015258789063
 30
0.0
 11
12.714981079101563
 21
88.709854125976563
 31
0.0
  0
LINE
  5
4F9
100
AcDbEntity
  8
0
  6
CONTINUOUS
 62
               4
100
AcDbLine
 10
11.599960327148438
 20
92.500015258789063
 30
0.0
 11
11.599960327148438
 21
97.500015258789063
 31
0.0
  0
LINE
  5
4FA
100
AcDbEntity
  8
0
  6
CONTINUOUS
 62
               4
100
AcDbLine
 10
12.399978637695313
 20
92.500015258789063
 30
0.0
 11
12.399978637695313
 21
97.500015258789063
 31
0.0
  0
LINE
  5
4FB
100
AcDbEntity
  8
0
  6
CONTINUOUS
 62
               4
100
AcDbLine
 10
11.599960327148438
 20
97.500015258789063
 30
0.0
 11
12.39996337890625
 21
97.500015258789063
 31
0.0
  0
LINE
  5
4FC
100
AcDbEntity
  8
0
  6
CONTINUOUS
 62
               4
100
AcDbLine
 10
11.284957885742188
 20
92.500015258789063
 30
0.0
 11
12.7149658203125
 21
92.500015258789063
 31
0.0
  0
LINE
  5
4FD
100
AcDbEntity
  8
0
  6
CONTINUOUS
 62
               4
100
AcDbLine
 10
11.284957885742188
 20
89.361968994140625
 30
0.0
 11
11.284957885742188
 21
92.500015258789063
 31
0.0
  0
LINE
  5
4FE
100
AcDbEntity
  8
0
  6
CONTINUOUS
 62
               4
100
AcDbLine
 10
12.714981079101563
 20
89.745132446289063
 30
0.0
 11
12.714981079101563
 21
92.500015258789063
 31
0.0
  0
LINE
  5
4FF
100
AcDbEntity
  8
0
  6
CONTINUOUS
 62
               4
100
AcDbLine
 10
5.0499725341796875
 20
84.500015258789063
 30
0.0
 11
14.949966430664062
 21
84.500015258789063
 31
0.0
  0
LINE
  5
500
100
AcDbEntity
  8
0
  6
CONTINUOUS
 62
               7
100
AcDbLine
 10
14.999969482421875
 20
29.500015258789062
 30
0.0
 11
14.999969482421875
 21
40.500015258789063
 31
0.0
  0
LINE
  5
501
100
AcDbEntity
  8
0
  6
CONTINUOUS
 62
               7
100
AcDbLine
 10
4.999969482421875
 20
29.500015258789062
 30
0.0
 11
4.999969482421875
 21
40.500015258789063
 31
0.0
  0
LINE
  5
502
100
AcDbEntity
  8
0
  6
CONTINUOUS
 62
               7
100
AcDbLine
 10
18.999969482421875
 20
-58.499984741210938
 30
0.0
 11
18.999969482421875
 21
-36.499984741210937
 31
0.0
  0
LINE
  5
503
100
AcDbEntity
  8
0
  6
CONTINUOUS
 62
               7
100
AcDbLine
 10
0.999969482421875
 20
-58.499984741210938
 30
0.0
 11
0.999969482421875
 21
-36.499984741210937
 31
0.0
  0
LINE
  5
504
100
AcDbEntity
  8
0
  6
CONTINUOUS
 62
               7
100
AcDbLine
 10
0.999969482421875
 20
27.000015258789063
 30
0.0
 11
18.999969482421875
 21
27.000015258789063
 31
0.0
  0
LINE
  5
505
100
AcDbEntity
  8
0
  6
CONTINUOUS
 62
               7
100
AcDbLine
 10
1.499969482421875
 20
-58.999984741210938
 30
0.0
 11
18.499969482421875
 21
-58.999984741210938
 31
0.0
  0
LINE
  5
506
100
AcDbEntity
  8
0
  6
CONTINUOUS
 62
               7
100
AcDbLine
 10
7.1999664306640625
 20
-58.999984741210938
 30
0.0
 11
7.1999664306640625
 21
-56.499984741210937
 31
0.0
  0
LINE
  5
507
100
AcDbEntity
  8
0
  6
CONTINUOUS
 62
               7
100
AcDbLine
 10
0.999969482421875
 20
-56.499984741210937
 30
0.0
 11
7.1999664306640625
 21
-56.499984741210937
 31
0.0
  0
LINE
  5
508
100
AcDbEntity
  8
0
  6
CONTINUOUS
 62
               7
100
AcDbLine
 10
2.749969482421875
 20
-58.499984741210938
 30
0.0
 11
5.249969482421875
 21
-58.499984741210938
 31
0.0
  0
LINE
  5
509
100
AcDbEntity
  8
0
  6
CONTINUOUS
 62
               7
100
AcDbLine
 10
1.249969482421875
 20
-56.999984741210937
 30
0.0
 11
1.249969482421875
 21
-56.499984741210937
 31
0.0
  0
LINE
  5
50A
100
AcDbEntity
  8
0
  6
CONTINUOUS
 62
               7
100
AcDbLine
 10
6.749969482421875
 20
-56.999984741210937
 30
0.0
 11
6.749969482421875
 21
-56.499984741210937
 31
0.0
  0
LINE
  5
50B
100
AcDbEntity
  8
0
  6
CONTINUOUS
 62
               2
100
AcDbLine
 10
9.999969482421875
 20
-62.3028564453125
 30
0.0
 11
9.999969482421875
 21
86.255081176757812
 31
0.0
  0
LINE
  5
50C
100
AcDbEntity
  8
0
  6
CONTINUOUS
 62
               2
100
AcDbLine
 10
19.999969482421875
 20
-9.4999885559082031
 30
0.0
 11
-1.1715087890625
 21
-9.4999885559082031
 31
0.0
  0
LINE
  5
50D
100
AcDbEntity
  8
0
  6
CONTINUOUS
 62
               7
100
AcDbLine
 10
18.999969482421875
 20
17.500015258789063
 30
0.0
 11
18.999969482421875
 21
27.000015258789063
 31
0.0
  0
LINE
  5
50E
100
AcDbEntity
  8
0
  6
CONTINUOUS
 62
               7
100
AcDbLine
 10
0.999969482421875
 20
17.500015258789063
 30
0.0
 11
0.999969482421875
 21
27.000015258789063
 31
0.0
  0
LINE
  5
50F
100
AcDbEntity
  8
0
  6
CONTINUOUS
 62
               7
100
AcDbLine
 10
0.999969482421875
 20
-47.999984741210938
 30
0.0
 11
18.999969482421875
 21
-47.999984741210938
 31
0.0
  0
LINE
  5
510
100
AcDbEntity
  8
0
  6
CONTINUOUS
 62
               2
100
AcDbLine
 10
11.499969482421875
 20
21.5
 30
0.0
 11
8.499969482421875
 21
21.5
 31
0.0
  0
LINE
  5
511
100
AcDbEntity
  8
0
  6
CONTINUOUS
 62
               7
100
AcDbLine
 10
-0.000030517578125
 20
-36.499984741210937
 30
0.0
 11
-0.000030517578125
 21
17.500015258789063
 31
0.0
  0
LINE
  5
512
100
AcDbEntity
  8
0
  6
CONTINUOUS
 62
               7
100
AcDbLine
 10
19.999969482421875
 20
-36.499984741210937
 30
0.0
 11
19.999969482421875
 21
17.500015258789063
 31
0.0
  0
LINE
  5
513
100
AcDbEntity
  8
0
  6
DASHED
 62
               4
100
AcDbLine
 10
21.5999755859375
 20
-59.399978637695313
 30
0.0
 11
21.5999755859375
 21
10.0
 31
0.0
  0
LINE
  5
514
100
AcDbEntity
  8
0
  6
DASHED
 62
               4
100
AcDbLine
 10
19.999969482421875
 20
10.0
 30
0.0
 11
21.5999755859375
 21
10.0
 31
0.0
  0
LINE
  5
515
100
AcDbEntity
  8
0
  6
DASHED
 62
               4
100
AcDbLine
 10
0.999969482421875
 20
-59.399978637695313
 30
0.0
 11
19.999969482421875
 21
-59.399978637695313
 31
0.0
  0
LINE
  5
516
100
AcDbEntity
  8
0
  6
DASHED
 62
               4
100
AcDbLine
 10
0.999969482421875
 20
-60.999984741210937
 30
0.0
 11
19.999969482421875
 21
-60.999984741210937
 31
0.0
  0
LINE
  5
517
100
AcDbEntity
  8
0
  6
DASHED
 62
               4
100
AcDbLine
 10
0.999969482421875
 20
-59.399978637695313
 30
0.0
 11
0.999969482421875
 21
-60.999984741210937
 31
0.0
  0
LINE
  5
518
100
AcDbEntity
  8
0
  6
DASHED
 62
               4
100
AcDbLine
 10
19.999969482421875
 20
-36.499984741210937
 30
0.0
 11
19.999969482421875
 21
-60.999984741210937
 31
0.0
  0
LINE
  5
519
100
AcDbEntity
  8
0
  6
DASHED
 62
               4
100
AcDbLine
 10
-2.28155517578125
 20
4.0000152587890625
 30
0.0
 11
-0.000030517578125
 21
4.0000152587890625
 31
0.0
  0
LINE
  5
51A
100
AcDbEntity
  8
0
  6
DASHED
 62
               4
100
AcDbLine
 10
-2.28155517578125
 20
-3.9999809265136719
 30
0.0
 11
-0.000030517578125
 21
-3.9999809265136719
 31
0.0
  0
LINE
  5
51B
100
AcDbEntity
  8
0
  6
CONTINUOUS
 62
               4
100
AcDbLine
 10
9.3999786376953125
 20
75.000015258789063
 30
0.0
 11
10.5999755859375
 21
75.000015258789063
 31
0.0
  0
LINE
  5
51C
100
AcDbEntity
  8
0
  6
CONTINUOUS
 62
               4
100
AcDbLine
 10
10.5999755859375
 20
78.0
 30
0.0
 11
10.5999755859375
 21
75.0
 31
0.0
  0
LINE
  5
51D
100
AcDbEntity
  8
0
  6
CONTINUOUS
 62
               4
100
AcDbLine
 10
9.3999786376953125
 20
78.0
 30
0.0
 11
9.3999786376953125
 21
75.0
 31
0.0
  0
LINE
  5
51E
100
AcDbEntity
  8
0
  6
CONTINUOUS
 62
               4
100
AcDbLine
 10
11.099991606650406
 20
78.000002930244705
 30
0.0
 11
10.599991413035411
 21
77.500006108367586
 31
0.0
  0
LINE
  5
51F
100
AcDbEntity
  8
0
  6
CONTINUOUS
 62
               4
100
AcDbLine
 10
8.8999746216228459
 20
78.000002465813395
 30
0.0
 11
9.3999753631520662
 21
77.500002145753115
 31
0.0
  0
LINE
  5
520
100
AcDbEntity
  8
0
  6
CONTINUOUS
 62
               4
100
AcDbLine
 10
5.0499725341796875
 20
83.500015258789063
 30
0.0
 11
14.949966430664062
 21
83.500015258789063
 31
0.0
  0
LINE
  5
521
100
AcDbEntity
  8
0
  6
CONTINUOUS
 62
               4
100
AcDbLine
 10
5.0499725341796875
 20
78.000015258789063
 30
0.0
 11
9.3999786376953125
 21
78.000015258789063
 31
0.0
  0
LINE
  5
522
100
AcDbEntity
  8
0
  6
CONTINUOUS
 62
               4
100
AcDbLine
 10
10.5999755859375
 20
78.000015258789063
 30
0.0
 11
14.949966430664062
 21
78.000015258789063
 31
0.0
  0
LINE
  5
523
100
AcDbEntity
  8
0
  6
DASHED
 62
               4
100
AcDbLine
 10
-2.28155517578125
 20
-14.999977111816406
 30
0.0
 11
-0.000030517578125
 21
-14.999977111816406
 31
0.0
  0
LINE
  5
524
100
AcDbEntity
  8
0
  6
DASHED
 62
               4
100
AcDbLine
 10
-2.28155517578125
 20
-22.999984741210937
 30
0.0
 11
-0.000030517578125
 21
-22.999984741210937
 31
0.0
  0
ARC
  5
525
100
AcDbEntity
  8
0
  6
CONTINUOUS
 62
               7
100
AcDbCircle
 10
1.499969482421875
 20
-58.499969482421875
 30
0.0
 40
0.5
100
AcDbArc
 50
180.0000359721783
 51
269.99996334457541
  0
ARC
  5
526
100
AcDbEntity
  8
0
  6
CONTINUOUS
 62
               7
100
AcDbCircle
 10
18.499969482421875
 20
-58.499984741210938
 30
0.0
 40
0.5
100
AcDbArc
 50
270.00001798608872
 51
0.00001366037834
  0
ARC
  5
527
100
AcDbEntity
  8
0
  6
CONTINUOUS
 62
               7
100
AcDbCircle
 10
16.000015258789063
 20
30.000076293945313
 30
0.0
 40
2.5000734329223633
100
AcDbArc
 50
191.53802865027069
 51
319.45926533232142
  0
ARC
  5
528
100
AcDbEntity
  8
0
  6
CONTINUOUS
 62
               7
100
AcDbCircle
 10
5.249969482421875
 20
-56.999984741210937
 30
0.0
 40
1.5
100
AcDbArc
 50
270.00001798608872
 51
0.0000546415133601
  0
ARC
  5
529
100
AcDbEntity
  8
0
  6
CONTINUOUS
 62
               7
100
AcDbCircle
 10
2.749969482421875
 20
-56.999984741210937
 30
0.0
 40
1.5
100
AcDbArc
 50
180.0000359721783
 51
270.00001798608872
  0
CIRCLE
  5
52A
100
AcDbEntity
  8
0
  6
CONTINUOUS
 62
               7
100
AcDbCircle
 10
9.999969482421875
 20
-9.4999923706054687
 30
0.0
 40
5.7224998474121094
  0
CIRCLE
  5
52B
100
AcDbEntity
  8
0
  6
CONTINUOUS
 62
               2
100
AcDbCircle
 10
9.999969482421875
 20
-9.4999923706054687
 30
0.0
 40
6.5784997940063477
  0
CIRCLE
  5
52C
100
AcDbEntity
  8
0
  6
CONTINUOUS
 62
               7
100
AcDbCircle
 10
9.999969482421875
 20
21.5
 30
0.0
 40
0.6000000238418579
  0
ARC
  5
52D
100
AcDbEntity
  8
0
  6
DASHED
 62
               4
100
AcDbCircle
 10
19.999969482421875
 20
-59.399978637695313
 30
0.0
 40
1.5999994277954102
100
AcDbArc
 50
270.00001798608872
 51
0.0
  0
ARC
  5
52E
100
AcDbEntity
  8
0
  6
DASHED
 62
               4
100
AcDbCircle
 10
2.3999786376953125
 20
0.0000114440917969
 30
0.0
 40
6.5
100
AcDbArc
 50
146.20571797697198
 51
213.79426472018321
  0
ARC
  5
52F
100
AcDbEntity
  8
0
  6
DASHED
 62
               4
100
AcDbCircle
 10
-2.28155517578125
 20
3.133331298828125
 30
0.0
 40
0.8666666746139526
100
AcDbArc
 50
89.999982013910454
 51
146.20571797697198
  0
ARC
  5
530
100
AcDbEntity
  8
0
  6
DASHED
 62
               4
100
AcDbCircle
 10
-2.28155517578125
 20
-3.1333198547363281
 30
0.0
 40
0.8666666746139526
100
AcDbArc
 50
213.79433666454057
 51
270.00007262760209
  0
ARC
  5
531
100
AcDbEntity
  8
0
  6
DASHED
 62
               4
100
AcDbCircle
 10
-2.28155517578125
 20
-15.866653442382813
 30
0.0
 40
0.8666666746139526
100
AcDbArc
 50
89.999982013910454
 51
146.20571797697198
  0
ARC
  5
532
100
AcDbEntity
  8
0
  6
DASHED
 62
               4
100
AcDbCircle
 10
2.3999786376953125
 20
-18.999983787536621
 30
0.0
 40
6.5
100
AcDbArc
 50
146.20571797697198
 51
213.79426472018321
  0
ARC
  5
533
100
AcDbEntity
  8
0
  6
DASHED
 62
               4
100
AcDbCircle
 10
-2.28155517578125
 20
-22.133316040039063
 30
0.0
 40
0.8666666746139526
100
AcDbArc
 50
213.79433666454057
 51
270.00007262760209
  0
LINE
  5
534
100
AcDbEntity
  8
0
  6
CONTINUOUS
 62
               7
100
AcDbLine
 10
2.999969482421875
 20
29.500015258789062
 30
0.0
 11
16.999969482421875
 21
29.500015258789062
 31
0.0
  0
LINE
  5
535
100
AcDbEntity
  8
0
  6
CONTINUOUS
 62
               7
100
AcDbLine
 10
16.999967574533002
 20
29.500012431570212
 30
0.0
 11
18.999962141753713
 21
27.000019222544324
 31
0.0
  0
LINE
  5
536
100
AcDbEntity
  8
0
  6
CONTINUOUS
 62
               7
100
AcDbLine
 10
2.9999698586498198
 20
29.500017197615307
 30
0.0
 11
0.9999657593389202
 21
27.000012073476682
 31
0.0
  0
LINE
  5
537
100
AcDbEntity
  8
0
  6
CONTINUOUS
 62
               2
100
AcDbLine
 10
11.999969482421875
 20
1.9215087890625
 30
0.0
 11
11.999969482421875
 21
17.0784912109375
 31
0.0
  0
LINE
  5
538
100
AcDbEntity
  8
0
  6
CONTINUOUS
 62
               2
100
AcDbLine
 10
7.999969482421875
 20
-36.078445434570313
 30
0.0
 11
7.999969482421875
 21
-20.921493530273437
 31
0.0
  0
LINE
  5
539
100
AcDbEntity
  8
0
  6
CONTINUOUS
 62
               2
100
AcDbLine
 10
15.578475952148438
 20
-28.499984741210938
 30
0.0
 11
0.421478271484375
 21
-28.499984741210938
 31
0.0
  0
LINE
  5
53A
100
AcDbEntity
  8
0
  6
CONTINUOUS
 62
               2
100
AcDbLine
 10
19.578475952148438
 20
9.5000152587890625
 30
0.0
 11
4.4214935302734375
 21
9.5000152587890625
 31
0.0
  0
CIRCLE
  5
53B
100
AcDbEntity
  8
0
  6
CONTINUOUS
 62
               7
100
AcDbCircle
 10
11.999969482421875
 20
9.5000152587890625
 30
0.0
 40
5.7224998474121094
  0
CIRCLE
  5
53C
100
AcDbEntity
  8
0
  6
CONTINUOUS
 62
               2
100
AcDbCircle
 10
11.999969482421875
 20
9.5000152587890625
 30
0.0
 40
6.5784997940063477
  0
CIRCLE
  5
53D
100
AcDbEntity
  8
0
  6
CONTINUOUS
 62
               7
100
AcDbCircle
 10
7.999969482421875
 20
-28.499984741210938
 30
0.0
 40
5.7224998474121094
  0
CIRCLE
  5
53E
100
AcDbEntity
  8
0
  6
CONTINUOUS
 62
               2
100
AcDbCircle
 10
7.999969482421875
 20
-28.499984741210938
 30
0.0
 40
6.5784997940063477
  0
LINE
  5
53F
100
AcDbEntity
  8
0
  6
DASHED
 62
               4
100
AcDbLine
 10
-1.000030517578125
 20
4.0000152587890909
 30
0.0
 11
-1.000030517578125
 21
-3.9999809265136435
 31
0.0
  0
LINE
  5
540
100
AcDbEntity
  8
0
  6
DASHED
 62
               4
100
AcDbLine
 10
-0.0000063458010118
 20
-0.4999907268338575
 30
0.0
 11
-1.0000083987415564
 21
-0.7679404098871601
 31
0.0
  0
LINE
  5
541
100
AcDbEntity
  8
0
  6
DASHED
 62
               4
100
AcDbLine
 10
-1.0000074725194281
 20
0.5000108725780592
 30
0.0
 11
-0.0000054195788834
 21
0.7679605556313618
 31
0.0
  0
LINE
  5
542
100
AcDbEntity
  8
0
  6
DASHED
 62
               4
100
AcDbLine
 10
-1.000030517578125
 20
-14.999977111816406
 30
0.0
 11
-1.000030517578125
 21
-22.999984741210937
 31
0.0
  0
LINE
  5
543
100
AcDbEntity
  8
0
  6
DASHED
 62
               4
100
AcDbLine
 10
-0.0000062175207631
 20
-19.499974907483534
 30
0.0
 11
-1.0000082704613078
 21
-19.767924590536836
 31
0.0
  0
LINE
  5
544
100
AcDbEntity
  8
0
  6
DASHED
 62
               4
100
AcDbLine
 10
-1.0000073442391795
 20
-18.499973308071617
 30
0.0
 11
-0.0000052912986348
 21
-18.232023625018314
 31
0.0
  0
LINE
  5
545
100
AcDbEntity
  8
0
  6
DASHED
 62
               4
100
AcDbLine
 10
23.199966430664062
 20
-21.499984741210938
 30
0.0
 11
23.199966430664062
 21
-16.499977111816406
 31
0.0
  0
LINE
  5
546
100
AcDbEntity
  8
0
  6
DASHED
 62
               4
100
AcDbLine
 10
22.0999755859375
 20
-21.499984741210938
 30
0.0
 11
23.199966430664062
 21
-21.499984741210938
 31
0.0
  0
LINE
  5
547
100
AcDbEntity
  8
0
  6
DASHED
 62
               4
100
AcDbLine
 10
22.0999755859375
 20
-16.499977111816406
 30
0.0
 11
23.199966430664062
 21
-16.499977111816406
 31
0.0
  0
ARC
  5
548
100
AcDbEntity
  8
0
  6
DASHED
 62
               4
100
AcDbCircle
 10
22.0999755859375
 20
-15.999977111816406
 30
0.0
 40
0.5
100
AcDbArc
 50
179.99998133066492
 51
270.00001798608872
  0
ARC
  5
549
100
AcDbEntity
  8
0
  6
DASHED
 62
               4
100
AcDbCircle
 10
22.0999755859375
 20
-21.999984741210937
 30
0.0
 40
0.5
100
AcDbArc
 50
89.999982013910454
 51
179.99996402782091
  0
LINE
  5
54A
100
AcDbEntity
  8
0
  6
DASHED
 62
               4
100
AcDbLine
 10
23.199966430664062
 20
-2.4999828338623047
 30
0.0
 11
23.199966430664062
 21
2.5000152587890625
 31
0.0
  0
LINE
  5
54B
100
AcDbEntity
  8
0
  6
DASHED
 62
               4
100
AcDbLine
 10
22.0999755859375
 20
-2.4999828338623047
 30
0.0
 11
23.199966430664062
 21
-2.4999828338623047
 31
0.0
  0
LINE
  5
54C
100
AcDbEntity
  8
0
  6
DASHED
 62
               4
100
AcDbLine
 10
22.0999755859375
 20
2.5000152587890625
 30
0.0
 11
23.199966430664062
 21
2.5000152587890625
 31
0.0
  0
ARC
  5
54D
100
AcDbEntity
  8
0
  6
DASHED
 62
               4
100
AcDbCircle
 10
22.0999755859375
 20
3.0000152587890625
 30
0.0
 40
0.5
100
AcDbArc
 50
179.99998133066492
 51
270.00001798608872
  0
ARC
  5
54E
100
AcDbEntity
  8
0
  6
DASHED
 62
               4
100
AcDbCircle
 10
22.0999755859375
 20
-2.9999828338623047
 30
0.0
 40
0.5
100
AcDbArc
 50
89.999982013910454
 51
179.99996402782091
  0
LINE
  5
54F
100
AcDbEntity
  8
0
  6
CONTINUOUS
 62
               7
100
AcDbLine
 10
19.999969482421875
 20
-36.499984741210937
 30
0.0
 11
-0.000030517578125
 21
-36.499984741210937
 31
0.0
  0
LINE
  5
550
100
AcDbEntity
  8
0
  6
CONTINUOUS
 62
               7
100
AcDbLine
 10
19.999969482421875
 20
17.500015258789063
 30
0.0
 11
-0.000030517578125
 21
17.500015258789063
 31
0.0
  0
LINE
  5
551
100
AcDbEntity
  8
0
  6
CONTINUOUS
 62
             200
100
AcDbLine
 10
9.9621218196906653
 20
87.972215452514575
 30
0.0
 11
14.049979866006652
 21
89.067553723978563
 31
0.0
  0
LINE
  5
552
100
AcDbEntity
  8
0
  6
CONTINUOUS
 62
             200
100
AcDbLine
 10
9.8992779763468661
 20
88.990652662330859
 30
0.0
 11
14.049975172824816
 21
90.102828633474928
 31
0.0
  0
LINE
  5
553
100
AcDbEntity
  8
0
  6
CONTINUOUS
 62
               4
100
AcDbLine
 10
14.949966430664062
 20
73.5
 30
0.0
 11
5.0499725341796875
 21
73.5
 31
0.0
  0
LINE
  5
554
100
AcDbEntity
  8
0
  6
CONTINUOUS
 62
               4
100
AcDbLine
 10
11.169969482421877
 20
59.200030517578114
 30
0.0
 11
12.829969482421873
 21
59.200030517578114
 31
0.0
  0
LINE
  5
555
100
AcDbEntity
  8
0
  6
CONTINUOUS
 62
               4
100
AcDbLine
 10
7.1699694824218767
 20
59.200030517578114
 30
0.0
 11
8.8299694824218733
 21
59.200030517578114
 31
0.0
  0
LINE
  5
556
100
AcDbEntity
  8
0
  6
CONTINUOUS
 62
               4
100
AcDbLine
 10
12.829969482421873
 20
59.200030517578114
 30
0.0
 11
12.829969482421873
 21
64.500030517578125
 31
0.0
  0
LINE
  5
557
100
AcDbEntity
  8
0
  6
CONTINUOUS
 62
               4
100
AcDbLine
 10
11.169969482421877
 20
59.200030517578114
 30
0.0
 11
11.169969482421877
 21
64.500030517578125
 31
0.0
  0
LINE
  5
558
100
AcDbEntity
  8
0
  6
CONTINUOUS
 62
               4
100
AcDbLine
 10
8.8299694824218733
 20
59.200030517578114
 30
0.0
 11
8.8299694824218733
 21
64.500030517578125
 31
0.0
  0
LINE
  5
559
100
AcDbEntity
  8
0
  6
CONTINUOUS
 62
               4
100
AcDbLine
 10
7.1699694824218767
 20
59.200030517578114
 30
0.0
 11
7.1699694824218767
 21
64.500030517578125
 31
0.0
  0
LINE
  5
55A
100
AcDbEntity
  8
0
  6
CONTINUOUS
 62
               4
100
AcDbLine
 10
12.599969482421869
 20
59.200030517578114
 30
0.0
 11
12.599969482421869
 21
64.500030517578125
 31
0.0
  0
LINE
  5
55B
100
AcDbEntity
  8
0
  6
CONTINUOUS
 62
               4
100
AcDbLine
 10
11.399969482421881
 20
59.200030517578114
 30
0.0
 11
11.399969482421881
 21
64.500030517578125
 31
0.0
  0
LINE
  5
55C
100
AcDbEntity
  8
0
  6
CONTINUOUS
 62
               4
100
AcDbLine
 10
8.5999694824218693
 20
59.200030517578114
 30
0.0
 11
8.5999694824218693
 21
64.500030517578125
 31
0.0
  0
LINE
  5
55D
100
AcDbEntity
  8
0
  6
CONTINUOUS
 62
               4
100
AcDbLine
 10
7.3999694824218807
 20
59.200030517578114
 30
0.0
 11
7.3999694824218807
 21
64.500030517578125
 31
0.0
  0
LINE
  5
55E
100
AcDbEntity
  8
0
  6
CONTINUOUS
 62
               4
100
AcDbLine
 10
14.299969482421872
 20
57.5
 30
0.0
 11
14.999969482421875
 21
57.5
 31
0.0
  0
LINE
  5
55F
100
AcDbEntity
  8
0
  6
CONTINUOUS
 62
               4
100
AcDbLine
 10
5.6165210589663275
 20
57.5
 30
0.0
 11
5.6165210589663275
 21
64.500030517578125
 31
0.0
  0
LINE
  5
560
100
AcDbEntity
  8
0
  6
CONTINUOUS
 62
               4
100
AcDbLine
 10
14.299969482421872
 20
57.5
 30
0.0
 11
14.299969482421872
 21
64.500030517578125
 31
0.0
  0
LINE
  5
561
100
AcDbEntity
  8
0
  6
CONTINUOUS
 62
               4
100
AcDbLine
 10
4.999969482421875
 20
57.5
 30
0.0
 11
5.6165210604667664
 21
57.5
 31
0.0
  0
LINE
  5
562
100
AcDbEntity
  8
0
  6
CONTINUOUS
 62
               4
100
AcDbLine
 10
14.999969482421875
 20
40.500015258789063
 30
0.0
 11
14.999969482421875
 21
64.500015258789063
 31
0.0
  0
LINE
  5
563
100
AcDbEntity
  8
0
  6
CONTINUOUS
 62
               4
100
AcDbLine
 10
4.999969482421875
 20
40.500015258789063
 30
0.0
 11
4.999969482421875
 21
64.500015258789063
 31
0.0
  0
ENDBLK
  5
564
100
AcDbEntity
  8
0
100
AcDbBlockEnd
  0
BLOCK
  5
565
100
AcDbEntity
  8
0
100
AcDbBlockBegin
  2
F18T-13
 70
               0
 10
0.0
 20
0.0
 30
0.0
  3
F18T-13
  1

  0
LINE
  5
566
100
AcDbEntity
  8
0
  6
CONTINUOUS
 62
               2
100
AcDbLine
 10
-10.0
 20
-62.302852630615234
 30
0.0
 11
-10.0
 21
86.255084991455078
 31
0.0
  0
LINE
  5
567
100
AcDbEntity
  8
0
  6
CONTINUOUS
 62
               7
100
AcDbLine
 10
-19.0
 20
17.000019073486328
 30
0.0
 11
-1.0
 21
17.000019073486328
 31
0.0
  0
LINE
  5
568
100
AcDbEntity
  8
0
  6
CONTINUOUS
 62
               7
100
AcDbLine
 10
-19.0
 20
-35.999980926513672
 30
0.0
 11
-1.0
 21
-35.999980926513672
 31
0.0
  0
LINE
  5
569
100
AcDbEntity
  8
0
  6
CONTINUOUS
 62
               7
100
AcDbLine
 10
-19.0
 20
-47.999980926513672
 30
0.0
 11
-1.0
 21
-47.999980926513672
 31
0.0
  0
LINE
  5
56A
100
AcDbEntity
  8
0
  6
CONTINUOUS
 62
               7
100
AcDbLine
 10
-19.0
 20
16.800006866455078
 30
0.0
 11
-1.0
 21
16.800006866455078
 31
0.0
  0
LINE
  5
56B
100
AcDbEntity
  8
0
  6
CONTINUOUS
 62
               7
100
AcDbLine
 10
-19.0
 20
-35.799968719482422
 30
0.0
 11
-1.0
 21
-35.799968719482422
 31
0.0
  0
LINE
  5
56C
100
AcDbEntity
  8
0
  6
CONTINUOUS
 62
               7
100
AcDbLine
 10
-3.5
 20
13.500019073486328
 30
0.0
 11
-1.0
 21
13.500019073486328
 31
0.0
  0
LINE
  5
56D
100
AcDbEntity
  8
0
  6
CONTINUOUS
 62
               7
100
AcDbLine
 10
-3.5
 20
7.5000190734863281
 30
0.0
 11
-1.0
 21
7.5000190734863281
 31
0.0
  0
LINE
  5
56E
100
AcDbEntity
  8
0
  6
CONTINUOUS
 62
               7
100
AcDbLine
 10
-19.0
 20
-32.499980926513672
 30
0.0
 11
-16.5
 21
-32.499980926513672
 31
0.0
  0
LINE
  5
56F
100
AcDbEntity
  8
0
  6
CONTINUOUS
 62
               7
100
AcDbLine
 10
-19.0
 20
-26.499980926513672
 30
0.0
 11
-16.5
 21
-26.499980926513672
 31
0.0
  0
LINE
  5
570
100
AcDbEntity
  8
0
  6
CONTINUOUS
 62
               7
100
AcDbLine
 10
-13.5
 20
12.500034332275391
 30
0.0
 11
-13.5
 21
16.800022125244141
 31
0.0
  0
LINE
  5
571
100
AcDbEntity
  8
0
  6
CONTINUOUS
 62
               7
100
AcDbLine
 10
-16.5
 20
9.5000190734863281
 30
0.0
 11
-19.0
 21
9.5000190734863281
 31
0.0
  0
LINE
  5
572
100
AcDbEntity
  8
0
  6
CONTINUOUS
 62
               7
100
AcDbLine
 10
-2.5
 20
-46.999980926513672
 30
0.0
 11
-17.5
 21
-46.999980926513672
 31
0.0
  0
LINE
  5
573
100
AcDbEntity
  8
0
  6
CONTINUOUS
 62
               7
100
AcDbLine
 10
-2.5
 20
-46.999980926513672
 30
0.0
 11
-2.5
 21
-36.999980926513672
 31
0.0
  0
LINE
  5
574
100
AcDbEntity
  8
0
  6
CONTINUOUS
 62
               7
100
AcDbLine
 10
-17.5
 20
-46.999980926513672
 30
0.0
 11
-17.5
 21
-36.999980926513672
 31
0.0
  0
LINE
  5
575
100
AcDbEntity
  8
0
  6
CONTINUOUS
 62
               7
100
AcDbLine
 10
-17.5
 20
-36.999980926513672
 30
0.0
 11
-2.5
 21
-36.999980926513672
 31
0.0
  0
LINE
  5
576
100
AcDbEntity
  8
0
  6
CONTINUOUS
 62
               7
100
AcDbLine
 10
-3.5
 20
-45.999980926513672
 30
0.0
 11
-16.5
 21
-45.999980926513672
 31
0.0
  0
LINE
  5
577
100
AcDbEntity
  8
0
  6
CONTINUOUS
 62
               7
100
AcDbLine
 10
-16.5
 20
-37.999980926513672
 30
0.0
 11
-3.5
 21
-37.999980926513672
 31
0.0
  0
LINE
  5
578
100
AcDbEntity
  8
0
  6
CONTINUOUS
 62
               7
100
AcDbLine
 10
-3.5
 20
-45.999980926513672
 30
0.0
 11
-3.5
 21
-37.999980926513672
 31
0.0
  0
LINE
  5
579
100
AcDbEntity
  8
0
  6
CONTINUOUS
 62
               7
100
AcDbLine
 10
-16.5
 20
-45.999980926513672
 30
0.0
 11
-16.5
 21
-37.999980926513672
 31
0.0
  0
LINE
  5
57A
100
AcDbEntity
  8
0
  6
CONTINUOUS
 62
               7
100
AcDbLine
 10
-2.4999767896269987
 20
-46.999994206083102
 30
0.0
 11
-3.4999778512164994
 21
-45.999993144493601
 31
0.0
  0
LINE
  5
57B
100
AcDbEntity
  8
0
  6
CONTINUOUS
 62
               7
100
AcDbLine
 10
-3.5000368356759282
 20
-37.999921284063021
 30
0.0
 11
-2.5000367013180949
 21
-36.999919210948065
 31
0.0
  0
LINE
  5
57C
100
AcDbEntity
  8
0
  6
CONTINUOUS
 62
               7
100
AcDbLine
 10
-17.499991954331563
 20
-36.99993499501943
 30
0.0
 11
-16.499992831499185
 21
-37.999937995366054
 31
0.0
  0
LINE
  5
57D
100
AcDbEntity
  8
0
  6
CONTINUOUS
 62
               7
100
AcDbLine
 10
-16.50003817799643
 20
-45.999908683393187
 30
0.0
 11
-17.500034181908632
 21
-46.999893223473919
 31
0.0
  0
LINE
  5
57E
100
AcDbEntity
  8
0
  6
CONTINUOUS
 62
               7
100
AcDbLine
 10
-16.5
 20
-47.999980926513672
 30
0.0
 11
-16.5
 21
-46.999980926513672
 31
0.0
  0
LINE
  5
57F
100
AcDbEntity
  8
0
  6
CONTINUOUS
 62
               7
100
AcDbLine
 10
-19.0
 20
-44.999980926513672
 30
0.0
 11
-17.5
 21
-44.999980926513672
 31
0.0
  0
LINE
  5
580
100
AcDbEntity
  8
0
  6
CONTINUOUS
 62
               7
100
AcDbLine
 10
-16.5
 20
-36.999980926513672
 30
0.0
 11
-16.5
 21
-35.999980926513672
 31
0.0
  0
LINE
  5
581
100
AcDbEntity
  8
0
  6
CONTINUOUS
 62
               7
100
AcDbLine
 10
-19.0
 20
-38.999980926513672
 30
0.0
 11
-17.5
 21
-38.999980926513672
 31
0.0
  0
LINE
  5
582
100
AcDbEntity
  8
0
  6
CONTINUOUS
 62
               7
100
AcDbLine
 10
-3.5
 20
-36.999980926513672
 30
0.0
 11
-3.5
 21
-35.999980926513672
 31
0.0
  0
LINE
  5
583
100
AcDbEntity
  8
0
  6
CONTINUOUS
 62
               7
100
AcDbLine
 10
-2.5
 20
-38.999980926513672
 30
0.0
 11
-1.0
 21
-38.999980926513672
 31
0.0
  0
LINE
  5
584
100
AcDbEntity
  8
0
  6
CONTINUOUS
 62
               7
100
AcDbLine
 10
-3.5
 20
-47.999996185302734
 30
0.0
 11
-3.5
 21
-46.999980926513672
 31
0.0
  0
LINE
  5
585
100
AcDbEntity
  8
0
  6
CONTINUOUS
 62
               7
100
AcDbLine
 10
-2.5
 20
-44.999980926513672
 30
0.0
 11
-1.0
 21
-44.999980926513672
 31
0.0
  0
LINE
  5
586
100
AcDbEntity
  8
0
  6
CONTINUOUS
 62
               7
100
AcDbLine
 10
0.0
 20
-36.499980926513672
 30
0.0
 11
0.0
 21
17.500019073486328
 31
0.0
  0
LINE
  5
587
100
AcDbEntity
  8
0
  6
CONTINUOUS
 62
               7
100
AcDbLine
 10
-20.0
 20
-36.499980926513672
 30
0.0
 11
-20.0
 21
17.500019073486328
 31
0.0
  0
LINE
  5
588
100
AcDbEntity
  8
0
  6
CONTINUOUS
 62
               7
100
AcDbLine
 10
-18.5
 20
-58.999980926513672
 30
0.0
 11
-1.5
 21
-58.999980926513672
 31
0.0
  0
LINE
  5
589
100
AcDbEntity
  8
0
  6
CONTINUOUS
 62
               7
100
AcDbLine
 10
-15.0
 20
31.000019073486328
 30
0.0
 11
-5.0
 21
31.000019073486328
 31
0.0
  0
LINE
  5
58A
100
AcDbEntity
  8
0
  6
CONTINUOUS
 62
               2
100
AcDbLine
 10
-12.5
 20
37.200016021728516
 30
0.0
 11
-7.5
 21
37.200016021728516
 31
0.0
  0
LINE
  5
58B
100
AcDbEntity
  8
0
  6
CONTINUOUS
 62
               4
100
AcDbLine
 10
-14.999984741210938
 20
64.500034332275391
 30
0.0
 11
-4.9999847412109375
 21
64.500034332275391
 31
0.0
  0
LINE
  5
58C
100
AcDbEntity
  8
0
  6
CONTINUOUS
 62
               7
100
AcDbLine
 10
-15.0
 20
40.500019073486328
 30
0.0
 11
-5.0
 21
40.500019073486328
 31
0.0
  0
LINE
  5
58D
100
AcDbEntity
  8
0
  6
CONTINUOUS
 62
               7
100
AcDbLine
 10
-11.926788330078125
 20
36.900012969970703
 30
0.0
 11
-8.073211669921875
 21
36.900012969970703
 31
0.0
  0
LINE
  5
58E
100
AcDbEntity
  8
0
  6
CONTINUOUS
 62
               7
100
AcDbLine
 10
-11.926788330078125
 20
37.500019073486328
 30
0.0
 11
-8.073211669921875
 21
37.500019073486328
 31
0.0
  0
LINE
  5
58F
100
AcDbEntity
  8
0
  6
CONTINUOUS
 62
               4
100
AcDbLine
 10
-14.949996948242188
 20
64.500019073486328
 30
0.0
 11
-14.949996948242188
 21
78.000019073486328
 31
0.0
  0
LINE
  5
590
100
AcDbEntity
  8
0
  6
CONTINUOUS
 62
               4
100
AcDbLine
 10
-5.4999847412109375
 20
73.500034332275391
 30
0.0
 11
-14.499984741210938
 21
73.500034332275391
 31
0.0
  0
LINE
  5
591
100
AcDbEntity
  8
0
  6
CONTINUOUS
 62
               4
100
AcDbLine
 10
-5.0500030517578125
 20
69.000034332275391
 30
0.0
 11
-14.949996948242188
 21
69.000034332275391
 31
0.0
  0
LINE
  5
592
100
AcDbEntity
  8
0
  6
CONTINUOUS
 62
               4
100
AcDbLine
 10
-5.0500030517578125
 20
64.500019073486328
 30
0.0
 11
-5.0500030517578125
 21
78.000019073486328
 31
0.0
  0
LINE
  5
593
100
AcDbEntity
  8
0
  6
CONTINUOUS
 62
               4
100
AcDbLine
 10
-14.949996948242188
 20
78.000019073486328
 30
0.0
 11
-13.499984741210937
 21
78.000019073486328
 31
0.0
  0
LINE
  5
594
100
AcDbEntity
  8
0
  6
CONTINUOUS
 62
               4
100
AcDbLine
 10
-14.050003051757813
 20
73.500019073486328
 30
0.0
 11
-14.050003051757813
 21
76.000019073486328
 31
0.0
  0
LINE
  5
595
100
AcDbEntity
  8
0
  6
CONTINUOUS
 62
               4
100
AcDbLine
 10
-5.9499969482421875
 20
73.500019073486328
 30
0.0
 11
-5.9499969482421875
 21
76.000019073486328
 31
0.0
  0
LINE
  5
596
100
AcDbEntity
  8
0
  6
CONTINUOUS
 62
               4
100
AcDbLine
 10
-6.5
 20
73.998477935791016
 30
0.0
 11
-6.5
 21
84.500019073486328
 31
0.0
  0
LINE
  5
597
100
AcDbEntity
  8
0
  6
CONTINUOUS
 62
               4
100
AcDbLine
 10
-13.5
 20
73.998477935791016
 30
0.0
 11
-13.5
 21
84.500019073486328
 31
0.0
  0
LINE
  5
598
100
AcDbEntity
  8
0
  6
CONTINUOUS
 62
               4
100
AcDbLine
 10
-13.499984741210937
 20
73.998493194580078
 30
0.0
 11
-6.4999847412109375
 21
73.998493194580078
 31
0.0
  0
LINE
  5
599
100
AcDbEntity
  8
0
  6
CONTINUOUS
 62
               4
100
AcDbLine
 10
-13.499984741210937
 20
77.556171417236328
 30
0.0
 11
-6.4999847412109375
 21
77.556171417236328
 31
0.0
  0
LINE
  5
59A
100
AcDbEntity
  8
0
  6
CONTINUOUS
 62
               4
100
AcDbLine
 10
-13.499984741210937
 20
83.000019073486328
 30
0.0
 11
-6.4999847412109375
 21
83.000019073486328
 31
0.0
  0
LINE
  5
59B
100
AcDbEntity
  8
0
  6
CONTINUOUS
 62
               4
100
AcDbLine
 10
-14.899993896484375
 20
84.500019073486328
 30
0.0
 11
-5.0999908447265625
 21
84.500019073486328
 31
0.0
  0
LINE
  5
59C
100
AcDbEntity
  8
0
  6
CONTINUOUS
 62
               4
100
AcDbLine
 10
-6.4999847412109375
 20
78.000019073486328
 30
0.0
 11
-5.0500030517578125
 21
78.000019073486328
 31
0.0
  0
LINE
  5
59D
100
AcDbEntity
  8
0
  6
CONTINUOUS
 62
               4
100
AcDbLine
 10
-6.4999847412109375
 20
77.000019073486328
 30
0.0
 11
-5.9499969482421875
 21
77.000019073486328
 31
0.0
  0
LINE
  5
59E
100
AcDbEntity
  8
0
  6
CONTINUOUS
 62
               4
100
AcDbLine
 10
-6.4999847412109375
 20
76.000019073486328
 30
0.0
 11
-5.9499969482421875
 21
76.000019073486328
 31
0.0
  0
LINE
  5
59F
100
AcDbEntity
  8
0
  6
CONTINUOUS
 62
               4
100
AcDbLine
 10
-14.050003051757813
 20
77.000019073486328
 30
0.0
 11
-13.499984741210937
 21
77.000019073486328
 31
0.0
  0
LINE
  5
5A0
100
AcDbEntity
  8
0
  6
CONTINUOUS
 62
               4
100
AcDbLine
 10
-14.050003051757813
 20
76.000019073486328
 30
0.0
 11
-13.499984741210937
 21
76.000019073486328
 31
0.0
  0
LINE
  5
5A1
100
AcDbEntity
  8
0
  6
CONTINUOUS
 62
               4
100
AcDbLine
 10
-14.050003051757813
 20
77.000019073486328
 30
0.0
 11
-14.050003051757813
 21
78.000019073486328
 31
0.0
  0
LINE
  5
5A2
100
AcDbEntity
  8
0
  6
CONTINUOUS
 62
               4
100
AcDbLine
 10
-5.9499969482421875
 20
77.000019073486328
 30
0.0
 11
-5.9499969482421875
 21
78.000019073486328
 31
0.0
  0
LINE
  5
5A3
100
AcDbEntity
  8
0
  6
CONTINUOUS
 62
               4
100
AcDbLine
 10
-11.284988403320313
 20
88.673343658447266
 30
0.0
 11
-11.284988403320313
 21
92.500019073486328
 31
0.0
  0
LINE
  5
5A4
100
AcDbEntity
  8
0
  6
CONTINUOUS
 62
               4
100
AcDbLine
 10
-12.715011596679687
 20
88.290164947509766
 30
0.0
 11
-12.715011596679687
 21
92.500019073486328
 31
0.0
  0
LINE
  5
5A5
100
AcDbEntity
  8
0
  6
CONTINUOUS
 62
               4
100
AcDbLine
 10
-12.715011596679687
 20
92.500019073486328
 30
0.0
 11
-11.285003662109375
 21
92.500019073486328
 31
0.0
  0
LINE
  5
5A6
100
AcDbEntity
  8
0
  6
CONTINUOUS
 62
               4
100
AcDbLine
 10
-11.599990844726563
 20
92.500019073486328
 30
0.0
 11
-11.599990844726563
 21
97.500019073486328
 31
0.0
  0
LINE
  5
5A7
100
AcDbEntity
  8
0
  6
CONTINUOUS
 62
               4
100
AcDbLine
 10
-12.400009155273438
 20
92.500019073486328
 30
0.0
 11
-12.400009155273438
 21
97.500019073486328
 31
0.0
  0
LINE
  5
5A8
100
AcDbEntity
  8
0
  6
CONTINUOUS
 62
               4
100
AcDbLine
 10
-12.400009155273438
 20
97.500019073486328
 30
0.0
 11
-11.600006103515625
 21
97.500019073486328
 31
0.0
  0
LINE
  5
5A9
100
AcDbEntity
  8
0
  6
CONTINUOUS
 62
               4
100
AcDbLine
 10
-11.284988403320313
 20
84.500019073486328
 30
0.0
 11
-11.284988403320313
 21
87.638065338134766
 31
0.0
  0
LINE
  5
5AA
100
AcDbEntity
  8
0
  6
CONTINUOUS
 62
               4
100
AcDbLine
 10
-12.715011596679687
 20
84.500019073486328
 30
0.0
 11
-12.715011596679687
 21
87.254886627197266
 31
0.0
  0
LINE
  5
5AB
100
AcDbEntity
  8
0
  6
CONTINUOUS
 62
               7
100
AcDbLine
 10
-5.0
 20
29.500019073486328
 30
0.0
 11
-5.0
 21
40.500019073486328
 31
0.0
  0
LINE
  5
5AC
100
AcDbEntity
  8
0
  6
CONTINUOUS
 62
               7
100
AcDbLine
 10
-15.0
 20
29.500019073486328
 30
0.0
 11
-15.0
 21
40.500019073486328
 31
0.0
  0
LINE
  5
5AD
100
AcDbEntity
  8
0
  6
CONTINUOUS
 62
               4
100
AcDbLine
 10
-5.0999908447265625
 20
78.000019073486328
 30
0.0
 11
-5.0999908447265625
 21
84.500019073486328
 31
0.0
  0
LINE
  5
5AE
100
AcDbEntity
  8
0
  6
CONTINUOUS
 62
               4
100
AcDbLine
 10
-14.899993896484375
 20
78.000019073486328
 30
0.0
 11
-14.899993896484375
 21
84.500019073486328
 31
0.0
  0
LINE
  5
5AF
100
AcDbEntity
  8
0
  6
CONTINUOUS
 62
               4
100
AcDbLine
 10
-14.0
 20
78.000019073486328
 30
0.0
 11
-14.0
 21
84.500019073486328
 31
0.0
  0
LINE
  5
5B0
100
AcDbEntity
  8
0
  6
CONTINUOUS
 62
               4
100
AcDbLine
 10
-6.0
 20
78.000019073486328
 30
0.0
 11
-6.0
 21
84.500019073486328
 31
0.0
  0
LINE
  5
5B1
100
AcDbEntity
  8
0
  6
CONTINUOUS
 62
               7
100
AcDbLine
 10
-19.0
 20
27.000019073486328
 30
0.0
 11
-1.0
 21
27.000019073486328
 31
0.0
  0
LINE
  5
5B2
100
AcDbEntity
  8
0
  6
CONTINUOUS
 62
               7
100
AcDbLine
 10
-1.0
 20
-58.499980926513672
 30
0.0
 11
-1.0
 21
8.9468421936035156
 31
0.0
  0
LINE
  5
5B3
100
AcDbEntity
  8
0
  6
CONTINUOUS
 62
               7
100
AcDbLine
 10
-19.0
 20
-58.499980926513672
 30
0.0
 11
-19.0
 21
-31.053142547607422
 31
0.0
  0
LINE
  5
5B4
100
AcDbEntity
  8
0
  6
CONTINUOUS
 62
               2
100
AcDbLine
 10
-20.0
 20
0.0000152587890625
 30
0.0
 11
1.467193603515625
 21
0.0000152587890625
 31
0.0
  0
LINE
  5
5B5
100
AcDbEntity
  8
0
  6
CONTINUOUS
 62
               2
100
AcDbLine
 10
-20.0
 20
-18.999984741210937
 30
0.0
 11
1.3137664794921875
 21
-18.999984741210937
 31
0.0
  0
LINE
  5
5B6
100
AcDbEntity
  8
0
  6
CONTINUOUS
 62
               7
100
AcDbLine
 10
-3.5
 20
-28.499980926513672
 30
0.0
 11
-1.0
 21
-28.499980926513672
 31
0.0
  0
LINE
  5
5B7
100
AcDbEntity
  8
0
  6
CONTINUOUS
 62
               7
100
AcDbLine
 10
-6.5
 20
-31.499965667724609
 30
0.0
 11
-6.5
 21
-35.799968719482422
 31
0.0
  0
LINE
  5
5B8
100
AcDbEntity
  8
0
  6
CONTINUOUS
 62
               7
100
AcDbLine
 10
-17.560637564985882
 20
-30.560663050906442
 30
0.0
 11
-15.439317078917156
 21
-28.43934274365165
 31
0.0
  0
LINE
  5
5B9
100
AcDbEntity
  8
0
  6
CONTINUOUS
 62
               7
100
AcDbLine
 10
-17.560626685984971
 20
-28.439331864651649
 30
0.0
 11
-15.43930637873018
 21
-30.560652350720375
 31
0.0
  0
LINE
  5
5BA
100
AcDbEntity
  8
0
  6
CONTINUOUS
 62
               7
100
AcDbLine
 10
-4.5606556694865503
 20
-32.560655016694
 30
0.0
 11
-2.4393351834178247
 21
-30.439334709439208
 31
0.0
  0
LINE
  5
5BB
100
AcDbEntity
  8
0
  6
CONTINUOUS
 62
               7
100
AcDbLine
 10
-4.5606555800795832
 20
-30.439334620032241
 30
0.0
 11
-2.4393352728247919
 21
-32.560655106100967
 31
0.0
  0
LINE
  5
5BC
100
AcDbEntity
  8
0
  6
CONTINUOUS
 62
               7
100
AcDbLine
 10
-4.5606431097257882
 20
9.4393373922666797
 30
0.0
 11
-2.4393226236570626
 21
11.560657699521471
 31
0.0
  0
LINE
  5
5BD
100
AcDbEntity
  8
0
  6
CONTINUOUS
 62
               7
100
AcDbLine
 10
-4.5606322307257869
 20
11.560646999334494
 30
0.0
 11
-2.4393119234709957
 21
9.4393265132657689
 31
0.0
  0
LINE
  5
5BE
100
AcDbEntity
  8
0
  6
CONTINUOUS
 62
               7
100
AcDbLine
 10
-17.560657374005132
 20
11.439340147649091
 30
0.0
 11
-15.439336887936406
 21
13.560660454903882
 31
0.0
  0
LINE
  5
5BF
100
AcDbEntity
  8
0
  6
CONTINUOUS
 62
               7
100
AcDbLine
 10
-17.560646495004221
 20
13.560671333903883
 30
0.0
 11
-15.43932618774943
 21
11.439350847835158
 31
0.0
  0
LINE
  5
5C0
100
AcDbEntity
  8
0
  6
DASHED
 62
               4
100
AcDbLine
 10
-21.599990844726562
 20
-59.399974822998047
 30
0.0
 11
-21.599990844726562
 21
10.000003814697266
 31
0.0
  0
LINE
  5
5C1
100
AcDbEntity
  8
0
  6
DASHED
 62
               4
100
AcDbLine
 10
-20.0
 20
10.000003814697266
 30
0.0
 11
-21.599990844726562
 21
10.000003814697266
 31
0.0
  0
LINE
  5
5C2
100
AcDbEntity
  8
0
  6
DASHED
 62
               4
100
AcDbLine
 10
-20.0
 20
-36.499980926513672
 30
0.0
 11
-20.0
 21
-59.399974822998047
 31
0.0
  0
LINE
  5
5C3
100
AcDbEntity
  8
0
  6
DASHED
 62
               4
100
AcDbLine
 10
-1.0
 20
-59.399974822998047
 30
0.0
 11
-20.0
 21
-59.399974822998047
 31
0.0
  0
LINE
  5
5C4
100
AcDbEntity
  8
0
  6
DASHED
 62
               4
100
AcDbLine
 10
-1.0
 20
-60.999980926513672
 30
0.0
 11
-20.0
 21
-60.999980926513672
 31
0.0
  0
LINE
  5
5C5
100
AcDbEntity
  8
0
  6
DASHED
 62
               4
100
AcDbLine
 10
-1.0
 20
-59.399974822998047
 30
0.0
 11
-1.0
 21
-60.999980926513672
 31
0.0
  0
LINE
  5
5C6
100
AcDbEntity
  8
0
  6
DASHED
 62
               4
100
AcDbLine
 10
2.281524658203125
 20
4.0000190734863281
 30
0.0
 11
0.0
 21
4.0000190734863281
 31
0.0
  0
LINE
  5
5C7
100
AcDbEntity
  8
0
  6
DASHED
 62
               4
100
AcDbLine
 10
2.281524658203125
 20
-3.9999771118164063
 30
0.0
 11
0.0
 21
-3.9999771118164063
 31
0.0
  0
LINE
  5
5C8
100
AcDbEntity
  8
0
  6
DASHED
 62
               4
100
AcDbLine
 10
2.281524658203125
 20
-14.999973297119141
 30
0.0
 11
0.0
 21
-14.999973297119141
 31
0.0
  0
LINE
  5
5C9
100
AcDbEntity
  8
0
  6
DASHED
 62
               4
100
AcDbLine
 10
2.281524658203125
 20
-22.999980926513672
 30
0.0
 11
0.0
 21
-22.999980926513672
 31
0.0
  0
ARC
  5
5CA
100
AcDbEntity
  8
0
  6
CONTINUOUS
 62
               7
100
AcDbCircle
 10
-3.5
 20
10.500034332275391
 30
0.0
 40
3.0
100
AcDbArc
 50
89.999982013910454
 51
269.99994604173139
  0
ARC
  5
5CB
100
AcDbEntity
  8
0
  6
CONTINUOUS
 62
               7
100
AcDbCircle
 10
-16.5
 20
-29.499965667724609
 30
0.0
 40
3.0
100
AcDbArc
 50
269.99996334457541
 51
89.999982013910454
  0
ARC
  5
5CC
100
AcDbEntity
  8
0
  6
CONTINUOUS
 62
               7
100
AcDbCircle
 10
-16.5
 20
12.500034332275391
 30
0.0
 40
3.0
100
AcDbArc
 50
270.00001798608872
 51
0.00001366037834
  0
ARC
  5
5CD
100
AcDbEntity
  8
0
  6
CONTINUOUS
 62
               7
100
AcDbCircle
 10
-1.5
 20
-58.499980926513672
 30
0.0
 40
0.5
100
AcDbArc
 50
270.00001798608872
 51
0.00001366037834
  0
ARC
  5
5CE
100
AcDbEntity
  8
0
  6
CONTINUOUS
 62
               7
100
AcDbCircle
 10
-18.5
 20
-58.499965667724609
 30
0.0
 40
0.5
100
AcDbArc
 50
180.0000359721783
 51
269.99996334457541
  0
ARC
  5
5CF
100
AcDbEntity
  8
0
  6
CONTINUOUS
 62
               7
100
AcDbCircle
 10
-3.9999542236328125
 20
30.000080108642578
 30
0.0
 40
2.5000734329223633
100
AcDbArc
 50
191.53802865027069
 51
319.4591594643893
  0
CIRCLE
  5
5D0
100
AcDbEntity
  8
0
  6
CONTINUOUS
 62
               7
100
AcDbCircle
 10
-10.0
 20
37.200016021728516
 30
0.0
 40
2.0
  0
CIRCLE
  5
5D1
100
AcDbEntity
  8
0
  6
CONTINUOUS
 62
               7
100
AcDbCircle
 10
-10.0
 20
37.200016021728516
 30
0.0
 40
1.9499998092651367
  0
ARC
  5
5D2
100
AcDbEntity
  8
0
  6
CONTINUOUS
 62
               4
100
AcDbCircle
 10
-5.5500030517578125
 20
73.000034332275391
 30
0.0
 40
0.5
100
AcDbArc
 50
359.99994535848583
 51
89.999982013910454
  0
ARC
  5
5D3
100
AcDbEntity
  8
0
  6
CONTINUOUS
 62
               4
100
AcDbCircle
 10
-14.449996948242188
 20
73.000034332275391
 30
0.0
 40
0.5
100
AcDbArc
 50
89.999982013910454
 51
179.99996402782091
  0
ARC
  5
5D4
100
AcDbEntity
  8
0
  6
CONTINUOUS
 62
               7
100
AcDbCircle
 10
-3.5
 20
-31.499965667724609
 30
0.0
 40
3.0
100
AcDbArc
 50
89.999982013910454
 51
179.99996402782091
  0
CIRCLE
  5
5D5
100
AcDbEntity
  8
0
  6
CONTINUOUS
 62
               7
100
AcDbCircle
 10
-16.499984741210937
 20
-29.499965667724609
 30
0.0
 40
2.7999992370605469
  0
CIRCLE
  5
5D6
100
AcDbEntity
  8
0
  6
CONTINUOUS
 62
               7
100
AcDbCircle
 10
-3.5
 20
-31.499950408935547
 30
0.0
 40
2.7999992370605469
  0
CIRCLE
  5
5D7
100
AcDbEntity
  8
0
  6
CONTINUOUS
 62
               7
100
AcDbCircle
 10
-3.5
 20
10.500019073486328
 30
0.0
 40
2.7999992370605469
  0
CIRCLE
  5
5D8
100
AcDbEntity
  8
0
  6
CONTINUOUS
 62
               7
100
AcDbCircle
 10
-16.5
 20
12.500034332275391
 30
0.0
 40
2.7999992370605469
  0
ARC
  5
5D9
100
AcDbEntity
  8
0
  6
DASHED
 62
               4
100
AcDbCircle
 10
-20.0
 20
-59.399974822998047
 30
0.0
 40
1.5999994277954102
100
AcDbArc
 50
179.99996402782091
 51
269.99994604173139
  0
ARC
  5
5DA
100
AcDbEntity
  8
0
  6
DASHED
 62
               4
100
AcDbCircle
 10
-2.4000091552734375
 20
0.0000152587890625
 30
0.0
 40
6.5
100
AcDbArc
 50
326.20568564725858
 51
33.794232390470569
  0
ARC
  5
5DB
100
AcDbEntity
  8
0
  6
DASHED
 62
               4
100
AcDbCircle
 10
2.281524658203125
 20
3.1333351135253906
 30
0.0
 40
0.8666666746139526
100
AcDbArc
 50
33.79423239047059
 51
89.999927372397096
  0
ARC
  5
5DC
100
AcDbEntity
  8
0
  6
DASHED
 62
               4
100
AcDbCircle
 10
2.281524658203125
 20
-3.1333160400390625
 30
0.0
 40
0.8666666746139526
100
AcDbArc
 50
269.99996334457541
 51
326.20568564725858
  0
ARC
  5
5DD
100
AcDbEntity
  8
0
  6
DASHED
 62
               4
100
AcDbCircle
 10
2.281524658203125
 20
-15.866649627685547
 30
0.0
 40
0.8666666746139526
100
AcDbArc
 50
33.79423239047059
 51
89.999927372397096
  0
ARC
  5
5DE
100
AcDbEntity
  8
0
  6
DASHED
 62
               4
100
AcDbCircle
 10
-2.4000091552734375
 20
-18.999979972839355
 30
0.0
 40
6.5
100
AcDbArc
 50
326.20568564725858
 51
33.794232390470569
  0
ARC
  5
5DF
100
AcDbEntity
  8
0
  6
DASHED
 62
               4
100
AcDbCircle
 10
2.281524658203125
 20
-22.133312225341797
 30
0.0
 40
0.8666666746139526
100
AcDbArc
 50
269.99996334457541
 51
326.20568564725858
  0
LINE
  5
5E0
100
AcDbEntity
  8
0
  6
DASHED
 62
               4
100
AcDbLine
 10
1.0
 20
-3.9999771118164063
 30
0.0
 11
1.0
 21
4.0000190734863281
 31
0.0
  0
LINE
  5
5E1
100
AcDbEntity
  8
0
  6
DASHED
 62
               4
100
AcDbLine
 10
0.0000115987641038
 20
0.500007520950021
 30
0.0
 11
1.0000136517046485
 21
0.7679572040033236
 31
0.0
  0
LINE
  5
5E2
100
AcDbEntity
  8
0
  6
DASHED
 62
               4
100
AcDbLine
 10
1.0000127254825202
 20
-0.4999940784618957
 30
0.0
 11
0.0000106725419755
 21
-0.7679437615151983
 31
0.0
  0
LINE
  5
5E3
100
AcDbEntity
  8
0
  6
DASHED
 62
               4
100
AcDbLine
 10
1.0
 20
-22.999980926513672
 30
0.0
 11
1.0
 21
-14.999973297119141
 31
0.0
  0
LINE
  5
5E4
100
AcDbEntity
  8
0
  6
DASHED
 62
               4
100
AcDbLine
 10
0.0000139485055115
 20
-18.499984950307407
 30
0.0
 11
1.0000160014460562
 21
-18.232035267254105
 31
0.0
  0
LINE
  5
5E5
100
AcDbEntity
  8
0
  6
DASHED
 62
               4
100
AcDbLine
 10
1.0000150752239279
 20
-19.499986549719324
 30
0.0
 11
0.0000130222833832
 21
-19.767936232772627
 31
0.0
  0
LINE
  5
5E6
100
AcDbEntity
  8
0
  6
CONTINUOUS
 62
               7
100
AcDbLine
 10
-17.0
 20
29.500019073486328
 30
0.0
 11
-3.0
 21
29.500019073486328
 31
0.0
  0
LINE
  5
5E7
100
AcDbEntity
  8
0
  6
CONTINUOUS
 62
               7
100
AcDbLine
 10
-16.999998208652869
 20
29.500006714177289
 30
0.0
 11
-18.999992775873579
 21
27.000013505151401
 31
0.0
  0
LINE
  5
5E8
100
AcDbEntity
  8
0
  6
CONTINUOUS
 62
               7
100
AcDbLine
 10
-3.0000004927696864
 20
29.500030544402762
 30
0.0
 11
-0.9999963934587868
 21
27.000025420264137
 31
0.0
  0
CIRCLE
  5
5E9
100
AcDbEntity
  8
0
  6
CONTINUOUS
 62
               7
100
AcDbCircle
 10
-16.499984741210937
 20
-29.499965667724609
 30
0.0
 40
2.9499998092651367
  0
LINE
  5
5EA
100
AcDbEntity
  8
0
  6
CONTINUOUS
 62
               7
100
AcDbLine
 10
-19.0
 20
-27.946758270263672
 30
0.0
 11
-19.0
 21
27.000019073486328
 31
0.0
  0
CIRCLE
  5
5EB
100
AcDbEntity
  8
0
  6
CONTINUOUS
 62
               7
100
AcDbCircle
 10
-3.5
 20
10.500019073486328
 30
0.0
 40
2.9499998092651367
  0
LINE
  5
5EC
100
AcDbEntity
  8
0
  6
CONTINUOUS
 62
               7
100
AcDbLine
 10
-1.0
 20
12.066059112548828
 30
0.0
 11
-1.0
 21
27.000019073486328
 31
0.0
  0
LINE
  5
5ED
100
AcDbEntity
  8
0
  6
DASHED
 62
               4
100
AcDbLine
 10
-23.199981689453125
 20
-16.499973297119169
 30
0.0
 11
-23.199981689453125
 21
-21.499980926513686
 31
0.0
  0
LINE
  5
5EE
100
AcDbEntity
  8
0
  6
DASHED
 62
               4
100
AcDbLine
 10
-22.099990844726563
 20
-16.499973297119169
 30
0.0
 11
-23.199981689453125
 21
-16.499973297119169
 31
0.0
  0
LINE
  5
5EF
100
AcDbEntity
  8
0
  6
DASHED
 62
               4
100
AcDbLine
 10
-22.099990844726563
 20
-21.499980926513686
 30
0.0
 11
-23.199981689453125
 21
-21.499980926513686
 31
0.0
  0
ARC
  5
5F0
100
AcDbEntity
  8
0
  6
DASHED
 62
               4
100
AcDbCircle
 10
-22.099990844726563
 20
-21.999980926513672
 30
0.0
 40
0.5
100
AcDbArc
 50
359.9999813306639
 51
90.000036655423813
  0
ARC
  5
5F1
100
AcDbEntity
  8
0
  6
DASHED
 62
               4
100
AcDbCircle
 10
-22.099990844726563
 20
-15.999973297119141
 30
0.0
 40
0.5
100
AcDbArc
 50
269.99996334457541
 51
359.99996402782114
  0
LINE
  5
5F2
100
AcDbEntity
  8
0
  6
DASHED
 62
               4
100
AcDbLine
 10
-23.199981689453125
 20
2.5000190734862997
 30
0.0
 11
-23.199981689453125
 21
-2.4999790191650675
 31
0.0
  0
LINE
  5
5F3
100
AcDbEntity
  8
0
  6
DASHED
 62
               4
100
AcDbLine
 10
-22.099990844726563
 20
2.5000190734862997
 30
0.0
 11
-23.199981689453125
 21
2.5000190734862997
 31
0.0
  0
LINE
  5
5F4
100
AcDbEntity
  8
0
  6
DASHED
 62
               4
100
AcDbLine
 10
-22.099990844726563
 20
-2.4999790191650675
 30
0.0
 11
-23.199981689453125
 21
-2.4999790191650675
 31
0.0
  0
ARC
  5
5F5
100
AcDbEntity
  8
0
  6
DASHED
 62
               4
100
AcDbCircle
 10
-22.099990844726563
 20
-2.9999790191650391
 30
0.0
 40
0.5
100
AcDbArc
 50
359.9999813306639
 51
90.000036655423813
  0
ARC
  5
5F6
100
AcDbEntity
  8
0
  6
DASHED
 62
               4
100
AcDbCircle
 10
-22.099990844726563
 20
3.0000190734863281
 30
0.0
 40
0.5
100
AcDbArc
 50
269.99996334457541
 51
359.99996402782114
  0
LINE
  5
5F7
100
AcDbEntity
  8
0
  6
CONTINUOUS
 62
               7
100
AcDbLine
 10
-20.0
 20
17.500019073486328
 30
0.0
 11
-19.0
 21
17.500019073486328
 31
0.0
  0
LINE
  5
5F8
100
AcDbEntity
  8
0
  6
CONTINUOUS
 62
               7
100
AcDbLine
 10
-20.0
 20
-36.499980926513672
 30
0.0
 11
-19.0
 21
-36.499980926513672
 31
0.0
  0
LINE
  5
5F9
100
AcDbEntity
  8
0
  6
CONTINUOUS
 62
               7
100
AcDbLine
 10
-1.0
 20
17.500019073486328
 30
0.0
 11
0.0
 21
17.500019073486328
 31
0.0
  0
LINE
  5
5FA
100
AcDbEntity
  8
0
  6
CONTINUOUS
 62
               7
100
AcDbLine
 10
-1.0
 20
-36.499980926513672
 30
0.0
 11
0.0
 21
-36.499980926513672
 31
0.0
  0
LINE
  5
5FB
100
AcDbEntity
  8
0
  6
CONTINUOUS
 62
             200
100
AcDbLine
 10
-13.999974673206452
 20
86.910572753298766
 30
0.0
 11
-10.124439977885572
 21
87.949019153852532
 31
0.0
  0
LINE
  5
5FC
100
AcDbEntity
  8
0
  6
CONTINUOUS
 62
             200
100
AcDbLine
 10
-13.999979366388288
 20
87.945847662795131
 30
0.0
 11
-10.186429725283119
 21
88.967685217989754
 31
0.0
  0
ARC
  5
5FD
100
AcDbEntity
  8
0
  6
CONTINUOUS
 62
               7
100
AcDbCircle
 10
-10.0
 20
0.0000152587890625
 30
0.0
 40
8.4000000000000004
100
AcDbArc
 50
187.18484031495382
 51
352.81515968504499
  0
CIRCLE
  5
5FE
100
AcDbEntity
  8
0
  6
CONTINUOUS
 62
               7
100
AcDbCircle
 10
-10.0
 20
0.0000152587890625
 30
0.0
 40
5.0499999999999998
  0
CIRCLE
  5
5FF
100
AcDbEntity
  8
0
  6
CONTINUOUS
 62
               7
100
AcDbCircle
 10
-10.0
 20
0.0000152587890625
 30
0.0
 40
4.0499999999999998
  0
CIRCLE
  5
600
100
AcDbEntity
  8
0
  6
CONTINUOUS
 62
               7
100
AcDbCircle
 10
-10.0
 20
-18.999984741210937
 30
0.0
 40
8.9499999999999993
  0
ARC
  5
601
100
AcDbEntity
  8
0
  6
CONTINUOUS
 62
               7
100
AcDbCircle
 10
-10.0
 20
-18.999984741210937
 30
0.0
 40
8.4000000000000004
100
AcDbArc
 50
7.1848403149542479
 51
172.81515968504539
  0
LINE
  5
602
100
AcDbEntity
  8
0
  6
CONTINUOUS
 62
               7
100
AcDbLine
 10
-9.25
 20
-9.8097725565004907
 30
0.0
 11
-9.25
 21
-9.1901969259213558
 31
0.0
  0
LINE
  5
603
100
AcDbEntity
  8
0
  6
CONTINUOUS
 62
               7
100
AcDbLine
 10
-10.75
 20
-9.8097725565004907
 30
0.0
 11
-10.75
 21
-9.1901969259213558
 31
0.0
  0
ARC
  5
604
100
AcDbEntity
  8
0
  6
CONTINUOUS
 62
               7
100
AcDbCircle
 10
-11.050000000000011
 20
-9.1901969259213558
 30
0.0
 40
0.3
100
AcDbArc
 50
0.0
 51
83.482105791022562
  0
ARC
  5
605
100
AcDbEntity
  8
0
  6
CONTINUOUS
 62
               7
100
AcDbCircle
 10
-11.050000000000011
 20
-9.8097725565004907
 30
0.0
 40
0.3
100
AcDbArc
 50
276.5178942089774
 51
0.0
  0
ARC
  5
606
100
AcDbEntity
  8
0
  6
CONTINUOUS
 62
               7
100
AcDbCircle
 10
-8.9500000000000455
 20
-9.1901969259213558
 30
0.0
 40
0.3
100
AcDbArc
 50
96.517894208978376
 51
179.99999999999963
  0
ARC
  5
607
100
AcDbEntity
  8
0
  6
CONTINUOUS
 62
               7
100
AcDbCircle
 10
-8.9500000000000455
 20
-9.8097725565004907
 30
0.0
 40
0.3
100
AcDbArc
 50
179.99999999999963
 51
263.48210579102226
  0
ARC
  5
608
100
AcDbEntity
  8
0
  6
CONTINUOUS
 62
               7
100
AcDbCircle
 10
-10.0
 20
0.0000152587890625
 30
0.0
 40
8.4000000000000004
100
AcDbArc
 50
7.1848403149542479
 51
172.81515968504539
  0
LINE
  5
609
100
AcDbEntity
  8
0
  6
CONTINUOUS
 62
               7
100
AcDbLine
 10
-19.0
 20
8.1397612209446493
 30
0.0
 11
-13.721160527519828
 21
8.1397612209446493
 31
0.0
  0
CIRCLE
  5
60A
100
AcDbEntity
  8
0
  6
CONTINUOUS
 62
               7
100
AcDbCircle
 10
-10.0
 20
0.0000152587890625
 30
0.0
 40
8.9499999999999993
  0
LINE
  5
60B
100
AcDbEntity
  8
0
  6
CONTINUOUS
 62
               7
100
AcDbLine
 10
-6.2788394724801719
 20
8.1397612209446493
 30
0.0
 11
-5.3517858515306784
 21
8.1397612209446493
 31
0.0
  0
LINE
  5
60C
100
AcDbEntity
  8
0
  6
CONTINUOUS
 62
               7
100
AcDbLine
 10
-17.899999999999977
 20
0.8000152587890739
 30
0.0
 11
-18.334041755690464
 21
1.0506093832764805
 31
0.0
  0
LINE
  5
60D
100
AcDbEntity
  8
0
  6
CONTINUOUS
 62
               7
100
AcDbLine
 10
-17.899999999999977
 20
-0.7999847412109489
 30
0.0
 11
-18.334041755690464
 21
-1.0505788656983555
 31
0.0
  0
LINE
  5
60E
100
AcDbEntity
  8
0
  6
CONTINUOUS
 62
               7
100
AcDbLine
 10
-17.899999999999977
 20
-0.7999847412109489
 30
0.0
 11
-17.899999999999977
 21
0.8000152528285867
 31
0.0
  0
LINE
  5
60F
100
AcDbEntity
  8
0
  6
CONTINUOUS
 62
               7
100
AcDbLine
 10
-2.1000000000000227
 20
-0.7999847412109489
 30
0.0
 11
-1.665958244309536
 21
-1.0505788656983555
 31
0.0
  0
LINE
  5
610
100
AcDbEntity
  8
0
  6
CONTINUOUS
 62
               7
100
AcDbLine
 10
-2.1000000000000227
 20
0.8000152587890739
 30
0.0
 11
-1.665958244309536
 21
1.0506093832764805
 31
0.0
  0
LINE
  5
611
100
AcDbEntity
  8
0
  6
CONTINUOUS
 62
               7
100
AcDbLine
 10
-2.1000000000000227
 20
-0.7999847412109489
 30
0.0
 11
-2.1000000000000227
 21
0.8000152528285867
 31
0.0
  0
CIRCLE
  5
612
100
AcDbEntity
  8
0
  6
CONTINUOUS
 62
               7
100
AcDbCircle
 10
-10.0
 20
-18.999984741210937
 30
0.0
 40
5.0499999999999998
  0
CIRCLE
  5
613
100
AcDbEntity
  8
0
  6
CONTINUOUS
 62
               7
100
AcDbCircle
 10
-10.0
 20
-18.999984741210937
 30
0.0
 40
4.0499999999999998
  0
ARC
  5
614
100
AcDbEntity
  8
0
  6
CONTINUOUS
 62
               7
100
AcDbCircle
 10
-10.0
 20
-18.999984741210937
 30
0.0
 40
8.4000000000000004
100
AcDbArc
 50
187.18484031495382
 51
352.81515968504499
  0
LINE
  5
615
100
AcDbEntity
  8
0
  6
CONTINUOUS
 62
               7
100
AcDbLine
 10
-17.899999999999977
 20
-19.79998474121092
 30
0.0
 11
-17.899999999999977
 21
-18.199984747171385
 31
0.0
  0
LINE
  5
616
100
AcDbEntity
  8
0
  6
CONTINUOUS
 62
               7
100
AcDbLine
 10
-17.899999999999977
 20
-18.199984741210926
 30
0.0
 11
-18.334041755690464
 21
-17.949390616723491
 31
0.0
  0
LINE
  5
617
100
AcDbEntity
  8
0
  6
CONTINUOUS
 62
               7
100
AcDbLine
 10
-17.899999999999977
 20
-19.799984741210949
 30
0.0
 11
-18.334041755690464
 21
-20.050578865698355
 31
0.0
  0
LINE
  5
618
100
AcDbEntity
  8
0
  6
CONTINUOUS
 62
               7
100
AcDbLine
 10
-2.1000000000000227
 20
-19.799984741210949
 30
0.0
 11
-1.665958244309536
 21
-20.050578865698355
 31
0.0
  0
LINE
  5
619
100
AcDbEntity
  8
0
  6
CONTINUOUS
 62
               7
100
AcDbLine
 10
-2.1000000000000227
 20
-18.199984741210926
 30
0.0
 11
-1.665958244309536
 21
-17.949390616723491
 31
0.0
  0
LINE
  5
61A
100
AcDbEntity
  8
0
  6
CONTINUOUS
 62
               7
100
AcDbLine
 10
-2.1000000000000227
 20
-19.79998474121092
 30
0.0
 11
-2.1000000000000227
 21
-18.199984747171385
 31
0.0
  0
LINE
  5
61B
100
AcDbEntity
  8
0
  6
CONTINUOUS
 62
               7
100
AcDbLine
 10
-14.648165527639776
 20
-27.139730703366524
 30
0.0
 11
-13.721160531044006
 21
-27.139730703366524
 31
0.0
  0
LINE
  5
61C
100
AcDbEntity
  8
0
  6
CONTINUOUS
 62
               7
100
AcDbLine
 10
-6.2788394689559937
 20
-27.139730703366524
 30
0.0
 11
-1.0
 21
-27.139730703366524
 31
0.0
  0
LINE
  5
61D
100
AcDbEntity
  8
0
  6
CONTINUOUS
 62
               4
100
AcDbLine
 10
-5.0
 20
40.500019073486328
 30
0.0
 11
-5.0
 21
64.500019073486328
 31
0.0
  0
LINE
  5
61E
100
AcDbEntity
  8
0
  6
CONTINUOUS
 62
               4
100
AcDbLine
 10
-15.0
 20
40.500019073486328
 30
0.0
 11
-15.0
 21
64.500019073486328
 31
0.0
  0
ENDBLK
  5
61F
100
AcDbEntity
  8
0
100
AcDbBlockEnd
  0
BLOCK
  5
620
100
AcDbEntity
  8
0
100
AcDbBlockBegin
  2
F18T-14
 70
               0
 10
0.0
 20
0.0
 30
0.0
  3
F18T-14
  1

  0
LINE
  5
621
100
AcDbEntity
  8
0
  6
CONTINUOUS
 62
               7
100
AcDbLine
 10
30.500069844820729
 20
-4.0
 30
0.0
 11
30.500069844820729
 21
-1.0
 31
0.0
  0
LINE
  5
622
100
AcDbEntity
  8
0
  6
CONTINUOUS
 62
             200
100
AcDbLine
 10
-9.4999606727573962
 20
-15.0
 30
0.0
 11
-16.499960672757396
 21
-15.0
 31
0.0
  0
LINE
  5
623
100
AcDbEntity
  8
0
  6
CONTINUOUS
 62
             200
100
AcDbLine
 10
-12.999975931546459
 20
-18.5
 30
0.0
 11
-12.999975931546459
 21
-11.5
 31
0.0
  0
LINE
  5
624
100
AcDbEntity
  8
0
  6
CONTINUOUS
 62
               2
100
AcDbLine
 10
69.561135518648854
 20
-10.0
 30
0.0
 11
-19.742117655179271
 21
-10.0
 31
0.0
  0
LINE
  5
625
100
AcDbEntity
  8
0
  6
CONTINUOUS
 62
               7
100
AcDbLine
 10
39.500062215426198
 20
-19.0
 30
0.0
 11
4.0000393272426038
 21
-19.0
 31
0.0
  0
LINE
  5
626
100
AcDbEntity
  8
0
  6
CONTINUOUS
 62
               7
100
AcDbLine
 10
55.200062015426198
 20
-1.0
 30
0.0
 11
4.0000393272426038
 21
-1.0
 31
0.0
  0
LINE
  5
627
100
AcDbEntity
  8
0
  6
CONTINUOUS
 62
               7
100
AcDbLine
 10
38.500054586031666
 20
-18.5
 30
0.0
 11
38.500054586031666
 21
-1.5
 31
0.0
  0
LINE
  5
628
100
AcDbEntity
  8
0
  6
DASHED
 62
               4
100
AcDbLine
 10
22.000039327242604
 20
-19.0
 30
0.0
 11
22.000039327242604
 21
1.600006103515625
 31
0.0
  0
LINE
  5
629
100
AcDbEntity
  8
0
  6
DASHED
 62
               4
100
AcDbLine
 10
-17.999975931546459
 20
-19.0
 30
0.0
 11
-17.999975931546459
 21
0.0
 31
0.0
  0
LINE
  5
62A
100
AcDbEntity
  8
0
  6
DASHED
 62
               4
100
AcDbLine
 10
-6.9999606727573962
 20
-19.0
 30
0.0
 11
-17.999975931546459
 21
-19.0
 31
0.0
  0
LINE
  5
62B
100
AcDbEntity
  8
0
  6
DASHED
 62
               4
100
AcDbLine
 10
22.000039327242604
 20
0.0
 30
0.0
 11
4.0000393272426038
 21
0.0
 31
0.0
  0
LINE
  5
62C
100
AcDbEntity
  8
0
  6
DASHED
 62
               4
100
AcDbLine
 10
22.000039327242604
 20
1.600006103515625
 30
0.0
 11
-7.9999606727573962
 21
1.600006103515625
 31
0.0
  0
LINE
  5
62D
100
AcDbEntity
  8
0
  6
DASHED
 62
               4
100
AcDbLine
 10
-7.9999606727573962
 20
0.0
 30
0.0
 11
-7.9999606727573962
 21
1.600006103515625
 31
0.0
  0
LINE
  5
62E
100
AcDbEntity
  8
0
  6
CONTINUOUS
 62
             200
100
AcDbLine
 10
-12.999975931546459
 20
-0.5
 30
0.0
 11
-12.999975931546459
 21
-7.5
 31
0.0
  0
LINE
  5
62F
100
AcDbEntity
  8
0
  6
CONTINUOUS
 62
             200
100
AcDbLine
 10
-9.4999606727573962
 20
-4.0
 30
0.0
 11
-16.499960672757396
 21
-4.0
 31
0.0
  0
LINE
  5
630
100
AcDbEntity
  8
0
  6
CONTINUOUS
 62
               7
100
AcDbLine
 10
40.500054586031666
 20
-16.5
 30
0.0
 11
40.500054586031666
 21
-3.5
 31
0.0
  0
LINE
  5
631
100
AcDbEntity
  8
0
  6
CONTINUOUS
 62
               7
100
AcDbLine
 10
39.500054586031666
 20
-17.5
 30
0.0
 11
38.500054586031666
 21
-17.5
 31
0.0
  0
LINE
  5
632
100
AcDbEntity
  8
0
  6
CONTINUOUS
 62
               7
100
AcDbLine
 10
39.500054586031666
 20
-2.5
 30
0.0
 11
38.500054586031666
 21
-2.5
 31
0.0
  0
LINE
  5
633
100
AcDbEntity
  8
0
  6
CONTINUOUS
 62
               7
100
AcDbLine
 10
39.500038643201634
 20
-17.500020392432816
 30
0.0
 11
40.500039873378711
 21
-16.500019499430891
 31
0.0
  0
LINE
  5
634
100
AcDbEntity
  8
0
  6
CONTINUOUS
 62
               7
100
AcDbLine
 10
40.500092051111579
 20
-3.4999706325497755
 30
0.0
 11
39.500090315171775
 21
-2.4999702453105783
 31
0.0
  0
LINE
  5
635
100
AcDbEntity
  8
0
  6
CONTINUOUS
 62
               7
100
AcDbLine
 10
4.0000393272426038
 20
-20.0
 30
0.0
 11
4.0000393272426038
 21
0.0
 31
0.0
  0
LINE
  5
636
100
AcDbEntity
  8
0
  6
CONTINUOUS
 62
               7
100
AcDbLine
 10
-6.9999606727573962
 20
-20.0
 30
0.0
 11
-6.9999606727573962
 21
0.0
 31
0.0
  0
LINE
  5
637
100
AcDbEntity
  8
0
  6
CONTINUOUS
 62
               7
100
AcDbLine
 10
4.0000393272426038
 20
-20.0
 30
0.0
 11
-6.9999606727573962
 21
-20.0
 31
0.0
  0
LINE
  5
638
100
AcDbEntity
  8
0
  6
CONTINUOUS
 62
               7
100
AcDbLine
 10
4.0000393272426038
 20
0.0
 30
0.0
 11
-6.9999606727573962
 21
0.0
 31
0.0
  0
LINE
  5
639
100
AcDbEntity
  8
0
  6
CONTINUOUS
 62
               7
100
AcDbLine
 10
32.439383305513303
 20
-5.0606822099543933
 30
0.0
 11
34.560704506837766
 21
-2.9393626179553394
 31
0.0
  0
LINE
  5
63A
100
AcDbEntity
  8
0
  6
CONTINUOUS
 62
               7
100
AcDbLine
 10
32.439362530964473
 20
-2.9394265508453827
 30
0.0
 11
34.560682122963527
 21
-5.0607477521698456
 31
0.0
  0
LINE
  5
63B
100
AcDbEntity
  8
0
  6
CONTINUOUS
 62
               7
100
AcDbLine
 10
10.500024068453541
 20
-16.0
 30
0.0
 11
10.500024068453541
 21
-19.0
 31
0.0
  0
LINE
  5
63C
100
AcDbEntity
  8
0
  6
CONTINUOUS
 62
               7
100
AcDbLine
 10
7.5000393272426038
 20
-13.0
 30
0.0
 11
4.5000393272426038
 21
-13.0
 31
0.0
  0
LINE
  5
63D
100
AcDbEntity
  8
0
  6
CONTINUOUS
 62
               7
100
AcDbLine
 10
8.5606050514848278
 20
-17.060753821803701
 30
0.0
 11
6.4392851018579051
 21
-14.939432978107106
 31
0.0
  0
LINE
  5
63E
100
AcDbEntity
  8
0
  6
CONTINUOUS
 62
               7
100
AcDbLine
 10
8.5606594465075716
 20
-14.939336318811911
 30
0.0
 11
6.4393386028109774
 21
-17.060656268438834
 31
0.0
  0
LINE
  5
63F
100
AcDbEntity
  8
0
  6
CONTINUOUS
 62
               7
100
AcDbLine
 10
36.500039327242604
 20
-4.0
 30
0.0
 11
36.500039327242604
 21
-1.0
 31
0.0
  0
LINE
  5
640
100
AcDbEntity
  8
0
  6
DASHED
 62
               4
100
AcDbLine
 10
-6.9999606727573962
 20
0.0
 30
0.0
 11
-17.999975931546459
 21
0.0
 31
0.0
  0
LINE
  5
641
100
AcDbEntity
  8
0
  6
DASHED
 62
               4
100
AcDbLine
 10
-3.9999606727573962
 20
-22.281524658203125
 30
0.0
 11
-3.9999606727573962
 21
-20.0
 31
0.0
  0
LINE
  5
642
100
AcDbEntity
  8
0
  6
DASHED
 62
               4
100
AcDbLine
 10
4.0000393272426038
 20
-22.281524658203125
 30
0.0
 11
4.0000393272426038
 21
-20.0
 31
0.0
  0
LINE
  5
643
100
AcDbEntity
  8
0
  6
CONTINUOUS
 62
               7
100
AcDbLine
 10
39.500054586031666
 20
-2.5
 30
0.0
 11
39.500054586031666
 21
-17.5
 31
0.0
  0
ARC
  5
644
100
AcDbEntity
  8
0
  6
CONTINUOUS
 62
               7
100
AcDbCircle
 10
33.500069844820729
 20
-4.0
 30
0.0
 40
3.0
100
AcDbArc
 50
179.99996402782091
 51
0.0000919801827092
  0
ARC
  5
645
100
AcDbEntity
  8
0
  6
CONTINUOUS
 62
               7
100
AcDbCircle
 10
38.000054586031666
 20
-18.5
 30
0.0
 40
0.5
100
AcDbArc
 50
270.00001798608872
 51
0.0
  0
ARC
  5
646
100
AcDbEntity
  8
0
  6
CONTINUOUS
 62
               7
100
AcDbCircle
 10
38.000054586031666
 20
-1.5
 30
0.0
 40
0.5
100
AcDbArc
 50
359.99998633962088
 51
89.999982013910454
  0
CIRCLE
  5
647
100
AcDbEntity
  8
0
  6
DASHED
 62
               4
100
AcDbCircle
 10
-12.999960672757396
 20
-14.999984741210938
 30
0.0
 40
2.25
  0
CIRCLE
  5
648
100
AcDbEntity
  8
0
  6
DASHED
 62
               4
100
AcDbCircle
 10
-12.999960672757396
 20
-4.0
 30
0.0
 40
2.25
  0
CIRCLE
  5
649
100
AcDbEntity
  8
0
  6
CONTINUOUS
 62
               7
100
AcDbCircle
 10
33.500054586031666
 20
-4.0
 30
0.0
 40
2.7999992370605469
  0
ARC
  5
64A
100
AcDbEntity
  8
0
  6
CONTINUOUS
 62
               7
100
AcDbCircle
 10
7.5000393272426038
 20
-16.0
 30
0.0
 40
3.0
100
AcDbArc
 50
0.0
 51
89.999982013910454
  0
CIRCLE
  5
64B
100
AcDbEntity
  8
0
  6
CONTINUOUS
 62
               7
100
AcDbCircle
 10
7.5000393272426038
 20
-16.0
 30
0.0
 40
2.7999992370605469
  0
ARC
  5
64C
100
AcDbEntity
  8
0
  6
DASHED
 62
               4
100
AcDbCircle
 10
-3.1332919715855212
 20
-22.281524658203125
 30
0.0
 40
0.8666666746139526
100
AcDbArc
 50
179.99996402782091
 51
236.20569999088247
  0
ARC
  5
64D
100
AcDbEntity
  8
0
  6
DASHED
 62
               4
100
AcDbCircle
 10
0.0000393272426038
 20
-17.599990844726562
 30
0.0
 40
6.5
100
AcDbArc
 50
236.20577193523982
 51
303.79429135769436
  0
ARC
  5
64E
100
AcDbEntity
  8
0
  6
DASHED
 62
               4
100
AcDbCircle
 10
3.1333706260707288
 20
-22.281524658203125
 30
0.0
 40
0.8666666746139526
100
AcDbArc
 50
303.79430501807269
 51
0.0000273207566801
  0
LINE
  5
64F
100
AcDbEntity
  8
0
  6
DASHED
 62
               4
100
AcDbLine
 10
-3.9999606727573962
 20
-21.0
 30
0.0
 11
4.0000393272426038
 21
-21.0
 31
0.0
  0
LINE
  5
650
100
AcDbEntity
  8
0
  6
DASHED
 62
               4
100
AcDbLine
 10
0.5000624172849086
 20
-19.999995855678208
 30
0.0
 11
0.7680121003382112
 21
-20.999997908618752
 31
0.0
  0
LINE
  5
651
100
AcDbEntity
  8
0
  6
DASHED
 62
               4
100
AcDbLine
 10
-0.4999391821270081
 20
-20.999996982396624
 30
0.0
 11
-0.7678888651803106
 21
-19.999994929456079
 31
0.0
  0
LINE
  5
652
100
AcDbEntity
  8
0
  6
DASHED
 62
               4
100
AcDbLine
 10
2.5000393272426038
 20
3.1999969482422159
 30
0.0
 11
-2.4999606727573962
 21
3.1999969482422159
 31
0.0
  0
LINE
  5
653
100
AcDbEntity
  8
0
  6
DASHED
 62
               4
100
AcDbLine
 10
2.5000393272426038
 20
2.1000061035156534
 30
0.0
 11
2.5000393272426038
 21
3.1999969482422159
 31
0.0
  0
LINE
  5
654
100
AcDbEntity
  8
0
  6
DASHED
 62
               4
100
AcDbLine
 10
-2.4999606727573962
 20
2.1000061035156534
 30
0.0
 11
-2.4999606727573962
 21
3.1999969482422159
 31
0.0
  0
ARC
  5
655
100
AcDbEntity
  8
0
  6
DASHED
 62
               4
100
AcDbCircle
 10
-2.9999606727573962
 20
2.100006103515625
 30
0.0
 40
0.5
100
AcDbArc
 50
269.99996334457541
 51
0.0000179860890374
  0
ARC
  5
656
100
AcDbEntity
  8
0
  6
DASHED
 62
               4
100
AcDbCircle
 10
3.0000393272426038
 20
2.100006103515625
 30
0.0
 40
0.5
100
AcDbArc
 50
179.99996402782091
 51
269.99994604173139
  0
LINE
  5
657
100
AcDbEntity
  8
0
  6
CONTINUOUS
 62
               7
100
AcDbLine
 10
55.200062215426186
 20
-19.0
 30
0.0
 11
44.003356615426185
 21
-19.0
 31
0.0
  0
ARC
  5
658
100
AcDbEntity
  8
0
  6
CONTINUOUS
 62
               7
100
AcDbCircle
 10
67.800062215426209
 20
-18.100000000000009
 30
0.0
 40
0.3
100
AcDbArc
 50
270.0
 51
0.0000000000008142
  0
ARC
  5
659
100
AcDbEntity
  8
0
  6
CONTINUOUS
 62
               7
100
AcDbCircle
 10
66.400062215426203
 20
-3.5000000000000071
 30
0.0
 40
0.5
100
AcDbArc
 50
270.0
 51
0.0000000000008142
  0
ARC
  5
65A
100
AcDbEntity
  8
0
  6
CONTINUOUS
 62
               7
100
AcDbCircle
 10
67.800062215426209
 20
-1.9000000000000128
 30
0.0
 40
0.3
100
AcDbArc
 50
0.0
 51
90.0
  0
ARC
  5
65B
100
AcDbEntity
  8
0
  6
CONTINUOUS
 62
               7
100
AcDbCircle
 10
66.400062215426203
 20
-16.5
 30
0.0
 40
0.5
100
AcDbArc
 50
0.0
 51
90.0
  0
LINE
  5
65C
100
AcDbEntity
  8
0
  6
CONTINUOUS
 62
               7
100
AcDbLine
 10
67.800743215426195
 20
-18.400000000000006
 30
0.0
 11
66.900062215426203
 21
-18.400000000000006
 31
0.0
  0
LINE
  5
65D
100
AcDbEntity
  8
0
  6
CONTINUOUS
 62
               7
100
AcDbLine
 10
68.100062215426192
 20
-1.9000000000000128
 30
0.0
 11
68.100062215426192
 21
-18.100000000000009
 31
0.0
  0
LINE
  5
65E
100
AcDbEntity
  8
0
  6
CONTINUOUS
 62
               7
100
AcDbLine
 10
66.900062215426203
 20
-18.400000000000006
 30
0.0
 11
66.900062215426203
 21
-1.6000000000000014
 31
0.0
  0
LINE
  5
65F
100
AcDbEntity
  8
0
  6
CONTINUOUS
 62
               7
100
AcDbLine
 10
67.800743215426195
 20
-1.6000000000000014
 30
0.0
 11
66.900062215426203
 21
-1.6000000000000014
 31
0.0
  0
LINE
  5
660
100
AcDbEntity
  8
0
  6
CONTINUOUS
 62
               7
100
AcDbLine
 10
66.400062215426203
 20
-4.0000000000000071
 30
0.0
 11
66.000062215426198
 21
-4.0000000000000071
 31
0.0
  0
LINE
  5
661
100
AcDbEntity
  8
0
  6
CONTINUOUS
 62
               7
100
AcDbLine
 10
65.900062215426203
 20
-17.100000000000009
 30
0.0
 11
64.900061215426206
 21
-17.100000000000009
 31
0.0
  0
LINE
  5
662
100
AcDbEntity
  8
0
  6
CONTINUOUS
 62
               7
100
AcDbLine
 10
66.000062215426198
 20
-17.0
 30
0.0
 11
65.900062215426203
 21
-17.100000000000009
 31
0.0
  0
LINE
  5
663
100
AcDbEntity
  8
0
  6
CONTINUOUS
 62
               7
100
AcDbLine
 10
66.000062215426198
 20
-3.0000000000000071
 30
0.0
 11
65.900062215426203
 21
-2.9000000000000128
 31
0.0
  0
LINE
  5
664
100
AcDbEntity
  8
0
  6
CONTINUOUS
 62
               7
100
AcDbLine
 10
66.000062215426198
 20
-3.0000000000000071
 30
0.0
 11
66.000062215426198
 21
-17.0
 31
0.0
  0
LINE
  5
665
100
AcDbEntity
  8
0
  6
CONTINUOUS
 62
               7
100
AcDbLine
 10
65.900062215426203
 20
-2.9000000000000128
 30
0.0
 11
64.900061215426206
 21
-2.9000000000000128
 31
0.0
  0
LINE
  5
666
100
AcDbEntity
  8
0
  6
CONTINUOUS
 62
               7
100
AcDbLine
 10
60.400062215426203
 20
-18.900000000000006
 30
0.0
 11
60.400062215426203
 21
-1.1000000000000014
 31
0.0
  0
LINE
  5
667
100
AcDbEntity
  8
0
  6
CONTINUOUS
 62
               7
100
AcDbLine
 10
64.900061215426206
 20
-2.1000000000000014
 30
0.0
 11
64.900061215426206
 21
-17.899999200000011
 31
0.0
  0
LINE
  5
668
100
AcDbEntity
  8
0
  6
CONTINUOUS
 62
               7
100
AcDbLine
 10
61.300062215426209
 20
-1.2000000000000099
 30
0.0
 11
61.500062215426198
 21
-1.0000000000000071
 31
0.0
  0
LINE
  5
669
100
AcDbEntity
  8
0
  6
CONTINUOUS
 62
               7
100
AcDbLine
 10
63.864975215426199
 20
-1.0000000000000071
 30
0.0
 11
64.300061215426211
 21
-1.7535904000000002
 31
0.0
  0
LINE
  5
66A
100
AcDbEntity
  8
0
  6
CONTINUOUS
 62
               7
100
AcDbLine
 10
63.864975215426199
 20
-19.0
 30
0.0
 11
64.300061215426211
 21
-18.246409600000007
 31
0.0
  0
LINE
  5
66B
100
AcDbEntity
  8
0
  6
CONTINUOUS
 62
               7
100
AcDbLine
 10
64.300061215426211
 20
-18.246409600000007
 30
0.0
 11
64.900061215426206
 21
-17.899999200000011
 31
0.0
  0
LINE
  5
66C
100
AcDbEntity
  8
0
  6
CONTINUOUS
 62
               7
100
AcDbLine
 10
64.300061215426211
 20
-1.7535904000000002
 30
0.0
 11
64.900061215426206
 21
-2.1000008000000108
 31
0.0
  0
LINE
  5
66D
100
AcDbEntity
  8
0
  6
CONTINUOUS
 62
               7
100
AcDbLine
 10
61.300062215426209
 20
-18.800000000000011
 30
0.0
 11
61.300062215426209
 21
-1.2000000000000099
 31
0.0
  0
LINE
  5
66E
100
AcDbEntity
  8
0
  6
CONTINUOUS
 62
               7
100
AcDbLine
 10
63.864976215426196
 20
-19.0
 30
0.0
 11
61.500062215426198
 21
-19.0
 31
0.0
  0
LINE
  5
66F
100
AcDbEntity
  8
0
  6
CONTINUOUS
 62
               7
100
AcDbLine
 10
61.300062215426209
 20
-18.800000000000011
 30
0.0
 11
61.500062215426198
 21
-19.0
 31
0.0
  0
LINE
  5
670
100
AcDbEntity
  8
0
  6
CONTINUOUS
 62
               7
100
AcDbLine
 10
63.864976215426196
 20
-1.0000000000000071
 30
0.0
 11
61.500062215426198
 21
-1.0000000000000071
 31
0.0
  0
LINE
  5
671
100
AcDbEntity
  8
0
  6
CONTINUOUS
 62
               7
100
AcDbLine
 10
55.40006161542621
 20
-18.800000000000011
 30
0.0
 11
55.600061815426187
 21
-19.0
 31
0.0
  0
LINE
  5
672
100
AcDbEntity
  8
0
  6
CONTINUOUS
 62
               7
100
AcDbLine
 10
55.400061815426199
 20
-1.2000000000000099
 30
0.0
 11
55.400061815426199
 21
-18.800000000000011
 31
0.0
  0
LINE
  5
673
100
AcDbEntity
  8
0
  6
CONTINUOUS
 62
               7
100
AcDbLine
 10
60.300062215426209
 20
-19.0
 30
0.0
 11
55.600061815426187
 21
-19.0
 31
0.0
  0
LINE
  5
674
100
AcDbEntity
  8
0
  6
CONTINUOUS
 62
               7
100
AcDbLine
 10
60.300062215426209
 20
-1.0000000000000071
 30
0.0
 11
55.600061815426187
 21
-1.0000000000000071
 31
0.0
  0
LINE
  5
675
100
AcDbEntity
  8
0
  6
CONTINUOUS
 62
               7
100
AcDbLine
 10
55.40006161542621
 20
-1.2000000000000099
 30
0.0
 11
55.600061815426187
 21
-1.0000000000000071
 31
0.0
  0
LINE
  5
676
100
AcDbEntity
  8
0
  6
CONTINUOUS
 62
               7
100
AcDbLine
 10
60.300062215426209
 20
-19.0
 30
0.0
 11
60.400062215426203
 21
-18.900000000000006
 31
0.0
  0
LINE
  5
677
100
AcDbEntity
  8
0
  6
CONTINUOUS
 62
               7
100
AcDbLine
 10
60.300062215426209
 20
-1.0000000000000071
 30
0.0
 11
60.400062215426203
 21
-1.1000000000000014
 31
0.0
  0
LINE
  5
678
100
AcDbEntity
  8
0
  6
CONTINUOUS
 62
               7
100
AcDbLine
 10
55.400062215426203
 20
-1.2000000000000099
 30
0.0
 11
55.200062015426198
 21
-1.0000000000000071
 31
0.0
  0
LINE
  5
679
100
AcDbEntity
  8
0
  6
CONTINUOUS
 62
               7
100
AcDbLine
 10
61.300062215426209
 20
-18.300000000000011
 30
0.0
 11
60.400062215426203
 21
-18.300000000000011
 31
0.0
  0
LINE
  5
67A
100
AcDbEntity
  8
0
  6
CONTINUOUS
 62
               7
100
AcDbLine
 10
61.300062215426209
 20
-1.7000000000000099
 30
0.0
 11
60.400062215426203
 21
-1.7000000000000099
 31
0.0
  0
LINE
  5
67B
100
AcDbEntity
  8
0
  6
CONTINUOUS
 62
               7
100
AcDbLine
 10
55.400062215426203
 20
-18.800000000000011
 30
0.0
 11
55.200062015426198
 21
-19.0
 31
0.0
  0
LINE
  5
67C
100
AcDbEntity
  8
0
  6
CONTINUOUS
 62
               7
100
AcDbLine
 10
55.600061815426187
 20
-1.0000000000000071
 30
0.0
 11
55.600061815426187
 21
-19.0
 31
0.0
  0
LINE
  5
67D
100
AcDbEntity
  8
0
  6
CONTINUOUS
 62
               7
100
AcDbLine
 10
66.400062215426203
 20
-16.0
 30
0.0
 11
66.000062215426198
 21
-16.0
 31
0.0
  0
LINE
  5
67E
100
AcDbEntity
  8
0
  6
CONTINUOUS
 62
               7
100
AcDbLine
 10
65.900062215426203
 20
-2.9000000000000128
 30
0.0
 11
65.900062215426203
 21
-17.100000000000009
 31
0.0
  0
LINE
  5
67F
100
AcDbEntity
  8
0
  6
CONTINUOUS
 62
               7
100
AcDbLine
 10
64.300061215426211
 20
-1.7535904000000002
 30
0.0
 11
64.300061215426211
 21
-18.246409600000007
 31
0.0
  0
LINE
  5
680
100
AcDbEntity
  8
0
  6
CONTINUOUS
 62
               7
100
AcDbLine
 10
63.864975215426199
 20
-1.0000000000000071
 30
0.0
 11
63.864975215426199
 21
-19.0
 31
0.0
  0
LINE
  5
681
100
AcDbEntity
  8
0
  6
CONTINUOUS
 62
               7
100
AcDbLine
 10
61.500062215426198
 20
-1.0000000000000071
 30
0.0
 11
61.500062215426198
 21
-19.0
 31
0.0
  0
LINE
  5
682
100
AcDbEntity
  8
0
  6
CONTINUOUS
 62
               7
100
AcDbLine
 10
60.300062215426209
 20
-1.0000000000000071
 30
0.0
 11
60.300062215426209
 21
-19.0
 31
0.0
  0
LINE
  5
683
100
AcDbEntity
  8
0
  6
CONTINUOUS
 62
               7
100
AcDbLine
 10
55.200062015426198
 20
-19.0
 30
0.0
 11
55.200062015426198
 21
-1.0
 31
0.0
  0
LINE
  5
684
100
AcDbEntity
  8
0
  6
CONTINUOUS
 62
               7
100
AcDbLine
 10
44.500062215426198
 20
-6.2788394999999966
 30
0.0
 11
44.500062215426198
 21
-1.0
 31
0.0
  0
ARC
  5
685
100
AcDbEntity
  8
0
  6
CONTINUOUS
 62
               7
100
AcDbCircle
 10
40.000054586031666
 20
-15.300000011920925
 30
0.0
 40
1.5
100
AcDbArc
 50
359.99998633962088
 51
70.528779365509166
  0
ARC
  5
686
100
AcDbEntity
  8
0
  6
CONTINUOUS
 62
               7
100
AcDbCircle
 10
40.000054586031666
 20
-17.800000011920925
 30
0.0
 40
1.5
100
AcDbArc
 50
270.00001798608872
 51
359.99998633962088
  0
LINE
  5
687
100
AcDbEntity
  8
0
  6
CONTINUOUS
 62
               7
100
AcDbLine
 10
41.500054586031609
 20
-15.300000369548794
 30
0.0
 11
41.500054586031609
 21
-17.800000369548794
 31
0.0
  0
ARC
  5
688
100
AcDbEntity
  8
0
  6
CONTINUOUS
 62
               7
100
AcDbCircle
 10
58.190585347930181
 20
-10.0
 30
0.0
 40
14.187228732503996
100
AcDbArc
 50
164.79404619011402
 51
195.2059538098853
  0
LINE
  5
689
100
AcDbEntity
  8
0
  6
CONTINUOUS
 62
               7
100
AcDbLine
 10
44.500062215426198
 20
-19.0
 30
0.0
 11
44.500062215426198
 21
-13.721160500000003
 31
0.0
  0
LINE
  5
68A
100
AcDbEntity
  8
0
  6
CONTINUOUS
 62
               7
100
AcDbLine
 10
44.003356615426185
 20
-19.0
 30
0.0
 11
40.900054601926229
 21
-19.0
 31
0.0
  0
LINE
  5
68B
100
AcDbEntity
  8
0
  6
CONTINUOUS
 62
               7
100
AcDbLine
 10
39.500062215426198
 20
-17.5
 30
0.0
 11
39.500062215426198
 21
-19.300000011920925
 31
0.0
  0
LINE
  5
68C
100
AcDbEntity
  8
0
  6
CONTINUOUS
 62
               7
100
AcDbLine
 10
40.000054586031666
 20
-19.300000011920925
 30
0.0
 11
39.500054586031666
 21
-19.300000011920925
 31
0.0
  0
LINE
  5
68D
100
AcDbEntity
  8
0
  6
CONTINUOUS
 62
               7
100
AcDbLine
 10
39.500062215426198
 20
-1.0
 30
0.0
 11
39.500062215426198
 21
-2.5
 31
0.0
  0
LINE
  5
68E
100
AcDbEntity
  8
0
  6
CONTINUOUS
 62
               7
100
AcDbLine
 10
41.405322215426196
 20
-1.0
 30
0.0
 11
41.405322215426196
 21
-3.5
 31
0.0
  0
SPLINE
  5
68F
100
AcDbEntity
  8
0
  6
CONTINUOUS
 62
               7
100
AcDbSpline
210
0.0
220
0.0
230
1.0
 70
               0
 71
               3
 72
               0
 73
               0
 74
              41
 44
0.000001
 12
0.1127480865187747
 22
-0.9936236052884185
 32
0.0
 13
0.6499379612954508
 23
0.7599872673059156
 33
0.0
 11
41.405322215426196
 21
-3.5
 31
0.0
 11
41.428177853640697
 21
-3.6835950088173592
 31
0.0
 11
41.454950003736307
 21
-3.8666686806424591
 31
0.0
 11
41.485533950530723
 21
-4.0491910633257291
 31
0.0
 11
41.519813121939535
 21
-4.2310568235546953
 31
0.0
 11
41.564053567552357
 21
-4.4406626240586622
 31
0.0
 11
41.613473674495161
 21
-4.6491068789441057
 31
0.0
 11
41.668442564734399
 21
-4.8561594910560624
 31
0.0
 11
41.729312877225851
 21
-5.0615580130913784
 31
0.0
 11
41.786302293058441
 21
-5.2353059500019707
 31
0.0
 11
41.848693122684196
 21
-5.4071785261935794
 31
0.0
 11
41.917313238688976
 21
-5.5766717496788347
 31
0.0
 11
41.992918680261084
 21
-5.743179248018599
 31
0.0
 11
42.0650013450541
 21
-5.8846585238790823
 31
0.0
 11
42.14463892786344
 21
-6.0220200791754532
 31
0.0
 11
42.233579421991323
 21
-6.1539708544073628
 31
0.0
 11
42.332763198787433
 21
-6.2783402607044323
 31
0.0
 11
42.396337692019834
 21
-6.3468742923882751
 31
0.0
 11
42.46479152324244
 21
-6.4105460721321812
 31
0.0
 11
42.538230635546498
 21
-6.4671369511457382
 31
0.0
 11
42.617501308235063
 21
-6.5149978694516051
 31
0.0
 11
42.696267885800019
 21
-6.5499178294559153
 31
0.0
 11
42.778631430849956
 21
-6.5755156801446724
 31
0.0
 11
42.863726376892465
 21
-6.5921983132961888
 31
0.0
 11
42.950062215426186
 21
-6.6000000000000014
 31
0.0
 11
43.08156178054076
 21
-6.5956329827916393
 31
0.0
 11
43.211521851534535
 21
-6.5739150359266345
 31
0.0
 11
43.338640564331413
 21
-6.5372047080419318
 31
0.0
 11
43.461432198896176
 21
-6.488003382173801
 31
0.0
 11
43.576442072704246
 21
-6.4301528133851535
 31
0.0
 11
43.686654897072195
 21
-6.3636535259251525
 31
0.0
 11
43.791512260998324
 21
-6.2896864623866646
 31
0.0
 11
43.891323611398349
 21
-6.209031295337283
 31
0.0
 11
43.984192301228546
 21
-6.1245256098642278
 31
0.0
 11
44.072527783387891
 21
-6.0352904383142452
 31
0.0
 11
44.156677013835363
 21
-5.9419839874271663
 31
0.0
 11
44.236931140572494
 21
-5.8453261584372456
 31
0.0
 11
44.302508551765783
 21
-5.7612674779220647
 31
0.0
 11
44.367179288226204
 21
-5.676484225995055
 31
0.0
 11
44.432487731689861
 21
-5.5923170190930733
 31
0.0
 11
44.500062215426198
 21
-5.509999999999998
 31
0.0
  0
LINE
  5
690
100
AcDbEntity
  8
0
  6
CONTINUOUS
 62
               7
100
AcDbLine
 10
41.714681215426197
 20
-13.5
 30
0.0
 11
40.500054586031666
 21
-13.5
 31
0.0
  0
SPLINE
  5
691
100
AcDbEntity
  8
0
  6
CONTINUOUS
 62
               7
100
AcDbSpline
210
0.0
220
0.0
230
1.0
 70
               0
 71
               3
 72
               0
 73
               0
 74
              37
 44
0.000001
 12
-0.1535883647102109
 22
0.9881349170157096
 32
0.0
 13
-0.9599592804102283
 23
0.2801395722747442
 33
0.0
 11
43.714681215426197
 21
-16.5
 31
0.0
 11
43.692813802365578
 21
-16.369760142265573
 31
0.0
 11
43.667781088885071
 21
-16.240082644176219
 31
0.0
 11
43.639583804531199
 21
-16.111034833977456
 31
0.0
 11
43.608228245797022
 21
-15.982722194767398
 31
0.0
 11
43.582377277936395
 21
-15.886058953979587
 31
0.0
 11
43.55473686121617
 21
-15.789893133329027
 31
0.0
 11
43.525330391469979
 21
-15.694256703981099
 31
0.0
 11
43.494179508547489
 21
-15.599172740678412
 31
0.0
 11
43.453099195202967
 21
-15.48194663633452
 31
0.0
 11
43.409315274551673
 21
-15.365702179106918
 31
0.0
 11
43.362776390304141
 21
-15.250526565149402
 31
0.0
 11
43.313437670825834
 21
-15.13652349859203
 31
0.0
 11
43.267718404569742
 21
-15.037375479225179
 31
0.0
 11
43.219733792271533
 21
-14.939304393671794
 31
0.0
 11
43.169424327629805
 21
-14.842417690698404
 31
0.0
 11
43.11672464479156
 21
-14.746811155673896
 31
0.0
 11
43.070836249728458
 21
-14.668031225222537
 31
0.0
 11
43.023186357059615
 21
-14.590305428380795
 31
0.0
 11
42.973719838897871
 21
-14.513715778570626
 31
0.0
 11
42.922392021332911
 21
-14.438359581132403
 31
0.0
 11
42.865274247604653
 21
-14.359103750835514
 31
0.0
 11
42.805881265804658
 21
-14.28153786421708
 31
0.0
 11
42.744136415658929
 21
-14.205838052225717
 31
0.0
 11
42.679966252550713
 21
-14.132184474727104
 31
0.0
 11
42.61888543307743
 21
-14.066554216792694
 31
0.0
 11
42.555675432865073
 21
-14.00297328557863
 31
0.0
 11
42.490303231593522
 21
-13.941604549913597
 31
0.0
 11
42.422760015831642
 21
-13.882632023039477
 31
0.0
 11
42.354156223363233
 21
-13.827138510750091
 31
0.0
 11
42.283376924063653
 21
-13.77444930583107
 31
0.0
 11
42.210372919713237
 21
-13.724880760153454
 31
0.0
 11
42.135137057753496
 21
-13.678773718291602
 31
0.0
 11
42.034290987103397
 21
-13.624547946433246
 31
0.0
 11
41.930235194525594
 21
-13.576694103297637
 31
0.0
 11
41.823556443983186
 21
-13.535194410724962
 31
0.0
 11
41.714681215426197
 21
-13.5
 31
0.0
  0
LINE
  5
692
100
AcDbEntity
  8
0
  6
CONTINUOUS
 62
               7
100
AcDbLine
 10
43.714681215426197
 20
-19.0
 30
0.0
 11
43.714681215426197
 21
-16.5
 31
0.0
  0
LINE
  5
693
100
AcDbEntity
  8
0
  6
CONTINUOUS
 62
               7
100
AcDbLine
 10
4.5000393272426038
 20
-19.0
 30
0.0
 11
4.5000393272426038
 21
-1.0
 31
0.0
  0
ENDBLK
  5
694
100
AcDbEntity
  8
0
100
AcDbBlockEnd
  0
BLOCK
  5
695
100
AcDbEntity
  8
0
100
AcDbBlockBegin
  2
F18T-15
 70
               0
 10
0.0
 20
0.0
 30
0.0
  3
F18T-15
  1

  0
LINE
  5
696
100
AcDbEntity
  8
0
  6
CONTINUOUS
 62
               7
100
AcDbLine
 10
36.500015258789063
 20
16.999988555908203
 30
0.0
 11
4.5
 21
16.999988555908203
 31
0.0
  0
LINE
  5
697
100
AcDbEntity
  8
0
  6
CONTINUOUS
 62
               7
100
AcDbLine
 10
38.500015258789063
 20
-35.999996185302734
 30
0.0
 11
4.5
 21
-35.999996185302734
 31
0.0
  0
LINE
  5
698
100
AcDbEntity
  8
0
  6
CONTINUOUS
 62
               7
100
AcDbLine
 10
-7.0
 20
-36.499996185302734
 30
0.0
 11
-7.0
 21
17.499988555908203
 31
0.0
  0
LINE
  5
699
100
AcDbEntity
  8
0
  6
CONTINUOUS
 62
               2
100
AcDbLine
 10
3.5
 20
-19.0
 30
0.0
 11
-3.5
 21
-19.0
 31
0.0
  0
LINE
  5
69A
100
AcDbEntity
  8
0
  6
DASHED
 62
               4
100
AcDbLine
 10
22.0
 20
-60.999996185302734
 30
0.0
 11
-18.0
 21
-60.999996185302734
 31
0.0
  0
LINE
  5
69B
100
AcDbEntity
  8
0
  6
DASHED
 62
               4
100
AcDbLine
 10
-18.0
 20
-60.999996185302734
 30
0.0
 11
-18.0
 21
-59.399990081787109
 31
0.0
  0
LINE
  5
69C
100
AcDbEntity
  8
0
  6
DASHED
 62
               4
100
AcDbLine
 10
-8.0
 20
-59.399990081787109
 30
0.0
 11
-18.0
 21
-59.399990081787109
 31
0.0
  0
LINE
  5
69D
100
AcDbEntity
  8
0
  6
DASHED
 62
               4
100
AcDbLine
 10
22.0
 20
-60.999996185302734
 30
0.0
 11
22.0
 21
9.9999885559082031
 31
0.0
  0
LINE
  5
69E
100
AcDbEntity
  8
0
  6
DASHED
 62
               4
100
AcDbLine
 10
22.0
 20
9.9999885559082031
 30
0.0
 11
-8.0
 21
9.9999885559082031
 31
0.0
  0
LINE
  5
69F
100
AcDbEntity
  8
0
  6
CONTINUOUS
 62
               2
100
AcDbLine
 10
0.0
 20
3.4999885559082031
 30
0.0
 11
0.0
 21
-3.5
 31
0.0
  0
LINE
  5
6A0
100
AcDbEntity
  8
0
  6
CONTINUOUS
 62
               2
100
AcDbLine
 10
3.5
 20
0.0
 30
0.0
 11
-3.5
 21
0.0
 31
0.0
  0
LINE
  5
6A1
100
AcDbEntity
  8
0
  6
CONTINUOUS
 62
               7
100
AcDbLine
 10
48.500015258789063
 20
-27.499996185302734
 30
0.0
 11
48.500015258789063
 21
-10.5
 31
0.0
  0
LINE
  5
6A2
100
AcDbEntity
  8
0
  6
CONTINUOUS
 62
               7
100
AcDbLine
 10
48.000015258789063
 20
8.9999885559082031
 30
0.0
 11
43.5
 21
8.9999885559082031
 31
0.0
  0
LINE
  5
6A3
100
AcDbEntity
  8
0
  6
CONTINUOUS
 62
               7
100
AcDbLine
 10
48.000015258789063
 20
-27.999996185302734
 30
0.0
 11
43.5
 21
-27.999996185302734
 31
0.0
  0
LINE
  5
6A4
100
AcDbEntity
  8
0
  6
CONTINUOUS
 62
               2
100
AcDbLine
 10
50.28564453125
 20
-19.0
 30
0.0
 11
39.597412109375
 21
-19.0
 31
0.0
  0
LINE
  5
6A5
100
AcDbEntity
  8
0
  6
CONTINUOUS
 62
               2
100
AcDbLine
 10
50.28564453125
 20
0.0
 30
0.0
 11
39.597412109375
 21
0.0
 31
0.0
  0
LINE
  5
6A6
100
AcDbEntity
  8
0
  6
DASHED
 62
               4
100
AcDbLine
 10
-8.0
 20
9.9999885559082031
 30
0.0
 11
-8.0
 21
-60.999996185302734
 31
0.0
  0
LINE
  5
6A7
100
AcDbEntity
  8
0
  6
CONTINUOUS
 62
               2
100
AcDbLine
 10
0.0
 20
-22.499996185302734
 30
0.0
 11
0.0
 21
-15.5
 31
0.0
  0
LINE
  5
6A8
100
AcDbEntity
  8
0
  6
CONTINUOUS
 62
               7
100
AcDbLine
 10
4.5
 20
-58.499996185302734
 30
0.0
 11
4.5
 21
26.999988555908203
 31
0.0
  0
LINE
  5
6A9
100
AcDbEntity
  8
0
  6
CONTINUOUS
 62
               7
100
AcDbLine
 10
36.5
 20
-38.999980926513672
 30
0.0
 11
36.5
 21
27.000003814697266
 31
0.0
  0
LINE
  5
6AA
100
AcDbEntity
  8
0
  6
CONTINUOUS
 62
               7
100
AcDbLine
 10
38.5
 20
-47.999980926513672
 30
0.0
 11
4.5
 21
-47.999980926513672
 31
0.0
  0
LINE
  5
6AB
100
AcDbEntity
  8
0
  6
CONTINUOUS
 62
               7
100
AcDbLine
 10
38.5
 20
-58.499996185302734
 30
0.0
 11
38.5
 21
-46.999980926513672
 31
0.0
  0
LINE
  5
6AC
100
AcDbEntity
  8
0
  6
CONTINUOUS
 62
               7
100
AcDbLine
 10
43.5
 20
-33.799983978271484
 30
0.0
 11
43.5
 21
-19.0
 31
0.0
  0
LINE
  5
6AD
100
AcDbEntity
  8
0
  6
CONTINUOUS
 62
               7
100
AcDbLine
 10
41.499982400242601
 20
-35.799983978271484
 30
0.0
 11
36.5
 21
-35.799983978271484
 31
0.0
  0
LINE
  5
6AE
100
AcDbEntity
  8
0
  6
CONTINUOUS
 62
               7
100
AcDbLine
 10
41.500018121349967
 20
16.799991607666016
 30
0.0
 11
36.5
 21
16.799991607666016
 31
0.0
  0
LINE
  5
6AF
100
AcDbEntity
  8
0
  6
CONTINUOUS
 62
               7
100
AcDbLine
 10
43.50000355440261
 20
14.800017878106701
 30
0.0
 11
41.500018121349967
 21
16.800015280812659
 31
0.0
  0
LINE
  5
6B0
100
AcDbEntity
  8
0
  6
CONTINUOUS
 62
               7
100
AcDbLine
 10
43.499989788933817
 20
-33.799984344614131
 30
0.0
 11
41.499972998626617
 21
-35.799993379851003
 31
0.0
  0
LINE
  5
6B1
100
AcDbEntity
  8
0
  6
CONTINUOUS
 62
               7
100
AcDbLine
 10
38.0
 20
-58.999980926513672
 30
0.0
 11
5.0
 21
-58.999980926513672
 31
0.0
  0
LINE
  5
6B2
100
AcDbEntity
  8
0
  6
CONTINUOUS
 62
               2
100
AcDbLine
 10
36.0
 20
37.200000762939453
 30
0.0
 11
33.29998779296875
 21
37.200000762939453
 31
0.0
  0
LINE
  5
6B3
100
AcDbEntity
  8
0
  6
CONTINUOUS
 62
               7
100
AcDbLine
 10
35.0
 20
35.250003814697266
 30
0.0
 11
35.0
 21
36.899997711181641
 31
0.0
  0
LINE
  5
6B4
100
AcDbEntity
  8
0
  6
CONTINUOUS
 62
               7
100
AcDbLine
 10
35.0
 20
35.250003814697266
 30
0.0
 11
34.0
 21
35.250003814697266
 31
0.0
  0
LINE
  5
6B5
100
AcDbEntity
  8
0
  6
CONTINUOUS
 62
               7
100
AcDbLine
 10
35.0
 20
39.149997711181641
 30
0.0
 11
34.0
 21
39.149997711181641
 31
0.0
  0
LINE
  5
6B6
100
AcDbEntity
  8
0
  6
CONTINUOUS
 62
               7
100
AcDbLine
 10
34.399993896484375
 20
36.899997711181641
 30
0.0
 11
34.399993896484375
 21
37.499988555908203
 31
0.0
  0
LINE
  5
6B7
100
AcDbEntity
  8
0
  6
CONTINUOUS
 62
               7
100
AcDbLine
 10
35.0
 20
36.899997711181641
 30
0.0
 11
34.399993896484375
 21
36.899997711181641
 31
0.0
  0
LINE
  5
6B8
100
AcDbEntity
  8
0
  6
CONTINUOUS
 62
               7
100
AcDbLine
 10
35.0
 20
37.500003814697266
 30
0.0
 11
34.399993896484375
 21
37.500003814697266
 31
0.0
  0
LINE
  5
6B9
100
AcDbEntity
  8
0
  6
CONTINUOUS
 62
               7
100
AcDbLine
 10
35.0
 20
37.499988555908203
 30
0.0
 11
35.0
 21
39.149997711181641
 31
0.0
  0
LINE
  5
6BA
100
AcDbEntity
  8
0
  6
CONTINUOUS
 62
               7
100
AcDbLine
 10
34.0
 20
29.500003814697266
 30
0.0
 11
34.0
 21
40.499988555908203
 31
0.0
  0
LINE
  5
6BB
100
AcDbEntity
  8
0
  6
CONTINUOUS
 62
               7
100
AcDbLine
 10
7.0
 20
29.500003814697266
 30
0.0
 11
7.0
 21
40.499988555908203
 31
0.0
  0
LINE
  5
6BC
100
AcDbEntity
  8
0
  6
CONTINUOUS
 62
               7
100
AcDbLine
 10
38.5
 20
-45.099987030029297
 30
0.0
 11
38.5
 21
-38.899990081787109
 31
0.0
  0
LINE
  5
6BD
100
AcDbEntity
  8
0
  6
CONTINUOUS
 62
               7
100
AcDbLine
 10
40.5
 20
-45.999980926513672
 30
0.0
 11
40.5
 21
-37.999980926513672
 31
0.0
  0
LINE
  5
6BE
100
AcDbEntity
  8
0
  6
CONTINUOUS
 62
               7
100
AcDbLine
 10
39.499972442320541
 20
-37.000021779576855
 30
0.0
 11
40.499975442667164
 21
-38.000020986703021
 31
0.0
  0
LINE
  5
6BF
100
AcDbEntity
  8
0
  6
CONTINUOUS
 62
               7
100
AcDbLine
 10
39.500012316206949
 20
-47.000006519286671
 30
0.0
 11
40.499992978811008
 21
-46.000010599702478
 31
0.0
  0
LINE
  5
6C0
100
AcDbEntity
  8
0
  6
CONTINUOUS
 62
               7
100
AcDbLine
 10
39.300003051757813
 20
-45.099987030029297
 30
0.0
 11
39.300003051757813
 21
-38.899990081787109
 31
0.0
  0
LINE
  5
6C1
100
AcDbEntity
  8
0
  6
CONTINUOUS
 62
               7
100
AcDbLine
 10
39.5
 20
-46.999980926513672
 30
0.0
 11
39.5
 21
-36.999980926513672
 31
0.0
  0
LINE
  5
6C2
100
AcDbEntity
  8
0
  6
CONTINUOUS
 62
               7
100
AcDbLine
 10
38.5
 20
-44.999980926513672
 30
0.0
 11
36.5
 21
-44.999980926513672
 31
0.0
  0
LINE
  5
6C3
100
AcDbEntity
  8
0
  6
CONTINUOUS
 62
               7
100
AcDbLine
 10
38.5
 20
-38.999980926513672
 30
0.0
 11
36.5
 21
-38.999980926513672
 31
0.0
  0
LINE
  5
6C4
100
AcDbEntity
  8
0
  6
CONTINUOUS
 62
               7
100
AcDbLine
 10
37.5
 20
-47.999980926513672
 30
0.0
 11
37.5
 21
-46.999980926513672
 31
0.0
  0
LINE
  5
6C5
100
AcDbEntity
  8
0
  6
CONTINUOUS
 62
               7
100
AcDbLine
 10
36.5
 20
-47.999980926513672
 30
0.0
 11
36.5
 21
-44.999980926513672
 31
0.0
  0
LINE
  5
6C6
100
AcDbEntity
  8
0
  6
CONTINUOUS
 62
               7
100
AcDbLine
 10
37.5
 20
-38.999980926513672
 30
0.0
 11
37.5
 21
-38.899990081787109
 31
0.0
  0
LINE
  5
6C7
100
AcDbEntity
  8
0
  6
CONTINUOUS
 62
               7
100
AcDbLine
 10
36.599990844726563
 20
-46.999980926513672
 30
0.0
 11
36.599990844726563
 21
-45.099987030029297
 31
0.0
  0
LINE
  5
6C8
100
AcDbEntity
  8
0
  6
CONTINUOUS
 62
               7
100
AcDbLine
 10
39.300003051757813
 20
-38.899990081787109
 30
0.0
 11
36.600006103515625
 21
-38.899990081787109
 31
0.0
  0
LINE
  5
6C9
100
AcDbEntity
  8
0
  6
CONTINUOUS
 62
               7
100
AcDbLine
 10
39.300003051757813
 20
-45.099987030029297
 30
0.0
 11
36.600006103515625
 21
-45.099987030029297
 31
0.0
  0
LINE
  5
6CA
100
AcDbEntity
  8
0
  6
CONTINUOUS
 62
               7
100
AcDbLine
 10
36.599990844726563
 20
-38.899990081787109
 30
0.0
 11
36.599990844726563
 21
-36.999980926513672
 31
0.0
  0
LINE
  5
6CB
100
AcDbEntity
  8
0
  6
CONTINUOUS
 62
               7
100
AcDbLine
 10
39.5
 20
-46.999980926513672
 30
0.0
 11
36.600006103515625
 21
-46.999980926513672
 31
0.0
  0
LINE
  5
6CC
100
AcDbEntity
  8
0
  6
CONTINUOUS
 62
               7
100
AcDbLine
 10
39.5
 20
-36.999980926513672
 30
0.0
 11
36.600006103515625
 21
-36.999980926513672
 31
0.0
  0
LINE
  5
6CD
100
AcDbEntity
  8
0
  6
CONTINUOUS
 62
               7
100
AcDbLine
 10
38.5
 20
-36.999980926513672
 30
0.0
 11
38.5
 21
-35.999996185302734
 31
0.0
  0
LINE
  5
6CE
100
AcDbEntity
  8
0
  6
CONTINUOUS
 62
               7
100
AcDbLine
 10
37.5
 20
-45.099987030029297
 30
0.0
 11
37.5
 21
-44.999980926513672
 31
0.0
  0
LINE
  5
6CF
100
AcDbEntity
  8
0
  6
CONTINUOUS
 62
               7
100
AcDbLine
 10
37.5
 20
-36.999980926513672
 30
0.0
 11
37.5
 21
-35.999996185302734
 31
0.0
  0
LINE
  5
6D0
100
AcDbEntity
  8
0
  6
CONTINUOUS
 62
               7
100
AcDbLine
 10
43.5
 20
9.4999885559082031
 30
0.0
 11
39.5
 21
9.4999885559082031
 31
0.0
  0
LINE
  5
6D1
100
AcDbEntity
  8
0
  6
CONTINUOUS
 62
               7
100
AcDbLine
 10
43.5
 20
-26.499996185302734
 30
0.0
 11
36.5
 21
-26.499996185302734
 31
0.0
  0
LINE
  5
6D2
100
AcDbEntity
  8
0
  6
CONTINUOUS
 62
               7
100
AcDbLine
 10
43.5
 20
-32.499996185302734
 30
0.0
 11
36.5
 21
-32.499996185302734
 31
0.0
  0
LINE
  5
6D3
100
AcDbEntity
  8
0
  6
CONTINUOUS
 62
               7
100
AcDbLine
 10
36.5
 20
27.000003814697266
 30
0.0
 11
4.5
 21
27.000003814697266
 31
0.0
  0
LINE
  5
6D4
100
AcDbEntity
  8
0
  6
CONTINUOUS
 62
               7
100
AcDbLine
 10
36.699996948242188
 20
-58.999980926513672
 30
0.0
 11
36.699996948242188
 21
-56.499980926513672
 31
0.0
  0
LINE
  5
6D5
100
AcDbEntity
  8
0
  6
CONTINUOUS
 62
               7
100
AcDbLine
 10
30.300003051757812
 20
-58.999980926513672
 30
0.0
 11
30.300003051757812
 21
-56.499980926513672
 31
0.0
  0
LINE
  5
6D6
100
AcDbEntity
  8
0
  6
CONTINUOUS
 62
               7
100
AcDbLine
 10
36.699996948242188
 20
-56.499980926513672
 30
0.0
 11
30.300003051757812
 21
-56.499980926513672
 31
0.0
  0
LINE
  5
6D7
100
AcDbEntity
  8
0
  6
CONTINUOUS
 62
               7
100
AcDbLine
 10
34.75
 20
-58.499980926513672
 30
0.0
 11
32.25
 21
-58.499980926513672
 31
0.0
  0
LINE
  5
6D8
100
AcDbEntity
  8
0
  6
CONTINUOUS
 62
               7
100
AcDbLine
 10
36.25
 20
-56.999980926513672
 30
0.0
 11
36.25
 21
-56.499980926513672
 31
0.0
  0
LINE
  5
6D9
100
AcDbEntity
  8
0
  6
CONTINUOUS
 62
               7
100
AcDbLine
 10
30.75
 20
-56.999980926513672
 30
0.0
 11
30.75
 21
-56.499980926513672
 31
0.0
  0
LINE
  5
6DA
100
AcDbEntity
  8
0
  6
CONTINUOUS
 62
               7
100
AcDbLine
 10
39.5
 20
9.4999885559082031
 30
0.0
 11
39.5
 21
16.799991607666016
 31
0.0
  0
LINE
  5
6DB
100
AcDbEntity
  8
0
  6
CONTINUOUS
 62
               7
100
AcDbLine
 10
40.0
 20
9.7499732971191406
 30
0.0
 11
39.5
 21
9.7499732971191406
 31
0.0
  0
LINE
  5
6DC
100
AcDbEntity
  8
0
  6
CONTINUOUS
 62
               7
100
AcDbLine
 10
40.0
 20
15.249973297119141
 30
0.0
 11
39.5
 21
15.249973297119141
 31
0.0
  0
LINE
  5
6DD
100
AcDbEntity
  8
0
  6
CONTINUOUS
 62
               7
100
AcDbLine
 10
8.0
 20
30.999988555908203
 30
0.0
 11
7.0
 21
30.999988555908203
 31
0.0
  0
LINE
  5
6DE
100
AcDbEntity
  8
0
  6
CONTINUOUS
 62
               7
100
AcDbLine
 10
8.0
 20
29.500003814697266
 30
0.0
 11
8.0
 21
30.999988555908203
 31
0.0
  0
LINE
  5
6DF
100
AcDbEntity
  8
0
  6
CONTINUOUS
 62
               7
100
AcDbLine
 10
29.699996948242187
 20
30.999988555908203
 30
0.0
 11
10.5
 21
30.999988555908203
 31
0.0
  0
LINE
  5
6E0
100
AcDbEntity
  8
0
  6
CONTINUOUS
 62
               7
100
AcDbLine
 10
10.5
 20
29.500003814697266
 30
0.0
 11
10.5
 21
30.999988555908203
 31
0.0
  0
LINE
  5
6E1
100
AcDbEntity
  8
0
  6
CONTINUOUS
 62
               7
100
AcDbLine
 10
29.699996948242187
 20
29.500003814697266
 30
0.0
 11
29.699996948242187
 21
30.999988555908203
 31
0.0
  0
LINE
  5
6E2
100
AcDbEntity
  8
0
  6
CONTINUOUS
 62
               7
100
AcDbLine
 10
32.699996948242188
 20
29.500003814697266
 30
0.0
 11
32.699996948242188
 21
30.999988555908203
 31
0.0
  0
LINE
  5
6E3
100
AcDbEntity
  8
0
  6
CONTINUOUS
 62
               7
100
AcDbLine
 10
34.0
 20
30.999988555908203
 30
0.0
 11
32.699996948242188
 21
30.999988555908203
 31
0.0
  0
CIRCLE
  5
6E4
100
AcDbEntity
  8
0
  6
CONTINUOUS
 62
               7
100
AcDbCircle
 10
0.0
 20
0.0
 30
0.0
 40
2.25
  0
CIRCLE
  5
6E5
100
AcDbEntity
  8
0
  6
CONTINUOUS
 62
               7
100
AcDbCircle
 10
0.0
 20
-19.0
 30
0.0
 40
2.25
  0
ARC
  5
6E6
100
AcDbEntity
  8
0
  6
CONTINUOUS
 62
               7
100
AcDbCircle
 10
48.000015258789063
 20
8.4999885559082031
 30
0.0
 40
0.5
100
AcDbArc
 50
0.0
 51
89.999982013910454
  0
ARC
  5
6E7
100
AcDbEntity
  8
0
  6
CONTINUOUS
 62
               7
100
AcDbCircle
 10
48.000015258789063
 20
-27.499996185302734
 30
0.0
 40
0.5
100
AcDbArc
 50
269.99996334457541
 51
0.0
  0
ARC
  5
6E8
100
AcDbEntity
  8
0
  6
CONTINUOUS
 62
               7
100
AcDbCircle
 10
5.0
 20
-58.499980926513672
 30
0.0
 40
0.5
100
AcDbArc
 50
180.0000359721783
 51
270.00007262760209
  0
ARC
  5
6E9
100
AcDbEntity
  8
0
  6
CONTINUOUS
 62
               7
100
AcDbCircle
 10
38.0
 20
-58.499980926513672
 30
0.0
 40
0.5
100
AcDbArc
 50
270.00007262760209
 51
0.0000409811350201
  0
ARC
  5
6EA
100
AcDbEntity
  8
0
  6
CONTINUOUS
 62
               7
100
AcDbCircle
 10
7.499969482421875
 20
30.000064849853516
 30
0.0
 40
2.5000734329223633
100
AcDbArc
 50
220.54021397943868
 51
348.46195609548801
  0
ARC
  5
6EB
100
AcDbEntity
  8
0
  6
CONTINUOUS
 62
               7
100
AcDbCircle
 10
32.25
 20
-56.999980926513672
 30
0.0
 40
1.5
100
AcDbArc
 50
179.99998133066492
 51
270.00001798608872
  0
ARC
  5
6EC
100
AcDbEntity
  8
0
  6
CONTINUOUS
 62
               7
100
AcDbCircle
 10
34.75
 20
-56.999980926513672
 30
0.0
 40
1.5
100
AcDbArc
 50
270.00001798608872
 51
0.0
  0
ARC
  5
6ED
100
AcDbEntity
  8
0
  6
CONTINUOUS
 62
               7
100
AcDbCircle
 10
40.0
 20
13.749973297119141
 30
0.0
 40
1.5
100
AcDbArc
 50
0.0
 51
89.999982013910454
  0
ARC
  5
6EE
100
AcDbEntity
  8
0
  6
CONTINUOUS
 62
               7
100
AcDbCircle
 10
40.0
 20
11.249973297119141
 30
0.0
 40
1.5
100
AcDbArc
 50
270.00001798608872
 51
0.0
  0
LINE
  5
6EF
100
AcDbEntity
  8
0
  6
CONTINUOUS
 62
               7
100
AcDbLine
 10
34.5
 20
29.500003814697266
 30
0.0
 11
6.5
 21
29.500003814697266
 31
0.0
  0
LINE
  5
6F0
100
AcDbEntity
  8
0
  6
CONTINUOUS
 62
               7
100
AcDbLine
 10
4.4999950064753307
 20
27.000010281906498
 30
0.0
 11
6.4999895736960411
 21
29.500003490932386
 31
0.0
  0
LINE
  5
6F1
100
AcDbEntity
  8
0
  6
CONTINUOUS
 62
               7
100
AcDbLine
 10
36.499999679435859
 20
26.999995388015577
 30
0.0
 11
34.499995542890247
 21
29.500000558697607
 31
0.0
  0
LINE
  5
6F2
100
AcDbEntity
  8
0
  6
CONTINUOUS
 62
               7
100
AcDbLine
 10
39.199981689453125
 20
-28.249996185302734
 30
0.0
 11
39.199981689453125
 21
-30.749996185302734
 31
0.0
  0
LINE
  5
6F3
100
AcDbEntity
  8
0
  6
CONTINUOUS
 62
               7
100
AcDbLine
 10
37.699996948242187
 20
-26.749996185302734
 30
0.0
 11
37.199996948242188
 21
-26.749996185302734
 31
0.0
  0
LINE
  5
6F4
100
AcDbEntity
  8
0
  6
CONTINUOUS
 62
               7
100
AcDbLine
 10
37.699996948242187
 20
-32.249980926513672
 30
0.0
 11
37.199996948242188
 21
-32.249980926513672
 31
0.0
  0
ARC
  5
6F5
100
AcDbEntity
  8
0
  6
CONTINUOUS
 62
               7
100
AcDbCircle
 10
37.699981689453125
 20
-30.749996185302734
 30
0.0
 40
1.5
100
AcDbArc
 50
269.99990870306209
 51
359.99994604173207
  0
ARC
  5
6F6
100
AcDbEntity
  8
0
  6
CONTINUOUS
 62
               7
100
AcDbCircle
 10
37.699981689453125
 20
-28.250011444091797
 30
0.0
 40
1.5
100
AcDbArc
 50
0.0000179860890374
 51
89.999982013910454
  0
LINE
  5
6F7
100
AcDbEntity
  8
0
  6
CONTINUOUS
 62
               7
100
AcDbLine
 10
37.199996948242188
 20
-32.449993133544922
 30
0.0
 11
37.199996948242188
 21
-26.549999237060547
 31
0.0
  0
LINE
  5
6F8
100
AcDbEntity
  8
0
  6
CONTINUOUS
 62
               7
100
AcDbLine
 10
36.500017230199774
 20
-29.150007632153574
 30
0.0
 11
37.200024562801445
 21
-28.962441231115008
 31
0.0
  0
LINE
  5
6F9
100
AcDbEntity
  8
0
  6
CONTINUOUS
 62
               7
100
AcDbLine
 10
37.200002485837103
 20
-29.849994031324059
 30
0.0
 11
36.500009848899026
 21
-30.037556439902801
 31
0.0
  0
LINE
  5
6FA
100
AcDbEntity
  8
0
  6
CONTINUOUS
 62
               7
100
AcDbLine
 10
37.199996948242188
 20
-32.449993133544922
 30
0.0
 11
36.5
 21
-32.449993133544922
 31
0.0
  0
LINE
  5
6FB
100
AcDbEntity
  8
0
  6
CONTINUOUS
 62
               7
100
AcDbLine
 10
37.199996948242188
 20
-26.549999237060547
 30
0.0
 11
36.5
 21
-26.549999237060547
 31
0.0
  0
LINE
  5
6FC
100
AcDbEntity
  8
0
  6
CONTINUOUS
 62
               7
100
AcDbLine
 10
4.0
 20
17.499988555908203
 30
0.0
 11
-7.0
 21
17.499988555908203
 31
0.0
  0
LINE
  5
6FD
100
AcDbEntity
  8
0
  6
CONTINUOUS
 62
               7
100
AcDbLine
 10
4.0
 20
-36.499996185302734
 30
0.0
 11
-7.0
 21
-36.499996185302734
 31
0.0
  0
LINE
  5
6FE
100
AcDbEntity
  8
0
  6
CONTINUOUS
 62
               7
100
AcDbLine
 10
4.0
 20
-36.499996185302734
 30
0.0
 11
4.0
 21
17.499988555908203
 31
0.0
  0
LINE
  5
6FF
100
AcDbEntity
  8
0
  6
CONTINUOUS
 62
               4
100
AcDbLine
 10
18.099999999999994
 20
73.499988555908203
 30
0.0
 11
31.674999999999983
 21
73.499988555908203
 31
0.0
  0
LINE
  5
700
100
AcDbEntity
  8
0
  6
CONTINUOUS
 62
               4
100
AcDbLine
 10
34.0
 20
40.499988555908203
 30
0.0
 11
34.0
 21
64.499988555908203
 31
0.0
  0
LINE
  5
701
100
AcDbEntity
  8
0
  6
CONTINUOUS
 62
               4
100
AcDbLine
 10
7.0
 20
40.499988555908203
 30
0.0
 11
7.0
 21
64.499988555908203
 31
0.0
  0
LINE
  5
702
100
AcDbEntity
  8
0
  6
CONTINUOUS
 62
               4
100
AcDbLine
 10
7.0
 20
72.999988555908203
 30
0.0
 11
7.0
 21
64.499988555908203
 31
0.0
  0
LINE
  5
703
100
AcDbEntity
  8
0
  6
CONTINUOUS
 62
               4
100
AcDbLine
 10
27.0
 20
66.899988555908209
 30
0.0
 11
27.0
 21
65.94998855590822
 31
0.0
  0
LINE
  5
704
100
AcDbEntity
  8
0
  6
CONTINUOUS
 62
               4
100
AcDbLine
 10
14.099999999999994
 20
66.899988555908209
 30
0.0
 11
14.099999999999994
 21
65.94998855590822
 31
0.0
  0
LINE
  5
705
100
AcDbEntity
  8
0
  6
CONTINUOUS
 62
               4
100
AcDbLine
 10
29.099999999999994
 20
66.899988555908209
 30
0.0
 11
27.0
 21
66.899988555908209
 31
0.0
  0
LINE
  5
706
100
AcDbEntity
  8
0
  6
CONTINUOUS
 62
               4
100
AcDbLine
 10
14.099999999999994
 20
66.899988555908209
 30
0.0
 11
12.0
 21
66.899988555908209
 31
0.0
  0
LINE
  5
707
100
AcDbEntity
  8
0
  6
CONTINUOUS
 62
               4
100
AcDbLine
 10
34.0
 20
68.67998855590821
 30
0.0
 11
34.0
 21
64.499988555908203
 31
0.0
  0
LINE
  5
708
100
AcDbEntity
  8
0
  6
CONTINUOUS
 62
               4
100
AcDbLine
 10
32.129999999999995
 20
73.204988555908216
 30
0.0
 11
33.870000000000005
 21
69.289988555908195
 31
0.0
  0
ARC
  5
709
100
AcDbEntity
  8
0
  6
CONTINUOUS
 62
               4
100
AcDbCircle
 10
31.674020838564047
 20
73.000088493354468
 30
0.0
 40
0.4999010215015999
100
AcDbArc
 50
24.197376208904771
 51
89.887774076864815
  0
ARC
  5
70A
100
AcDbEntity
  8
0
  6
CONTINUOUS
 62
               4
100
AcDbCircle
 10
32.502020395360574
 20
68.679599459837505
 30
0.0
 40
1.4979796551727449
100
AcDbArc
 50
0.0148824203654679
 51
24.046309772710686
  0
LINE
  5
70B
100
AcDbEntity
  8
0
  6
CONTINUOUS
 62
               4
100
AcDbLine
 10
29.099999999999994
 20
66.899988555908209
 30
0.0
 11
29.099999999999994
 21
65.94998855590822
 31
0.0
  0
LINE
  5
70C
100
AcDbEntity
  8
0
  6
CONTINUOUS
 62
               4
100
AcDbLine
 10
12.0
 20
66.899988555908209
 30
0.0
 11
12.0
 21
65.94998855590822
 31
0.0
  0
LINE
  5
70D
100
AcDbEntity
  8
0
  6
CONTINUOUS
 62
               4
100
AcDbLine
 10
14.099999999999994
 20
65.94998855590822
 30
0.0
 11
12.0
 21
65.94998855590822
 31
0.0
  0
LINE
  5
70E
100
AcDbEntity
  8
0
  6
CONTINUOUS
 62
               4
100
AcDbLine
 10
29.099999999999994
 20
65.94998855590822
 30
0.0
 11
27.0
 21
65.94998855590822
 31
0.0
  0
LINE
  5
70F
100
AcDbEntity
  8
0
  6
CONTINUOUS
 62
               4
100
AcDbLine
 10
9.5
 20
77.999988555908203
 30
0.0
 11
9.5
 21
73.499988555908203
 31
0.0
  0
LINE
  5
710
100
AcDbEntity
  8
0
  6
CONTINUOUS
 62
               4
100
AcDbLine
 10
9.5
 20
73.499988555908203
 30
0.0
 11
7.5
 21
73.499988555908203
 31
0.0
  0
ARC
  5
711
100
AcDbEntity
  8
0
  6
CONTINUOUS
 62
               4
100
AcDbCircle
 10
7.5
 20
72.999988555908203
 30
0.0
 40
0.5
100
AcDbArc
 50
89.999999999999815
 51
179.99999999999963
  0
LINE
  5
712
100
AcDbEntity
  8
0
  6
CONTINUOUS
 62
               4
100
AcDbLine
 10
21.75
 20
64.999988555908203
 30
0.0
 11
21.75
 21
64.499988555908203
 31
0.0
  0
LINE
  5
713
100
AcDbEntity
  8
0
  6
CONTINUOUS
 62
               4
100
AcDbLine
 10
19.25
 20
64.999988555908203
 30
0.0
 11
19.25
 21
64.499988555908203
 31
0.0
  0
LINE
  5
714
100
AcDbEntity
  8
0
  6
CONTINUOUS
 62
               4
100
AcDbLine
 10
19.25
 20
64.999988555908203
 30
0.0
 11
21.75
 21
64.999988555908203
 31
0.0
  0
LINE
  5
715
100
AcDbEntity
  8
0
  6
CONTINUOUS
 62
             200
100
AcDbLine
 10
16.814994343097709
 20
89.96445337098703
 30
0.0
 11
9.8849841895786028
 21
85.963401466471623
 31
0.0
  0
LINE
  5
716
100
AcDbEntity
  8
0
  6
CONTINUOUS
 62
             200
100
AcDbLine
 10
16.815018891472022
 20
91.119094365843011
 30
0.0
 11
9.8849897999085385
 21
87.118045802061715
 31
0.0
  0
LINE
  5
717
100
AcDbEntity
  8
0
  6
CONTINUOUS
 62
               4
100
AcDbLine
 10
11.385003662109369
 20
84.499988555908203
 30
0.0
 11
11.385003662109369
 21
86.829410552978516
 31
0.0
  0
LINE
  5
718
100
AcDbEntity
  8
0
  6
CONTINUOUS
 62
               4
100
AcDbLine
 10
12.815011596679682
 20
84.499988555908203
 30
0.0
 11
12.815011596679682
 21
87.655017852783203
 31
0.0
  0
LINE
  5
719
100
AcDbEntity
  8
0
  6
CONTINUOUS
 62
               4
100
AcDbLine
 10
11.700006103515619
 20
97.499988555908203
 30
0.0
 11
12.500009155273432
 21
97.499988555908203
 31
0.0
  0
LINE
  5
71A
100
AcDbEntity
  8
0
  6
CONTINUOUS
 62
               4
100
AcDbLine
 10
11.700006103515619
 20
92.499988555908203
 30
0.0
 11
11.700006103515619
 21
97.499973297119141
 31
0.0
  0
LINE
  5
71B
100
AcDbEntity
  8
0
  6
CONTINUOUS
 62
               4
100
AcDbLine
 10
12.500009155273432
 20
92.499988555908203
 30
0.0
 11
12.500009155273432
 21
97.499988555908203
 31
0.0
  0
LINE
  5
71C
100
AcDbEntity
  8
0
  6
CONTINUOUS
 62
               4
100
AcDbLine
 10
11.385003662109369
 20
92.499988555908203
 30
0.0
 11
12.815011596679682
 21
92.499988555908203
 31
0.0
  0
LINE
  5
71D
100
AcDbEntity
  8
0
  6
CONTINUOUS
 62
               4
100
AcDbLine
 10
11.385003662109369
 20
87.984104156494141
 30
0.0
 11
11.385003662109369
 21
92.499988555908203
 31
0.0
  0
LINE
  5
71E
100
AcDbEntity
  8
0
  6
CONTINUOUS
 62
               4
100
AcDbLine
 10
12.815011596679682
 20
88.809726715087891
 30
0.0
 11
12.815011596679682
 21
92.499988555908203
 31
0.0
  0
LINE
  5
71F
100
AcDbEntity
  8
0
  6
CONTINUOUS
 62
               7
100
AcDbLine
 10
7.0
 20
40.499988555908203
 30
0.0
 11
34.0
 21
40.499988555908203
 31
0.0
  0
LINE
  5
720
100
AcDbEntity
  8
0
  6
CONTINUOUS
 62
               4
100
AcDbLine
 10
15.315011596679682
 20
90.253101348876953
 30
0.0
 11
15.315011596679682
 21
92.499988555908203
 31
0.0
  0
LINE
  5
721
100
AcDbEntity
  8
0
  6
CONTINUOUS
 62
               4
100
AcDbLine
 10
13.885003662109369
 20
89.427478790283203
 30
0.0
 11
13.885003662109369
 21
92.499988555908203
 31
0.0
  0
LINE
  5
722
100
AcDbEntity
  8
0
  6
CONTINUOUS
 62
               4
100
AcDbLine
 10
15.315011596679682
 20
92.499988555908203
 30
0.0
 11
13.885003662109369
 21
92.499988555908203
 31
0.0
  0
LINE
  5
723
100
AcDbEntity
  8
0
  6
CONTINUOUS
 62
               4
100
AcDbLine
 10
13.885003662109369
 20
84.499988555908203
 30
0.0
 11
13.885003662109369
 21
88.272785186767578
 31
0.0
  0
LINE
  5
724
100
AcDbEntity
  8
0
  6
CONTINUOUS
 62
               4
100
AcDbLine
 10
15.315011596679682
 20
84.499988555908203
 30
0.0
 11
15.315011596679682
 21
89.098392486572266
 31
0.0
  0
LINE
  5
725
100
AcDbEntity
  8
0
  6
CONTINUOUS
 62
               4
100
AcDbLine
 10
15.000009155273432
 20
92.499988555908203
 30
0.0
 11
15.000009155273432
 21
97.499988555908203
 31
0.0
  0
LINE
  5
726
100
AcDbEntity
  8
0
  6
CONTINUOUS
 62
               4
100
AcDbLine
 10
14.200006103515619
 20
92.499988555908203
 30
0.0
 11
14.200006103515619
 21
97.499988555908203
 31
0.0
  0
LINE
  5
727
100
AcDbEntity
  8
0
  6
CONTINUOUS
 62
               4
100
AcDbLine
 10
15.000009155273432
 20
97.499988555908203
 30
0.0
 11
14.200006103515619
 21
97.499988555908203
 31
0.0
  0
LINE
  5
728
100
AcDbEntity
  8
0
  6
CONTINUOUS
 62
               4
100
AcDbLine
 10
20.150003051757807
 20
82.999988555908203
 30
0.0
 11
20.150003051757807
 21
84.499988555908203
 31
0.0
  0
LINE
  5
729
100
AcDbEntity
  8
0
  6
CONTINUOUS
 62
               4
100
AcDbLine
 10
18.150044511604023
 20
83.499947498809888
 30
0.0
 11
18.727396327367927
 21
84.499956203764668
 31
0.0
  0
LINE
  5
72A
100
AcDbEntity
  8
0
  6
CONTINUOUS
 62
               4
100
AcDbLine
 10
18.150003051757807
 20
77.999988555908203
 30
0.0
 11
18.150003051757807
 21
84.499988555908203
 31
0.0
  0
LINE
  5
72B
100
AcDbEntity
  8
0
  6
CONTINUOUS
 62
               4
100
AcDbLine
 10
19.150001302236518
 20
73.998439297667574
 30
0.0
 11
19.650000411113609
 21
77.556127381356418
 31
0.0
  0
LINE
  5
72C
100
AcDbEntity
  8
0
  6
CONTINUOUS
 62
               4
100
AcDbLine
 10
19.650003051757807
 20
77.556140899658203
 30
0.0
 11
19.650003051757807
 21
82.999988555908203
 31
0.0
  0
LINE
  5
72D
100
AcDbEntity
  8
0
  6
CONTINUOUS
 62
               4
100
AcDbLine
 10
9.1499877929687443
 20
83.499988555908203
 30
0.0
 11
9.6499877929687443
 21
83.499988555908203
 31
0.0
  0
LINE
  5
72E
100
AcDbEntity
  8
0
  6
CONTINUOUS
 62
               4
100
AcDbLine
 10
9.1500030517578068
 20
83.499988555908203
 30
0.0
 11
9.1500030517578068
 21
84.499988555908203
 31
0.0
  0
LINE
  5
72F
100
AcDbEntity
  8
0
  6
CONTINUOUS
 62
               4
100
AcDbLine
 10
9.6500030517578068
 20
77.999988555908203
 30
0.0
 11
9.6500030517578068
 21
83.499988555908203
 31
0.0
  0
LINE
  5
730
100
AcDbEntity
  8
0
  6
CONTINUOUS
 62
               4
100
AcDbLine
 10
18.150000209407693
 20
73.998462707778344
 30
0.0
 11
18.099979656101453
 21
74.048483261084584
 31
0.0
  0
LINE
  5
731
100
AcDbEntity
  8
0
  6
CONTINUOUS
 62
               4
100
AcDbLine
 10
19.649995422363276
 20
82.999988555908203
 30
0.0
 11
20.149995422363276
 21
82.999988555908203
 31
0.0
  0
LINE
  5
732
100
AcDbEntity
  8
0
  6
CONTINUOUS
 62
               4
100
AcDbLine
 10
18.150003051757807
 20
75.498447418212891
 30
0.0
 11
18.150003051757807
 21
77.999988555908203
 31
0.0
  0
LINE
  5
733
100
AcDbEntity
  8
0
  6
CONTINUOUS
 62
               4
100
AcDbLine
 10
18.150003051757807
 20
73.998447418212891
 30
0.0
 11
19.149995422363276
 21
73.998447418212891
 31
0.0
  0
LINE
  5
734
100
AcDbEntity
  8
0
  6
CONTINUOUS
 62
               4
100
AcDbLine
 10
18.099999999999994
 20
75.498447418212891
 30
0.0
 11
18.150003051757807
 21
75.498447418212891
 31
0.0
  0
LINE
  5
735
100
AcDbEntity
  8
0
  6
CONTINUOUS
 62
               4
100
AcDbLine
 10
18.727349853515619
 20
84.499988555908203
 30
0.0
 11
20.149995422363276
 21
84.499988555908203
 31
0.0
  0
LINE
  5
736
100
AcDbEntity
  8
0
  6
CONTINUOUS
 62
               4
100
AcDbLine
 10
9.5
 20
77.999988555908203
 30
0.0
 11
18.150003051757807
 21
77.999988555908203
 31
0.0
  0
LINE
  5
737
100
AcDbEntity
  8
0
  6
CONTINUOUS
 62
               4
100
AcDbLine
 10
9.1499877929687443
 20
84.499988555908203
 30
0.0
 11
18.149987792968744
 21
84.499988555908203
 31
0.0
  0
LINE
  5
738
100
AcDbEntity
  8
0
  6
CONTINUOUS
 62
               4
100
AcDbLine
 10
18.099999999999994
 20
77.999988555908203
 30
0.0
 11
18.099999999999994
 21
73.499988555908203
 31
0.0
  0
LINE
  5
739
100
AcDbEntity
  8
0
  6
CONTINUOUS
 62
               4
100
AcDbLine
 10
7.0
 20
64.499988555908203
 30
0.0
 11
33.999992370605469
 21
64.499988555908203
 31
0.0
  0
LINE
  5
73A
100
AcDbEntity
  8
0
  6
CONTINUOUS
 62
               7
100
AcDbLine
 10
41.5
 20
-9.0
 30
0.0
 11
48.000015258789063
 21
-9.0
 31
0.0
  0
LINE
  5
73B
100
AcDbEntity
  8
0
  6
CONTINUOUS
 62
               7
100
AcDbLine
 10
41.5
 20
-10.0
 30
0.0
 11
48.000015258789063
 21
-10.0
 31
0.0
  0
LINE
  5
73C
100
AcDbEntity
  8
0
  6
CONTINUOUS
 62
               7
100
AcDbLine
 10
48.500015258789063
 20
-8.5
 30
0.0
 11
48.500015258789063
 21
8.4999885559082031
 31
0.0
  0
ARC
  5
73D
100
AcDbEntity
  8
0
  6
CONTINUOUS
 62
               7
100
AcDbCircle
 10
48.000015258789063
 20
-8.5
 30
0.0
 40
0.5
100
AcDbArc
 50
270.00000000000023
 51
0.0
  0
ARC
  5
73E
100
AcDbEntity
  8
0
  6
CONTINUOUS
 62
               7
100
AcDbCircle
 10
48.000015258789063
 20
-10.5
 30
0.0
 40
0.5
100
AcDbArc
 50
0.0
 51
89.999999999999815
  0
LINE
  5
73F
100
AcDbEntity
  8
0
  6
CONTINUOUS
 62
               7
100
AcDbLine
 10
43.5
 20
0.0
 30
0.0
 11
43.5
 21
14.799991607666016
 31
0.0
  0
LINE
  5
740
100
AcDbEntity
  8
0
  6
CONTINUOUS
 62
               7
100
AcDbLine
 10
41.5
 20
-19.0
 30
0.0
 11
41.5
 21
0.0
 31
0.0
  0
LINE
  5
741
100
AcDbEntity
  8
0
  6
CONTINUOUS
 62
               7
100
AcDbLine
 10
41.5
 20
13.749973297119141
 30
0.0
 11
41.5
 21
11.249973297119141
 31
0.0
  0
LINE
  5
742
100
AcDbEntity
  8
0
  6
CONTINUOUS
 62
               7
100
AcDbLine
 10
41.5
 20
0.0
 30
0.0
 11
43.5
 21
0.0
 31
0.0
  0
LINE
  5
743
100
AcDbEntity
  8
0
  6
CONTINUOUS
 62
               7
100
AcDbLine
 10
41.5
 20
-19.0
 30
0.0
 11
43.5
 21
-19.0
 31
0.0
  0
LINE
  5
744
100
AcDbEntity
  8
0
  6
CONTINUOUS
 62
               4
100
AcDbLine
 10
7.0
 20
57.499988555908203
 30
0.0
 11
8.6000137329101562
 21
57.499988555908203
 31
0.0
  0
LINE
  5
745
100
AcDbEntity
  8
0
  6
CONTINUOUS
 62
               4
100
AcDbLine
 10
7.7000137329101506
 20
57.499988555908203
 30
0.0
 11
7.7000137329101506
 21
64.499988555908203
 31
0.0
  0
LINE
  5
746
100
AcDbEntity
  8
0
  6
CONTINUOUS
 62
               4
100
AcDbLine
 10
8.6000137329101562
 20
57.499988555908203
 30
0.0
 11
8.6000137329101562
 21
64.499988555908203
 31
0.0
  0
LINE
  5
747
100
AcDbEntity
  8
0
  6
CONTINUOUS
 62
             200
100
AcDbLine
 10
-12.999954223632813
 20
-55.900061035156256
 30
0.0
 11
-12.999954223632813
 21
-64.170061035156266
 31
0.0
  0
LINE
  5
748
100
AcDbEntity
  8
0
  6
CONTINUOUS
 62
               7
100
AcDbLine
 10
4.4999979993058066
 20
16.999999999999922
 30
0.0
 11
3.9999979993058079
 21
16.999999962250975
 31
0.0
  0
LINE
  5
749
100
AcDbEntity
  8
0
  6
CONTINUOUS
 62
               7
100
AcDbLine
 10
4.5000020006941934
 20
-35.999999999999922
 30
0.0
 11
4.0000020006941952
 21
-36.000000037748869
 31
0.0
  0
ENDBLK
  5
74A
100
AcDbEntity
  8
0
100
AcDbBlockEnd
  0
ENDSEC
  0
SECTION
  2
ENTITIES
  0
INSERT
  5
74B
100
AcDbEntity
  8
0
  6
ByBlock
100
AcDbBlockReference
  2
F18T-10
 10
-212.23750305175781
 20
-54.4920654296875
 30
0.0
  0
INSERT
  5
74C
100
AcDbEntity
  8
0
  6
ByBlock
100
AcDbBlockReference
  2
F18T-5
 10
-207.08010864257812
 20
-189.750732421875
 30
0.0
  0
INSERT
  5
74D
100
AcDbEntity
  8
0
  6
ByBlock
100
AcDbBlockReference
  2
F18T-6
 10
-305.580078125
 20
-189.75074768066406
 30
0.0
  0
INSERT
  5
74E
100
AcDbEntity
  8
0
  6
ByBlock
100
AcDbBlockReference
  2
F18T-1
 10
-212.2374267578125
 20
138.68840026855469
 30
0.0
 50
359.99997133552705
  0
INSERT
  5
74F
100
AcDbEntity
  8
0
  6
ByBlock
100
AcDbBlockReference
  2
F18T-8
 10
-344.8974609375
 20
138.68844604492188
 30
0.0
 50
0.0000522175585425
  0
INSERT
  5
750
100
AcDbEntity
  8
0
  6
ByBlock
100
AcDbBlockReference
  2
F18T-9
 10
-61.237533569335937
 20
138.6884765625
 30
0.0
 50
0.000087425887786
  0
INSERT
  5
751
100
AcDbEntity
  8
0
  6
ByBlock
100
AcDbBlockReference
  2
F18T-11
 10
170.43905639648437
 20
148.6883544921875
 30
0.0
 50
0.0000032380002826
  0
INSERT
  5
752
100
AcDbEntity
  8
0
  6
ByBlock
100
AcDbBlockReference
  2
F18T-12
 10
56.339187622070312
 20
148.68841552734375
 30
0.0
 50
0.0000320688740967
  0
INSERT
  5
753
100
AcDbEntity
  8
0
  6
ByBlock
100
AcDbBlockReference
  2
F18T-13
 10
321.0390625
 20
148.68841552734375
 30
0.0
 50
359.99982514715646
  0
INSERT
  5
754
100
AcDbEntity
  8
0
  6
ByBlock
100
AcDbBlockReference
  2
F18T-14
 10
170.43914794921875
 20
45.229080200195313
 30
0.0
 50
0.0000259041214932
  0
INSERT
  5
755
100
AcDbEntity
  8
0
  6
ByBlock
100
AcDbBlockReference
  2
F18T-15
 10
180.43911743164062
 20
-128.69355773925781
 30
0.0
  0
INSERT
  5
756
100
AcDbEntity
  8
0
  6
ByBlock
100
AcDbBlockReference
  2
F18T-2
 10
60.939178466796875
 20
-128.69357299804687
 30
0.0
 50
0.0003497054187146
  0
INSERT
  5
757
100
AcDbEntity
  8
0
  6
ByBlock
100
AcDbBlockReference
  2
F18T-3
 10
321.0390625
 20
-128.693603515625
 30
0.0
 50
359.99982514715646
  0
INSERT
  5
758
100
AcDbEntity
  8
0
  6
ByBlock
100
AcDbBlockReference
  2
F18T-4
 10
180.43916320800781
 20
-234.55523681640625
 30
0.0
 50
0.0000540781988067
  0
INSERT
  5
759
100
AcDbEntity
  8
0
  6
ByBlock
100
AcDbBlockReference
  2
F18T-7
 10
-98.580245971679688
 20
-189.75091552734375
 30
0.0
  0
LINE
  5
75A
100
AcDbEntity
  8
0
  6
CONTINUOUS
 62
               7
100
AcDbLine
 10
399.80000000000001
 20
276.25
 30
0.0
 11
399.80000000000001
 21
-276.75
 31
0.0
  0
LINE
  5
75B
100
AcDbEntity
  8
0
  6
CONTINUOUS
 62
               7
100
AcDbLine
 10
-399.25
 20
276.25
 30
0.0
 11
-399.25
 21
-276.75
 31
0.0
  0
LINE
  5
75C
100
AcDbEntity
  8
0
  6
CONTINUOUS
 62
               7
100
AcDbLine
 10
-399.25
 20
276.25
 30
0.0
 11
399.80000000000001
 21
276.25
 31
0.0
  0
LINE
  5
75D
100
AcDbEntity
  8
0
  6
CONTINUOUS
 62
               7
100
AcDbLine
 10
-399.25
 20
-276.75
 30
0.0
 11
399.80000000000001
 21
-276.75
 31
0.0
  0
LINE
  5
75E
100
AcDbEntity
  8
0
  6
CONTINUOUS
 62
               7
100
AcDbLine
 10
239.80000000000001
 20
-251.75
 30
0.0
 11
399.80000000000001
 21
-251.75
 31
0.0
  0
LINE
  5
75F
100
AcDbEntity
  8
0
  6
CONTINUOUS
 62
               7
100
AcDbLine
 10
239.80000000000001
 20
251.25
 30
0.0
 11
399.80000000000001
 21
251.25
 31
0.0
  0
LINE
  5
760
100
AcDbEntity
  8
0
  6
CONTINUOUS
 62
               7
100
AcDbLine
 10
-399.25
 20
251.25
 30
0.0
 11
-239.25
 21
251.25
 31
0.0
  0
LINE
  5
761
100
AcDbEntity
  8
0
  6
CONTINUOUS
 62
               7
100
AcDbLine
 10
239.80000000000001
 20
-251.75
 30
0.0
 11
239.80000000000001
 21
-276.75
 31
0.0
  0
LINE
  5
762
100
AcDbEntity
  8
0
  6
CONTINUOUS
 62
               7
100
AcDbLine
 10
239.80000000000001
 20
251.25
 30
0.0
 11
239.80000000000001
 21
276.25
 31
0.0
  0
LINE
  5
763
100
AcDbEntity
  8
0
  6
CONTINUOUS
 62
               7
100
AcDbLine
 10
-239.25
 20
276.25
 30
0.0
 11
-239.25
 21
251.25
 31
0.0
  0
LINE
  5
764
100
AcDbEntity
  8
0
  6
CONTINUOUS
 62
               7
100
AcDbLine
 10
-399.25
 20
-92.409999999999997
 30
0.0
 11
0.27
 21
-92.409999999999997
 31
0.0
  0
LINE
  5
765
100
AcDbEntity
  8
0
  6
CONTINUOUS
 62
               7
100
AcDbLine
 10
0.27
 20
-0.25
 30
0.0
 11
399.80000000000001
 21
-0.25
 31
0.0
  0
LINE
  5
766
100
AcDbEntity
  8
0
  6
CONTINUOUS
 62
               7
100
AcDbLine
 10
0.27
 20
276.25
 30
0.0
 11
0.27
 21
-276.75
 31
0.0
  0
MTEXT
  5
767
100
AcDbEntity
  8
0
  6
CONTINUOUS
 62
               7
100
AcDbMText
 10
245.88456269755227
 20
-264.25
 30
0.0
 40
12.5
 41
0.0
 71
               4
 72
               1
  1
\W1.121;\A1;KOGANEI CORP.
  0
MTEXT
  5
768
100
AcDbEntity
  8
0
  6
CONTINUOUS
 62
               7
100
AcDbMText
 10
290.09979829720089
 20
263.75
 30
0.0
 40
9.0
 41
0.0
 71
               4
 72
               1
  1
\W1.200;\A1;Ver.3.0
  0
MTEXT
  5
769
100
AcDbEntity
  8
0
  6
CONTINUOUS
 62
               7
100
AcDbMText
 10
-382.12234106487148
 20
231.25
 30
0.0
 40
9.0
 41
0.0
 71
               4
 72
               1
  1
\W1.085;\A1;MODEL:F18T1-A2-PS
  0
MTEXT
  5
76A
100
AcDbEntity
  8
0
  6
CONTINUOUS
 62
               7
100
AcDbMText
 10
-362.57090654372104
 20
263.75
 30
0.0
 40
9.0
 41
0.0
 71
               4
 72
               1
  1
\W1.119;\A1;F18 SERIES
  0
MTEXT
  5
76B
100
AcDbEntity
  8
0
  6
CONTINUOUS
 62
               7
100
AcDbMText
 10
17.402652831612876
 20
256.25
 30
0.0
 40
9.0
 41
0.0
 71
               4
 72
               1
  1
\W1.085;\A1;MODEL:F18T1-F3-PS
  0
MTEXT
  5
76C
100
AcDbEntity
  8
0
  6
CONTINUOUS
 62
               7
100
AcDbMText
 10
17.402652831612876
 20
-20.25
 30
0.0
 40
9.0
 41
0.0
 71
               4
 72
               1
  1
\W1.085;\A1;MODEL:F18T1-F4-PS
  0
MTEXT
  5
76D
100
AcDbEntity
  8
0
  6
CONTINUOUS
 62
               7
100
AcDbMText
 10
-382.13000067858695
 20
-112.41665649414062
 30
0.0
 40
9.0
 41
0.0
 71
               4
 72
               1
  1
\W1.080;\A1;MODEL:-PL
  0
LINE
  5
76F
100
AcDbEntity
  8
0
  6
CENTER
 62
             200
100
AcDbLine
 10
167.43916320800781
 20
-184.59361877441407
 30
0.0
 11
167.43916320800781
 21
-192.86361877441408
 31
0.0
  0
ENDSEC
  0
SECTION
  2
OBJECTS
  0
DICTIONARY
  5
19
100
AcDbDictionary
  3
ACAD_GROUP
350
1A
  3
ACAD_MLINESTYLE
350
1B
  0
DICTIONARY
  5
1A
102
{ACAD_REACTORS
330
19
102
}
100
AcDbDictionary
  0
DICTIONARY
  5
1B
102
{ACAD_REACTORS
330
19
102
}
100
AcDbDictionary
  3
STANDARD
350
1C
  0
MLINESTYLE
  5
1C
102
{ACAD_REACTORS
330
1B
102
}
100
AcDbMlineStyle
  2
Standard
 70
               0
  3

 62
               0
 51
90.0
 52
90.0
 71
               2
 49
0.5
 62
             256
  6
ByLayer
 49
-0.5
 62
             256
  6
ByLayer
  0
ENDSEC
  0
EOF
