  0
SECTION
  2
HEADER
  9
$ACADVER
  1
AC1012
  9
$DWGCODEPAGE
  3
dos932
  9
$INSBASE
 10
0.0
 20
0.0
 30
0.0
  9
$EXTMIN
 10
-399.25
 20
-276.75
 30
0.0
  9
$EXTMAX
 10
406.09414987197181
 20
276.25
 30
0.0
  9
$LIMMIN
 10
-399.25
 20
-276.75
  9
$LIMMAX
 10
406.09414987197181
 20
276.25
  9
$ORTHOMODE
 70
               0
  9
$REGENMODE
 70
               1
  9
$FILLMODE
 70
               1
  9
$QTEXTMODE
 70
               0
  9
$MIRRTEXT
 70
               1
  9
$DRAGMODE
 70
               2
  9
$LTSCALE
 40
1.0
  9
$OSMODE
 70
               0
  9
$ATTMODE
 70
               1
  9
$TEXTSIZE
 40
3.2000000476837158
  9
$TRACEWID
 40
0.05
  9
$TEXTSTYLE
  7
MX_NOTE_STANDARD
  9
$CLAYER
  8
0
  9
$CELTYPE
  6
CONTINUOUS
  9
$CECOLOR
 62
             256
  9
$CELTSCALE
 40
1.0
  9
$DELOBJ
 70
               1
  9
$DISPSILH
 70
               0
  9
$DIMSCALE
 40
1.0
  9
$DIMASZ
 40
2.5
  9
$DIMEXO
 40
1.5
  9
$DIMDLI
 40
3.75
  9
$DIMRND
 40
0.0
  9
$DIMDLE
 40
0.0
  9
$DIMEXE
 40
1.5
  9
$DIMTP
 40
0.0
  9
$DIMTM
 40
0.0
  9
$DIMTXT
 40
3.2000000476837158
  9
$DIMCEN
 40
2.5
  9
$DIMTSZ
 40
0.0
  9
$DIMTOL
 70
               0
  9
$DIMLIM
 70
               0
  9
$DIMTIH
 70
               0
  9
$DIMTOH
 70
               0
  9
$DIMSE1
 70
               0
  9
$DIMSE2
 70
               0
  9
$DIMTAD
 70
               1
  9
$DIMZIN
 70
               8
  9
$DIMBLK
  1

  9
$DIMASO
 70
               1
  9
$DIMSHO
 70
               1
  9
$DIMPOST
  1

  9
$DIMAPOST
  1

  9
$DIMALT
 70
               0
  9
$DIMALTD
 70
               4
  9
$DIMALTF
 40
0.03937007874016
  9
$DIMLFAC
 40
1.0
  9
$DIMTOFL
 70
               1
  9
$DIMTVP
 40
0.0
  9
$DIMTIX
 70
               0
  9
$DIMSOXD
 70
               0
  9
$DIMSAH
 70
               0
  9
$DIMBLK1
  1

  9
$DIMBLK2
  1

  9
$DIMSTYLE
  2
MXDIMSTYLE
  9
$DIMCLRD
 70
               0
  9
$DIMCLRE
 70
               0
  9
$DIMCLRT
 70
               0
  9
$DIMTFAC
 40
1.0
  9
$DIMGAP
 40
1.0
  9
$DIMJUST
 70
               0
  9
$DIMSD1
 70
               0
  9
$DIMSD2
 70
               0
  9
$DIMTOLJ
 70
               1
  9
$DIMTZIN
 70
               0
  9
$DIMALTZ
 70
               0
  9
$DIMALTTZ
 70
               0
  9
$DIMFIT
 70
               3
  9
$DIMUPT
 70
               1
  9
$DIMUNIT
 70
               2
  9
$DIMDEC
 70
               4
  9
$DIMTDEC
 70
               4
  9
$DIMALTU
 70
               2
  9
$DIMALTTD
 70
               4
  9
$DIMTXSTY
  7
MX_NOTE_STANDARD
  9
$DIMAUNIT
 70
               0
  9
$LUNITS
 70
               2
  9
$LUPREC
 70
               4
  9
$SKETCHINC
 40
0.1
  9
$FILLETRAD
 40
0.0
  9
$AUNITS
 70
               0
  9
$AUPREC
 70
               0
  9
$MENU
  1
acad
  9
$ELEVATION
 40
0.0
  9
$PELEVATION
 40
0.0
  9
$THICKNESS
 40
0.0
  9
$LIMCHECK
 70
               0
  9
$BLIPMODE
 70
               1
  9
$CHAMFERA
 40
0.0
  9
$CHAMFERB
 40
0.0
  9
$CHAMFERC
 40
0.0
  9
$CHAMFERD
 40
0.0
  9
$SKPOLY
 70
               0
  9
$TDCREATE
 40
2453378.356550926
  9
$TDUPDATE
 40
2453378.356550926
  9
$TDINDWG
 40
0.0000000000
  9
$TDUSRTIMER
 40
0.0000000000
  9
$USRTIMER
 70
               1
  9
$ANGBASE
 50
0.0
  9
$ANGDIR
 70
               0
  9
$PDMODE
 70
               0
  9
$PDSIZE
 40
0.0
  9
$PLINEWID
 40
0.0
  9
$COORDS
 70
               1
  9
$SPLFRAME
 70
               0
  9
$SPLINETYPE
 70
               6
  9
$SPLINESEGS
 70
               8
  9
$ATTDIA
 70
               0
  9
$ATTREQ
 70
               1
  9
$HANDLING
 70
               1
  9
$HANDSEED
  5
6FE
  9
$SURFTAB1
 70
               6
  9
$SURFTAB2
 70
               6
  9
$SURFTYPE
 70
               6
  9
$SURFU
 70
               6
  9
$SURFV
 70
               6
  9
$UCSNAME
  2

  9
$UCSORG
 10
0.0
 20
0.0
 30
0.0
  9
$UCSXDIR
 10
1.0
 20
0.0
 30
0.0
  9
$UCSYDIR
 10
0.0
 20
1.0
 30
0.0
  9
$PUCSNAME
  2

  9
$PUCSORG
 10
0.0
 20
0.0
 30
0.0
  9
$PUCSXDIR
 10
1.0
 20
0.0
 30
0.0
  9
$PUCSYDIR
 10
0.0
 20
1.0
 30
0.0
  9
$USERI1
 70
               0
  9
$USERI2
 70
               0
  9
$USERI3
 70
               0
  9
$USERI4
 70
               0
  9
$USERI5
 70
               0
  9
$USERR1
 40
0.0
  9
$USERR2
 40
0.0
  9
$USERR3
 40
0.0
  9
$USERR4
 40
0.0
  9
$USERR5
 40
0.0
  9
$WORLDVIEW
 70
               1
  9
$SHADEDGE
 70
               3
  9
$SHADEDIF
 70
              70
  9
$TILEMODE
 70
               1
  9
$MAXACTVP
 70
              16
  9
$PINSBASE
 10
0.0
 20
0.0
 30
0.0
  9
$PLIMCHECK
 70
               0
  9
$PEXTMIN
 10
1.0000000000000000E+20
 20
1.0000000000000000E+20
 30
1.0000000000000000E+20
  9
$PEXTMAX
 10
-1.0000000000000000E+20
 20
-1.0000000000000000E+20
 30
-1.0000000000000000E+20
  9
$PLIMMIN
 10
0.0
 20
0.0
  9
$PLIMMAX
 10
12.0
 20
9.0
  9
$UNITMODE
 70
               0
  9
$VISRETAIN
 70
               0
  9
$PLINEGEN
 70
               1
  9
$PSLTSCALE
 70
               0
  9
$TREEDEPTH
 70
            3020
  9
$PICKSTYLE
 70
               1
  9
$CMLSTYLE
  2
Standard
  9
$CMLJUST
 70
               0
  9
$CMLSCALE
 40
1.0
  9
$SAVEIMAGES
 70
               0
  0
ENDSEC
  0
SECTION
  2
CLASSES
  0
CLASS
  1
LWPOLYLINE
  2
AcDbPolyline
  3
"AutoCAD"
 90
        0
280
               0
281
               1
  0
CLASS
  1
IMAGE
  2
AcDbRasterImage
  3
ISM
 90
      127
280
               0
281
               1
  0
CLASS
  1
OLE2FRAME
  2
AcDbOle2Frame
  3
""
 90
        0
280
               0
281
               1
  0
CLASS
  1
HATCH
  2
AcDbHatch
  3
"ACAD_SEDONA"
 90
        0
280
               0
281
               1
  0
CLASS
  1
DICTIONARYVAR
  2
AcDbDictionaryVar
  3
"AutoCAD"
 90
        0
280
               0
281
               0
  0
CLASS
  1
RASTERVARIABLES
  2
AcDbRasterVariables
  3
ISM
 90
        0
280
               0
281
               0
  0
CLASS
  1
IMAGEDEF
  2
AcDbRasterImageDef
  3
ISM
 90
        0
280
               0
281
               0
  0
CLASS
  1
IMAGEDEF_REACTOR
  2
AcDbRasterImageDefReactor
  3
ISM
 90
        1
280
               0
281
               0
  0
CLASS
  1
IDBUFFER
  2
AcDbIdBuffer
  3
"Acad"
 90
        0
280
               0
281
               0
  0
CLASS
  1
SPATIAL_FILTER
  2
AcDbSpatialFilter
  3
"Acad"
 90
        0
280
               0
281
               0
  0
CLASS
  1
XRECORD
  2
AcDbXrecord
  3
"<Built In>"
 90
        0
280
               0
281
               0
  0
CLASS
  1
SORTENTSTABLE
  2
AcDbSortentsTable
  3
"AutoCAD"
 90
        0
280
               0
281
               0
  0
CLASS
  1
LAYER_INDEX
  2
AcDbLayerIndex
  3
"Acad"
 90
        0
280
               0
281
               0
  0
CLASS
  1
SPATIAL_INDEX
  2
AcDbSpatialIndex
  3
"Acad"
 90
        0
280
               0
281
               0
  0
CLASS
  1
OBJECT_PTR
  2
CAseDLPNTableRecord
  3
"ASE-LPNTableRecord"
 90
        1
280
               0
281
               0
  0
CLASS
  1
LAYOUT
  2
AcDbLayout
  3
"AutoCAD 2000"
 90
        1
280
               0
281
               0
  0
CLASS
  1
PLOTSETTINGS
  2
AcDbPlotSettings
  3
"AutoCAD 2000"
 90
        1
280
               0
281
               0
  0
CLASS
  1
ACDBDICTIONARYWDFLT
  2
AcDbDictionaryWithDefault
  3
"AutoCAD 2000"
 90
        1
280
               0
281
               0
  0
CLASS
  1
ACDBPLACEHOLDER
  2
AcDbPlaceHolder
  3
"AutoCAD 2000"
 90
        1
280
               0
281
               0
  0
ENDSEC
  0
SECTION
  2
TABLES
  0
TABLE
  2
VPORT
  5
7
100
AcDbSymbolTable
 70
               1
  0
VPORT
  5
15
100
AcDbSymbolTableRecord
100
AcDbViewportTableRecord
  2
*ACTIVE
 70
               0
 10
0.0
 20
0.0
 11
1.0
 21
1.0
 12
3.4220749359859042
 22
-0.25
 13
0.0
 23
0.0
 14
1.0
 24
1.0
 15
0.0
 25
0.0
 16
0.0
 26
0.0
 36
1.0
 17
0.0
 27
0.0
 37
0.0
 40
558.52999999999997
 41
1.7320508075688772
 42
50.0
 43
0.0
 44
0.0
 50
0.0
 51
0.0
 71
               0
 72
             100
 73
               1
 74
               1
 75
               0
 76
               0
 77
               0
 78
               0
  0
ENDTAB
  0
TABLE
  2
LTYPE
  5
4
100
AcDbSymbolTable
 70
               5
  0
LTYPE
  5
11
100
AcDbSymbolTableRecord
100
AcDbLinetypeTableRecord
  2
BYBLOCK
 70
              64
  3

 72
              65
 73
               0
 40
0.0
  0
LTYPE
  5
12
100
AcDbSymbolTableRecord
100
AcDbLinetypeTableRecord
  2
BYLAYER
 70
              64
  3

 72
              65
 73
               0
 40
0.0
  0
LTYPE
  5
13
100
AcDbSymbolTableRecord
100
AcDbLinetypeTableRecord
  2
CONTINUOUS
 70
              64
  3
Solid line
 72
              65
 73
               0
 40
0.0
  0
LTYPE
  5
2F
100
AcDbSymbolTableRecord
100
AcDbLinetypeTableRecord
  2
CENTER
 70
              64
  3
Center ____ _ ____ _ ____ _ ____ _ ____ _ ____
 72
              65
 73
               4
 40
26.0
 49
20.0
 74
               0
 49
-2.0
 74
               0
 49
2.0
 74
               0
 49
-2.0
 74
               0
  0
LTYPE
  5
BD
100
AcDbSymbolTableRecord
100
AcDbLinetypeTableRecord
  2
DASHED
 70
              64
  3
Dashed __ __ __ __ __ __ __ __ __ __ __ __ __ _
 72
              65
 73
               2
 40
4.0
 49
2.0
 74
               0
 49
-2.0
 74
               0
  0
ENDTAB
  0
TABLE
  2
LAYER
  5
2
100
AcDbSymbolTable
 70
               2
  0
LAYER
  5
14
100
AcDbSymbolTableRecord
100
AcDbLayerTableRecord
  2
0
 70
               0
 62
               7
  6
CONTINUOUS
  0
LAYER
  5
1D
100
AcDbSymbolTableRecord
100
AcDbLayerTableRecord
  2
DEFPOINTS
 70
               0
 62
               7
  6
CONTINUOUS
  0
ENDTAB
  0
TABLE
  2
STYLE
  5
3
100
AcDbSymbolTable
 70
               1
  0
STYLE
  5
17
100
AcDbSymbolTableRecord
100
AcDbTextStyleTableRecord
  2
MX_NOTE_STANDARD
 70
               0
 40
0.0
 41
1.0
 50
0.0
 71
               0
 42
3.2000000476837158
  3
txt.shx
  4
extfont.shx
  0
ENDTAB
  0
TABLE
  2
VIEW
  5
5
100
AcDbSymbolTable
 70
               0
  0
ENDTAB
  0
TABLE
  2
UCS
  5
6
100
AcDbSymbolTable
 70
               0
  0
ENDTAB
  0
TABLE
  2
APPID
  5
8
100
AcDbSymbolTable
 70
               1
  0
APPID
  5
16
100
AcDbSymbolTableRecord
100
AcDbRegAppTableRecord
  2
ACAD
 70
               0
  0
ENDTAB
  0
TABLE
  2
DIMSTYLE
  5
9
100
AcDbSymbolTable
 70
               1
  0
DIMSTYLE
105
18
100
AcDbSymbolTableRecord
100
AcDbDimStyleTableRecord
  2
MXDIMSTYLE
 70
               0
  3

  4

  5

  6

  7

 40
1.0
 41
2.5
 42
1.5
 43
3.75
 44
1.5
 45
0.0
 46
0.0
 47
0.0
 48
0.0
 71
               0
 72
               0
 73
               0
 74
               0
 75
               0
 76
               0
 77
               1
 78
               8
140
3.2000000476837158
141
2.5
142
0.0
143
0.03937007874016
144
1.0
145
0.0
146
1.0
147
1.0
170
               0
171
               4
172
               1
173
               0
174
               0
175
               0
176
               0
177
               0
178
               0
270
               2
271
               4
272
               4
273
               2
274
               4
275
               0
280
               0
281
               0
282
               0
283
               1
284
               0
285
               0
286
               0
287
               3
288
               1
340
17
  0
ENDTAB
  0
TABLE
  2
BLOCK_RECORD
  5
1
100
AcDbSymbolTable
 70
              15
  0
BLOCK_RECORD
  5
A
100
AcDbSymbolTableRecord
100
AcDbBlockTableRecord
  2
*MODEL_SPACE
  0
BLOCK_RECORD
  5
B
100
AcDbSymbolTableRecord
100
AcDbBlockTableRecord
  2
*PAPER_SPACE
  0
BLOCK_RECORD
  5
1E
100
AcDbSymbolTableRecord
100
AcDbBlockTableRecord
  2
F18T0-1
  0
BLOCK_RECORD
  5
1F
100
AcDbSymbolTableRecord
100
AcDbBlockTableRecord
  2
F18T0-2
  0
BLOCK_RECORD
  5
20
100
AcDbSymbolTableRecord
100
AcDbBlockTableRecord
  2
F18T0-3
  0
BLOCK_RECORD
  5
21
100
AcDbSymbolTableRecord
100
AcDbBlockTableRecord
  2
F18T0-4
  0
BLOCK_RECORD
  5
22
100
AcDbSymbolTableRecord
100
AcDbBlockTableRecord
  2
F18T0-5
  0
BLOCK_RECORD
  5
23
100
AcDbSymbolTableRecord
100
AcDbBlockTableRecord
  2
F18T0-6
  0
BLOCK_RECORD
  5
24
100
AcDbSymbolTableRecord
100
AcDbBlockTableRecord
  2
F18T0-7
  0
BLOCK_RECORD
  5
25
100
AcDbSymbolTableRecord
100
AcDbBlockTableRecord
  2
F18T0-8
  0
BLOCK_RECORD
  5
26
100
AcDbSymbolTableRecord
100
AcDbBlockTableRecord
  2
F18T0-9
  0
BLOCK_RECORD
  5
27
100
AcDbSymbolTableRecord
100
AcDbBlockTableRecord
  2
F18T0-10
  0
BLOCK_RECORD
  5
28
100
AcDbSymbolTableRecord
100
AcDbBlockTableRecord
  2
F18T0-11
  0
BLOCK_RECORD
  5
29
100
AcDbSymbolTableRecord
100
AcDbBlockTableRecord
  2
F18T0-12
  0
BLOCK_RECORD
  5
2A
100
AcDbSymbolTableRecord
100
AcDbBlockTableRecord
  2
F18T0-13
  0
BLOCK_RECORD
  5
2B
100
AcDbSymbolTableRecord
100
AcDbBlockTableRecord
  2
F18T0-14
  0
BLOCK_RECORD
  5
2C
100
AcDbSymbolTableRecord
100
AcDbBlockTableRecord
  2
F18T0-15
  0
ENDTAB
  0
ENDSEC
  0
SECTION
  2
BLOCKS
  0
BLOCK
  5
D
100
AcDbEntity
  8
0
100
AcDbBlockBegin
  2
*MODEL_SPACE
 70
               0
 10
0.0
 20
0.0
 30
0.0
  3
*MODEL_SPACE
  1

  0
ENDBLK
  5
E
100
AcDbEntity
  8
0
100
AcDbBlockEnd
  0
BLOCK
  5
F
100
AcDbEntity
 67
               1
  8
0
100
AcDbBlockBegin
  2
*PAPER_SPACE
 70
               0
 10
0.0
 20
0.0
 30
0.0
  3
*PAPER_SPACE
  1

  0
ENDBLK
  5
10
100
AcDbEntity
 67
               1
  8
0
100
AcDbBlockEnd
  0
BLOCK
  5
2D
100
AcDbEntity
  8
0
100
AcDbBlockBegin
  2
F18T0-1
 70
               0
 10
0.0
 20
0.0
 30
0.0
  3
F18T0-1
  1

  0
LINE
  5
2E
100
AcDbEntity
  8
0
  6
CONTINUOUS
 62
               7
100
AcDbLine
 10
8.5
 20
10.499898302866427
 30
0.0
 11
18.5
 21
10.499898302866427
 31
0.0
  0
LINE
  5
30
100
AcDbEntity
  8
0
  6
CENTER
 62
               2
100
AcDbLine
 10
11.0
 20
16.699895251108615
 30
0.0
 11
16.0
 21
16.699895251108615
 31
0.0
  0
LINE
  5
31
100
AcDbEntity
  8
0
  6
CONTINUOUS
 62
               2
100
AcDbLine
 10
13.5
 20
-70.802973401235135
 30
0.0
 11
13.5
 21
65.876026863859835
 31
0.0
  0
LINE
  5
32
100
AcDbEntity
  8
0
  6
CONTINUOUS
 62
               7
100
AcDbLine
 10
8.5
 20
19.999898302866427
 30
0.0
 11
18.5
 21
19.999898302866427
 31
0.0
  0
LINE
  5
33
100
AcDbEntity
  8
0
  6
CONTINUOUS
 62
               7
100
AcDbLine
 10
11.573211669921875
 20
16.399892199350802
 30
0.0
 11
15.426788330078125
 21
16.399892199350802
 31
0.0
  0
LINE
  5
34
100
AcDbEntity
  8
0
  6
CONTINUOUS
 62
               7
100
AcDbLine
 10
11.573211669921875
 20
16.999898302866427
 30
0.0
 11
15.426788330078125
 21
16.999898302866427
 31
0.0
  0
LINE
  5
35
100
AcDbEntity
  8
0
  6
CONTINUOUS
 62
               7
100
AcDbLine
 10
18.5
 20
8.999898302866427
 30
0.0
 11
18.5
 21
19.899892199350802
 31
0.0
  0
LINE
  5
36
100
AcDbEntity
  8
0
  6
CONTINUOUS
 62
               7
100
AcDbLine
 10
8.5
 20
8.999898302866427
 30
0.0
 11
8.5
 21
19.999898302866427
 31
0.0
  0
LINE
  5
37
100
AcDbEntity
  8
0
  6
CONTINUOUS
 62
               7
100
AcDbLine
 10
4.5
 20
-3.500101697133573
 30
0.0
 11
22.5
 21
-3.500101697133573
 31
0.0
  0
LINE
  5
38
100
AcDbEntity
  8
0
  6
CONTINUOUS
 62
               7
100
AcDbLine
 10
22.5
 20
-67.000101697133573
 30
0.0
 11
22.5
 21
-53.145731579946073
 31
0.0
  0
LINE
  5
39
100
AcDbEntity
  8
0
  6
CONTINUOUS
 62
               7
100
AcDbLine
 10
4.5
 20
-67.000101697133573
 30
0.0
 11
4.5
 21
-51.566111218617948
 31
0.0
  0
LINE
  5
3A
100
AcDbEntity
  8
0
  6
CONTINUOUS
 62
               7
100
AcDbLine
 10
4.5
 20
6.499898302866427
 30
0.0
 11
22.5
 21
6.499898302866427
 31
0.0
  0
LINE
  5
3B
100
AcDbEntity
  8
0
  6
CONTINUOUS
 62
               7
100
AcDbLine
 10
4.5
 20
-56.500101697133573
 30
0.0
 11
22.5
 21
-56.500101697133573
 31
0.0
  0
LINE
  5
3C
100
AcDbEntity
  8
0
  6
CONTINUOUS
 62
               7
100
AcDbLine
 10
4.5
 20
-3.700113904164823
 30
0.0
 11
22.5
 21
-3.700113904164823
 31
0.0
  0
LINE
  5
3D
100
AcDbEntity
  8
0
  6
CONTINUOUS
 62
               7
100
AcDbLine
 10
4.5
 20
-56.300089490102323
 30
0.0
 11
22.5
 21
-56.300089490102323
 31
0.0
  0
LINE
  5
3E
100
AcDbEntity
  8
0
  6
CONTINUOUS
 62
               7
100
AcDbLine
 10
20.0
 20
-7.000101697133573
 30
0.0
 11
22.266677856445313
 21
-7.000101697133573
 31
0.0
  0
LINE
  5
3F
100
AcDbEntity
  8
0
  6
CONTINUOUS
 62
               7
100
AcDbLine
 10
20.0
 20
-13.000101697133573
 30
0.0
 11
22.266677856445313
 21
-13.000101697133573
 31
0.0
  0
LINE
  5
40
100
AcDbEntity
  8
0
  6
CONTINUOUS
 62
               7
100
AcDbLine
 10
4.5
 20
-53.000101697133573
 30
0.0
 11
7.0
 21
-53.000101697133573
 31
0.0
  0
LINE
  5
41
100
AcDbEntity
  8
0
  6
CONTINUOUS
 62
               7
100
AcDbLine
 10
4.5
 20
-47.000105511830839
 30
0.0
 11
7.0
 21
-47.000105511830839
 31
0.0
  0
LINE
  5
42
100
AcDbEntity
  8
0
  6
CONTINUOUS
 62
               7
100
AcDbLine
 10
17.0
 20
-52.00008643834451
 30
0.0
 11
17.0
 21
-56.300089490102323
 31
0.0
  0
LINE
  5
43
100
AcDbEntity
  8
0
  6
CONTINUOUS
 62
               7
100
AcDbLine
 10
10.0
 20
-8.0000864383445105
 30
0.0
 11
10.0
 21
-3.7000986453757605
 31
0.0
  0
LINE
  5
44
100
AcDbEntity
  8
0
  6
CONTINUOUS
 62
               7
100
AcDbLine
 10
7.0
 20
-11.000101697133573
 30
0.0
 11
4.5
 21
-11.000101697133573
 31
0.0
  0
LINE
  5
45
100
AcDbEntity
  8
0
  6
CONTINUOUS
 62
               7
100
AcDbLine
 10
20.0
 20
-49.000094067739042
 30
0.0
 11
22.5
 21
-49.000094067739042
 31
0.0
  0
LINE
  5
46
100
AcDbEntity
  8
0
  6
CONTINUOUS
 62
               7
100
AcDbLine
 10
4.5
 20
-54.300089490102323
 30
0.0
 11
17.0
 21
-54.300089490102323
 31
0.0
  0
LINE
  5
47
100
AcDbEntity
  8
0
  6
CONTINUOUS
 62
               7
100
AcDbLine
 10
10.0
 20
-5.700113904164823
 30
0.0
 11
22.5
 21
-5.700113904164823
 31
0.0
  0
LINE
  5
48
100
AcDbEntity
  8
0
  6
CONTINUOUS
 62
               7
100
AcDbLine
 10
21.060658523992061
 20
-11.060765395456542
 30
0.0
 11
18.93933239768694
 21
-8.9394480310397739
 31
0.0
  0
LINE
  5
49
100
AcDbEntity
  8
0
  6
CONTINUOUS
 62
               7
100
AcDbLine
 10
8.0606543225185305
 20
-9.060752024135013
 30
0.0
 11
5.9393417042629153
 21
-6.9394240278810457
 31
0.0
  0
LINE
  5
4A
100
AcDbEntity
  8
0
  6
CONTINUOUS
 62
               7
100
AcDbLine
 10
5.9393418862595695
 20
-9.0607515326208272
 30
0.0
 11
8.0606643392815727
 21
-6.9394333711332479
 31
0.0
  0
LINE
  5
4B
100
AcDbEntity
  8
0
  6
CONTINUOUS
 62
               7
100
AcDbLine
 10
18.93934845485478
 20
-11.06073745028425
 30
0.0
 11
21.060677702806288
 21
-8.9394259049122411
 31
0.0
  0
LINE
  5
4C
100
AcDbEntity
  8
0
  6
CONTINUOUS
 62
               7
100
AcDbLine
 10
5.0
 20
-67.500101697133573
 30
0.0
 11
22.0
 21
-67.500101697133573
 31
0.0
  0
LINE
  5
4D
100
AcDbEntity
  8
0
  6
CONTINUOUS
 62
               7
100
AcDbLine
 10
-3.5
 20
-66.000101697133573
 30
0.0
 11
4.5
 21
-66.000101697133573
 31
0.0
  0
LINE
  5
4E
100
AcDbEntity
  8
0
  6
CONTINUOUS
 62
               7
100
AcDbLine
 10
-3.5
 20
5.9998830440773645
 30
0.0
 11
4.5
 21
5.9998830440773645
 31
0.0
  0
LINE
  5
4F
100
AcDbEntity
  8
0
  6
CONTINUOUS
 62
               7
100
AcDbLine
 10
30.5
 20
-66.000101697133573
 30
0.0
 11
30.5
 21
5.999898302866427
 31
0.0
  0
LINE
  5
50
100
AcDbEntity
  8
0
  6
CONTINUOUS
 62
               7
100
AcDbLine
 10
-3.5
 20
-66.000101697133573
 30
0.0
 11
-3.5
 21
5.999898302866427
 31
0.0
  0
LINE
  5
51
100
AcDbEntity
  8
0
  6
CONTINUOUS
 62
               7
100
AcDbLine
 10
22.5
 20
-66.000101697133573
 30
0.0
 11
30.5
 21
-66.000101697133573
 31
0.0
  0
LINE
  5
52
100
AcDbEntity
  8
0
  6
CONTINUOUS
 62
               7
100
AcDbLine
 10
22.5
 20
5.9998830440773645
 30
0.0
 11
30.5
 21
5.9998830440773645
 31
0.0
  0
LINE
  5
53
100
AcDbEntity
  8
0
  6
CENTER
 62
               2
100
AcDbLine
 10
-3.25
 20
-60.000101697133573
 30
0.0
 11
3.25
 21
-60.000101697133573
 31
0.0
  0
LINE
  5
54
100
AcDbEntity
  8
0
  6
CENTER
 62
               2
100
AcDbLine
 10
-3.25
 20
-0.0001169559226355
 30
0.0
 11
3.25
 21
-0.0001169559226355
 31
0.0
  0
LINE
  5
55
100
AcDbEntity
  8
0
  6
CENTER
 62
               2
100
AcDbLine
 10
0.0
 20
-63.250101697133573
 30
0.0
 11
0.0
 21
-56.750101697133573
 31
0.0
  0
LINE
  5
56
100
AcDbEntity
  8
0
  6
CENTER
 62
               2
100
AcDbLine
 10
0.0
 20
-3.250101697133573
 30
0.0
 11
0.0
 21
3.249898302866427
 31
0.0
  0
LINE
  5
57
100
AcDbEntity
  8
0
  6
CONTINUOUS
 62
               7
100
AcDbLine
 10
18.939349338372267
 20
-53.060762185515046
 30
0.0
 11
21.060654564521428
 21
-50.939448197527668
 31
0.0
  0
LINE
  5
58
100
AcDbEntity
  8
0
  6
CONTINUOUS
 62
               7
100
AcDbLine
 10
21.060635142393039
 20
-53.060748179872348
 30
0.0
 11
18.939326697609431
 21
-50.939437589332442
 31
0.0
  0
LINE
  5
59
100
AcDbEntity
  8
0
  6
CONTINUOUS
 62
               7
100
AcDbLine
 10
5.9393477157369716
 20
-51.060741257271047
 30
0.0
 11
8.0606622191289716
 21
-48.939412448755206
 31
0.0
  0
LINE
  5
5A
100
AcDbEntity
  8
0
  6
CONTINUOUS
 62
               7
100
AcDbLine
 10
8.0606631628916148
 20
-51.060755954866977
 30
0.0
 11
5.9393450014040354
 21
-48.939433323031039
 31
0.0
  0
LINE
  5
5B
100
AcDbEntity
  8
0
  6
CONTINUOUS
 62
               7
100
AcDbLine
 10
22.5
 20
-50.854441296742948
 30
0.0
 11
22.5
 21
-11.566156994985135
 31
0.0
  0
LINE
  5
5C
100
AcDbEntity
  8
0
  6
CONTINUOUS
 62
               7
100
AcDbLine
 10
22.5
 20
-8.4340158817038855
 30
0.0
 11
22.5
 21
6.499898302866427
 31
0.0
  0
LINE
  5
5D
100
AcDbEntity
  8
0
  6
CONTINUOUS
 62
               7
100
AcDbLine
 10
4.5
 20
-6.8544565555320105
 30
0.0
 11
4.5
 21
6.499898302866427
 31
0.0
  0
LINE
  5
5E
100
AcDbEntity
  8
0
  6
CONTINUOUS
 62
               7
100
AcDbLine
 10
4.5
 20
-48.434065472768339
 30
0.0
 11
4.5
 21
-9.145731579946073
 31
0.0
  0
CIRCLE
  5
5F
100
AcDbEntity
  8
0
  6
CONTINUOUS
 62
               7
100
AcDbCircle
 10
13.5
 20
16.699895251108615
 30
0.0
 40
2.0
  0
CIRCLE
  5
60
100
AcDbEntity
  8
0
  6
CONTINUOUS
 62
               7
100
AcDbCircle
 10
13.5
 20
16.699895251108615
 30
0.0
 40
1.9499998092651367
  0
CIRCLE
  5
61
100
AcDbEntity
  8
0
  6
CONTINUOUS
 62
               7
100
AcDbCircle
 10
7.0
 20
-8.0000864383445105
 30
0.0
 40
2.75
  0
ARC
  5
62
100
AcDbEntity
  8
0
  6
CONTINUOUS
 62
               7
100
AcDbCircle
 10
20.0
 20
-10.00008643834451
 30
0.0
 40
3.0
100
AcDbArc
 50
89.999982013910454
 51
269.99994604173139
  0
ARC
  5
63
100
AcDbEntity
  8
0
  6
CONTINUOUS
 62
               7
100
AcDbCircle
 10
7.0
 20
-50.000090253041776
 30
0.0
 40
3.0
100
AcDbArc
 50
269.99996334457541
 51
89.999982013910454
  0
ARC
  5
64
100
AcDbEntity
  8
0
  6
CONTINUOUS
 62
               7
100
AcDbCircle
 10
7.0
 20
-8.0000864383445105
 30
0.0
 40
3.0
100
AcDbArc
 50
270.00001798608872
 51
0.00001366037834
  0
ARC
  5
65
100
AcDbEntity
  8
0
  6
CONTINUOUS
 62
               7
100
AcDbCircle
 10
20.0
 20
-52.00008643834451
 30
0.0
 40
3.0
100
AcDbArc
 50
89.999982013910454
 51
179.99996402782091
  0
CIRCLE
  5
66
100
AcDbEntity
  8
0
  6
CONTINUOUS
 62
               7
100
AcDbCircle
 10
20.000015258789063
 20
-10.00008643834451
 30
0.0
 40
2.75
  0
ARC
  5
67
100
AcDbEntity
  8
0
  6
CONTINUOUS
 62
               7
100
AcDbCircle
 10
5.0
 20
-67.00008643834451
 30
0.0
 40
0.5
100
AcDbArc
 50
180.0000359721783
 51
269.99996334457541
  0
ARC
  5
68
100
AcDbEntity
  8
0
  6
CONTINUOUS
 62
               7
100
AcDbCircle
 10
22.0
 20
-67.000101697133573
 30
0.0
 40
0.5
100
AcDbArc
 50
270.00001798608872
 51
0.00001366037834
  0
CIRCLE
  5
69
100
AcDbEntity
  8
0
  6
CONTINUOUS
 62
               7
100
AcDbCircle
 10
0.0
 20
-60.000101697133573
 30
0.0
 40
2.25
  0
CIRCLE
  5
6A
100
AcDbEntity
  8
0
  6
CONTINUOUS
 62
               7
100
AcDbCircle
 10
0.0
 20
-0.000101697133573
 30
0.0
 40
2.25
  0
CIRCLE
  5
6B
100
AcDbEntity
  8
0
  6
CONTINUOUS
 62
               7
100
AcDbCircle
 10
20.0
 20
-52.00008643834451
 30
0.0
 40
2.75
  0
CIRCLE
  5
6C
100
AcDbEntity
  8
0
  6
CONTINUOUS
 62
               7
100
AcDbCircle
 10
7.0000152587890625
 20
-50.00008643834451
 30
0.0
 40
2.75
  0
ARC
  5
6D
100
AcDbEntity
  8
0
  6
CONTINUOUS
 62
               7
100
AcDbCircle
 10
19.500045776367188
 20
9.499959338022677
 30
0.0
 40
2.5000734329223633
100
AcDbArc
 50
191.53802865027069
 51
319.45917312476763
  0
LINE
  5
6E
100
AcDbEntity
  8
0
  6
CONTINUOUS
 62
               7
100
AcDbLine
 10
6.5
 20
8.999898302866427
 30
0.0
 11
20.5
 21
8.999898302866427
 31
0.0
  0
LINE
  5
6F
100
AcDbEntity
  8
0
  6
CONTINUOUS
 62
               7
100
AcDbLine
 10
20.499994339160821
 20
8.999894467984177
 30
0.0
 11
22.499994268182263
 21
6.4998945567073747
 31
0.0
  0
LINE
  5
70
100
AcDbEntity
  8
0
  6
CONTINUOUS
 62
               7
100
AcDbLine
 10
6.5000012403838241
 20
8.9999013191740005
 30
0.0
 11
4.4999971410729245
 21
6.499896195035376
 31
0.0
  0
CIRCLE
  5
71
100
AcDbEntity
  8
0
  6
CONTINUOUS
 62
               7
100
AcDbCircle
 10
20.000015258789063
 20
-10.00008643834451
 30
0.0
 40
2.9499998092651367
  0
CIRCLE
  5
72
100
AcDbEntity
  8
0
  6
CONTINUOUS
 62
               7
100
AcDbCircle
 10
7.0000152587890625
 20
-50.00008643834451
 30
0.0
 40
2.9499998092651367
  0
LINE
  5
73
100
AcDbEntity
  8
0
  6
CONTINUOUS
 62
               7
100
AcDbLine
 10
18.5
 20
19.899892199350802
 30
0.0
 11
18.5
 21
19.999898302866427
 31
0.0
  0
LINE
  5
74
100
AcDbEntity
  8
0
  6
CONTINUOUS
 62
               4
100
AcDbLine
 10
18.5
 20
19.999898302866427
 30
0.0
 11
18.5
 21
43.999898302866427
 31
0.0
  0
LINE
  5
75
100
AcDbEntity
  8
0
  6
CONTINUOUS
 62
               4
100
AcDbLine
 10
8.5
 20
19.999898302866427
 30
0.0
 11
8.5
 21
43.999898302866427
 31
0.0
  0
LINE
  5
76
100
AcDbEntity
  8
0
  6
CONTINUOUS
 62
             200
100
AcDbLine
 10
9.5000206336117117
 20
67.44572689217523
 30
0.0
 11
13.5
 21
68.517518142123322
 31
0.0
  0
LINE
  5
77
100
AcDbEntity
  8
0
  6
CONTINUOUS
 62
             200
100
AcDbLine
 10
9.5000253267935477
 20
66.410451982678865
 30
0.0
 11
13.5
 21
67.482241975092677
 31
0.0
  0
ARC
  5
78
100
AcDbEntity
  8
0
  6
CONTINUOUS
 62
               4
100
AcDbCircle
 10
9.0500030517578125
 20
52.49991356165549
 30
0.0
 40
0.5
100
AcDbArc
 50
89.999982013910454
 51
179.99996402782091
  0
ARC
  5
79
100
AcDbEntity
  8
0
  6
CONTINUOUS
 62
               4
100
AcDbCircle
 10
17.949996948242188
 20
52.49991356165549
 30
0.0
 40
0.5
100
AcDbArc
 50
359.99994535848583
 51
89.999982013910454
  0
LINE
  5
7A
100
AcDbEntity
  8
0
  6
CONTINUOUS
 62
               4
100
AcDbLine
 10
17.5
 20
57.499898302866427
 30
0.0
 11
17.5
 21
63.999898302866427
 31
0.0
  0
LINE
  5
7B
100
AcDbEntity
  8
0
  6
CONTINUOUS
 62
               4
100
AcDbLine
 10
9.5
 20
57.499898302866427
 30
0.0
 11
9.5
 21
63.999898302866427
 31
0.0
  0
LINE
  5
7C
100
AcDbEntity
  8
0
  6
CONTINUOUS
 62
               4
100
AcDbLine
 10
8.600006103515625
 20
57.499898302866427
 30
0.0
 11
8.600006103515625
 21
63.999898302866427
 31
0.0
  0
LINE
  5
7D
100
AcDbEntity
  8
0
  6
CONTINUOUS
 62
               4
100
AcDbLine
 10
18.400009155273438
 20
57.499898302866427
 30
0.0
 11
18.400009155273438
 21
63.999898302866427
 31
0.0
  0
LINE
  5
7E
100
AcDbEntity
  8
0
  6
CONTINUOUS
 62
               4
100
AcDbLine
 10
10.784988403320313
 20
63.999898302866427
 30
0.0
 11
10.784988403320313
 21
66.754765856577365
 31
0.0
  0
LINE
  5
7F
100
AcDbEntity
  8
0
  6
CONTINUOUS
 62
               4
100
AcDbLine
 10
12.215011596679688
 20
63.999898302866427
 30
0.0
 11
12.215011596679688
 21
67.137944567514865
 31
0.0
  0
LINE
  5
80
100
AcDbEntity
  8
0
  6
CONTINUOUS
 62
               4
100
AcDbLine
 10
11.099990844726563
 20
76.999898302866427
 30
0.0
 11
11.899993896484375
 21
76.999898302866427
 31
0.0
  0
LINE
  5
81
100
AcDbEntity
  8
0
  6
CONTINUOUS
 62
               4
100
AcDbLine
 10
11.099990844726563
 20
71.999898302866427
 30
0.0
 11
11.099990844726563
 21
76.999898302866427
 31
0.0
  0
LINE
  5
82
100
AcDbEntity
  8
0
  6
CONTINUOUS
 62
               4
100
AcDbLine
 10
11.900009155273437
 20
71.999898302866427
 30
0.0
 11
11.900009155273437
 21
76.999898302866427
 31
0.0
  0
LINE
  5
83
100
AcDbEntity
  8
0
  6
CONTINUOUS
 62
               4
100
AcDbLine
 10
10.784988403320313
 20
71.999898302866427
 30
0.0
 11
12.214996337890625
 21
71.999898302866427
 31
0.0
  0
LINE
  5
84
100
AcDbEntity
  8
0
  6
CONTINUOUS
 62
               4
100
AcDbLine
 10
10.784988403320313
 20
67.790044176889865
 30
0.0
 11
10.784988403320313
 21
71.999898302866427
 31
0.0
  0
LINE
  5
85
100
AcDbEntity
  8
0
  6
CONTINUOUS
 62
               4
100
AcDbLine
 10
12.215011596679688
 20
68.173222887827365
 30
0.0
 11
12.215011596679688
 21
71.999898302866427
 31
0.0
  0
LINE
  5
86
100
AcDbEntity
  8
0
  6
CONTINUOUS
 62
               4
100
AcDbLine
 10
17.550003051757813
 20
56.499898302866427
 30
0.0
 11
17.550003051757813
 21
57.499898302866427
 31
0.0
  0
LINE
  5
87
100
AcDbEntity
  8
0
  6
CONTINUOUS
 62
               4
100
AcDbLine
 10
9.4499969482421875
 20
56.499898302866427
 30
0.0
 11
9.4499969482421875
 21
57.499898302866427
 31
0.0
  0
LINE
  5
88
100
AcDbEntity
  8
0
  6
CONTINUOUS
 62
               4
100
AcDbLine
 10
9.4499969482421875
 20
55.499898302866427
 30
0.0
 11
10.000015258789062
 21
55.499898302866427
 31
0.0
  0
LINE
  5
89
100
AcDbEntity
  8
0
  6
CONTINUOUS
 62
               4
100
AcDbLine
 10
9.4499969482421875
 20
56.499898302866427
 30
0.0
 11
10.000015258789062
 21
56.499898302866427
 31
0.0
  0
LINE
  5
8A
100
AcDbEntity
  8
0
  6
CONTINUOUS
 62
               4
100
AcDbLine
 10
17.000015258789063
 20
55.499898302866427
 30
0.0
 11
17.550003051757813
 21
55.499898302866427
 31
0.0
  0
LINE
  5
8B
100
AcDbEntity
  8
0
  6
CONTINUOUS
 62
               4
100
AcDbLine
 10
17.000015258789063
 20
56.499898302866427
 30
0.0
 11
17.550003051757813
 21
56.499898302866427
 31
0.0
  0
LINE
  5
8C
100
AcDbEntity
  8
0
  6
CONTINUOUS
 62
               4
100
AcDbLine
 10
17.000015258789063
 20
57.499898302866427
 30
0.0
 11
18.449996948242188
 21
57.499898302866427
 31
0.0
  0
LINE
  5
8D
100
AcDbEntity
  8
0
  6
CONTINUOUS
 62
               4
100
AcDbLine
 10
8.600006103515625
 20
63.999898302866427
 30
0.0
 11
18.400009155273438
 21
63.999898302866427
 31
0.0
  0
LINE
  5
8E
100
AcDbEntity
  8
0
  6
CONTINUOUS
 62
               4
100
AcDbLine
 10
10.000015258789062
 20
62.499898302866427
 30
0.0
 11
17.000015258789063
 21
62.499898302866427
 31
0.0
  0
LINE
  5
8F
100
AcDbEntity
  8
0
  6
CONTINUOUS
 62
               4
100
AcDbLine
 10
10.000015258789062
 20
57.056050646616427
 30
0.0
 11
17.000015258789063
 21
57.056050646616427
 31
0.0
  0
LINE
  5
90
100
AcDbEntity
  8
0
  6
CONTINUOUS
 62
               4
100
AcDbLine
 10
10.000015258789062
 20
53.498372423960177
 30
0.0
 11
17.000015258789063
 21
53.498372423960177
 31
0.0
  0
LINE
  5
91
100
AcDbEntity
  8
0
  6
CONTINUOUS
 62
               4
100
AcDbLine
 10
10.0
 20
53.498357165171115
 30
0.0
 11
10.0
 21
63.999898302866427
 31
0.0
  0
LINE
  5
92
100
AcDbEntity
  8
0
  6
CONTINUOUS
 62
               4
100
AcDbLine
 10
17.0
 20
53.498357165171115
 30
0.0
 11
17.0
 21
63.999898302866427
 31
0.0
  0
LINE
  5
93
100
AcDbEntity
  8
0
  6
CONTINUOUS
 62
               4
100
AcDbLine
 10
17.550003051757813
 20
52.999898302866427
 30
0.0
 11
17.550003051757813
 21
55.499898302866427
 31
0.0
  0
LINE
  5
94
100
AcDbEntity
  8
0
  6
CONTINUOUS
 62
               4
100
AcDbLine
 10
9.4499969482421875
 20
52.999898302866427
 30
0.0
 11
9.4499969482421875
 21
55.499898302866427
 31
0.0
  0
LINE
  5
95
100
AcDbEntity
  8
0
  6
CONTINUOUS
 62
               4
100
AcDbLine
 10
8.5500030517578125
 20
57.499898302866427
 30
0.0
 11
10.000015258789062
 21
57.499898302866427
 31
0.0
  0
LINE
  5
96
100
AcDbEntity
  8
0
  6
CONTINUOUS
 62
               4
100
AcDbLine
 10
18.449996948242188
 20
43.999898302866427
 30
0.0
 11
18.449996948242188
 21
57.499898302866427
 31
0.0
  0
LINE
  5
97
100
AcDbEntity
  8
0
  6
CONTINUOUS
 62
             200
100
AcDbLine
 10
18.449996948242188
 20
48.49991356165549
 30
0.0
 11
8.5500030517578125
 21
48.49991356165549
 31
0.0
  0
LINE
  5
98
100
AcDbEntity
  8
0
  6
CONTINUOUS
 62
               4
100
AcDbLine
 10
18.000015258789063
 20
52.99991356165549
 30
0.0
 11
9.0000152587890625
 21
52.99991356165549
 31
0.0
  0
LINE
  5
99
100
AcDbEntity
  8
0
  6
CONTINUOUS
 62
               4
100
AcDbLine
 10
8.5500030517578125
 20
43.999898302866427
 30
0.0
 11
8.5500030517578125
 21
57.499898302866427
 31
0.0
  0
LINE
  5
9A
100
AcDbEntity
  8
0
  6
CONTINUOUS
 62
               4
100
AcDbLine
 10
8.5000152587890625
 20
43.99991356165549
 30
0.0
 11
18.500015258789063
 21
43.99991356165549
 31
0.0
  0
ENDBLK
  5
9B
100
AcDbEntity
  8
0
100
AcDbBlockEnd
  0
BLOCK
  5
9C
100
AcDbEntity
  8
0
100
AcDbBlockBegin
  2
F18T0-2
 70
               0
 10
0.0
 20
0.0
 30
0.0
  3
F18T0-2
  1

  0
LINE
  5
9D
100
AcDbEntity
  8
0
  6
CONTINUOUS
 62
               7
100
AcDbLine
 10
5.0
 20
30.999916596509792
 30
0.0
 11
15.0
 21
30.999916596509792
 31
0.0
  0
LINE
  5
9E
100
AcDbEntity
  8
0
  6
CONTINUOUS
 62
               4
100
AcDbLine
 10
5.0000152587890625
 20
64.499931855298854
 30
0.0
 11
15.000015258789063
 21
64.499931855298854
 31
0.0
  0
LINE
  5
9F
100
AcDbEntity
  8
0
  6
CONTINUOUS
 62
               7
100
AcDbLine
 10
5.0
 20
40.499916596509792
 30
0.0
 11
15.0
 21
40.499916596509792
 31
0.0
  0
LINE
  5
A0
100
AcDbEntity
  8
0
  6
CONTINUOUS
 62
               4
100
AcDbLine
 10
5.0500030517578125
 20
64.499916596509792
 30
0.0
 11
5.0500030517578125
 21
84.499916596509792
 31
0.0
  0
LINE
  5
A1
100
AcDbEntity
  8
0
  6
CONTINUOUS
 62
               4
100
AcDbLine
 10
14.949996948242188
 20
64.499916596509792
 30
0.0
 11
14.949996948242188
 21
84.499916596509792
 31
0.0
  0
LINE
  5
A2
100
AcDbEntity
  8
0
  6
CONTINUOUS
 62
               4
100
AcDbLine
 10
11.284988403320313
 20
84.499916596509792
 30
0.0
 11
11.284988403320313
 21
88.326592011548854
 31
0.0
  0
LINE
  5
A3
100
AcDbEntity
  8
0
  6
CONTINUOUS
 62
               4
100
AcDbLine
 10
12.715011596679687
 20
84.499916596509792
 30
0.0
 11
12.715011596679687
 21
88.709755463697292
 31
0.0
  0
LINE
  5
A4
100
AcDbEntity
  8
0
  6
CONTINUOUS
 62
               4
100
AcDbLine
 10
11.599990844726563
 20
92.499916596509792
 30
0.0
 11
11.599990844726563
 21
97.499916596509792
 31
0.0
  0
LINE
  5
A5
100
AcDbEntity
  8
0
  6
CONTINUOUS
 62
               4
100
AcDbLine
 10
12.400009155273438
 20
92.499916596509792
 30
0.0
 11
12.400009155273438
 21
97.499916596509792
 31
0.0
  0
LINE
  5
A6
100
AcDbEntity
  8
0
  6
CONTINUOUS
 62
               4
100
AcDbLine
 10
11.599990844726563
 20
97.499916596509792
 30
0.0
 11
12.399993896484375
 21
97.499916596509792
 31
0.0
  0
LINE
  5
A7
100
AcDbEntity
  8
0
  6
CONTINUOUS
 62
               4
100
AcDbLine
 10
11.284988403320313
 20
92.499916596509792
 30
0.0
 11
12.714996337890625
 21
92.499916596509792
 31
0.0
  0
LINE
  5
A8
100
AcDbEntity
  8
0
  6
CONTINUOUS
 62
               4
100
AcDbLine
 10
11.284988403320313
 20
89.361870331861354
 30
0.0
 11
11.284988403320313
 21
92.499916596509792
 31
0.0
  0
LINE
  5
A9
100
AcDbEntity
  8
0
  6
CONTINUOUS
 62
               4
100
AcDbLine
 10
12.715011596679687
 20
89.745033784009792
 30
0.0
 11
12.715011596679687
 21
92.499916596509792
 31
0.0
  0
LINE
  5
AA
100
AcDbEntity
  8
0
  6
CONTINUOUS
 62
               4
100
AcDbLine
 10
5.0500030517578125
 20
84.499916596509792
 30
0.0
 11
14.949996948242188
 21
84.499916596509792
 31
0.0
  0
LINE
  5
AB
100
AcDbEntity
  8
0
  6
CONTINUOUS
 62
               7
100
AcDbLine
 10
15.0
 20
29.499916596509792
 30
0.0
 11
15.0
 21
40.499916596509792
 31
0.0
  0
LINE
  5
AC
100
AcDbEntity
  8
0
  6
CONTINUOUS
 62
               7
100
AcDbLine
 10
5.0
 20
29.499916596509792
 30
0.0
 11
5.0
 21
40.499916596509792
 31
0.0
  0
LINE
  5
AD
100
AcDbEntity
  8
0
  6
CONTINUOUS
 62
               7
100
AcDbLine
 10
19.0
 20
-46.500083403490208
 30
0.0
 11
19.0
 21
-36.500083403490208
 31
0.0
  0
LINE
  5
AE
100
AcDbEntity
  8
0
  6
CONTINUOUS
 62
               7
100
AcDbLine
 10
1.0
 20
-46.500083403490208
 30
0.0
 11
1.0
 21
-36.500083403490208
 31
0.0
  0
LINE
  5
AF
100
AcDbEntity
  8
0
  6
CONTINUOUS
 62
               7
100
AcDbLine
 10
1.0
 20
26.999916596509792
 30
0.0
 11
19.0
 21
26.999916596509792
 31
0.0
  0
LINE
  5
B0
100
AcDbEntity
  8
0
  6
CONTINUOUS
 62
               7
100
AcDbLine
 10
1.5
 20
-47.000083403490208
 30
0.0
 11
18.5
 21
-47.000083403490208
 31
0.0
  0
LINE
  5
B1
100
AcDbEntity
  8
0
  6
CONTINUOUS
 62
               7
100
AcDbLine
 10
7.1999969482421875
 20
-47.000083403490208
 30
0.0
 11
7.1999969482421875
 21
-44.500083403490208
 31
0.0
  0
LINE
  5
B2
100
AcDbEntity
  8
0
  6
CONTINUOUS
 62
               7
100
AcDbLine
 10
1.0
 20
-44.500083403490208
 30
0.0
 11
7.1999969482421875
 21
-44.500083403490208
 31
0.0
  0
LINE
  5
B3
100
AcDbEntity
  8
0
  6
CONTINUOUS
 62
               7
100
AcDbLine
 10
2.75
 20
-46.500083403490208
 30
0.0
 11
5.25
 21
-46.500083403490208
 31
0.0
  0
LINE
  5
B4
100
AcDbEntity
  8
0
  6
CONTINUOUS
 62
               7
100
AcDbLine
 10
1.25
 20
-45.000083403490208
 30
0.0
 11
1.25
 21
-44.500083403490208
 31
0.0
  0
LINE
  5
B5
100
AcDbEntity
  8
0
  6
CONTINUOUS
 62
               7
100
AcDbLine
 10
6.75
 20
-45.000083403490208
 30
0.0
 11
6.75
 21
-44.500083403490208
 31
0.0
  0
LINE
  5
B6
100
AcDbEntity
  8
0
  6
CONTINUOUS
 62
               2
100
AcDbLine
 10
10.0
 20
-62.302955107591771
 30
0.0
 11
10.0
 21
86.254982514478542
 31
0.0
  0
LINE
  5
B7
100
AcDbEntity
  8
0
  6
CONTINUOUS
 62
               2
100
AcDbLine
 10
20.0
 20
-9.500087218187474
 30
0.0
 11
-1.171478271484375
 21
-9.500087218187474
 31
0.0
  0
LINE
  5
B8
100
AcDbEntity
  8
0
  6
CONTINUOUS
 62
               7
100
AcDbLine
 10
19.0
 20
17.499916596509792
 30
0.0
 11
19.0
 21
26.999916596509792
 31
0.0
  0
LINE
  5
B9
100
AcDbEntity
  8
0
  6
CONTINUOUS
 62
               7
100
AcDbLine
 10
1.0
 20
17.499916596509792
 30
0.0
 11
1.0
 21
26.999916596509792
 31
0.0
  0
LINE
  5
BA
100
AcDbEntity
  8
0
  6
CONTINUOUS
 62
               2
100
AcDbLine
 10
11.5
 20
21.499901337720729
 30
0.0
 11
8.5
 21
21.499901337720729
 31
0.0
  0
LINE
  5
BB
100
AcDbEntity
  8
0
  6
CONTINUOUS
 62
               7
100
AcDbLine
 10
0.0
 20
-36.500083403490208
 30
0.0
 11
0.0
 21
17.499916596509792
 31
0.0
  0
LINE
  5
BC
100
AcDbEntity
  8
0
  6
CONTINUOUS
 62
               7
100
AcDbLine
 10
20.0
 20
-36.500083403490208
 30
0.0
 11
20.0
 21
17.499916596509792
 31
0.0
  0
LINE
  5
BE
100
AcDbEntity
  8
0
  6
DASHED
 62
               4
100
AcDbLine
 10
21.600006103515625
 20
-59.400077299974583
 30
0.0
 11
21.600006103515625
 21
9.9999013377207291
 31
0.0
  0
LINE
  5
BF
100
AcDbEntity
  8
0
  6
DASHED
 62
               4
100
AcDbLine
 10
20.0
 20
9.9999013377207291
 30
0.0
 11
21.600006103515625
 21
9.9999013377207291
 31
0.0
  0
LINE
  5
C0
100
AcDbEntity
  8
0
  6
DASHED
 62
               4
100
AcDbLine
 10
1.0
 20
-59.400077299974583
 30
0.0
 11
20.0
 21
-59.400077299974583
 31
0.0
  0
LINE
  5
C1
100
AcDbEntity
  8
0
  6
DASHED
 62
               4
100
AcDbLine
 10
1.0
 20
-61.000083403490208
 30
0.0
 11
20.0
 21
-61.000083403490208
 31
0.0
  0
LINE
  5
C2
100
AcDbEntity
  8
0
  6
DASHED
 62
               4
100
AcDbLine
 10
1.0
 20
-59.400077299974583
 30
0.0
 11
1.0
 21
-61.000083403490208
 31
0.0
  0
LINE
  5
C3
100
AcDbEntity
  8
0
  6
DASHED
 62
               4
100
AcDbLine
 10
20.0
 20
-36.500083403490208
 30
0.0
 11
20.0
 21
-61.000083403490208
 31
0.0
  0
LINE
  5
C4
100
AcDbEntity
  8
0
  6
DASHED
 62
               4
100
AcDbLine
 10
-2.281524658203125
 20
3.9999165965097916
 30
0.0
 11
0.0
 21
3.9999165965097916
 31
0.0
  0
LINE
  5
C5
100
AcDbEntity
  8
0
  6
DASHED
 62
               4
100
AcDbLine
 10
-2.281524658203125
 20
-4.0000795887929428
 30
0.0
 11
0.0
 21
-4.0000795887929428
 31
0.0
  0
LINE
  5
C6
100
AcDbEntity
  8
0
  6
CONTINUOUS
 62
               4
100
AcDbLine
 10
9.4000091552734375
 20
74.999916596509792
 30
0.0
 11
10.600006103515625
 21
74.999916596509792
 31
0.0
  0
LINE
  5
C7
100
AcDbEntity
  8
0
  6
CONTINUOUS
 62
               4
100
AcDbLine
 10
10.600006103515625
 20
77.999901337720729
 30
0.0
 11
10.600006103515625
 21
74.999901337720729
 31
0.0
  0
LINE
  5
C8
100
AcDbEntity
  8
0
  6
CONTINUOUS
 62
               4
100
AcDbLine
 10
9.4000091552734375
 20
77.999901337720729
 30
0.0
 11
9.4000091552734375
 21
74.999901337720729
 31
0.0
  0
LINE
  5
C9
100
AcDbEntity
  8
0
  6
CONTINUOUS
 62
               4
100
AcDbLine
 10
11.100022124228531
 20
77.999904267965434
 30
0.0
 11
10.600021930613536
 21
77.499907446088315
 31
0.0
  0
LINE
  5
CA
100
AcDbEntity
  8
0
  6
CONTINUOUS
 62
               4
100
AcDbLine
 10
8.9000051392009709
 20
77.999903803534124
 30
0.0
 11
9.4000058807301912
 21
77.499903483473844
 31
0.0
  0
LINE
  5
CB
100
AcDbEntity
  8
0
  6
CONTINUOUS
 62
               4
100
AcDbLine
 10
5.0500030517578125
 20
83.499916596509792
 30
0.0
 11
14.949996948242188
 21
83.499916596509792
 31
0.0
  0
LINE
  5
CC
100
AcDbEntity
  8
0
  6
CONTINUOUS
 62
               4
100
AcDbLine
 10
5.0500030517578125
 20
77.999916596509792
 30
0.0
 11
9.4000091552734375
 21
77.999916596509792
 31
0.0
  0
LINE
  5
CD
100
AcDbEntity
  8
0
  6
CONTINUOUS
 62
               4
100
AcDbLine
 10
10.600006103515625
 20
77.999916596509792
 30
0.0
 11
14.949996948242188
 21
77.999916596509792
 31
0.0
  0
LINE
  5
CE
100
AcDbEntity
  8
0
  6
DASHED
 62
               4
100
AcDbLine
 10
-2.281524658203125
 20
-15.000075774095677
 30
0.0
 11
0.0
 21
-15.000075774095677
 31
0.0
  0
LINE
  5
CF
100
AcDbEntity
  8
0
  6
DASHED
 62
               4
100
AcDbLine
 10
-2.281524658203125
 20
-23.000083403490208
 30
0.0
 11
0.0
 21
-23.000083403490208
 31
0.0
  0
ARC
  5
D0
100
AcDbEntity
  8
0
  6
CONTINUOUS
 62
               7
100
AcDbCircle
 10
1.5
 20
-46.500068144701146
 30
0.0
 40
0.5
100
AcDbArc
 50
180.0000359721783
 51
269.99996334457541
  0
ARC
  5
D1
100
AcDbEntity
  8
0
  6
CONTINUOUS
 62
               7
100
AcDbCircle
 10
18.5
 20
-46.500083403490208
 30
0.0
 40
0.5
100
AcDbArc
 50
270.00001798608872
 51
0.00001366037834
  0
ARC
  5
D2
100
AcDbEntity
  8
0
  6
CONTINUOUS
 62
               7
100
AcDbCircle
 10
16.000045776367188
 20
29.999977631666042
 30
0.0
 40
2.5000734329223633
100
AcDbArc
 50
191.53802865027069
 51
319.45926533232142
  0
ARC
  5
D3
100
AcDbEntity
  8
0
  6
CONTINUOUS
 62
               7
100
AcDbCircle
 10
5.25
 20
-45.000083403490208
 30
0.0
 40
1.5
100
AcDbArc
 50
270.00001798608872
 51
0.0000546415133601
  0
ARC
  5
D4
100
AcDbEntity
  8
0
  6
CONTINUOUS
 62
               7
100
AcDbCircle
 10
2.75
 20
-45.000083403490208
 30
0.0
 40
1.5
100
AcDbArc
 50
180.0000359721783
 51
270.00001798608872
  0
CIRCLE
  5
D5
100
AcDbEntity
  8
0
  6
CONTINUOUS
 62
               7
100
AcDbCircle
 10
10.0
 20
-9.5000910328847397
 30
0.0
 40
5.7224998474121094
  0
CIRCLE
  5
D6
100
AcDbEntity
  8
0
  6
CONTINUOUS
 62
               2
100
AcDbCircle
 10
10.0
 20
-9.5000910328847397
 30
0.0
 40
6.5784997940063477
  0
CIRCLE
  5
D7
100
AcDbEntity
  8
0
  6
CONTINUOUS
 62
               7
100
AcDbCircle
 10
10.0
 20
21.499901337720729
 30
0.0
 40
0.6000000238418579
  0
ARC
  5
D8
100
AcDbEntity
  8
0
  6
DASHED
 62
               4
100
AcDbCircle
 10
20.0
 20
-59.400077299974583
 30
0.0
 40
1.5999994277954102
100
AcDbArc
 50
270.00001798608872
 51
0.0
  0
ARC
  5
D9
100
AcDbEntity
  8
0
  6
DASHED
 62
               4
100
AcDbCircle
 10
2.4000091552734375
 20
-0.000087218187474
 30
0.0
 40
6.5
100
AcDbArc
 50
146.20571797697198
 51
213.79426472018321
  0
ARC
  5
DA
100
AcDbEntity
  8
0
  6
DASHED
 62
               4
100
AcDbCircle
 10
-2.281524658203125
 20
3.1332326365488541
 30
0.0
 40
0.8666666746139526
100
AcDbArc
 50
89.999982013910454
 51
146.20571797697198
  0
ARC
  5
DB
100
AcDbEntity
  8
0
  6
DASHED
 62
               4
100
AcDbCircle
 10
-2.281524658203125
 20
-3.133418517015599
 30
0.0
 40
0.8666666746139526
100
AcDbArc
 50
213.79433666454057
 51
270.00007262760209
  0
ARC
  5
DC
100
AcDbEntity
  8
0
  6
DASHED
 62
               4
100
AcDbCircle
 10
-2.281524658203125
 20
-15.866752104662083
 30
0.0
 40
0.8666666746139526
100
AcDbArc
 50
89.999982013910454
 51
146.20571797697198
  0
ARC
  5
DD
100
AcDbEntity
  8
0
  6
DASHED
 62
               4
100
AcDbCircle
 10
2.4000091552734375
 20
-19.000082449815892
 30
0.0
 40
6.5
100
AcDbArc
 50
146.20571797697198
 51
213.79426472018321
  0
ARC
  5
DE
100
AcDbEntity
  8
0
  6
DASHED
 62
               4
100
AcDbCircle
 10
-2.281524658203125
 20
-22.133414702318333
 30
0.0
 40
0.8666666746139526
100
AcDbArc
 50
213.79433666454057
 51
270.00007262760209
  0
LINE
  5
DF
100
AcDbEntity
  8
0
  6
CONTINUOUS
 62
               7
100
AcDbLine
 10
3.0
 20
29.499916596509792
 30
0.0
 11
17.0
 21
29.499916596509792
 31
0.0
  0
LINE
  5
E0
100
AcDbEntity
  8
0
  6
CONTINUOUS
 62
               7
100
AcDbLine
 10
16.999998092111127
 20
29.499913769290941
 30
0.0
 11
18.999992659331838
 21
26.999920560265053
 31
0.0
  0
LINE
  5
E1
100
AcDbEntity
  8
0
  6
CONTINUOUS
 62
               7
100
AcDbLine
 10
3.0000003762279448
 20
29.499918535336036
 30
0.0
 11
0.9999962769170452
 21
26.999913411197412
 31
0.0
  0
LINE
  5
E2
100
AcDbEntity
  8
0
  6
CONTINUOUS
 62
               2
100
AcDbLine
 10
12.0
 20
1.9214101267832291
 30
0.0
 11
12.0
 21
17.078392548658229
 31
0.0
  0
LINE
  5
E3
100
AcDbEntity
  8
0
  6
CONTINUOUS
 62
               2
100
AcDbLine
 10
8.0
 20
-36.078544096849583
 30
0.0
 11
8.0
 21
-20.921592192552708
 31
0.0
  0
LINE
  5
E4
100
AcDbEntity
  8
0
  6
CONTINUOUS
 62
               2
100
AcDbLine
 10
15.578506469726563
 20
-28.500083403490208
 30
0.0
 11
0.4215087890625
 21
-28.500083403490208
 31
0.0
  0
LINE
  5
E5
100
AcDbEntity
  8
0
  6
CONTINUOUS
 62
               2
100
AcDbLine
 10
19.578506469726562
 20
9.4999165965097916
 30
0.0
 11
4.4215240478515625
 21
9.4999165965097916
 31
0.0
  0
CIRCLE
  5
E6
100
AcDbEntity
  8
0
  6
CONTINUOUS
 62
               7
100
AcDbCircle
 10
12.0
 20
9.4999165965097916
 30
0.0
 40
5.7224998474121094
  0
CIRCLE
  5
E7
100
AcDbEntity
  8
0
  6
CONTINUOUS
 62
               2
100
AcDbCircle
 10
12.0
 20
9.4999165965097916
 30
0.0
 40
6.5784997940063477
  0
CIRCLE
  5
E8
100
AcDbEntity
  8
0
  6
CONTINUOUS
 62
               7
100
AcDbCircle
 10
8.0
 20
-28.500083403490208
 30
0.0
 40
5.7224998474121094
  0
CIRCLE
  5
E9
100
AcDbEntity
  8
0
  6
CONTINUOUS
 62
               2
100
AcDbCircle
 10
8.0
 20
-28.500083403490208
 30
0.0
 40
6.5784997940063477
  0
LINE
  5
EA
100
AcDbEntity
  8
0
  6
DASHED
 62
               4
100
AcDbLine
 10
-1.0
 20
3.9999165965098058
 30
0.0
 11
-1.0
 21
-4.0000795887929144
 31
0.0
  0
LINE
  5
EB
100
AcDbEntity
  8
0
  6
DASHED
 62
               4
100
AcDbLine
 10
0.0000241717771132
 20
-0.5000893891131284
 30
0.0
 11
-0.9999778811634315
 21
-0.768039072166431
 31
0.0
  0
LINE
  5
EC
100
AcDbEntity
  8
0
  6
DASHED
 62
               4
100
AcDbLine
 10
-0.9999769549413031
 20
0.4999122102987883
 30
0.0
 11
0.0000250979992416
 21
0.7678618933520909
 31
0.0
  0
LINE
  5
ED
100
AcDbEntity
  8
0
  6
DASHED
 62
               4
100
AcDbLine
 10
-1.0
 20
-15.000075774095677
 30
0.0
 11
-1.0
 21
-23.000083403490208
 31
0.0
  0
LINE
  5
EE
100
AcDbEntity
  8
0
  6
DASHED
 62
               4
100
AcDbLine
 10
0.0000243000573619
 20
-19.500073569762804
 30
0.0
 11
-0.9999777528831828
 21
-19.768023252816107
 31
0.0
  0
LINE
  5
EF
100
AcDbEntity
  8
0
  6
DASHED
 62
               4
100
AcDbLine
 10
-0.9999768266610545
 20
-18.500071970350888
 30
0.0
 11
0.0000252262794902
 21
-18.232122287297585
 31
0.0
  0
LINE
  5
F0
100
AcDbEntity
  8
0
  6
DASHED
 62
               4
100
AcDbLine
 10
23.199996948242188
 20
-21.500083403490208
 30
0.0
 11
23.199996948242188
 21
-16.500075774095677
 31
0.0
  0
LINE
  5
F1
100
AcDbEntity
  8
0
  6
DASHED
 62
               4
100
AcDbLine
 10
22.100006103515625
 20
-21.500083403490208
 30
0.0
 11
23.199996948242188
 21
-21.500083403490208
 31
0.0
  0
LINE
  5
F2
100
AcDbEntity
  8
0
  6
DASHED
 62
               4
100
AcDbLine
 10
22.100006103515625
 20
-16.500075774095677
 30
0.0
 11
23.199996948242188
 21
-16.500075774095677
 31
0.0
  0
ARC
  5
F3
100
AcDbEntity
  8
0
  6
DASHED
 62
               4
100
AcDbCircle
 10
22.100006103515625
 20
-16.000075774095677
 30
0.0
 40
0.5
100
AcDbArc
 50
179.99998133066492
 51
270.00001798608872
  0
ARC
  5
F4
100
AcDbEntity
  8
0
  6
DASHED
 62
               4
100
AcDbCircle
 10
22.100006103515625
 20
-22.000083403490208
 30
0.0
 40
0.5
100
AcDbArc
 50
89.999982013910454
 51
179.99996402782091
  0
LINE
  5
F5
100
AcDbEntity
  8
0
  6
DASHED
 62
               4
100
AcDbLine
 10
23.199996948242188
 20
-2.5000814961415756
 30
0.0
 11
23.199996948242188
 21
2.4999165965097916
 31
0.0
  0
LINE
  5
F6
100
AcDbEntity
  8
0
  6
DASHED
 62
               4
100
AcDbLine
 10
22.100006103515625
 20
-2.5000814961415756
 30
0.0
 11
23.199996948242188
 21
-2.5000814961415756
 31
0.0
  0
LINE
  5
F7
100
AcDbEntity
  8
0
  6
DASHED
 62
               4
100
AcDbLine
 10
22.100006103515625
 20
2.4999165965097916
 30
0.0
 11
23.199996948242188
 21
2.4999165965097916
 31
0.0
  0
ARC
  5
F8
100
AcDbEntity
  8
0
  6
DASHED
 62
               4
100
AcDbCircle
 10
22.100006103515625
 20
2.9999165965097916
 30
0.0
 40
0.5
100
AcDbArc
 50
179.99998133066492
 51
270.00001798608872
  0
ARC
  5
F9
100
AcDbEntity
  8
0
  6
DASHED
 62
               4
100
AcDbCircle
 10
22.100006103515625
 20
-3.0000814961415756
 30
0.0
 40
0.5
100
AcDbArc
 50
89.999982013910454
 51
179.99996402782091
  0
LINE
  5
FA
100
AcDbEntity
  8
0
  6
CONTINUOUS
 62
               7
100
AcDbLine
 10
20.0
 20
-36.500083403490208
 30
0.0
 11
0.0
 21
-36.500083403490208
 31
0.0
  0
LINE
  5
FB
100
AcDbEntity
  8
0
  6
CONTINUOUS
 62
               7
100
AcDbLine
 10
20.0
 20
17.499916596509792
 30
0.0
 11
0.0
 21
17.499916596509792
 31
0.0
  0
LINE
  5
FC
100
AcDbEntity
  8
0
  6
CONTINUOUS
 62
             200
100
AcDbLine
 10
10.0
 20
87.982258040984533
 30
0.0
 11
14.050010383584777
 21
89.067455061699292
 31
0.0
  0
LINE
  5
FD
100
AcDbEntity
  8
0
  6
CONTINUOUS
 62
             200
100
AcDbLine
 10
10.0
 20
89.017534208015192
 30
0.0
 11
14.050005690402941
 21
90.102729971195657
 31
0.0
  0
LINE
  5
FE
100
AcDbEntity
  8
0
  6
CONTINUOUS
 62
               4
100
AcDbLine
 10
14.949996948242188
 20
73.499901337720729
 30
0.0
 11
5.0500030517578125
 21
73.499901337720729
 31
0.0
  0
LINE
  5
FF
100
AcDbEntity
  8
0
  6
CONTINUOUS
 62
               4
100
AcDbLine
 10
11.170000000000002
 20
59.199931855298843
 30
0.0
 11
12.829999999999998
 21
59.199931855298843
 31
0.0
  0
LINE
  5
100
100
AcDbEntity
  8
0
  6
CONTINUOUS
 62
               4
100
AcDbLine
 10
7.1700000000000017
 20
59.199931855298843
 30
0.0
 11
8.8299999999999983
 21
59.199931855298843
 31
0.0
  0
LINE
  5
101
100
AcDbEntity
  8
0
  6
CONTINUOUS
 62
               4
100
AcDbLine
 10
12.829999999999998
 20
59.199931855298843
 30
0.0
 11
12.829999999999998
 21
64.499931855298854
 31
0.0
  0
LINE
  5
102
100
AcDbEntity
  8
0
  6
CONTINUOUS
 62
               4
100
AcDbLine
 10
11.170000000000002
 20
59.199931855298843
 30
0.0
 11
11.170000000000002
 21
64.499931855298854
 31
0.0
  0
LINE
  5
103
100
AcDbEntity
  8
0
  6
CONTINUOUS
 62
               4
100
AcDbLine
 10
8.8299999999999983
 20
59.199931855298843
 30
0.0
 11
8.8299999999999983
 21
64.499931855298854
 31
0.0
  0
LINE
  5
104
100
AcDbEntity
  8
0
  6
CONTINUOUS
 62
               4
100
AcDbLine
 10
7.1700000000000017
 20
59.199931855298843
 30
0.0
 11
7.1700000000000017
 21
64.499931855298854
 31
0.0
  0
LINE
  5
105
100
AcDbEntity
  8
0
  6
CONTINUOUS
 62
               4
100
AcDbLine
 10
12.599999999999994
 20
59.199931855298843
 30
0.0
 11
12.599999999999994
 21
64.499931855298854
 31
0.0
  0
LINE
  5
106
100
AcDbEntity
  8
0
  6
CONTINUOUS
 62
               4
100
AcDbLine
 10
11.400000000000006
 20
59.199931855298843
 30
0.0
 11
11.400000000000006
 21
64.499931855298854
 31
0.0
  0
LINE
  5
107
100
AcDbEntity
  8
0
  6
CONTINUOUS
 62
               4
100
AcDbLine
 10
8.5999999999999943
 20
59.199931855298843
 30
0.0
 11
8.5999999999999943
 21
64.499931855298854
 31
0.0
  0
LINE
  5
108
100
AcDbEntity
  8
0
  6
CONTINUOUS
 62
               4
100
AcDbLine
 10
7.4000000000000057
 20
59.199931855298843
 30
0.0
 11
7.4000000000000057
 21
64.499931855298854
 31
0.0
  0
LINE
  5
109
100
AcDbEntity
  8
0
  6
CONTINUOUS
 62
               4
100
AcDbLine
 10
14.299999999999997
 20
57.499901337720729
 30
0.0
 11
15.0
 21
57.499901337720729
 31
0.0
  0
LINE
  5
10A
100
AcDbEntity
  8
0
  6
CONTINUOUS
 62
               4
100
AcDbLine
 10
5.6165515765444525
 20
57.499901337720729
 30
0.0
 11
5.6165515765444525
 21
64.499931855298854
 31
0.0
  0
LINE
  5
10B
100
AcDbEntity
  8
0
  6
CONTINUOUS
 62
               4
100
AcDbLine
 10
14.299999999999997
 20
57.499901337720729
 30
0.0
 11
14.299999999999997
 21
64.499931855298854
 31
0.0
  0
LINE
  5
10C
100
AcDbEntity
  8
0
  6
CONTINUOUS
 62
               4
100
AcDbLine
 10
5.0
 20
57.499901337720729
 30
0.0
 11
5.6165515780448914
 21
57.499901337720729
 31
0.0
  0
LINE
  5
10D
100
AcDbEntity
  8
0
  6
CONTINUOUS
 62
               4
100
AcDbLine
 10
15.0
 20
40.499916596509792
 30
0.0
 11
15.0
 21
64.499916596509792
 31
0.0
  0
LINE
  5
10E
100
AcDbEntity
  8
0
  6
CONTINUOUS
 62
               4
100
AcDbLine
 10
5.0
 20
40.499916596509792
 30
0.0
 11
5.0
 21
64.499916596509792
 31
0.0
  0
ENDBLK
  5
10F
100
AcDbEntity
  8
0
100
AcDbBlockEnd
  0
BLOCK
  5
110
100
AcDbEntity
  8
0
100
AcDbBlockBegin
  2
F18T0-3
 70
               0
 10
0.0
 20
0.0
 30
0.0
  3
F18T0-3
  1

  0
LINE
  5
111
100
AcDbEntity
  8
0
  6
CONTINUOUS
 62
               2
100
AcDbLine
 10
-10.0
 20
-62.302867889404297
 30
0.0
 11
-10.0
 21
86.255069732666016
 31
0.0
  0
LINE
  5
112
100
AcDbEntity
  8
0
  6
CONTINUOUS
 62
               7
100
AcDbLine
 10
-19.0
 20
17.000003814697266
 30
0.0
 11
-1.0
 21
17.000003814697266
 31
0.0
  0
LINE
  5
113
100
AcDbEntity
  8
0
  6
CONTINUOUS
 62
               7
100
AcDbLine
 10
-19.0
 20
-35.999996185302734
 30
0.0
 11
-1.0
 21
-35.999996185302734
 31
0.0
  0
LINE
  5
114
100
AcDbEntity
  8
0
  6
CONTINUOUS
 62
               7
100
AcDbLine
 10
-19.0
 20
16.799991607666016
 30
0.0
 11
-1.0
 21
16.799991607666016
 31
0.0
  0
LINE
  5
115
100
AcDbEntity
  8
0
  6
CONTINUOUS
 62
               7
100
AcDbLine
 10
-19.0
 20
-35.799983978271484
 30
0.0
 11
-1.0
 21
-35.799983978271484
 31
0.0
  0
LINE
  5
116
100
AcDbEntity
  8
0
  6
CONTINUOUS
 62
               7
100
AcDbLine
 10
-3.5
 20
13.500003814697266
 30
0.0
 11
-1.0
 21
13.500003814697266
 31
0.0
  0
LINE
  5
117
100
AcDbEntity
  8
0
  6
CONTINUOUS
 62
               7
100
AcDbLine
 10
-3.5
 20
7.5000038146972656
 30
0.0
 11
-1.0
 21
7.5000038146972656
 31
0.0
  0
LINE
  5
118
100
AcDbEntity
  8
0
  6
CONTINUOUS
 62
               7
100
AcDbLine
 10
-19.0
 20
-32.499996185302734
 30
0.0
 11
-16.5
 21
-32.499996185302734
 31
0.0
  0
LINE
  5
119
100
AcDbEntity
  8
0
  6
CONTINUOUS
 62
               7
100
AcDbLine
 10
-19.0
 20
-26.499996185302734
 30
0.0
 11
-16.5
 21
-26.499996185302734
 31
0.0
  0
LINE
  5
11A
100
AcDbEntity
  8
0
  6
CONTINUOUS
 62
               7
100
AcDbLine
 10
-13.5
 20
12.500019073486328
 30
0.0
 11
-13.5
 21
16.800006866455078
 31
0.0
  0
LINE
  5
11B
100
AcDbEntity
  8
0
  6
CONTINUOUS
 62
               7
100
AcDbLine
 10
-16.5
 20
9.5000038146972656
 30
0.0
 11
-19.0
 21
9.5000038146972656
 31
0.0
  0
LINE
  5
11C
100
AcDbEntity
  8
0
  6
CONTINUOUS
 62
               7
100
AcDbLine
 10
0.0
 20
-36.499996185302734
 30
0.0
 11
0.0
 21
17.500003814697266
 31
0.0
  0
LINE
  5
11D
100
AcDbEntity
  8
0
  6
CONTINUOUS
 62
               7
100
AcDbLine
 10
-20.0
 20
-36.499996185302734
 30
0.0
 11
-20.0
 21
17.500003814697266
 31
0.0
  0
LINE
  5
11E
100
AcDbEntity
  8
0
  6
CONTINUOUS
 62
               7
100
AcDbLine
 10
-18.5
 20
-46.999996185302734
 30
0.0
 11
-1.5
 21
-46.999996185302734
 31
0.0
  0
LINE
  5
11F
100
AcDbEntity
  8
0
  6
CONTINUOUS
 62
               7
100
AcDbLine
 10
-15.0
 20
31.000003814697266
 30
0.0
 11
-5.0
 21
31.000003814697266
 31
0.0
  0
LINE
  5
120
100
AcDbEntity
  8
0
  6
CENTER
 62
               2
100
AcDbLine
 10
-12.5
 20
37.200000762939453
 30
0.0
 11
-7.5
 21
37.200000762939453
 31
0.0
  0
LINE
  5
121
100
AcDbEntity
  8
0
  6
CONTINUOUS
 62
               4
100
AcDbLine
 10
-14.999984741210938
 20
64.500019073486328
 30
0.0
 11
-4.9999847412109375
 21
64.500019073486328
 31
0.0
  0
LINE
  5
122
100
AcDbEntity
  8
0
  6
CONTINUOUS
 62
               7
100
AcDbLine
 10
-15.0
 20
40.500003814697266
 30
0.0
 11
-5.0
 21
40.500003814697266
 31
0.0
  0
LINE
  5
123
100
AcDbEntity
  8
0
  6
CONTINUOUS
 62
               7
100
AcDbLine
 10
-11.926788330078125
 20
36.899997711181641
 30
0.0
 11
-8.073211669921875
 21
36.899997711181641
 31
0.0
  0
LINE
  5
124
100
AcDbEntity
  8
0
  6
CONTINUOUS
 62
               7
100
AcDbLine
 10
-11.926788330078125
 20
37.500003814697266
 30
0.0
 11
-8.073211669921875
 21
37.500003814697266
 31
0.0
  0
LINE
  5
125
100
AcDbEntity
  8
0
  6
CONTINUOUS
 62
               4
100
AcDbLine
 10
-14.949996948242188
 20
64.500003814697266
 30
0.0
 11
-14.949996948242188
 21
78.000003814697266
 31
0.0
  0
LINE
  5
126
100
AcDbEntity
  8
0
  6
CONTINUOUS
 62
               4
100
AcDbLine
 10
-5.4999847412109375
 20
73.500019073486328
 30
0.0
 11
-14.499984741210938
 21
73.500019073486328
 31
0.0
  0
LINE
  5
127
100
AcDbEntity
  8
0
  6
CONTINUOUS
 62
               2
100
AcDbLine
 10
-5.0500030517578125
 20
69.000019073486328
 30
0.0
 11
-14.949996948242188
 21
69.000019073486328
 31
0.0
  0
LINE
  5
128
100
AcDbEntity
  8
0
  6
CONTINUOUS
 62
               4
100
AcDbLine
 10
-5.0500030517578125
 20
64.500003814697266
 30
0.0
 11
-5.0500030517578125
 21
78.000003814697266
 31
0.0
  0
LINE
  5
129
100
AcDbEntity
  8
0
  6
CONTINUOUS
 62
               4
100
AcDbLine
 10
-14.949996948242188
 20
78.000003814697266
 30
0.0
 11
-13.499984741210937
 21
78.000003814697266
 31
0.0
  0
LINE
  5
12A
100
AcDbEntity
  8
0
  6
CONTINUOUS
 62
               4
100
AcDbLine
 10
-14.050003051757813
 20
73.500003814697266
 30
0.0
 11
-14.050003051757813
 21
76.000003814697266
 31
0.0
  0
LINE
  5
12B
100
AcDbEntity
  8
0
  6
CONTINUOUS
 62
               4
100
AcDbLine
 10
-5.9499969482421875
 20
73.500003814697266
 30
0.0
 11
-5.9499969482421875
 21
76.000003814697266
 31
0.0
  0
LINE
  5
12C
100
AcDbEntity
  8
0
  6
CONTINUOUS
 62
               4
100
AcDbLine
 10
-6.5
 20
73.998462677001953
 30
0.0
 11
-6.5
 21
84.500003814697266
 31
0.0
  0
LINE
  5
12D
100
AcDbEntity
  8
0
  6
CONTINUOUS
 62
               4
100
AcDbLine
 10
-13.5
 20
73.998462677001953
 30
0.0
 11
-13.5
 21
84.500003814697266
 31
0.0
  0
LINE
  5
12E
100
AcDbEntity
  8
0
  6
CONTINUOUS
 62
               4
100
AcDbLine
 10
-13.499984741210937
 20
73.998477935791016
 30
0.0
 11
-6.4999847412109375
 21
73.998477935791016
 31
0.0
  0
LINE
  5
12F
100
AcDbEntity
  8
0
  6
CONTINUOUS
 62
               4
100
AcDbLine
 10
-13.499984741210937
 20
77.556156158447266
 30
0.0
 11
-6.4999847412109375
 21
77.556156158447266
 31
0.0
  0
LINE
  5
130
100
AcDbEntity
  8
0
  6
CONTINUOUS
 62
               4
100
AcDbLine
 10
-13.499984741210937
 20
83.000003814697266
 30
0.0
 11
-6.4999847412109375
 21
83.000003814697266
 31
0.0
  0
LINE
  5
131
100
AcDbEntity
  8
0
  6
CONTINUOUS
 62
               4
100
AcDbLine
 10
-14.899993896484375
 20
84.500003814697266
 30
0.0
 11
-5.0999908447265625
 21
84.500003814697266
 31
0.0
  0
LINE
  5
132
100
AcDbEntity
  8
0
  6
CONTINUOUS
 62
               4
100
AcDbLine
 10
-6.4999847412109375
 20
78.000003814697266
 30
0.0
 11
-5.0500030517578125
 21
78.000003814697266
 31
0.0
  0
LINE
  5
133
100
AcDbEntity
  8
0
  6
CONTINUOUS
 62
               4
100
AcDbLine
 10
-6.4999847412109375
 20
77.000003814697266
 30
0.0
 11
-5.9499969482421875
 21
77.000003814697266
 31
0.0
  0
LINE
  5
134
100
AcDbEntity
  8
0
  6
CONTINUOUS
 62
               4
100
AcDbLine
 10
-6.4999847412109375
 20
76.000003814697266
 30
0.0
 11
-5.9499969482421875
 21
76.000003814697266
 31
0.0
  0
LINE
  5
135
100
AcDbEntity
  8
0
  6
CONTINUOUS
 62
               4
100
AcDbLine
 10
-14.050003051757813
 20
77.000003814697266
 30
0.0
 11
-13.499984741210937
 21
77.000003814697266
 31
0.0
  0
LINE
  5
136
100
AcDbEntity
  8
0
  6
CONTINUOUS
 62
               4
100
AcDbLine
 10
-14.050003051757813
 20
76.000003814697266
 30
0.0
 11
-13.499984741210937
 21
76.000003814697266
 31
0.0
  0
LINE
  5
137
100
AcDbEntity
  8
0
  6
CONTINUOUS
 62
               4
100
AcDbLine
 10
-14.050003051757813
 20
77.000003814697266
 30
0.0
 11
-14.050003051757813
 21
78.000003814697266
 31
0.0
  0
LINE
  5
138
100
AcDbEntity
  8
0
  6
CONTINUOUS
 62
               4
100
AcDbLine
 10
-5.9499969482421875
 20
77.000003814697266
 30
0.0
 11
-5.9499969482421875
 21
78.000003814697266
 31
0.0
  0
LINE
  5
139
100
AcDbEntity
  8
0
  6
CONTINUOUS
 62
               4
100
AcDbLine
 10
-11.284988403320313
 20
88.673328399658203
 30
0.0
 11
-11.284988403320313
 21
92.500003814697266
 31
0.0
  0
LINE
  5
13A
100
AcDbEntity
  8
0
  6
CONTINUOUS
 62
               4
100
AcDbLine
 10
-12.715011596679687
 20
88.290149688720703
 30
0.0
 11
-12.715011596679687
 21
92.500003814697266
 31
0.0
  0
LINE
  5
13B
100
AcDbEntity
  8
0
  6
CONTINUOUS
 62
               4
100
AcDbLine
 10
-12.715011596679687
 20
92.500003814697266
 30
0.0
 11
-11.285003662109375
 21
92.500003814697266
 31
0.0
  0
LINE
  5
13C
100
AcDbEntity
  8
0
  6
CONTINUOUS
 62
               4
100
AcDbLine
 10
-11.599990844726563
 20
92.500003814697266
 30
0.0
 11
-11.599990844726563
 21
97.500003814697266
 31
0.0
  0
LINE
  5
13D
100
AcDbEntity
  8
0
  6
CONTINUOUS
 62
               4
100
AcDbLine
 10
-12.400009155273438
 20
92.500003814697266
 30
0.0
 11
-12.400009155273438
 21
97.500003814697266
 31
0.0
  0
LINE
  5
13E
100
AcDbEntity
  8
0
  6
CONTINUOUS
 62
               4
100
AcDbLine
 10
-12.400009155273438
 20
97.500003814697266
 30
0.0
 11
-11.600006103515625
 21
97.500003814697266
 31
0.0
  0
LINE
  5
13F
100
AcDbEntity
  8
0
  6
CONTINUOUS
 62
               4
100
AcDbLine
 10
-11.284988403320313
 20
84.500003814697266
 30
0.0
 11
-11.284988403320313
 21
87.638050079345703
 31
0.0
  0
LINE
  5
140
100
AcDbEntity
  8
0
  6
CONTINUOUS
 62
               4
100
AcDbLine
 10
-12.715011596679687
 20
84.500003814697266
 30
0.0
 11
-12.715011596679687
 21
87.254871368408203
 31
0.0
  0
LINE
  5
141
100
AcDbEntity
  8
0
  6
CONTINUOUS
 62
               7
100
AcDbLine
 10
-5.0
 20
29.500003814697266
 30
0.0
 11
-5.0
 21
40.500003814697266
 31
0.0
  0
LINE
  5
142
100
AcDbEntity
  8
0
  6
CONTINUOUS
 62
               7
100
AcDbLine
 10
-15.0
 20
29.500003814697266
 30
0.0
 11
-15.0
 21
40.500003814697266
 31
0.0
  0
LINE
  5
143
100
AcDbEntity
  8
0
  6
CONTINUOUS
 62
               4
100
AcDbLine
 10
-5.0999908447265625
 20
78.000003814697266
 30
0.0
 11
-5.0999908447265625
 21
84.500003814697266
 31
0.0
  0
LINE
  5
144
100
AcDbEntity
  8
0
  6
CONTINUOUS
 62
               4
100
AcDbLine
 10
-14.899993896484375
 20
78.000003814697266
 30
0.0
 11
-14.899993896484375
 21
84.500003814697266
 31
0.0
  0
LINE
  5
145
100
AcDbEntity
  8
0
  6
CONTINUOUS
 62
               4
100
AcDbLine
 10
-14.0
 20
78.000003814697266
 30
0.0
 11
-14.0
 21
84.500003814697266
 31
0.0
  0
LINE
  5
146
100
AcDbEntity
  8
0
  6
CONTINUOUS
 62
               4
100
AcDbLine
 10
-6.0
 20
78.000003814697266
 30
0.0
 11
-6.0
 21
84.500003814697266
 31
0.0
  0
LINE
  5
147
100
AcDbEntity
  8
0
  6
CONTINUOUS
 62
               7
100
AcDbLine
 10
-19.0
 20
27.000003814697266
 30
0.0
 11
-1.0
 21
27.000003814697266
 31
0.0
  0
LINE
  5
148
100
AcDbEntity
  8
0
  6
CONTINUOUS
 62
               7
100
AcDbLine
 10
-1.0
 20
-46.499996185302734
 30
0.0
 11
-1.0
 21
8.9468269348144531
 31
0.0
  0
LINE
  5
149
100
AcDbEntity
  8
0
  6
CONTINUOUS
 62
               7
100
AcDbLine
 10
-19.0
 20
-46.499996185302734
 30
0.0
 11
-19.0
 21
-31.053157806396484
 31
0.0
  0
LINE
  5
14A
100
AcDbEntity
  8
0
  6
CONTINUOUS
 62
               2
100
AcDbLine
 10
-20.0
 20
0.0
 30
0.0
 11
1.467193603515625
 21
0.0
 31
0.0
  0
LINE
  5
14B
100
AcDbEntity
  8
0
  6
CONTINUOUS
 62
               2
100
AcDbLine
 10
-20.0
 20
-19.0
 30
0.0
 11
1.3137664794921875
 21
-19.0
 31
0.0
  0
LINE
  5
14C
100
AcDbEntity
  8
0
  6
CONTINUOUS
 62
               7
100
AcDbLine
 10
-3.5
 20
-28.499996185302734
 30
0.0
 11
-1.0
 21
-28.499996185302734
 31
0.0
  0
LINE
  5
14D
100
AcDbEntity
  8
0
  6
CONTINUOUS
 62
               7
100
AcDbLine
 10
-6.5
 20
-31.499980926513672
 30
0.0
 11
-6.5
 21
-35.799983978271484
 31
0.0
  0
LINE
  5
14E
100
AcDbEntity
  8
0
  6
CONTINUOUS
 62
               7
100
AcDbLine
 10
-17.560637564985882
 20
-30.560678309695504
 30
0.0
 11
-15.439317078917156
 21
-28.439358002440713
 31
0.0
  0
LINE
  5
14F
100
AcDbEntity
  8
0
  6
CONTINUOUS
 62
               7
100
AcDbLine
 10
-17.560626685984971
 20
-28.439347123440712
 30
0.0
 11
-15.43930637873018
 21
-30.560667609509437
 31
0.0
  0
LINE
  5
150
100
AcDbEntity
  8
0
  6
CONTINUOUS
 62
               7
100
AcDbLine
 10
-4.5606556694865503
 20
-32.560670275483062
 30
0.0
 11
-2.4393351834178247
 21
-30.439349968228271
 31
0.0
  0
LINE
  5
151
100
AcDbEntity
  8
0
  6
CONTINUOUS
 62
               7
100
AcDbLine
 10
-4.5606555800795832
 20
-30.439349878821304
 30
0.0
 11
-2.4393352728247919
 21
-32.560670364890029
 31
0.0
  0
LINE
  5
152
100
AcDbEntity
  8
0
  6
CONTINUOUS
 62
               7
100
AcDbLine
 10
-4.5606431097257882
 20
9.4393221334776172
 30
0.0
 11
-2.4393226236570626
 21
11.560642440732408
 31
0.0
  0
LINE
  5
153
100
AcDbEntity
  8
0
  6
CONTINUOUS
 62
               7
100
AcDbLine
 10
-4.5606322307257869
 20
11.560631740545432
 30
0.0
 11
-2.4393119234709957
 21
9.4393112544767064
 31
0.0
  0
LINE
  5
154
100
AcDbEntity
  8
0
  6
CONTINUOUS
 62
               7
100
AcDbLine
 10
-17.560657374005132
 20
11.439324888860028
 30
0.0
 11
-15.439336887936406
 21
13.56064519611482
 31
0.0
  0
LINE
  5
155
100
AcDbEntity
  8
0
  6
CONTINUOUS
 62
               7
100
AcDbLine
 10
-17.560646495004221
 20
13.560656075114821
 30
0.0
 11
-15.43932618774943
 21
11.439335589046095
 31
0.0
  0
LINE
  5
156
100
AcDbEntity
  8
0
  6
DASHED
 62
               4
100
AcDbLine
 10
-21.599990844726562
 20
-59.399990081787109
 30
0.0
 11
-21.599990844726562
 21
9.9999885559082031
 31
0.0
  0
LINE
  5
157
100
AcDbEntity
  8
0
  6
DASHED
 62
               4
100
AcDbLine
 10
-20.0
 20
9.9999885559082031
 30
0.0
 11
-21.599990844726562
 21
9.9999885559082031
 31
0.0
  0
LINE
  5
158
100
AcDbEntity
  8
0
  6
DASHED
 62
               4
100
AcDbLine
 10
-20.0
 20
-36.499996185302734
 30
0.0
 11
-20.0
 21
-59.399990081787109
 31
0.0
  0
LINE
  5
159
100
AcDbEntity
  8
0
  6
DASHED
 62
               4
100
AcDbLine
 10
-1.0
 20
-59.399990081787109
 30
0.0
 11
-20.0
 21
-59.399990081787109
 31
0.0
  0
LINE
  5
15A
100
AcDbEntity
  8
0
  6
DASHED
 62
               4
100
AcDbLine
 10
-1.0
 20
-60.999996185302734
 30
0.0
 11
-20.0
 21
-60.999996185302734
 31
0.0
  0
LINE
  5
15B
100
AcDbEntity
  8
0
  6
DASHED
 62
               4
100
AcDbLine
 10
-1.0
 20
-59.399990081787109
 30
0.0
 11
-1.0
 21
-60.999996185302734
 31
0.0
  0
LINE
  5
15C
100
AcDbEntity
  8
0
  6
DASHED
 62
               4
100
AcDbLine
 10
2.281524658203125
 20
4.0000038146972656
 30
0.0
 11
0.0
 21
4.0000038146972656
 31
0.0
  0
LINE
  5
15D
100
AcDbEntity
  8
0
  6
DASHED
 62
               4
100
AcDbLine
 10
2.281524658203125
 20
-3.9999923706054687
 30
0.0
 11
0.0
 21
-3.9999923706054687
 31
0.0
  0
LINE
  5
15E
100
AcDbEntity
  8
0
  6
DASHED
 62
               4
100
AcDbLine
 10
2.281524658203125
 20
-14.999988555908203
 30
0.0
 11
0.0
 21
-14.999988555908203
 31
0.0
  0
LINE
  5
15F
100
AcDbEntity
  8
0
  6
DASHED
 62
               4
100
AcDbLine
 10
2.281524658203125
 20
-22.999996185302734
 30
0.0
 11
0.0
 21
-22.999996185302734
 31
0.0
  0
ARC
  5
160
100
AcDbEntity
  8
0
  6
CONTINUOUS
 62
               7
100
AcDbCircle
 10
-3.5
 20
10.500019073486328
 30
0.0
 40
3.0
100
AcDbArc
 50
89.999982013910454
 51
269.99994604173139
  0
ARC
  5
161
100
AcDbEntity
  8
0
  6
CONTINUOUS
 62
               7
100
AcDbCircle
 10
-16.5
 20
-29.499980926513672
 30
0.0
 40
3.0
100
AcDbArc
 50
269.99996334457541
 51
89.999982013910454
  0
ARC
  5
162
100
AcDbEntity
  8
0
  6
CONTINUOUS
 62
               7
100
AcDbCircle
 10
-16.5
 20
12.500019073486328
 30
0.0
 40
3.0
100
AcDbArc
 50
270.00001798608872
 51
0.00001366037834
  0
ARC
  5
163
100
AcDbEntity
  8
0
  6
CONTINUOUS
 62
               7
100
AcDbCircle
 10
-1.5
 20
-46.499996185302734
 30
0.0
 40
0.5
100
AcDbArc
 50
270.00001798608872
 51
0.00001366037834
  0
ARC
  5
164
100
AcDbEntity
  8
0
  6
CONTINUOUS
 62
               7
100
AcDbCircle
 10
-18.5
 20
-46.499980926513672
 30
0.0
 40
0.5
100
AcDbArc
 50
180.0000359721783
 51
269.99996334457541
  0
ARC
  5
165
100
AcDbEntity
  8
0
  6
CONTINUOUS
 62
               7
100
AcDbCircle
 10
-3.9999542236328125
 20
30.000064849853516
 30
0.0
 40
2.5000734329223633
100
AcDbArc
 50
191.53802865027069
 51
319.4591594643893
  0
CIRCLE
  5
166
100
AcDbEntity
  8
0
  6
CONTINUOUS
 62
               7
100
AcDbCircle
 10
-10.0
 20
37.200000762939453
 30
0.0
 40
2.0
  0
CIRCLE
  5
167
100
AcDbEntity
  8
0
  6
CONTINUOUS
 62
               7
100
AcDbCircle
 10
-10.0
 20
37.200000762939453
 30
0.0
 40
1.9499998092651367
  0
ARC
  5
168
100
AcDbEntity
  8
0
  6
CONTINUOUS
 62
               4
100
AcDbCircle
 10
-5.5500030517578125
 20
73.000019073486328
 30
0.0
 40
0.5
100
AcDbArc
 50
359.99994535848583
 51
89.999982013910454
  0
ARC
  5
169
100
AcDbEntity
  8
0
  6
CONTINUOUS
 62
               4
100
AcDbCircle
 10
-14.449996948242188
 20
73.000019073486328
 30
0.0
 40
0.5
100
AcDbArc
 50
89.999982013910454
 51
179.99996402782091
  0
ARC
  5
16A
100
AcDbEntity
  8
0
  6
CONTINUOUS
 62
               7
100
AcDbCircle
 10
-3.5
 20
-31.499980926513672
 30
0.0
 40
3.0
100
AcDbArc
 50
89.999982013910454
 51
179.99996402782091
  0
CIRCLE
  5
16B
100
AcDbEntity
  8
0
  6
CONTINUOUS
 62
               7
100
AcDbCircle
 10
-16.499984741210937
 20
-29.499980926513672
 30
0.0
 40
2.7999992370605469
  0
CIRCLE
  5
16C
100
AcDbEntity
  8
0
  6
CONTINUOUS
 62
               7
100
AcDbCircle
 10
-3.5
 20
-31.499965667724609
 30
0.0
 40
2.7999992370605469
  0
CIRCLE
  5
16D
100
AcDbEntity
  8
0
  6
CONTINUOUS
 62
               7
100
AcDbCircle
 10
-3.5
 20
10.500003814697266
 30
0.0
 40
2.7999992370605469
  0
CIRCLE
  5
16E
100
AcDbEntity
  8
0
  6
CONTINUOUS
 62
               7
100
AcDbCircle
 10
-16.5
 20
12.500019073486328
 30
0.0
 40
2.7999992370605469
  0
ARC
  5
16F
100
AcDbEntity
  8
0
  6
DASHED
 62
               4
100
AcDbCircle
 10
-20.0
 20
-59.399990081787109
 30
0.0
 40
1.5999994277954102
100
AcDbArc
 50
179.99996402782091
 51
269.99994604173139
  0
ARC
  5
170
100
AcDbEntity
  8
0
  6
DASHED
 62
               4
100
AcDbCircle
 10
-2.4000091552734375
 20
0.0
 30
0.0
 40
6.5
100
AcDbArc
 50
326.20568564725858
 51
33.794232390470569
  0
ARC
  5
171
100
AcDbEntity
  8
0
  6
DASHED
 62
               4
100
AcDbCircle
 10
2.281524658203125
 20
3.1333198547363281
 30
0.0
 40
0.8666666746139526
100
AcDbArc
 50
33.79423239047059
 51
89.999927372397096
  0
ARC
  5
172
100
AcDbEntity
  8
0
  6
DASHED
 62
               4
100
AcDbCircle
 10
2.281524658203125
 20
-3.133331298828125
 30
0.0
 40
0.8666666746139526
100
AcDbArc
 50
269.99996334457541
 51
326.20568564725858
  0
ARC
  5
173
100
AcDbEntity
  8
0
  6
DASHED
 62
               4
100
AcDbCircle
 10
2.281524658203125
 20
-15.866664886474609
 30
0.0
 40
0.8666666746139526
100
AcDbArc
 50
33.79423239047059
 51
89.999927372397096
  0
ARC
  5
174
100
AcDbEntity
  8
0
  6
DASHED
 62
               4
100
AcDbCircle
 10
-2.4000091552734375
 20
-18.999995231628418
 30
0.0
 40
6.5
100
AcDbArc
 50
326.20568564725858
 51
33.794232390470569
  0
ARC
  5
175
100
AcDbEntity
  8
0
  6
DASHED
 62
               4
100
AcDbCircle
 10
2.281524658203125
 20
-22.133327484130859
 30
0.0
 40
0.8666666746139526
100
AcDbArc
 50
269.99996334457541
 51
326.20568564725858
  0
LINE
  5
176
100
AcDbEntity
  8
0
  6
DASHED
 62
               4
100
AcDbLine
 10
1.0
 20
-3.9999923706054687
 30
0.0
 11
1.0
 21
4.0000038146972656
 31
0.0
  0
LINE
  5
177
100
AcDbEntity
  8
0
  6
DASHED
 62
               4
100
AcDbLine
 10
0.0000115987641038
 20
0.4999922621609585
 30
0.0
 11
1.0000136517046485
 21
0.7679419452142611
 31
0.0
  0
LINE
  5
178
100
AcDbEntity
  8
0
  6
DASHED
 62
               4
100
AcDbLine
 10
1.0000127254825202
 20
-0.5000093372509582
 30
0.0
 11
0.0000106725419755
 21
-0.7679590203042608
 31
0.0
  0
LINE
  5
179
100
AcDbEntity
  8
0
  6
DASHED
 62
               4
100
AcDbLine
 10
1.0
 20
-22.999996185302734
 30
0.0
 11
1.0
 21
-14.999988555908203
 31
0.0
  0
LINE
  5
17A
100
AcDbEntity
  8
0
  6
DASHED
 62
               4
100
AcDbLine
 10
0.0000139485055115
 20
-18.50000020909647
 30
0.0
 11
1.0000160014460562
 21
-18.232050526043167
 31
0.0
  0
LINE
  5
17B
100
AcDbEntity
  8
0
  6
DASHED
 62
               4
100
AcDbLine
 10
1.0000150752239279
 20
-19.500001808508387
 30
0.0
 11
0.0000130222833832
 21
-19.767951491561689
 31
0.0
  0
LINE
  5
17C
100
AcDbEntity
  8
0
  6
CONTINUOUS
 62
               7
100
AcDbLine
 10
-17.0
 20
29.500003814697266
 30
0.0
 11
-3.0
 21
29.500003814697266
 31
0.0
  0
LINE
  5
17D
100
AcDbEntity
  8
0
  6
CONTINUOUS
 62
               7
100
AcDbLine
 10
-16.999998208652869
 20
29.499991455388226
 30
0.0
 11
-18.999992775873579
 21
26.999998246362338
 31
0.0
  0
LINE
  5
17E
100
AcDbEntity
  8
0
  6
CONTINUOUS
 62
               7
100
AcDbLine
 10
-3.0000004927696864
 20
29.500015285613699
 30
0.0
 11
-0.9999963934587868
 21
27.000010161475075
 31
0.0
  0
CIRCLE
  5
17F
100
AcDbEntity
  8
0
  6
CONTINUOUS
 62
               7
100
AcDbCircle
 10
-16.499984741210937
 20
-29.499980926513672
 30
0.0
 40
2.9499998092651367
  0
LINE
  5
180
100
AcDbEntity
  8
0
  6
CONTINUOUS
 62
               7
100
AcDbLine
 10
-19.0
 20
-27.946773529052734
 30
0.0
 11
-19.0
 21
27.000003814697266
 31
0.0
  0
CIRCLE
  5
181
100
AcDbEntity
  8
0
  6
CONTINUOUS
 62
               7
100
AcDbCircle
 10
-3.5
 20
10.500003814697266
 30
0.0
 40
2.9499998092651367
  0
LINE
  5
182
100
AcDbEntity
  8
0
  6
CONTINUOUS
 62
               7
100
AcDbLine
 10
-1.0
 20
12.066043853759766
 30
0.0
 11
-1.0
 21
27.000003814697266
 31
0.0
  0
LINE
  5
183
100
AcDbEntity
  8
0
  6
DASHED
 62
               4
100
AcDbLine
 10
-23.199981689453125
 20
-16.499988555908232
 30
0.0
 11
-23.199981689453125
 21
-21.499996185302763
 31
0.0
  0
LINE
  5
184
100
AcDbEntity
  8
0
  6
DASHED
 62
               4
100
AcDbLine
 10
-22.099990844726563
 20
-16.499988555908232
 30
0.0
 11
-23.199981689453125
 21
-16.499988555908232
 31
0.0
  0
LINE
  5
185
100
AcDbEntity
  8
0
  6
DASHED
 62
               4
100
AcDbLine
 10
-22.099990844726563
 20
-21.499996185302763
 30
0.0
 11
-23.199981689453125
 21
-21.499996185302763
 31
0.0
  0
ARC
  5
186
100
AcDbEntity
  8
0
  6
DASHED
 62
               4
100
AcDbCircle
 10
-22.099990844726563
 20
-21.999996185302734
 30
0.0
 40
0.5
100
AcDbArc
 50
359.9999813306639
 51
90.000036655423813
  0
ARC
  5
187
100
AcDbEntity
  8
0
  6
DASHED
 62
               4
100
AcDbCircle
 10
-22.099990844726563
 20
-15.999988555908203
 30
0.0
 40
0.5
100
AcDbArc
 50
269.99996334457541
 51
359.99996402782114
  0
LINE
  5
188
100
AcDbEntity
  8
0
  6
DASHED
 62
               4
100
AcDbLine
 10
-23.199981689453125
 20
2.5000038146972514
 30
0.0
 11
-23.199981689453125
 21
-2.49999427795413
 31
0.0
  0
LINE
  5
189
100
AcDbEntity
  8
0
  6
DASHED
 62
               4
100
AcDbLine
 10
-22.099990844726563
 20
2.5000038146972514
 30
0.0
 11
-23.199981689453125
 21
2.5000038146972514
 31
0.0
  0
LINE
  5
18A
100
AcDbEntity
  8
0
  6
DASHED
 62
               4
100
AcDbLine
 10
-22.099990844726563
 20
-2.49999427795413
 30
0.0
 11
-23.199981689453125
 21
-2.49999427795413
 31
0.0
  0
ARC
  5
18B
100
AcDbEntity
  8
0
  6
DASHED
 62
               4
100
AcDbCircle
 10
-22.099990844726563
 20
-2.9999942779541016
 30
0.0
 40
0.5
100
AcDbArc
 50
359.9999813306639
 51
90.000036655423813
  0
ARC
  5
18C
100
AcDbEntity
  8
0
  6
DASHED
 62
               4
100
AcDbCircle
 10
-22.099990844726563
 20
3.0000038146972656
 30
0.0
 40
0.5
100
AcDbArc
 50
269.99996334457541
 51
359.99996402782114
  0
LINE
  5
18D
100
AcDbEntity
  8
0
  6
CONTINUOUS
 62
               7
100
AcDbLine
 10
-20.0
 20
17.500003814697266
 30
0.0
 11
-19.0
 21
17.500003814697266
 31
0.0
  0
LINE
  5
18E
100
AcDbEntity
  8
0
  6
CONTINUOUS
 62
               7
100
AcDbLine
 10
-20.0
 20
-36.499996185302734
 30
0.0
 11
-19.0
 21
-36.499996185302734
 31
0.0
  0
LINE
  5
18F
100
AcDbEntity
  8
0
  6
CONTINUOUS
 62
               7
100
AcDbLine
 10
-1.0
 20
17.500003814697266
 30
0.0
 11
0.0
 21
17.500003814697266
 31
0.0
  0
LINE
  5
190
100
AcDbEntity
  8
0
  6
CONTINUOUS
 62
               7
100
AcDbLine
 10
-1.0
 20
-36.499996185302734
 30
0.0
 11
0.0
 21
-36.499996185302734
 31
0.0
  0
LINE
  5
191
100
AcDbEntity
  8
0
  6
CONTINUOUS
 62
             200
100
AcDbLine
 10
-13.999974673206452
 20
86.910557494509703
 30
0.0
 11
-10.0
 21
87.982347486923501
 31
0.0
  0
LINE
  5
192
100
AcDbEntity
  8
0
  6
CONTINUOUS
 62
             200
100
AcDbLine
 10
-13.999979366388288
 20
87.945832404006069
 30
0.0
 11
-10.0
 21
89.017623653954161
 31
0.0
  0
LINE
  5
193
100
AcDbEntity
  8
0
  6
CONTINUOUS
 62
               4
100
AcDbLine
 10
-15.0
 20
40.500003814697266
 30
0.0
 11
-15.0
 21
64.500003814697266
 31
0.0
  0
LINE
  5
194
100
AcDbEntity
  8
0
  6
CONTINUOUS
 62
               4
100
AcDbLine
 10
-5.0
 20
40.500003814697266
 30
0.0
 11
-5.0
 21
64.500003814697266
 31
0.0
  0
CIRCLE
  5
195
100
AcDbEntity
  8
0
  6
CONTINUOUS
 62
               7
100
AcDbCircle
 10
-10.0
 20
0.0
 30
0.0
 40
9.0
  0
CIRCLE
  5
196
100
AcDbEntity
  8
0
  6
CONTINUOUS
 62
               7
100
AcDbCircle
 10
-10.0
 20
0.0
 30
0.0
 40
5.6799993515014648
  0
CIRCLE
  5
197
100
AcDbEntity
  8
0
  6
CONTINUOUS
 62
               2
100
AcDbCircle
 10
-10.0
 20
0.0
 30
0.0
 40
6.5
  0
CIRCLE
  5
198
100
AcDbEntity
  8
0
  6
CONTINUOUS
 62
               7
100
AcDbCircle
 10
-10.0
 20
-19.0
 30
0.0
 40
9.0
  0
CIRCLE
  5
199
100
AcDbEntity
  8
0
  6
CONTINUOUS
 62
               2
100
AcDbCircle
 10
-10.0
 20
-19.0
 30
0.0
 40
6.5
  0
CIRCLE
  5
19A
100
AcDbEntity
  8
0
  6
CONTINUOUS
 62
               7
100
AcDbCircle
 10
-10.0
 20
-19.0
 30
0.0
 40
5.6799993515014648
  0
ENDBLK
  5
19B
100
AcDbEntity
  8
0
100
AcDbBlockEnd
  0
BLOCK
  5
19C
100
AcDbEntity
  8
0
100
AcDbBlockBegin
  2
F18T0-4
 70
               0
 10
0.0
 20
0.0
 30
0.0
  3
F18T0-4
  1

  0
LINE
  5
19D
100
AcDbEntity
  8
0
  6
CONTINUOUS
 62
               7
100
AcDbLine
 10
30.500045776367188
 20
-4.0000152587890625
 30
0.0
 11
30.500045776367188
 21
-1.0000152587890625
 31
0.0
  0
LINE
  5
19E
100
AcDbEntity
  8
0
  6
CONTINUOUS
 62
             200
100
AcDbLine
 10
-9.4999847412109375
 20
-15.000015258789063
 30
0.0
 11
-16.499984741210937
 21
-15.000015258789063
 31
0.0
  0
LINE
  5
19F
100
AcDbEntity
  8
0
  6
CONTINUOUS
 62
             200
100
AcDbLine
 10
-13.0
 20
-18.500015258789063
 30
0.0
 11
-13.0
 21
-11.500015258789063
 31
0.0
  0
LINE
  5
1A0
100
AcDbEntity
  8
0
  6
CONTINUOUS
 62
               2
100
AcDbLine
 10
52.544083356104807
 20
-10.000015258789062
 30
0.0
 11
-19.742141723632812
 21
-10.000015258789062
 31
0.0
  0
LINE
  5
1A1
100
AcDbEntity
  8
0
  6
CONTINUOUS
 62
               7
100
AcDbLine
 10
38.000030517578125
 20
-19.000015258789063
 30
0.0
 11
4.0000152587890625
 21
-19.000015258789063
 31
0.0
  0
LINE
  5
1A2
100
AcDbEntity
  8
0
  6
CONTINUOUS
 62
               7
100
AcDbLine
 10
38.000030517578125
 20
-1.0000152587890625
 30
0.0
 11
4.0000152587890625
 21
-1.0000152587890625
 31
0.0
  0
LINE
  5
1A3
100
AcDbEntity
  8
0
  6
CONTINUOUS
 62
               7
100
AcDbLine
 10
38.500030517578125
 20
-18.500015258789063
 30
0.0
 11
38.500030517578125
 21
-1.5000152587890625
 31
0.0
  0
LINE
  5
1A4
100
AcDbEntity
  8
0
  6
DASHED
 62
               4
100
AcDbLine
 10
22.000015258789063
 20
-19.000015258789063
 30
0.0
 11
22.000015258789063
 21
1.5999908447265625
 31
0.0
  0
LINE
  5
1A5
100
AcDbEntity
  8
0
  6
DASHED
 62
               4
100
AcDbLine
 10
-18.0
 20
-19.000015258789063
 30
0.0
 11
-18.0
 21
-0.0000152587890625
 31
0.0
  0
LINE
  5
1A6
100
AcDbEntity
  8
0
  6
DASHED
 62
               4
100
AcDbLine
 10
-6.9999847412109375
 20
-19.000015258789063
 30
0.0
 11
-18.0
 21
-19.000015258789063
 31
0.0
  0
LINE
  5
1A7
100
AcDbEntity
  8
0
  6
DASHED
 62
               4
100
AcDbLine
 10
22.000015258789063
 20
-0.0000152587890625
 30
0.0
 11
4.0000152587890625
 21
-0.0000152587890625
 31
0.0
  0
LINE
  5
1A8
100
AcDbEntity
  8
0
  6
DASHED
 62
               4
100
AcDbLine
 10
22.000015258789063
 20
1.5999908447265625
 30
0.0
 11
-7.9999847412109375
 21
1.5999908447265625
 31
0.0
  0
LINE
  5
1A9
100
AcDbEntity
  8
0
  6
DASHED
 62
               4
100
AcDbLine
 10
-7.9999847412109375
 20
-0.0000152587890625
 30
0.0
 11
-7.9999847412109375
 21
1.5999908447265625
 31
0.0
  0
LINE
  5
1AA
100
AcDbEntity
  8
0
  6
CONTINUOUS
 62
             200
100
AcDbLine
 10
-13.0
 20
-0.5000152587890625
 30
0.0
 11
-13.0
 21
-7.5000152587890625
 31
0.0
  0
LINE
  5
1AB
100
AcDbEntity
  8
0
  6
CONTINUOUS
 62
             200
100
AcDbLine
 10
-9.4999847412109375
 20
-4.0000152587890625
 30
0.0
 11
-16.499984741210937
 21
-4.0000152587890625
 31
0.0
  0
LINE
  5
1AC
100
AcDbEntity
  8
0
  6
CONTINUOUS
 62
               7
100
AcDbLine
 10
4.0000152587890625
 20
-20.000015258789063
 30
0.0
 11
4.0000152587890625
 21
-0.0000152587890625
 31
0.0
  0
LINE
  5
1AD
100
AcDbEntity
  8
0
  6
CONTINUOUS
 62
               7
100
AcDbLine
 10
-6.9999847412109375
 20
-20.000015258789063
 30
0.0
 11
-6.9999847412109375
 21
-0.0000152587890625
 31
0.0
  0
LINE
  5
1AE
100
AcDbEntity
  8
0
  6
CONTINUOUS
 62
               7
100
AcDbLine
 10
4.0000152587890625
 20
-20.000015258789063
 30
0.0
 11
-6.9999847412109375
 21
-20.000015258789063
 31
0.0
  0
LINE
  5
1AF
100
AcDbEntity
  8
0
  6
CONTINUOUS
 62
               7
100
AcDbLine
 10
4.0000152587890625
 20
-0.0000152587890625
 30
0.0
 11
-6.9999847412109375
 21
-0.0000152587890625
 31
0.0
  0
LINE
  5
1B0
100
AcDbEntity
  8
0
  6
CONTINUOUS
 62
               7
100
AcDbLine
 10
32.439359237059762
 20
-5.0606974687434558
 30
0.0
 11
34.560680438384225
 21
-2.9393778767444019
 31
0.0
  0
LINE
  5
1B1
100
AcDbEntity
  8
0
  6
CONTINUOUS
 62
               7
100
AcDbLine
 10
32.439338462510932
 20
-2.9394418096344452
 30
0.0
 11
34.560658054509986
 21
-5.0607630109589081
 31
0.0
  0
LINE
  5
1B2
100
AcDbEntity
  8
0
  6
CONTINUOUS
 62
               7
100
AcDbLine
 10
10.5
 20
-16.000015258789063
 30
0.0
 11
10.5
 21
-19.000015258789063
 31
0.0
  0
LINE
  5
1B3
100
AcDbEntity
  8
0
  6
CONTINUOUS
 62
               7
100
AcDbLine
 10
7.5000152587890625
 20
-13.000015258789062
 30
0.0
 11
4.5000152587890625
 21
-13.000015258789062
 31
0.0
  0
LINE
  5
1B4
100
AcDbEntity
  8
0
  6
CONTINUOUS
 62
               7
100
AcDbLine
 10
8.5605809830312865
 20
-17.060769080592763
 30
0.0
 11
6.4392610334043638
 21
-14.939448236896169
 31
0.0
  0
LINE
  5
1B5
100
AcDbEntity
  8
0
  6
CONTINUOUS
 62
               7
100
AcDbLine
 10
8.5606353780540303
 20
-14.939351577600974
 30
0.0
 11
6.4393145343574361
 21
-17.060671527227896
 31
0.0
  0
LINE
  5
1B6
100
AcDbEntity
  8
0
  6
CONTINUOUS
 62
               7
100
AcDbLine
 10
36.500015258789063
 20
-4.0000152587890625
 30
0.0
 11
36.500015258789063
 21
-1.0000152587890625
 31
0.0
  0
LINE
  5
1B7
100
AcDbEntity
  8
0
  6
DASHED
 62
               4
100
AcDbLine
 10
-6.9999847412109375
 20
-0.0000152587890625
 30
0.0
 11
-18.0
 21
-0.0000152587890625
 31
0.0
  0
LINE
  5
1B8
100
AcDbEntity
  8
0
  6
DASHED
 62
               4
100
AcDbLine
 10
-3.9999847412109375
 20
-22.281539916992188
 30
0.0
 11
-3.9999847412109375
 21
-20.000015258789063
 31
0.0
  0
LINE
  5
1B9
100
AcDbEntity
  8
0
  6
DASHED
 62
               4
100
AcDbLine
 10
4.0000152587890625
 20
-22.281539916992188
 30
0.0
 11
4.0000152587890625
 21
-20.000015258789063
 31
0.0
  0
ARC
  5
1BA
100
AcDbEntity
  8
0
  6
CONTINUOUS
 62
               7
100
AcDbCircle
 10
33.500045776367188
 20
-4.0000152587890625
 30
0.0
 40
3.0
100
AcDbArc
 50
179.99996402782091
 51
0.0000919801827092
  0
ARC
  5
1BB
100
AcDbEntity
  8
0
  6
CONTINUOUS
 62
               7
100
AcDbCircle
 10
38.000030517578125
 20
-18.500015258789063
 30
0.0
 40
0.5
100
AcDbArc
 50
270.00001798608872
 51
0.0
  0
ARC
  5
1BC
100
AcDbEntity
  8
0
  6
CONTINUOUS
 62
               7
100
AcDbCircle
 10
38.000030517578125
 20
-1.5000152587890625
 30
0.0
 40
0.5
100
AcDbArc
 50
359.99998633962088
 51
89.999982013910454
  0
CIRCLE
  5
1BD
100
AcDbEntity
  8
0
  6
DASHED
 62
               4
100
AcDbCircle
 10
-12.999984741210938
 20
-15.0
 30
0.0
 40
2.25
  0
CIRCLE
  5
1BE
100
AcDbEntity
  8
0
  6
DASHED
 62
               4
100
AcDbCircle
 10
-12.999984741210938
 20
-4.0000152587890625
 30
0.0
 40
2.25
  0
CIRCLE
  5
1BF
100
AcDbEntity
  8
0
  6
CONTINUOUS
 62
               7
100
AcDbCircle
 10
33.500030517578125
 20
-4.0000152587890625
 30
0.0
 40
2.7999992370605469
  0
ARC
  5
1C0
100
AcDbEntity
  8
0
  6
CONTINUOUS
 62
               7
100
AcDbCircle
 10
7.5000152587890625
 20
-16.000015258789063
 30
0.0
 40
3.0
100
AcDbArc
 50
0.0
 51
89.999982013910454
  0
CIRCLE
  5
1C1
100
AcDbEntity
  8
0
  6
CONTINUOUS
 62
               7
100
AcDbCircle
 10
7.5000152587890625
 20
-16.000015258789063
 30
0.0
 40
2.7999992370605469
  0
ARC
  5
1C2
100
AcDbEntity
  8
0
  6
DASHED
 62
               4
100
AcDbCircle
 10
-3.1333160400390625
 20
-22.281539916992188
 30
0.0
 40
0.8666666746139526
100
AcDbArc
 50
179.99996402782091
 51
236.20569999088247
  0
ARC
  5
1C3
100
AcDbEntity
  8
0
  6
DASHED
 62
               4
100
AcDbCircle
 10
0.0000152587890625
 20
-17.600006103515625
 30
0.0
 40
6.5
100
AcDbArc
 50
236.20577193523982
 51
303.79429135769436
  0
ARC
  5
1C4
100
AcDbEntity
  8
0
  6
DASHED
 62
               4
100
AcDbCircle
 10
3.1333465576171875
 20
-22.281539916992188
 30
0.0
 40
0.8666666746139526
100
AcDbArc
 50
303.79430501807269
 51
0.0000273207566801
  0
LINE
  5
1C5
100
AcDbEntity
  8
0
  6
DASHED
 62
               4
100
AcDbLine
 10
-3.9999847412109375
 20
-21.000015258789063
 30
0.0
 11
4.0000152587890625
 21
-21.000015258789063
 31
0.0
  0
LINE
  5
1C6
100
AcDbEntity
  8
0
  6
DASHED
 62
               4
100
AcDbLine
 10
0.5000383488313673
 20
-20.00001111446727
 30
0.0
 11
0.7679880318846699
 21
-21.000013167407815
 31
0.0
  0
LINE
  5
1C7
100
AcDbEntity
  8
0
  6
DASHED
 62
               4
100
AcDbLine
 10
-0.4999632505805494
 20
-21.000012241185686
 30
0.0
 11
-0.7679129336338519
 21
-20.000010188245142
 31
0.0
  0
LINE
  5
1C8
100
AcDbEntity
  8
0
  6
DASHED
 62
               4
100
AcDbLine
 10
2.5000152587890625
 20
3.1999816894531534
 30
0.0
 11
-2.4999847412109375
 21
3.1999816894531534
 31
0.0
  0
LINE
  5
1C9
100
AcDbEntity
  8
0
  6
DASHED
 62
               4
100
AcDbLine
 10
2.5000152587890625
 20
2.0999908447265909
 30
0.0
 11
2.5000152587890625
 21
3.1999816894531534
 31
0.0
  0
LINE
  5
1CA
100
AcDbEntity
  8
0
  6
DASHED
 62
               4
100
AcDbLine
 10
-2.4999847412109375
 20
2.0999908447265909
 30
0.0
 11
-2.4999847412109375
 21
3.1999816894531534
 31
0.0
  0
ARC
  5
1CB
100
AcDbEntity
  8
0
  6
DASHED
 62
               4
100
AcDbCircle
 10
-2.9999847412109375
 20
2.0999908447265625
 30
0.0
 40
0.5
100
AcDbArc
 50
269.99996334457541
 51
0.0000179860890374
  0
ARC
  5
1CC
100
AcDbEntity
  8
0
  6
DASHED
 62
               4
100
AcDbCircle
 10
3.0000152587890625
 20
2.0999908447265625
 30
0.0
 40
0.5
100
AcDbArc
 50
179.99996402782091
 51
269.99994604173139
  0
LINE
  5
1CD
100
AcDbEntity
  8
0
  6
CONTINUOUS
 62
               7
100
AcDbLine
 10
48.000030517578125
 20
-1.0000152587890625
 30
0.0
 11
38.000030517578125
 21
-1.0000152587890625
 31
0.0
  0
LINE
  5
1CE
100
AcDbEntity
  8
0
  6
CONTINUOUS
 62
               7
100
AcDbLine
 10
43.500030517578125
 20
-18.500015258789063
 30
0.0
 11
43.500030517578125
 21
-1.5000152587890625
 31
0.0
  0
LINE
  5
1CF
100
AcDbEntity
  8
0
  6
CONTINUOUS
 62
               7
100
AcDbLine
 10
48.500030517578125
 20
-18.500015258789063
 30
0.0
 11
48.500030517578125
 21
-1.5000152587890625
 31
0.0
  0
ARC
  5
1D0
100
AcDbEntity
  8
0
  6
CONTINUOUS
 62
               7
100
AcDbCircle
 10
48.000030517578125
 20
-1.5000152587890625
 30
0.0
 40
0.5
100
AcDbArc
 50
359.99998633962088
 51
89.999982013910454
  0
ARC
  5
1D1
100
AcDbEntity
  8
0
  6
CONTINUOUS
 62
               7
100
AcDbCircle
 10
43.000030517578125
 20
-1.5000152587890625
 30
0.0
 40
0.5
100
AcDbArc
 50
359.99998633962088
 51
89.999982013910454
  0
LINE
  5
1D2
100
AcDbEntity
  8
0
  6
CONTINUOUS
 62
               7
100
AcDbLine
 10
48.000030517578125
 20
-19.000015258789063
 30
0.0
 11
38.000030517578125
 21
-19.000015258789063
 31
0.0
  0
ARC
  5
1D3
100
AcDbEntity
  8
0
  6
CONTINUOUS
 62
               7
100
AcDbCircle
 10
43.000030517578125
 20
-18.500015258789063
 30
0.0
 40
0.5
100
AcDbArc
 50
270.00001798608872
 51
0.0
  0
ARC
  5
1D4
100
AcDbEntity
  8
0
  6
CONTINUOUS
 62
               7
100
AcDbCircle
 10
48.000030517578125
 20
-18.500015258789063
 30
0.0
 40
0.5
100
AcDbArc
 50
270.00001798608872
 51
0.0
  0
LINE
  5
1D5
100
AcDbEntity
  8
0
  6
CONTINUOUS
 62
               7
100
AcDbLine
 10
4.5000152587890625
 20
-19.000015258789063
 30
0.0
 11
4.5000152587890625
 21
-1.0000152587890625
 31
0.0
  0
ENDBLK
  5
1D6
100
AcDbEntity
  8
0
100
AcDbBlockEnd
  0
BLOCK
  5
1D7
100
AcDbEntity
  8
0
100
AcDbBlockBegin
  2
F18T0-5
 70
               0
 10
0.0
 20
0.0
 30
0.0
  3
F18T0-5
  1

  0
LINE
  5
1D8
100
AcDbEntity
  8
0
  6
CONTINUOUS
 62
             200
100
AcDbLine
 10
5.0
 20
-2.6203382689734553
 30
0.0
 11
5.0
 21
35.326675415039062
 31
0.0
  0
ARC
  5
1D9
100
AcDbEntity
  8
0
  6
CONTINUOUS
 62
               4
100
AcDbCircle
 10
0.5500030517578125
 20
32.5
 30
0.0
 40
0.5
100
AcDbArc
 50
89.999982013910454
 51
179.99996402782091
  0
ARC
  5
1DA
100
AcDbEntity
  8
0
  6
CONTINUOUS
 62
               4
100
AcDbCircle
 10
9.4499969482421875
 20
32.5
 30
0.0
 40
0.5
100
AcDbArc
 50
359.99994535848583
 51
89.999982013910454
  0
LINE
  5
1DB
100
AcDbEntity
  8
0
  6
CONTINUOUS
 62
               4
100
AcDbLine
 10
0.0
 20
0.0
 30
0.0
 11
0.0
 21
24.0
 31
0.0
  0
LINE
  5
1DC
100
AcDbEntity
  8
0
  6
CONTINUOUS
 62
               4
100
AcDbLine
 10
10.0
 20
0.0
 30
0.0
 11
10.0
 21
24.0
 31
0.0
  0
LINE
  5
1DD
100
AcDbEntity
  8
0
  6
CONTINUOUS
 62
               4
100
AcDbLine
 10
9.9499969482421875
 20
24.0
 30
0.0
 11
9.9499969482421875
 21
32.5
 31
0.0
  0
LINE
  5
1DE
100
AcDbEntity
  8
0
  6
CONTINUOUS
 62
               4
100
AcDbLine
 10
9.9499969482421875
 20
28.5
 30
0.0
 11
0.0500030517578125
 21
28.5
 31
0.0
  0
LINE
  5
1DF
100
AcDbEntity
  8
0
  6
CONTINUOUS
 62
               4
100
AcDbLine
 10
9.5000152587890625
 20
33.0
 30
0.0
 11
0.5000152587890625
 21
33.0
 31
0.0
  0
LINE
  5
1E0
100
AcDbEntity
  8
0
  6
CONTINUOUS
 62
               4
100
AcDbLine
 10
0.0500030517578125
 20
24.0
 30
0.0
 11
0.0500030517578125
 21
32.5
 31
0.0
  0
LINE
  5
1E1
100
AcDbEntity
  8
0
  6
CONTINUOUS
 62
               4
100
AcDbLine
 10
0.0000152587890625
 20
24.0
 30
0.0
 11
10.000015258789062
 21
24.0
 31
0.0
  0
ENDBLK
  5
1E2
100
AcDbEntity
  8
0
100
AcDbBlockEnd
  0
BLOCK
  5
1E3
100
AcDbEntity
  8
0
100
AcDbBlockBegin
  2
F18T0-6
 70
               0
 10
0.0
 20
0.0
 30
0.0
  3
F18T0-6
  1

  0
LINE
  5
1E4
100
AcDbEntity
  8
0
  6
CONTINUOUS
 62
               4
100
AcDbLine
 10
11.999996111111797
 20
20.999997222221879
 30
0.0
 11
11.999999444445162
 21
2.999997222222186
 31
0.0
  0
LINE
  5
1E5
100
AcDbEntity
  8
0
  6
CONTINUOUS
 62
               4
100
AcDbLine
 10
4.9999961111119164
 20
20.999995925925592
 30
0.0
 11
4.9999994444452822
 21
2.9999959259259024
 31
0.0
  0
LINE
  5
1E6
100
AcDbEntity
  8
0
  6
CONTINUOUS
 62
               4
100
AcDbLine
 10
13.999996111111763
 20
20.999997592592276
 30
0.0
 11
4.9999961111119164
 21
20.999995925925592
 31
0.0
  0
LINE
  5
1E7
100
AcDbEntity
  8
0
  6
CONTINUOUS
 62
               4
100
AcDbLine
 10
13.999999444445129
 20
2.9999975925925852
 30
0.0
 11
4.9999994444452822
 21
2.9999959259259024
 31
0.0
  0
LINE
  5
1E8
100
AcDbEntity
  8
0
  6
CONTINUOUS
 62
               4
100
AcDbLine
 10
-29.500003527776933
 20
19.049992502531435
 30
0.0
 11
-29.500003675925662
 21
19.849995554289237
 31
0.0
  0
LINE
  5
1E9
100
AcDbEntity
  8
0
  6
CONTINUOUS
 62
               4
100
AcDbLine
 10
-29.500004138888603
 20
22.349995554289194
 30
0.0
 11
-29.500003990739934
 21
21.549992502531396
 31
0.0
  0
LINE
  5
1EA
100
AcDbEntity
  8
0
  6
CONTINUOUS
 62
               4
100
AcDbLine
 10
-20.491123581991005
 20
22.665014922795731
 30
0.0
 11
-24.500019456014371
 21
22.665014180407606
 31
0.0
  0
LINE
  5
1EB
100
AcDbEntity
  8
0
  6
CONTINUOUS
 62
               4
100
AcDbLine
 10
-20.874302028112194
 20
21.235006917266414
 30
0.0
 11
-24.500019191198124
 21
21.235006245837319
 31
0.0
  0
LINE
  5
1EC
100
AcDbEntity
  8
0
  6
CONTINUOUS
 62
               4
100
AcDbLine
 10
-21.160999217660859
 20
20.16501479874464
 30
0.0
 11
-24.50001899305143
 21
20.165014180407649
 31
0.0
  0
LINE
  5
1ED
100
AcDbEntity
  8
0
  6
CONTINUOUS
 62
               4
100
AcDbLine
 10
-21.544177663782055
 20
18.735006793215323
 30
0.0
 11
-24.500018728235126
 21
18.735006245837361
 31
0.0
  0
LINE
  5
1EE
100
AcDbEntity
  8
0
  6
CONTINUOUS
 62
               4
100
AcDbLine
 10
-16.500003055554359
 20
16.49999185818109
 30
0.0
 11
-16.500004722221039
 21
25.499991858180937
 31
0.0
  0
LINE
  5
1EF
100
AcDbEntity
  8
0
  6
CONTINUOUS
 62
               4
100
AcDbLine
 10
-16.500004829137104
 20
26.077338659938743
 30
0.0
 11
-16.50000509259144
 21
27.499991858180906
 31
0.0
  0
LINE
  5
1F0
100
AcDbEntity
  8
0
  6
CONTINUOUS
 62
               4
100
AcDbLine
 10
-5.9984635845259078
 20
25.49999380291078
 30
0.0
 11
-5.9984637697111074
 21
26.499993802910765
 31
0.0
  0
LINE
  5
1F1
100
AcDbEntity
  8
0
  6
CONTINUOUS
 62
               4
100
AcDbLine
 10
-15.000004999998865
 20
26.99999213595871
 30
0.0
 11
-15.000005092591465
 21
27.499992135958703
 31
0.0
  0
LINE
  5
1F2
100
AcDbEntity
  8
0
  6
CONTINUOUS
 62
               4
100
AcDbLine
 10
-10.000003148147069
 20
16.999993061884826
 30
0.0
 11
-15.500003148146975
 21
16.999992043366284
 31
0.0
  0
LINE
  5
1F3
100
AcDbEntity
  8
0
  6
CONTINUOUS
 62
               4
100
AcDbLine
 10
-15.500003055554377
 20
16.499992043366291
 30
0.0
 11
-16.500003055554359
 21
16.49999185818109
 31
0.0
  0
LINE
  5
1F4
100
AcDbEntity
  8
0
  6
CONTINUOUS
 62
               4
100
AcDbLine
 10
-15.500003055554377
 20
16.499992043366291
 30
0.0
 11
-15.500003148146975
 21
16.999992043366284
 31
0.0
  0
LINE
  5
1F5
100
AcDbEntity
  8
0
  6
CONTINUOUS
 62
               4
100
AcDbLine
 10
-9.5561573437489589
 20
26.999993144078619
 30
0.0
 11
-15.000004999998865
 21
26.99999213595871
 31
0.0
  0
LINE
  5
1F6
100
AcDbEntity
  8
0
  6
CONTINUOUS
 62
               4
100
AcDbLine
 10
-5.998459486888267
 20
26.50006495046841
 30
0.0
 11
-9.5561476631695275
 21
27.000063614653047
 31
0.0
  0
LINE
  5
1F7
100
AcDbEntity
  8
0
  6
CONTINUOUS
 62
               4
100
AcDbLine
 10
-10.000004722221153
 20
25.499993061884677
 30
0.0
 11
-16.500004722221039
 21
25.499991858180937
 31
0.0
  0
LINE
  5
1F8
100
AcDbEntity
  8
0
  6
CONTINUOUS
 62
               4
100
AcDbLine
 10
-15.500004680395783
 20
25.499970482452735
 30
0.0
 11
-16.49999903889595
 21
26.07731661725067
 31
0.0
  0
LINE
  5
1F9
100
AcDbEntity
  8
0
  6
CONTINUOUS
 62
               4
100
AcDbLine
 10
-15.000005092591465
 20
27.499992135958703
 30
0.0
 11
-16.50000509259144
 21
27.499991858180906
 31
0.0
  0
LINE
  5
1FA
100
AcDbEntity
  8
0
  6
CONTINUOUS
 62
               4
100
AcDbLine
 10
-16.500004197225447
 20
22.665015661891921
 30
0.0
 11
-19.455845261678519
 21
22.665015114513963
 31
0.0
  0
LINE
  5
1FB
100
AcDbEntity
  8
0
  6
CONTINUOUS
 62
               4
100
AcDbLine
 10
-16.500003932409143
 20
21.235007727321637
 30
0.0
 11
-19.839023707799711
 21
21.235007108984647
 31
0.0
  0
LINE
  5
1FC
100
AcDbEntity
  8
0
  6
CONTINUOUS
 62
               4
100
AcDbLine
 10
-16.500003469446199
 20
18.73500772732168
 30
0.0
 11
-20.508899343469572
 21
18.735006984933555
 31
0.0
  0
LINE
  5
1FD
100
AcDbEntity
  8
0
  6
CONTINUOUS
 62
               4
100
AcDbLine
 10
-16.500003734262503
 20
20.165015661891967
 30
0.0
 11
-20.12572089734838
 21
20.165014990462872
 31
0.0
  0
LINE
  5
1FE
100
AcDbEntity
  8
0
  6
CONTINUOUS
 62
             200
100
AcDbLine
 10
-19.053940182232946
 20
24.16499764405771
 30
0.0
 11
-20.910832051823018
 21
17.234977767321798
 31
0.0
  0
LINE
  5
1FF
100
AcDbEntity
  8
0
  6
CONTINUOUS
 62
             200
100
AcDbLine
 10
-20.089219040992599
 20
24.164987406663048
 30
0.0
 11
-21.946106961320275
 21
17.23498226878608
 31
0.0
  0
LINE
  5
200
100
AcDbEntity
  8
0
  6
CONTINUOUS
 62
               4
100
AcDbLine
 10
26.999994780555987
 20
28.184999913896242
 30
0.0
 11
26.999995555555984
 21
23.999999913896307
 31
0.0
  0
LINE
  5
201
100
AcDbEntity
  8
0
  6
CONTINUOUS
 62
               4
100
AcDbLine
 10
24.674993888889354
 20
32.999999483340616
 30
0.0
 11
-2.5030868043678507
 21
32.999994450362671
 31
0.0
  0
LINE
  5
202
100
AcDbEntity
  8
0
  6
CONTINUOUS
 62
               4
100
AcDbLine
 10
12.249995462963666
 20
24.499997182414806
 30
0.0
 11
12.249995555556266
 21
23.999997182414813
 31
0.0
  0
LINE
  5
203
100
AcDbEntity
  8
0
  6
CONTINUOUS
 62
               4
100
AcDbLine
 10
14.749995462963625
 20
24.499997645377803
 30
0.0
 11
14.749995555556223
 21
23.99999764537781
 31
0.0
  0
LINE
  5
204
100
AcDbEntity
  8
0
  6
CONTINUOUS
 62
               4
100
AcDbLine
 10
14.749995462963625
 20
24.499997645377803
 30
0.0
 11
12.249995462963666
 21
24.499997182414806
 31
0.0
  0
LINE
  5
205
100
AcDbEntity
  8
0
  6
CONTINUOUS
 62
               4
100
AcDbLine
 10
25.129993943518976
 20
32.704999567599835
 30
0.0
 11
26.869994668518956
 21
28.789999889822159
 31
0.0
  0
ARC
  5
206
100
AcDbEntity
  8
0
  6
CONTINUOUS
 62
               4
100
AcDbCircle
 10
24.675681844861813
 20
32.502670595545595
 30
0.0
 40
0.4973293636201366
100
AcDbArc
 50
24.005914198966398
 51
90.079257307463294
  0
ARC
  5
207
100
AcDbEntity
  8
0
  6
CONTINUOUS
 62
               4
100
AcDbCircle
 10
25.501118729907986
 20
28.179394038443622
 30
0.0
 40
1.4988865337462252
100
AcDbArc
 50
0.2142882369555173
 51
24.039915053564229
  0
LINE
  5
208
100
AcDbEntity
  8
0
  6
CONTINUOUS
 62
               4
100
AcDbLine
 10
19.899995111111654
 20
26.399998599081474
 30
0.0
 11
19.899995287037584
 21
25.449998599081443
 31
0.0
  0
LINE
  5
209
100
AcDbEntity
  8
0
  6
CONTINUOUS
 62
               4
100
AcDbLine
 10
6.9999951111119003
 20
26.399996210192537
 30
0.0
 11
6.9999952870377999
 21
25.449996210192563
 31
0.0
  0
LINE
  5
20A
100
AcDbEntity
  8
0
  6
CONTINUOUS
 62
               4
100
AcDbLine
 10
21.999995111111645
 20
26.39999898797036
 30
0.0
 11
19.899995111111654
 21
26.399998599081474
 31
0.0
  0
LINE
  5
20B
100
AcDbEntity
  8
0
  6
CONTINUOUS
 62
               4
100
AcDbLine
 10
6.9999951111119003
 20
26.399996210192537
 30
0.0
 11
4.8999951111119131
 21
26.399995821303651
 31
0.0
  0
LINE
  5
20C
100
AcDbEntity
  8
0
  6
CONTINUOUS
 62
               4
100
AcDbLine
 10
21.999995111111645
 20
26.39999898797036
 30
0.0
 11
21.999995287037574
 21
25.449998987970329
 31
0.0
  0
LINE
  5
20D
100
AcDbEntity
  8
0
  6
CONTINUOUS
 62
               4
100
AcDbLine
 10
4.8999951111119131
 20
26.399995821303651
 30
0.0
 11
4.8999952870378412
 21
25.449995821303677
 31
0.0
  0
LINE
  5
20E
100
AcDbEntity
  8
0
  6
CONTINUOUS
 62
               4
100
AcDbLine
 10
6.9999952870377999
 20
25.449996210192563
 30
0.0
 11
4.8999952870378412
 21
25.449995821303677
 31
0.0
  0
LINE
  5
20F
100
AcDbEntity
  8
0
  6
CONTINUOUS
 62
               4
100
AcDbLine
 10
21.999995287037574
 20
25.449998987970329
 30
0.0
 11
19.899995287037584
 21
25.449998599081443
 31
0.0
  0
LINE
  5
210
100
AcDbEntity
  8
0
  6
CONTINUOUS
 62
               4
100
AcDbLine
 10
1.499995259260108
 20
25.599995191674054
 30
0.0
 11
1.4999955555563933
 21
23.99999519167406
 31
0.0
  0
LINE
  5
211
100
AcDbEntity
  8
0
  6
CONTINUOUS
 62
               4
100
AcDbLine
 10
-3.0000060185175554
 20
32.499994357701596
 30
0.0
 11
-3.0000047407398145
 21
25.599994357701739
 31
0.0
  0
ARC
  5
212
100
AcDbEntity
  8
0
  6
CONTINUOUS
 62
               4
100
AcDbCircle
 10
-2.5015464688211533
 20
32.501534900027195
 30
0.0
 40
0.4984619302958243
100
AcDbArc
 50
89.822943075727508
 51
180.17707814493156
  0
LINE
  5
213
100
AcDbEntity
  8
0
  6
CONTINUOUS
 62
               4
100
AcDbLine
 10
1.499995259260108
 20
25.599995191674054
 30
0.0
 11
-3.0000047407398149
 21
25.599994358340716
 31
0.0
  0
LINE
  5
214
100
AcDbEntity
  8
0
  6
CONTINUOUS
 62
               4
100
AcDbLine
 10
26.999995555556012
 20
23.999999913736577
 30
0.0
 11
1.3999955555564292
 21
23.999995172995785
 31
0.0
  0
LINE
  5
215
100
AcDbEntity
  8
0
  6
CONTINUOUS
 62
               4
100
AcDbLine
 10
26.999995555556012
 20
23.999999913736577
 30
0.0
 11
27.000000000000462
 21
-0.0000000862630101
 31
0.0
  0
LINE
  5
216
100
AcDbEntity
  8
0
  6
CONTINUOUS
 62
               4
100
AcDbLine
 10
-0.0000031481472405
 20
16.99999491373665
 30
0.0
 11
0.0
 21
0.0
 31
0.0
  0
LINE
  5
217
100
AcDbEntity
  8
0
  6
CONTINUOUS
 62
               4
100
AcDbLine
 10
-10.000003148147069
 20
16.999993061884826
 30
0.0
 11
1.3999968518527128
 21
16.999995172995906
 31
0.0
  0
LINE
  5
218
100
AcDbEntity
  8
0
  6
CONTINUOUS
 62
               4
100
AcDbLine
 10
-10.000004722221153
 20
25.499993061884677
 30
0.0
 11
1.3999952777786298
 21
25.49999517299576
 31
0.0
  0
LINE
  5
219
100
AcDbEntity
  8
0
  6
CONTINUOUS
 62
               4
100
AcDbLine
 10
-10.000004722221153
 20
25.499993061884677
 30
0.0
 11
-10.000003148147069
 21
16.999993061884826
 31
0.0
  0
LINE
  5
21A
100
AcDbEntity
  8
0
  6
CONTINUOUS
 62
               4
100
AcDbLine
 10
1.3999968518527128
 20
16.999995172995906
 30
0.0
 11
1.3999952777786306
 21
25.499995168704253
 31
0.0
  0
LINE
  5
21B
100
AcDbEntity
  8
0
  6
CONTINUOUS
 62
               4
100
AcDbLine
 10
-24.500003469443229
 20
18.734990987051134
 30
0.0
 11
-24.500003734259533
 21
20.164998921621422
 31
0.0
  0
LINE
  5
21C
100
AcDbEntity
  8
0
  6
CONTINUOUS
 62
               4
100
AcDbLine
 10
-24.500004197222477
 20
22.664998921621375
 30
0.0
 11
-24.500003932406173
 21
21.234990987051091
 31
0.0
  0
LINE
  5
21D
100
AcDbEntity
  8
0
  6
CONTINUOUS
 62
               4
100
AcDbLine
 10
-24.500019249529082
 20
21.549993428454503
 30
0.0
 11
-29.500003990739934
 21
21.549992502531396
 31
0.0
  0
LINE
  5
21E
100
AcDbEntity
  8
0
  6
CONTINUOUS
 62
               4
100
AcDbLine
 10
-24.50001939767775
 20
22.349996480212301
 30
0.0
 11
-29.500004138888603
 21
22.349995554289194
 31
0.0
  0
LINE
  5
21F
100
AcDbEntity
  8
0
  6
CONTINUOUS
 62
               4
100
AcDbLine
 10
-24.500018786566081
 20
19.049993428454542
 30
0.0
 11
-29.500003527776933
 21
19.049992502531435
 31
0.0
  0
LINE
  5
220
100
AcDbEntity
  8
0
  6
CONTINUOUS
 62
               4
100
AcDbLine
 10
-24.500018934714809
 20
19.849996480212344
 30
0.0
 11
-29.500003675925662
 21
19.849995554289237
 31
0.0
  0
ENDBLK
  5
221
100
AcDbEntity
  8
0
100
AcDbBlockEnd
  0
BLOCK
  5
222
100
AcDbEntity
  8
0
100
AcDbBlockBegin
  2
F18T0-7
 70
               0
 10
0.0
 20
0.0
 30
0.0
  3
F18T0-7
  1

  0
LINE
  5
223
100
AcDbEntity
  8
0
  6
CONTINUOUS
 62
               4
100
AcDbLine
 10
-11.999764528316271
 20
21.000904527341152
 30
0.0
 11
-11.999755528316294
 21
3.000904527343403
 31
0.0
  0
LINE
  5
224
100
AcDbEntity
  8
0
  6
CONTINUOUS
 62
               4
100
AcDbLine
 10
-4.9997645283171446
 20
21.000908027341143
 30
0.0
 11
-4.9997555283171673
 21
3.0009080273433941
 31
0.0
  0
LINE
  5
225
100
AcDbEntity
  8
0
  6
CONTINUOUS
 62
               4
100
AcDbLine
 10
-4.9997645283171446
 20
21.000908027341143
 30
0.0
 11
-13.999764528316021
 21
21.000903527341155
 31
0.0
  0
LINE
  5
226
100
AcDbEntity
  8
0
  6
CONTINUOUS
 62
               4
100
AcDbLine
 10
-4.9997555283171673
 20
3.0009080273433941
 30
0.0
 11
-13.999755528316044
 21
3.0009035273434055
 31
0.0
  0
LINE
  5
227
100
AcDbEntity
  8
0
  6
CONTINUOUS
 62
               4
100
AcDbLine
 10
16.500237721680204
 20
16.500918691078663
 30
0.0
 11
16.500233221680215
 21
25.500918691077541
 31
0.0
  0
LINE
  5
228
100
AcDbEntity
  8
0
  6
CONTINUOUS
 62
               4
100
AcDbLine
 10
16.500232933006814
 20
26.078265492835278
 30
0.0
 11
16.500232221680218
 21
27.500918691077288
 31
0.0
  0
LINE
  5
229
100
AcDbEntity
  8
0
  6
CONTINUOUS
 62
               4
100
AcDbLine
 10
5.9986920839862163
 20
25.500913440306984
 30
0.0
 11
5.9986915839862176
 21
26.50091344030686
 31
0.0
  0
LINE
  5
22A
100
AcDbEntity
  8
0
  6
CONTINUOUS
 62
               4
100
AcDbLine
 10
15.000232471680405
 20
27.000917941077354
 30
0.0
 11
15.000232221680406
 21
27.50091794107729
 31
0.0
  0
LINE
  5
22B
100
AcDbEntity
  8
0
  6
CONTINUOUS
 62
               4
100
AcDbLine
 10
10.000237471681018
 20
17.000915441078611
 30
0.0
 11
15.500237471680331
 21
17.000918191078604
 31
0.0
  0
LINE
  5
22C
100
AcDbEntity
  8
0
  6
CONTINUOUS
 62
               4
100
AcDbLine
 10
15.50023772168033
 20
16.500918191078664
 30
0.0
 11
16.500237721680204
 21
16.500918691078663
 31
0.0
  0
LINE
  5
22D
100
AcDbEntity
  8
0
  6
CONTINUOUS
 62
               4
100
AcDbLine
 10
15.50023772168033
 20
16.500918191078664
 30
0.0
 11
15.500237471680331
 21
17.000918191078604
 31
0.0
  0
LINE
  5
22E
100
AcDbEntity
  8
0
  6
CONTINUOUS
 62
               4
100
AcDbLine
 10
9.5563848154310858
 20
27.000915219153534
 30
0.0
 11
15.000232471680405
 21
27.000917941077354
 31
0.0
  0
LINE
  5
22F
100
AcDbEntity
  8
0
  6
CONTINUOUS
 62
               4
100
AcDbLine
 10
5.9986873011146278
 20
26.500984587861527
 30
0.0
 11
9.5563751348033659
 21
27.000985689721301
 31
0.0
  0
LINE
  5
230
100
AcDbEntity
  8
0
  6
CONTINUOUS
 62
               4
100
AcDbLine
 10
10.000233221681029
 20
25.500915441077549
 30
0.0
 11
16.500233221680215
 21
25.500918691077541
 31
0.0
  0
LINE
  5
231
100
AcDbEntity
  8
0
  6
CONTINUOUS
 62
               4
100
AcDbLine
 10
15.500233179869827
 20
25.50089663016411
 30
0.0
 11
16.500227142780751
 21
26.078243450143258
 31
0.0
  0
LINE
  5
232
100
AcDbEntity
  8
0
  6
CONTINUOUS
 62
               4
100
AcDbLine
 10
15.000232221680406
 20
27.50091794107729
 30
0.0
 11
16.500232221680218
 21
27.500918691077288
 31
0.0
  0
LINE
  5
233
100
AcDbEntity
  8
0
  6
CONTINUOUS
 62
               4
100
AcDbLine
 10
29.500236446677057
 20
19.050928242836143
 30
0.0
 11
29.500236046675532
 21
19.850931294593856
 31
0.0
  0
LINE
  5
234
100
AcDbEntity
  8
0
  6
CONTINUOUS
 62
               4
100
AcDbLine
 10
24.50025130546522
 20
19.85092879460149
 30
0.0
 11
29.500236046675532
 21
19.850931294593856
 31
0.0
  0
LINE
  5
235
100
AcDbEntity
  8
0
  6
CONTINUOUS
 62
               4
100
AcDbLine
 10
24.500251705466745
 20
19.050925742843777
 30
0.0
 11
29.500236446677057
 21
19.050928242836143
 31
0.0
  0
LINE
  5
236
100
AcDbEntity
  8
0
  6
CONTINUOUS
 62
               4
100
AcDbLine
 10
16.500234639168308
 20
22.66594249478883
 30
0.0
 11
19.456075703621064
 21
22.665943972709357
 31
0.0
  0
LINE
  5
237
100
AcDbEntity
  8
0
  6
CONTINUOUS
 62
               4
100
AcDbLine
 10
16.500235354172275
 20
21.235934560218698
 30
0.0
 11
19.839255129562485
 21
21.235936229728583
 31
0.0
  0
LINE
  5
238
100
AcDbEntity
  8
0
  6
CONTINUOUS
 62
               4
100
AcDbLine
 10
16.500236604172272
 20
18.735934560219011
 30
0.0
 11
20.509132478195209
 21
18.735936564666943
 31
0.0
  0
LINE
  5
239
100
AcDbEntity
  8
0
  6
CONTINUOUS
 62
               4
100
AcDbLine
 10
16.500235889168305
 20
20.165942494789142
 30
0.0
 11
20.125953052253791
 21
20.16594430764772
 31
0.0
  0
LINE
  5
23A
100
AcDbEntity
  8
0
  6
CONTINUOUS
 62
               4
100
AcDbLine
 10
24.500250055465223
 20
22.350928794601177
 30
0.0
 11
29.500234796675535
 21
22.350931294593543
 31
0.0
  0
LINE
  5
23B
100
AcDbEntity
  8
0
  6
CONTINUOUS
 62
               4
100
AcDbLine
 10
24.500250455466748
 20
21.550925742843464
 30
0.0
 11
29.50023519667706
 21
21.55092824283583
 31
0.0
  0
LINE
  5
23C
100
AcDbEntity
  8
0
  6
CONTINUOUS
 62
               4
100
AcDbLine
 10
29.500234796675535
 20
22.350931294593543
 30
0.0
 11
29.50023519667706
 21
21.55092824283583
 31
0.0
  0
LINE
  5
23D
100
AcDbEntity
  8
0
  6
CONTINUOUS
 62
               4
100
AcDbLine
 10
24.500236604178902
 20
18.735923301429938
 30
0.0
 11
24.500235889174938
 21
20.16593123600007
 31
0.0
  0
LINE
  5
23E
100
AcDbEntity
  8
0
  6
CONTINUOUS
 62
               4
100
AcDbLine
 10
24.500234639174941
 20
22.665931235999757
 30
0.0
 11
24.500235354178905
 21
21.235923301429626
 31
0.0
  0
LINE
  5
23F
100
AcDbEntity
  8
0
  6
CONTINUOUS
 62
               4
100
AcDbLine
 10
21.544410798507581
 20
18.735937082306101
 30
0.0
 11
24.500251862960337
 21
18.735938560226629
 31
0.0
  0
LINE
  5
240
100
AcDbEntity
  8
0
  6
CONTINUOUS
 62
               4
100
AcDbLine
 10
21.16123137256616
 20
20.165944825286878
 30
0.0
 11
24.500251147956369
 21
20.16594649479676
 31
0.0
  0
LINE
  5
241
100
AcDbEntity
  8
0
  6
CONTINUOUS
 62
               4
100
AcDbLine
 10
20.874533449874853
 20
21.235936747367742
 30
0.0
 11
24.50025061296034
 21
21.235938560226316
 31
0.0
  0
LINE
  5
242
100
AcDbEntity
  8
0
  6
CONTINUOUS
 62
               4
100
AcDbLine
 10
20.491354023933436
 20
22.665944490348519
 30
0.0
 11
24.500249897956373
 21
22.665946494796447
 31
0.0
  0
LINE
  5
243
100
AcDbEntity
  8
0
  6
CONTINUOUS
 62
             200
100
AcDbLine
 10
19.054169596409761
 20
24.165926226873374
 30
0.0
 11
20.911066214346398
 21
17.23590762245388
 31
0.0
  0
LINE
  5
244
100
AcDbEntity
  8
0
  6
CONTINUOUS
 62
             200
100
AcDbLine
 10
20.08944845517621
 20
24.165916698836412
 30
0.0
 11
21.946341123840291
 21
17.235912833273169
 31
0.0
  0
LINE
  5
245
100
AcDbEntity
  8
0
  6
CONTINUOUS
 62
               4
100
AcDbLine
 10
-26.999768120814341
 20
28.185896941077203
 30
0.0
 11
-26.999766028314347
 21
24.000896941077784
 31
0.0
  0
LINE
  5
246
100
AcDbEntity
  8
0
  6
CONTINUOUS
 62
               4
100
AcDbLine
 10
-24.674770528314625
 20
33.000898103576652
 30
0.0
 11
2.5033103717152718
 21
33.000911692617066
 31
0.0
  0
LINE
  5
247
100
AcDbEntity
  8
0
  6
CONTINUOUS
 62
               4
100
AcDbLine
 10
-12.249766278316191
 20
24.500904316077701
 30
0.0
 11
-12.249766028316191
 21
24.000904316077765
 31
0.0
  0
LINE
  5
248
100
AcDbEntity
  8
0
  6
CONTINUOUS
 62
               4
100
AcDbLine
 10
-14.749766278315878
 20
24.500903066077704
 30
0.0
 11
-14.749766028315879
 21
24.000903066077768
 31
0.0
  0
LINE
  5
249
100
AcDbEntity
  8
0
  6
CONTINUOUS
 62
               4
100
AcDbLine
 10
-14.749766278315878
 20
24.500903066077704
 30
0.0
 11
-12.249766278316191
 21
24.500904316077701
 31
0.0
  0
LINE
  5
24A
100
AcDbEntity
  8
0
  6
CONTINUOUS
 62
               4
100
AcDbLine
 10
-25.129770380814566
 20
32.705897876076619
 30
0.0
 11
-26.869768423314365
 21
28.790897006077145
 31
0.0
  0
ARC
  5
24B
100
AcDbEntity
  8
0
  6
CONTINUOUS
 62
               4
100
AcDbCircle
 10
-24.675458143524686
 20
32.50356921531035
 30
0.0
 40
0.4973293636201366
100
AcDbArc
 50
89.920781950755611
 51
155.9941250592525
  0
ARC
  5
24C
100
AcDbEntity
  8
0
  6
CONTINUOUS
 62
               4
100
AcDbCircle
 10
-25.500892066325623
 20
28.180292092632278
 30
0.0
 40
1.4988865337462252
100
AcDbArc
 50
155.96012420465465
 51
179.78575102126337
  0
LINE
  5
24D
100
AcDbEntity
  8
0
  6
CONTINUOUS
 62
               4
100
AcDbLine
 10
-19.899767228315223
 20
26.400900491077451
 30
0.0
 11
-19.899766753315227
 21
25.450900491077523
 31
0.0
  0
LINE
  5
24E
100
AcDbEntity
  8
0
  6
CONTINUOUS
 62
               4
100
AcDbLine
 10
-6.9997672283168448
 20
26.400906941077434
 30
0.0
 11
-6.9997667533168464
 21
25.450906941077506
 31
0.0
  0
LINE
  5
24F
100
AcDbEntity
  8
0
  6
CONTINUOUS
 62
               4
100
AcDbLine
 10
-21.999767228314969
 20
26.400899441077453
 30
0.0
 11
-19.899767228315223
 21
26.400900491077451
 31
0.0
  0
LINE
  5
250
100
AcDbEntity
  8
0
  6
CONTINUOUS
 62
               4
100
AcDbLine
 10
-6.9997672283168448
 20
26.400906941077434
 30
0.0
 11
-4.8997672283170983
 21
26.400907991077432
 31
0.0
  0
LINE
  5
251
100
AcDbEntity
  8
0
  6
CONTINUOUS
 62
               4
100
AcDbLine
 10
-21.999767228314969
 20
26.400899441077453
 30
0.0
 11
-21.999766753314972
 21
25.450899441077524
 31
0.0
  0
LINE
  5
252
100
AcDbEntity
  8
0
  6
CONTINUOUS
 62
               4
100
AcDbLine
 10
-4.8997672283170983
 20
26.400907991077432
 30
0.0
 11
-4.8997667533170999
 21
25.450907991077504
 31
0.0
  0
LINE
  5
253
100
AcDbEntity
  8
0
  6
CONTINUOUS
 62
               4
100
AcDbLine
 10
-6.9997667533168464
 20
25.450906941077506
 30
0.0
 11
-4.8997667533170999
 21
25.450907991077504
 31
0.0
  0
LINE
  5
254
100
AcDbEntity
  8
0
  6
CONTINUOUS
 62
               4
100
AcDbLine
 10
-21.999766753314972
 20
25.450899441077524
 30
0.0
 11
-19.899766753315227
 21
25.450900491077523
 31
0.0
  0
LINE
  5
255
100
AcDbEntity
  8
0
  6
CONTINUOUS
 62
               4
100
AcDbLine
 10
-1.4997668283175338
 20
25.600909691077515
 30
0.0
 11
-1.4997660283175358
 21
24.000909691077752
 31
0.0
  0
LINE
  5
256
100
AcDbEntity
  8
0
  6
CONTINUOUS
 62
               4
100
AcDbLine
 10
3.0002297216819129
 20
32.50091194107668
 30
0.0
 11
3.000233171681904
 21
25.600911941077509
 31
0.0
  0
ARC
  5
257
100
AcDbEntity
  8
0
  6
CONTINUOUS
 62
               4
100
AcDbCircle
 10
2.5017701709300466
 20
32.502452141865149
 30
0.0
 40
0.4984619302958243
100
AcDbArc
 50
359.82296111328651
 51
90.177096182491383
  0
LINE
  5
258
100
AcDbEntity
  8
0
  6
CONTINUOUS
 62
               4
100
AcDbLine
 10
-1.4997668283175338
 20
25.600909691077515
 30
0.0
 11
3.000233171681904
 21
25.600911941077509
 31
0.0
  0
LINE
  5
259
100
AcDbEntity
  8
0
  6
CONTINUOUS
 62
               4
100
AcDbLine
 10
-26.999766028314347
 20
24.000896941077784
 30
0.0
 11
-1.3997660283175397
 21
24.000909741077752
 31
0.0
  0
LINE
  5
25A
100
AcDbEntity
  8
0
  6
CONTINUOUS
 62
               4
100
AcDbLine
 10
10.000237471681018
 20
17.000915441078611
 30
0.0
 11
-1.3997625283175485
 21
17.000909741078626
 31
0.0
  0
LINE
  5
25B
100
AcDbEntity
  8
0
  6
CONTINUOUS
 62
               4
100
AcDbLine
 10
10.000233221681029
 20
25.500915441077549
 30
0.0
 11
-1.3997667783175378
 21
25.500909741077564
 31
0.0
  0
LINE
  5
25C
100
AcDbEntity
  8
0
  6
CONTINUOUS
 62
               4
100
AcDbLine
 10
10.000233221681029
 20
25.500915441077549
 30
0.0
 11
10.000237471681018
 21
17.000915441078611
 31
0.0
  0
LINE
  5
25D
100
AcDbEntity
  8
0
  6
CONTINUOUS
 62
               4
100
AcDbLine
 10
-1.3997625283175485
 20
17.000909741078626
 30
0.0
 11
-1.3997667783175356
 21
25.500909736785999
 31
0.0
  0
LINE
  5
25E
100
AcDbEntity
  8
0
  6
CONTINUOUS
 62
               4
100
AcDbLine
 10
0.000237471682268
 20
17.000910441078624
 30
0.0
 11
0.0002459716797034
 21
0.00091552734375
 31
0.0
  0
LINE
  5
25F
100
AcDbEntity
  8
0
  6
CONTINUOUS
 62
               4
100
AcDbLine
 10
-26.999766028314347
 20
24.000896941077784
 30
0.0
 11
-26.999754028314378
 21
0.0008969410807822
 31
0.0
  0
ENDBLK
  5
260
100
AcDbEntity
  8
0
100
AcDbBlockEnd
  0
BLOCK
  5
261
100
AcDbEntity
  8
0
100
AcDbBlockBegin
  2
F18T0-8
 70
               0
 10
0.0
 20
0.0
 30
0.0
  3
F18T0-8
  1

  0
LINE
  5
262
100
AcDbEntity
  8
0
  6
CONTINUOUS
 62
               7
100
AcDbLine
 10
62.500015258789063
 20
-3.5000152587890625
 30
0.0
 11
30.500015258789063
 21
-3.5000152587890625
 31
0.0
  0
LINE
  5
263
100
AcDbEntity
  8
0
  6
CONTINUOUS
 62
               7
100
AcDbLine
 10
30.500015258789063
 20
-67.0
 30
0.0
 11
30.500015258789063
 21
6.4999847412109375
 31
0.0
  0
LINE
  5
264
100
AcDbEntity
  8
0
  6
CONTINUOUS
 62
               7
100
AcDbLine
 10
64.500015258789063
 20
-56.5
 30
0.0
 11
30.500015258789063
 21
-56.5
 31
0.0
  0
LINE
  5
265
100
AcDbEntity
  8
0
  6
CONTINUOUS
 62
               7
100
AcDbLine
 10
64.500015258789063
 20
-67.0
 30
0.0
 11
64.500015258789063
 21
-56.5
 31
0.0
  0
LINE
  5
266
100
AcDbEntity
  8
0
  6
CONTINUOUS
 62
               7
100
AcDbLine
 10
67.500015258789063
 20
-54.300003051757813
 30
0.0
 11
67.500015258789063
 21
-5.70001220703125
 31
0.0
  0
LINE
  5
267
100
AcDbEntity
  8
0
  6
CONTINUOUS
 62
               7
100
AcDbLine
 10
65.500015258789063
 20
-56.29998779296875
 30
0.0
 11
62.500015258789063
 21
-56.29998779296875
 31
0.0
  0
LINE
  5
268
100
AcDbEntity
  8
0
  6
CONTINUOUS
 62
               7
100
AcDbLine
 10
65.500015258789063
 20
-3.70001220703125
 30
0.0
 11
62.500015258789063
 21
-3.70001220703125
 31
0.0
  0
LINE
  5
269
100
AcDbEntity
  8
0
  6
CONTINUOUS
 62
               7
100
AcDbLine
 10
67.50001880612399
 20
-5.7000080712286945
 30
0.0
 11
65.500033373071346
 21
-3.7000106685227365
 31
0.0
  0
LINE
  5
26A
100
AcDbEntity
  8
0
  6
CONTINUOUS
 62
               7
100
AcDbLine
 10
67.500021183338731
 20
-54.299984205143915
 30
0.0
 11
65.500015182645484
 21
-56.29998245080867
 31
0.0
  0
LINE
  5
26B
100
AcDbEntity
  8
0
  6
CONTINUOUS
 62
               7
100
AcDbLine
 10
64.000015258789063
 20
-67.5
 30
0.0
 11
31.000015258789063
 21
-67.5
 31
0.0
  0
LINE
  5
26C
100
AcDbEntity
  8
0
  6
CENTER
 62
               2
100
AcDbLine
 10
62.000015258789063
 20
16.699996948242188
 30
0.0
 11
59.300018310546875
 21
16.699996948242188
 31
0.0
  0
LINE
  5
26D
100
AcDbEntity
  8
0
  6
CONTINUOUS
 62
               7
100
AcDbLine
 10
61.000015258789063
 20
14.75
 30
0.0
 11
61.000015258789063
 21
16.399993896484375
 31
0.0
  0
LINE
  5
26E
100
AcDbEntity
  8
0
  6
CONTINUOUS
 62
               7
100
AcDbLine
 10
61.000015258789063
 20
14.75
 30
0.0
 11
60.000015258789063
 21
14.75
 31
0.0
  0
LINE
  5
26F
100
AcDbEntity
  8
0
  6
CONTINUOUS
 62
               7
100
AcDbLine
 10
61.000015258789063
 20
18.649993896484375
 30
0.0
 11
60.000015258789063
 21
18.649993896484375
 31
0.0
  0
LINE
  5
270
100
AcDbEntity
  8
0
  6
CONTINUOUS
 62
               7
100
AcDbLine
 10
60.400009155273438
 20
16.399993896484375
 30
0.0
 11
60.400009155273438
 21
16.999984741210937
 31
0.0
  0
LINE
  5
271
100
AcDbEntity
  8
0
  6
CONTINUOUS
 62
               7
100
AcDbLine
 10
61.000015258789063
 20
16.399993896484375
 30
0.0
 11
60.400009155273438
 21
16.399993896484375
 31
0.0
  0
LINE
  5
272
100
AcDbEntity
  8
0
  6
CONTINUOUS
 62
               7
100
AcDbLine
 10
61.000015258789063
 20
17.0
 30
0.0
 11
60.400009155273438
 21
17.0
 31
0.0
  0
LINE
  5
273
100
AcDbEntity
  8
0
  6
CONTINUOUS
 62
               7
100
AcDbLine
 10
61.000015258789063
 20
16.999984741210937
 30
0.0
 11
61.000015258789063
 21
18.649993896484375
 31
0.0
  0
LINE
  5
274
100
AcDbEntity
  8
0
  6
CONTINUOUS
 62
               7
100
AcDbLine
 10
60.000015258789063
 20
9.0
 30
0.0
 11
60.000015258789063
 21
19.999984741210937
 31
0.0
  0
LINE
  5
275
100
AcDbEntity
  8
0
  6
CONTINUOUS
 62
               7
100
AcDbLine
 10
33.000015258789063
 20
9.0
 30
0.0
 11
33.000015258789063
 21
19.999984741210937
 31
0.0
  0
LINE
  5
276
100
AcDbEntity
  8
0
  6
CONTINUOUS
 62
               7
100
AcDbLine
 10
67.500015258789063
 20
-11.000015258789063
 30
0.0
 11
65.500015258789063
 21
-11.000015258789063
 31
0.0
  0
LINE
  5
277
100
AcDbEntity
  8
0
  6
CONTINUOUS
 62
               7
100
AcDbLine
 10
67.500015258789063
 20
-47.000007629394531
 30
0.0
 11
62.500015258789063
 21
-47.000007629394531
 31
0.0
  0
LINE
  5
278
100
AcDbEntity
  8
0
  6
CONTINUOUS
 62
               7
100
AcDbLine
 10
67.500015258789063
 20
-53.0
 30
0.0
 11
62.500015258789063
 21
-53.0
 31
0.0
  0
LINE
  5
279
100
AcDbEntity
  8
0
  6
CONTINUOUS
 62
               7
100
AcDbLine
 10
30.000015258789063
 20
5.9999847412109375
 30
0.0
 11
0.0
 21
5.9999847412109375
 31
0.0
  0
LINE
  5
27A
100
AcDbEntity
  8
0
  6
CONTINUOUS
 62
               7
100
AcDbLine
 10
30.000015258789063
 20
-66.0
 30
0.0
 11
0.0000152587890625
 21
-66.0
 31
0.0
  0
LINE
  5
27B
100
AcDbEntity
  8
0
  6
CONTINUOUS
 62
               7
100
AcDbLine
 10
30.000015258789063
 20
-66.0
 30
0.0
 11
30.000015258789063
 21
5.9999847412109375
 31
0.0
  0
LINE
  5
27C
100
AcDbEntity
  8
0
  6
CONTINUOUS
 62
               7
100
AcDbLine
 10
62.500015258789063
 20
6.5
 30
0.0
 11
30.500015258789063
 21
6.5
 31
0.0
  0
LINE
  5
27D
100
AcDbEntity
  8
0
  6
CONTINUOUS
 62
               2
100
AcDbLine
 10
17.578506469726563
 20
-42.500003814697266
 30
0.0
 11
2.4215087890625
 21
-42.500003814697266
 31
0.0
  0
LINE
  5
27E
100
AcDbEntity
  8
0
  6
CONTINUOUS
 62
               7
100
AcDbLine
 10
0.0
 20
-66.000015258789063
 30
0.0
 11
0.0
 21
5.9999847412109375
 31
0.0
  0
LINE
  5
27F
100
AcDbEntity
  8
0
  6
CONTINUOUS
 62
               2
100
AcDbLine
 10
17.578506469726563
 20
-22.5
 30
0.0
 11
2.4215087890625
 21
-22.5
 31
0.0
  0
LINE
  5
280
100
AcDbEntity
  8
0
  6
CONTINUOUS
 62
               2
100
AcDbLine
 10
10.000015258789062
 20
-50.078506469726562
 30
0.0
 11
10.000015258789062
 21
-14.9215087890625
 31
0.0
  0
LINE
  5
281
100
AcDbEntity
  8
0
  6
CONTINUOUS
 62
               7
100
AcDbLine
 10
62.700027465820313
 20
-67.5
 30
0.0
 11
62.700027465820313
 21
-65.0
 31
0.0
  0
LINE
  5
282
100
AcDbEntity
  8
0
  6
CONTINUOUS
 62
               7
100
AcDbLine
 10
56.300018310546875
 20
-67.5
 30
0.0
 11
56.300018310546875
 21
-65.0
 31
0.0
  0
LINE
  5
283
100
AcDbEntity
  8
0
  6
CONTINUOUS
 62
               7
100
AcDbLine
 10
62.700027465820313
 20
-65.0
 30
0.0
 11
56.300018310546875
 21
-65.0
 31
0.0
  0
LINE
  5
284
100
AcDbEntity
  8
0
  6
CONTINUOUS
 62
               7
100
AcDbLine
 10
60.750015258789062
 20
-67.0
 30
0.0
 11
58.250015258789063
 21
-67.0
 31
0.0
  0
LINE
  5
285
100
AcDbEntity
  8
0
  6
CONTINUOUS
 62
               7
100
AcDbLine
 10
62.250015258789063
 20
-65.5
 30
0.0
 11
62.250015258789063
 21
-65.0
 31
0.0
  0
LINE
  5
286
100
AcDbEntity
  8
0
  6
CONTINUOUS
 62
               7
100
AcDbLine
 10
56.750015258789062
 20
-65.5
 30
0.0
 11
56.750015258789062
 21
-65.0
 31
0.0
  0
LINE
  5
287
100
AcDbEntity
  8
0
  6
CONTINUOUS
 62
               7
100
AcDbLine
 10
65.500015258789063
 20
-11.000015258789063
 30
0.0
 11
65.500015258789063
 21
-3.70001220703125
 31
0.0
  0
LINE
  5
288
100
AcDbEntity
  8
0
  6
CONTINUOUS
 62
               7
100
AcDbLine
 10
66.000015258789063
 20
-5.250030517578125
 30
0.0
 11
65.500015258789063
 21
-5.250030517578125
 31
0.0
  0
LINE
  5
289
100
AcDbEntity
  8
0
  6
CONTINUOUS
 62
               7
100
AcDbLine
 10
66.000015258789063
 20
-10.750030517578125
 30
0.0
 11
65.500015258789063
 21
-10.750030517578125
 31
0.0
  0
LINE
  5
28A
100
AcDbEntity
  8
0
  6
CONTINUOUS
 62
               7
100
AcDbLine
 10
34.000015258789063
 20
10.499984741210937
 30
0.0
 11
33.000015258789063
 21
10.499984741210937
 31
0.0
  0
LINE
  5
28B
100
AcDbEntity
  8
0
  6
CONTINUOUS
 62
               7
100
AcDbLine
 10
34.000015258789063
 20
9.0
 30
0.0
 11
34.000015258789063
 21
10.499984741210937
 31
0.0
  0
LINE
  5
28C
100
AcDbEntity
  8
0
  6
CONTINUOUS
 62
               7
100
AcDbLine
 10
55.700027465820312
 20
10.499984741210937
 30
0.0
 11
36.500015258789063
 21
10.499984741210937
 31
0.0
  0
LINE
  5
28D
100
AcDbEntity
  8
0
  6
CONTINUOUS
 62
               7
100
AcDbLine
 10
36.500015258789063
 20
9.0
 30
0.0
 11
36.500015258789063
 21
10.499984741210937
 31
0.0
  0
LINE
  5
28E
100
AcDbEntity
  8
0
  6
CONTINUOUS
 62
               7
100
AcDbLine
 10
55.700027465820312
 20
9.0
 30
0.0
 11
55.700027465820312
 21
10.499984741210937
 31
0.0
  0
LINE
  5
28F
100
AcDbEntity
  8
0
  6
CONTINUOUS
 62
               7
100
AcDbLine
 10
58.700027465820313
 20
9.0
 30
0.0
 11
58.700027465820313
 21
10.499984741210937
 31
0.0
  0
LINE
  5
290
100
AcDbEntity
  8
0
  6
CONTINUOUS
 62
               7
100
AcDbLine
 10
60.000015258789063
 20
10.499984741210937
 30
0.0
 11
58.700027465820313
 21
10.499984741210937
 31
0.0
  0
ARC
  5
291
100
AcDbEntity
  8
0
  6
CONTINUOUS
 62
               7
100
AcDbCircle
 10
31.000015258789063
 20
-67.0
 30
0.0
 40
0.5
100
AcDbArc
 50
180.0000359721783
 51
270.00007262760209
  0
ARC
  5
292
100
AcDbEntity
  8
0
  6
CONTINUOUS
 62
               7
100
AcDbCircle
 10
64.000015258789063
 20
-67.0
 30
0.0
 40
0.5
100
AcDbArc
 50
270.00007262760209
 51
0.0000409811350201
  0
CIRCLE
  5
293
100
AcDbEntity
  8
0
  6
CONTINUOUS
 62
               2
100
AcDbCircle
 10
10.000015258789062
 20
-42.500007629394531
 30
0.0
 40
6.5784997940063477
  0
CIRCLE
  5
294
100
AcDbEntity
  8
0
  6
CONTINUOUS
 62
               7
100
AcDbCircle
 10
10.000015258789062
 20
-42.500007629394531
 30
0.0
 40
5.7224998474121094
  0
CIRCLE
  5
295
100
AcDbEntity
  8
0
  6
CONTINUOUS
 62
               7
100
AcDbCircle
 10
10.000015258789062
 20
-22.5
 30
0.0
 40
5.7224998474121094
  0
CIRCLE
  5
296
100
AcDbEntity
  8
0
  6
CONTINUOUS
 62
               2
100
AcDbCircle
 10
10.000015258789062
 20
-22.5
 30
0.0
 40
6.5784997940063477
  0
ARC
  5
297
100
AcDbEntity
  8
0
  6
CONTINUOUS
 62
               7
100
AcDbCircle
 10
33.499984741210938
 20
9.50006103515625
 30
0.0
 40
2.5000734329223633
100
AcDbArc
 50
220.54026862095205
 51
348.46195609548801
  0
ARC
  5
298
100
AcDbEntity
  8
0
  6
CONTINUOUS
 62
               7
100
AcDbCircle
 10
58.250015258789063
 20
-65.5
 30
0.0
 40
1.5
100
AcDbArc
 50
179.99998133066492
 51
270.00001798608872
  0
ARC
  5
299
100
AcDbEntity
  8
0
  6
CONTINUOUS
 62
               7
100
AcDbCircle
 10
60.750015258789062
 20
-65.5
 30
0.0
 40
1.5
100
AcDbArc
 50
270.00001798608872
 51
0.0
  0
ARC
  5
29A
100
AcDbEntity
  8
0
  6
CONTINUOUS
 62
               7
100
AcDbCircle
 10
66.000015258789063
 20
-6.750030517578125
 30
0.0
 40
1.5
100
AcDbArc
 50
0.0
 51
89.999982013910454
  0
ARC
  5
29B
100
AcDbEntity
  8
0
  6
CONTINUOUS
 62
               7
100
AcDbCircle
 10
66.000015258789063
 20
-9.250030517578125
 30
0.0
 40
1.5
100
AcDbArc
 50
270.00001798608872
 51
0.0
  0
LINE
  5
29C
100
AcDbEntity
  8
0
  6
CONTINUOUS
 62
               7
100
AcDbLine
 10
60.500015258789063
 20
9.0
 30
0.0
 11
32.500015258789063
 21
9.0
 31
0.0
  0
LINE
  5
29D
100
AcDbEntity
  8
0
  6
CONTINUOUS
 62
               7
100
AcDbLine
 10
30.500010217552472
 20
6.5000042965420448
 30
0.0
 11
32.500010146573914
 21
9.0000042078188471
 31
0.0
  0
LINE
  5
29E
100
AcDbEntity
  8
0
  6
CONTINUOUS
 62
               7
100
AcDbLine
 10
62.500012060673726
 20
6.4999949133907649
 30
0.0
 11
60.500007961362826
 21
9.0000000375293894
 31
0.0
  0
LINE
  5
29F
100
AcDbEntity
  8
0
  6
CONTINUOUS
 62
               7
100
AcDbLine
 10
65.199996948242188
 20
-48.750003814697266
 30
0.0
 11
65.199996948242188
 21
-51.25
 31
0.0
  0
LINE
  5
2A0
100
AcDbEntity
  8
0
  6
CONTINUOUS
 62
               7
100
AcDbLine
 10
63.70001220703125
 20
-47.250003814697266
 30
0.0
 11
63.20001220703125
 21
-47.250003814697266
 31
0.0
  0
LINE
  5
2A1
100
AcDbEntity
  8
0
  6
CONTINUOUS
 62
               7
100
AcDbLine
 10
63.70001220703125
 20
-52.749984741210938
 30
0.0
 11
63.20001220703125
 21
-52.749984741210938
 31
0.0
  0
ARC
  5
2A2
100
AcDbEntity
  8
0
  6
CONTINUOUS
 62
               7
100
AcDbCircle
 10
63.699996948242188
 20
-51.25
 30
0.0
 40
1.5
100
AcDbArc
 50
269.99990870306209
 51
359.99994604173207
  0
ARC
  5
2A3
100
AcDbEntity
  8
0
  6
CONTINUOUS
 62
               7
100
AcDbCircle
 10
63.699996948242188
 20
-48.750019073486328
 30
0.0
 40
1.5
100
AcDbArc
 50
0.0000179860890374
 51
89.999982013910454
  0
LINE
  5
2A4
100
AcDbEntity
  8
0
  6
CONTINUOUS
 62
               7
100
AcDbLine
 10
63.20001220703125
 20
-52.949996948242188
 30
0.0
 11
63.20001220703125
 21
-47.050006866455078
 31
0.0
  0
LINE
  5
2A5
100
AcDbEntity
  8
0
  6
CONTINUOUS
 62
               7
100
AcDbLine
 10
62.500027118471166
 20
-49.650013549457839
 30
0.0
 11
63.200034451072838
 21
-49.462447148419272
 31
0.0
  0
LINE
  5
2A6
100
AcDbEntity
  8
0
  6
CONTINUOUS
 62
               7
100
AcDbLine
 10
63.200013820174092
 20
-50.350006527156467
 30
0.0
 11
62.500021183236015
 21
-50.537568935735209
 31
0.0
  0
LINE
  5
2A7
100
AcDbEntity
  8
0
  6
CONTINUOUS
 62
               7
100
AcDbLine
 10
63.20001220703125
 20
-52.949996948242188
 30
0.0
 11
62.500015258789063
 21
-52.949996948242188
 31
0.0
  0
LINE
  5
2A8
100
AcDbEntity
  8
0
  6
CONTINUOUS
 62
               7
100
AcDbLine
 10
63.20001220703125
 20
-47.050006866455078
 30
0.0
 11
62.500015258789063
 21
-47.050006866455078
 31
0.0
  0
LINE
  5
2A9
100
AcDbEntity
  8
0
  6
CONTINUOUS
 62
               7
100
AcDbLine
 10
60.000015258789063
 20
19.99998482747398
 30
0.0
 11
33.000015258789063
 21
19.999984741210937
 31
0.0
  0
LINE
  5
2AA
100
AcDbEntity
  8
0
  6
CONTINUOUS
 62
               7
100
AcDbLine
 10
62.500007991386326
 20
6.5
 30
0.0
 11
62.500007991386326
 21
-56.5
 31
0.0
  0
LINE
  5
2AB
100
AcDbEntity
  8
0
  6
CONTINUOUS
 62
               4
100
AcDbLine
 10
60.000015258789063
 20
19.999984741210937
 30
0.0
 11
60.000015258789063
 21
43.999984741210938
 31
0.0
  0
LINE
  5
2AC
100
AcDbEntity
  8
0
  6
CONTINUOUS
 62
               4
100
AcDbLine
 10
33.000015258789063
 20
19.999984741210937
 30
0.0
 11
33.000015258789063
 21
43.999984741210938
 31
0.0
  0
LINE
  5
2AD
100
AcDbEntity
  8
0
  6
CONTINUOUS
 62
               4
100
AcDbLine
 10
47.000021429398203
 20
22.999984785939944
 30
0.0
 11
38.000021429398203
 21
22.999984757185587
 31
0.0
  0
LINE
  5
2AE
100
AcDbEntity
  8
0
  6
CONTINUOUS
 62
               4
100
AcDbLine
 10
47.000021371889488
 20
40.999984785939944
 30
0.0
 11
38.000021371889488
 21
40.999984757185587
 31
0.0
  0
LINE
  5
2AF
100
AcDbEntity
  8
0
  6
CONTINUOUS
 62
               4
100
AcDbLine
 10
38.000021371889488
 20
40.999984757185587
 30
0.0
 11
38.000021429398203
 21
22.999984757185587
 31
0.0
  0
LINE
  5
2B0
100
AcDbEntity
  8
0
  6
CONTINUOUS
 62
               4
100
AcDbLine
 10
45.000021371889488
 20
40.999984779550061
 30
0.0
 11
45.000021429398203
 21
22.999984779550061
 31
0.0
  0
LINE
  5
2B1
100
AcDbEntity
  8
0
  6
CONTINUOUS
 62
               4
100
AcDbLine
 10
34.600028991699219
 20
36.999984741210938
 30
0.0
 11
34.600028991699219
 21
43.999984741210938
 31
0.0
  0
LINE
  5
2B2
100
AcDbEntity
  8
0
  6
CONTINUOUS
 62
               4
100
AcDbLine
 10
33.700028991699241
 20
36.999984741210938
 30
0.0
 11
33.700028991699241
 21
43.999984741210938
 31
0.0
  0
LINE
  5
2B3
100
AcDbEntity
  8
0
  6
CONTINUOUS
 62
               4
100
AcDbLine
 10
33.000015258789063
 20
36.999984741210938
 30
0.0
 11
34.600028991699219
 21
36.999984741210938
 31
0.0
  0
LINE
  5
2B4
100
AcDbEntity
  8
0
  6
CONTINUOUS
 62
               4
100
AcDbLine
 10
33.000015258789063
 20
43.999984741210938
 30
0.0
 11
60.000007629394531
 21
43.999984741210938
 31
0.0
  0
LINE
  5
2B5
100
AcDbEntity
  8
0
  6
CONTINUOUS
 62
               4
100
AcDbLine
 10
35.150003051757835
 20
63.999984741210938
 30
0.0
 11
44.150003051757835
 21
63.999984741210938
 31
0.0
  0
LINE
  5
2B6
100
AcDbEntity
  8
0
  6
CONTINUOUS
 62
               4
100
AcDbLine
 10
35.500015258789063
 20
57.499984741210937
 30
0.0
 11
44.150018310546898
 21
57.499984741210937
 31
0.0
  0
LINE
  5
2B7
100
AcDbEntity
  8
0
  6
CONTINUOUS
 62
               4
100
AcDbLine
 10
44.72736511230471
 20
63.999984741210938
 30
0.0
 11
46.150010681152366
 21
63.999984741210938
 31
0.0
  0
LINE
  5
2B8
100
AcDbEntity
  8
0
  6
CONTINUOUS
 62
               4
100
AcDbLine
 10
44.100015258789085
 20
54.998443603515625
 30
0.0
 11
44.150018310546898
 21
54.998443603515625
 31
0.0
  0
LINE
  5
2B9
100
AcDbEntity
  8
0
  6
CONTINUOUS
 62
               4
100
AcDbLine
 10
44.150018310546898
 20
53.498443603515625
 30
0.0
 11
45.150010681152366
 21
53.498443603515625
 31
0.0
  0
LINE
  5
2BA
100
AcDbEntity
  8
0
  6
CONTINUOUS
 62
               4
100
AcDbLine
 10
44.150018310546898
 20
54.998443603515625
 30
0.0
 11
44.150018310546898
 21
57.499984741210937
 31
0.0
  0
LINE
  5
2BB
100
AcDbEntity
  8
0
  6
CONTINUOUS
 62
               4
100
AcDbLine
 10
45.650010681152366
 20
62.499984741210938
 30
0.0
 11
46.150010681152366
 21
62.499984741210938
 31
0.0
  0
LINE
  5
2BC
100
AcDbEntity
  8
0
  6
CONTINUOUS
 62
               4
100
AcDbLine
 10
44.150015468196784
 20
53.498458893081079
 30
0.0
 11
44.099994914890544
 21
53.548479446387319
 31
0.0
  0
LINE
  5
2BD
100
AcDbEntity
  8
0
  6
CONTINUOUS
 62
               4
100
AcDbLine
 10
35.650018310546898
 20
57.499984741210937
 30
0.0
 11
35.650018310546898
 21
62.999984741210938
 31
0.0
  0
LINE
  5
2BE
100
AcDbEntity
  8
0
  6
CONTINUOUS
 62
               4
100
AcDbLine
 10
35.150018310546898
 20
62.999984741210938
 30
0.0
 11
35.150018310546898
 21
63.999984741210938
 31
0.0
  0
LINE
  5
2BF
100
AcDbEntity
  8
0
  6
CONTINUOUS
 62
               4
100
AcDbLine
 10
35.150003051757835
 20
62.999984741210938
 30
0.0
 11
35.650003051757835
 21
62.999984741210938
 31
0.0
  0
LINE
  5
2C0
100
AcDbEntity
  8
0
  6
CONTINUOUS
 62
               4
100
AcDbLine
 10
45.650018310546898
 20
57.056137084960938
 30
0.0
 11
45.650018310546898
 21
62.499984741210938
 31
0.0
  0
LINE
  5
2C1
100
AcDbEntity
  8
0
  6
CONTINUOUS
 62
               4
100
AcDbLine
 10
45.150016561025609
 20
53.498435482970308
 30
0.0
 11
45.6500156699027
 21
57.056123566659153
 31
0.0
  0
LINE
  5
2C2
100
AcDbEntity
  8
0
  6
CONTINUOUS
 62
               4
100
AcDbLine
 10
44.150018310546898
 20
57.499984741210937
 30
0.0
 11
44.150018310546898
 21
63.999984741210938
 31
0.0
  0
LINE
  5
2C3
100
AcDbEntity
  8
0
  6
CONTINUOUS
 62
               4
100
AcDbLine
 10
44.150059770393113
 20
62.999943684112623
 30
0.0
 11
44.727411586157018
 21
63.999952389067403
 31
0.0
  0
LINE
  5
2C4
100
AcDbEntity
  8
0
  6
CONTINUOUS
 62
               4
100
AcDbLine
 10
46.150018310546898
 20
62.499984741210938
 30
0.0
 11
46.150018310546898
 21
63.999984741210938
 31
0.0
  0
LINE
  5
2C5
100
AcDbEntity
  8
0
  6
CONTINUOUS
 62
               4
100
AcDbLine
 10
41.000024414062523
 20
76.999984741210937
 30
0.0
 11
40.20002136230471
 21
76.999984741210937
 31
0.0
  0
LINE
  5
2C6
100
AcDbEntity
  8
0
  6
CONTINUOUS
 62
               4
100
AcDbLine
 10
40.20002136230471
 20
71.999984741210937
 30
0.0
 11
40.20002136230471
 21
76.999984741210937
 31
0.0
  0
LINE
  5
2C7
100
AcDbEntity
  8
0
  6
CONTINUOUS
 62
               4
100
AcDbLine
 10
41.000024414062523
 20
71.999984741210937
 30
0.0
 11
41.000024414062523
 21
76.999984741210937
 31
0.0
  0
LINE
  5
2C8
100
AcDbEntity
  8
0
  6
CONTINUOUS
 62
               4
100
AcDbLine
 10
41.315026855468773
 20
63.999984741210938
 30
0.0
 11
41.315026855468773
 21
68.598388671875
 31
0.0
  0
LINE
  5
2C9
100
AcDbEntity
  8
0
  6
CONTINUOUS
 62
               4
100
AcDbLine
 10
39.88501892089846
 20
63.999984741210938
 30
0.0
 11
39.88501892089846
 21
67.772781372070312
 31
0.0
  0
LINE
  5
2CA
100
AcDbEntity
  8
0
  6
CONTINUOUS
 62
               4
100
AcDbLine
 10
41.315026855468773
 20
71.999984741210937
 30
0.0
 11
39.88501892089846
 21
71.999984741210937
 31
0.0
  0
LINE
  5
2CB
100
AcDbEntity
  8
0
  6
CONTINUOUS
 62
               4
100
AcDbLine
 10
39.88501892089846
 20
68.927474975585938
 30
0.0
 11
39.88501892089846
 21
71.999984741210937
 31
0.0
  0
LINE
  5
2CC
100
AcDbEntity
  8
0
  6
CONTINUOUS
 62
               4
100
AcDbLine
 10
41.315026855468773
 20
69.753097534179687
 30
0.0
 11
41.315026855468773
 21
71.999984741210937
 31
0.0
  0
LINE
  5
2CD
100
AcDbEntity
  8
0
  6
CONTINUOUS
 62
               4
100
AcDbLine
 10
38.815026855468773
 20
68.309722900390625
 30
0.0
 11
38.815026855468773
 21
71.999984741210937
 31
0.0
  0
LINE
  5
2CE
100
AcDbEntity
  8
0
  6
CONTINUOUS
 62
               4
100
AcDbLine
 10
37.38501892089846
 20
67.484100341796875
 30
0.0
 11
37.38501892089846
 21
71.999984741210937
 31
0.0
  0
LINE
  5
2CF
100
AcDbEntity
  8
0
  6
CONTINUOUS
 62
               4
100
AcDbLine
 10
37.38501892089846
 20
71.999984741210937
 30
0.0
 11
38.815026855468773
 21
71.999984741210937
 31
0.0
  0
LINE
  5
2D0
100
AcDbEntity
  8
0
  6
CONTINUOUS
 62
               4
100
AcDbLine
 10
38.500024414062523
 20
71.999984741210937
 30
0.0
 11
38.500024414062523
 21
76.999984741210937
 31
0.0
  0
LINE
  5
2D1
100
AcDbEntity
  8
0
  6
CONTINUOUS
 62
               4
100
AcDbLine
 10
37.70002136230471
 20
71.999984741210937
 30
0.0
 11
37.70002136230471
 21
76.999969482421875
 31
0.0
  0
LINE
  5
2D2
100
AcDbEntity
  8
0
  6
CONTINUOUS
 62
               4
100
AcDbLine
 10
37.70002136230471
 20
76.999984741210937
 30
0.0
 11
38.500024414062523
 21
76.999984741210937
 31
0.0
  0
LINE
  5
2D3
100
AcDbEntity
  8
0
  6
CONTINUOUS
 62
               4
100
AcDbLine
 10
38.815026855468773
 20
63.999984741210938
 30
0.0
 11
38.815026855468773
 21
67.155014038085938
 31
0.0
  0
LINE
  5
2D4
100
AcDbEntity
  8
0
  6
CONTINUOUS
 62
               4
100
AcDbLine
 10
37.38501892089846
 20
63.999984741210938
 30
0.0
 11
37.38501892089846
 21
66.32940673828125
 31
0.0
  0
LINE
  5
2D5
100
AcDbEntity
  8
0
  6
CONTINUOUS
 62
             200
100
AcDbLine
 10
42.815034150261113
 20
70.619090551145746
 30
0.0
 11
35.885005058697629
 21
66.61804198736445
 31
0.0
  0
LINE
  5
2D6
100
AcDbEntity
  8
0
  6
CONTINUOUS
 62
             200
100
AcDbLine
 10
42.8150096018868
 20
69.464449556289765
 30
0.0
 11
35.884999448367694
 21
65.463397651774358
 31
0.0
  0
ARC
  5
2D7
100
AcDbEntity
  8
0
  6
CONTINUOUS
 62
               4
100
AcDbCircle
 10
33.500015258789063
 20
52.499984741210937
 30
0.0
 40
0.5
100
AcDbArc
 50
89.999999999999815
 51
179.99999999999963
  0
LINE
  5
2D8
100
AcDbEntity
  8
0
  6
CONTINUOUS
 62
               4
100
AcDbLine
 10
35.500015258789063
 20
52.999984741210937
 30
0.0
 11
33.500015258789063
 21
52.999984741210937
 31
0.0
  0
LINE
  5
2D9
100
AcDbEntity
  8
0
  6
CONTINUOUS
 62
               4
100
AcDbLine
 10
35.500015258789063
 20
57.499984741210937
 30
0.0
 11
35.500015258789063
 21
52.999984741210937
 31
0.0
  0
LINE
  5
2DA
100
AcDbEntity
  8
0
  6
CONTINUOUS
 62
               4
100
AcDbLine
 10
44.100015258789085
 20
57.499984741210937
 30
0.0
 11
44.100015258789085
 21
52.999984741210937
 31
0.0
  0
LINE
  5
2DB
100
AcDbEntity
  8
0
  6
CONTINUOUS
 62
               4
100
AcDbLine
 10
55.100015258789085
 20
45.449984741210955
 30
0.0
 11
53.000015258789063
 21
45.449984741210955
 31
0.0
  0
LINE
  5
2DC
100
AcDbEntity
  8
0
  6
CONTINUOUS
 62
               4
100
AcDbLine
 10
40.100015258789085
 20
45.449984741210955
 30
0.0
 11
38.000015258789062
 21
45.449984741210955
 31
0.0
  0
LINE
  5
2DD
100
AcDbEntity
  8
0
  6
CONTINUOUS
 62
               4
100
AcDbLine
 10
38.000015258789062
 20
46.399984741210943
 30
0.0
 11
38.000015258789062
 21
45.449984741210955
 31
0.0
  0
LINE
  5
2DE
100
AcDbEntity
  8
0
  6
CONTINUOUS
 62
               4
100
AcDbLine
 10
55.100015258789085
 20
46.399984741210943
 30
0.0
 11
55.100015258789085
 21
45.449984741210955
 31
0.0
  0
ARC
  5
2DF
100
AcDbEntity
  8
0
  6
CONTINUOUS
 62
               4
100
AcDbCircle
 10
58.502035654149608
 20
48.179595645140239
 30
0.0
 40
1.4979796551727449
100
AcDbArc
 50
0.0148824203654679
 51
24.046309772710686
  0
ARC
  5
2E0
100
AcDbEntity
  8
0
  6
CONTINUOUS
 62
               4
100
AcDbCircle
 10
57.67403609735311
 20
52.500084678657203
 30
0.0
 40
0.4999010215015999
100
AcDbArc
 50
24.197376208904771
 51
89.887774076864815
  0
LINE
  5
2E1
100
AcDbEntity
  8
0
  6
CONTINUOUS
 62
               4
100
AcDbLine
 10
58.130015258789058
 20
52.70498474121095
 30
0.0
 11
59.870015258789067
 21
48.78998474121093
 31
0.0
  0
LINE
  5
2E2
100
AcDbEntity
  8
0
  6
CONTINUOUS
 62
               4
100
AcDbLine
 10
60.000015258789063
 20
48.179984741210944
 30
0.0
 11
60.000015258789063
 21
43.999984741210938
 31
0.0
  0
LINE
  5
2E3
100
AcDbEntity
  8
0
  6
CONTINUOUS
 62
               4
100
AcDbLine
 10
40.100015258789085
 20
46.399984741210943
 30
0.0
 11
38.000015258789062
 21
46.399984741210943
 31
0.0
  0
LINE
  5
2E4
100
AcDbEntity
  8
0
  6
CONTINUOUS
 62
               4
100
AcDbLine
 10
55.100015258789085
 20
46.399984741210943
 30
0.0
 11
53.000015258789063
 21
46.399984741210943
 31
0.0
  0
LINE
  5
2E5
100
AcDbEntity
  8
0
  6
CONTINUOUS
 62
               4
100
AcDbLine
 10
47.750015258789063
 20
44.499984741210937
 30
0.0
 11
45.250015258789063
 21
44.499984741210937
 31
0.0
  0
LINE
  5
2E6
100
AcDbEntity
  8
0
  6
CONTINUOUS
 62
               4
100
AcDbLine
 10
40.100015258789085
 20
46.399984741210943
 30
0.0
 11
40.100015258789085
 21
45.449984741210955
 31
0.0
  0
LINE
  5
2E7
100
AcDbEntity
  8
0
  6
CONTINUOUS
 62
               4
100
AcDbLine
 10
53.000015258789063
 20
46.399984741210943
 30
0.0
 11
53.000015258789063
 21
45.449984741210955
 31
0.0
  0
LINE
  5
2E8
100
AcDbEntity
  8
0
  6
CONTINUOUS
 62
               4
100
AcDbLine
 10
47.750015258789063
 20
44.499984741210937
 30
0.0
 11
47.750015258789063
 21
43.999984741210938
 31
0.0
  0
LINE
  5
2E9
100
AcDbEntity
  8
0
  6
CONTINUOUS
 62
               4
100
AcDbLine
 10
45.250015258789063
 20
44.499984741210937
 30
0.0
 11
45.250015258789063
 21
43.999984741210938
 31
0.0
  0
LINE
  5
2EA
100
AcDbEntity
  8
0
  6
CONTINUOUS
 62
               4
100
AcDbLine
 10
33.000015258789063
 20
52.499984741210937
 30
0.0
 11
33.000015258789063
 21
43.999984741210938
 31
0.0
  0
LINE
  5
2EB
100
AcDbEntity
  8
0
  6
CONTINUOUS
 62
               4
100
AcDbLine
 10
44.100015258789085
 20
52.999984741210937
 30
0.0
 11
57.675015258789017
 21
52.999984741210937
 31
0.0
  0
LINE
  5
2EC
100
AcDbEntity
  8
0
  6
CONTINUOUS
 62
               2
100
AcDbLine
 10
-3.9999847412109375
 20
0.0
 30
0.0
 11
4.0000152587890625
 21
0.0
 31
0.0
  0
LINE
  5
2ED
100
AcDbEntity
  8
0
  6
CONTINUOUS
 62
               2
100
AcDbLine
 10
-3.9999847412109375
 20
-60.0
 30
0.0
 11
4.0000152587890625
 21
-60.0
 31
0.0
  0
LINE
  5
2EE
100
AcDbEntity
  8
0
  6
CONTINUOUS
 62
               7
100
AcDbLine
 10
30.500013258094867
 20
-3.5000076293946094
 30
0.0
 11
30.000013258094871
 21
-3.5000076671435565
 31
0.0
  0
LINE
  5
2EF
100
AcDbEntity
  8
0
  6
CONTINUOUS
 62
               7
100
AcDbLine
 10
30.500017259483258
 20
-56.500007629394453
 30
0.0
 11
30.000017259483258
 21
-56.5000076671434
 31
0.0
  0
LINE
  5
2F0
100
AcDbEntity
  8
0
  6
CONTINUOUS
 62
               7
100
AcDbLine
 10
30.500012786233032
 20
2.7499923706053764
 30
0.0
 11
30.000012786233032
 21
2.7499923328564293
 31
0.0
  0
LINE
  5
2F1
100
AcDbEntity
  8
0
  6
CONTINUOUS
 62
               7
100
AcDbLine
 10
30.500013050475662
 20
-0.7500076293946165
 30
0.0
 11
30.000013050475662
 21
-0.7500076671435636
 31
0.0
  0
ENDBLK
  5
2F2
100
AcDbEntity
  8
0
100
AcDbBlockEnd
  0
BLOCK
  5
2F3
100
AcDbEntity
  8
0
100
AcDbBlockBegin
  2
F18T0-9
 70
               0
 10
0.0
 20
0.0
 30
0.0
  3
F18T0-9
  1

  0
LINE
  5
2F4
100
AcDbEntity
  8
0
  6
CONTINUOUS
 62
               7
100
AcDbLine
 10
-62.500030517578125
 20
-3.5
 30
0.0
 11
-30.500015258789063
 21
-3.5
 31
0.0
  0
LINE
  5
2F5
100
AcDbEntity
  8
0
  6
CONTINUOUS
 62
               7
100
AcDbLine
 10
-30.500015258789063
 20
-66.999984741210938
 30
0.0
 11
-30.500015258789063
 21
6.5
 31
0.0
  0
LINE
  5
2F6
100
AcDbEntity
  8
0
  6
CONTINUOUS
 62
               7
100
AcDbLine
 10
-62.500030517578125
 20
-56.499984741210937
 30
0.0
 11
-62.500030517578125
 21
6.5000152587890625
 31
0.0
  0
LINE
  5
2F7
100
AcDbEntity
  8
0
  6
CONTINUOUS
 62
               7
100
AcDbLine
 10
-64.500030517578125
 20
-56.499984741210937
 30
0.0
 11
-30.500030517578125
 21
-56.499984741210937
 31
0.0
  0
LINE
  5
2F8
100
AcDbEntity
  8
0
  6
CONTINUOUS
 62
               7
100
AcDbLine
 10
-64.500030517578125
 20
-66.999984741210938
 30
0.0
 11
-64.500030517578125
 21
-56.499984741210937
 31
0.0
  0
LINE
  5
2F9
100
AcDbEntity
  8
0
  6
CONTINUOUS
 62
               7
100
AcDbLine
 10
-67.500030517578125
 20
-54.29998779296875
 30
0.0
 11
-67.500030517578125
 21
-5.6999969482421875
 31
0.0
  0
LINE
  5
2FA
100
AcDbEntity
  8
0
  6
CONTINUOUS
 62
               7
100
AcDbLine
 10
-65.500030517578125
 20
-56.299972534179688
 30
0.0
 11
-62.500030517578125
 21
-56.299972534179688
 31
0.0
  0
LINE
  5
2FB
100
AcDbEntity
  8
0
  6
CONTINUOUS
 62
               7
100
AcDbLine
 10
-65.500030517578125
 20
-3.6999969482421875
 30
0.0
 11
-62.500030517578125
 21
-3.6999969482421875
 31
0.0
  0
LINE
  5
2FC
100
AcDbEntity
  8
0
  6
CONTINUOUS
 62
               7
100
AcDbLine
 10
-67.500034947877793
 20
-5.6999916322019999
 30
0.0
 11
-65.500026081195756
 21
-3.6999960839384585
 31
0.0
  0
LINE
  5
2FD
100
AcDbEntity
  8
0
  6
CONTINUOUS
 62
               7
100
AcDbLine
 10
-67.500034341183891
 20
-54.299977544343164
 30
0.0
 11
-65.500048739544582
 21
-56.29997460987579
 31
0.0
  0
LINE
  5
2FE
100
AcDbEntity
  8
0
  6
CONTINUOUS
 62
               7
100
AcDbLine
 10
-64.000030517578125
 20
-67.499984741210938
 30
0.0
 11
-31.000030517578125
 21
-67.499984741210938
 31
0.0
  0
LINE
  5
2FF
100
AcDbEntity
  8
0
  6
CONTINUOUS
 62
               2
100
AcDbLine
 10
-62.000030517578125
 20
16.70001220703125
 30
0.0
 11
-59.300018310546875
 21
16.70001220703125
 31
0.0
  0
LINE
  5
300
100
AcDbEntity
  8
0
  6
CONTINUOUS
 62
               7
100
AcDbLine
 10
-61.000030517578125
 20
14.750015258789063
 30
0.0
 11
-61.000030517578125
 21
16.400009155273438
 31
0.0
  0
LINE
  5
301
100
AcDbEntity
  8
0
  6
CONTINUOUS
 62
               7
100
AcDbLine
 10
-61.000015258789063
 20
14.750015258789063
 30
0.0
 11
-60.000030517578125
 21
14.750015258789063
 31
0.0
  0
LINE
  5
302
100
AcDbEntity
  8
0
  6
CONTINUOUS
 62
               7
100
AcDbLine
 10
-61.000015258789063
 20
18.650009155273437
 30
0.0
 11
-60.000030517578125
 21
18.650009155273437
 31
0.0
  0
LINE
  5
303
100
AcDbEntity
  8
0
  6
CONTINUOUS
 62
               7
100
AcDbLine
 10
-60.4000244140625
 20
16.400009155273438
 30
0.0
 11
-60.4000244140625
 21
17.0
 31
0.0
  0
LINE
  5
304
100
AcDbEntity
  8
0
  6
CONTINUOUS
 62
               7
100
AcDbLine
 10
-61.000015258789063
 20
16.400009155273438
 30
0.0
 11
-60.4000244140625
 21
16.400009155273438
 31
0.0
  0
LINE
  5
305
100
AcDbEntity
  8
0
  6
CONTINUOUS
 62
               7
100
AcDbLine
 10
-61.000015258789063
 20
17.000015258789063
 30
0.0
 11
-60.4000244140625
 21
17.000015258789063
 31
0.0
  0
LINE
  5
306
100
AcDbEntity
  8
0
  6
CONTINUOUS
 62
               7
100
AcDbLine
 10
-61.000030517578125
 20
17.0
 30
0.0
 11
-61.000030517578125
 21
18.650009155273437
 31
0.0
  0
LINE
  5
307
100
AcDbEntity
  8
0
  6
CONTINUOUS
 62
               7
100
AcDbLine
 10
-60.000030517578125
 20
9.0000152587890625
 30
0.0
 11
-60.000030517578125
 21
20.0
 31
0.0
  0
LINE
  5
308
100
AcDbEntity
  8
0
  6
CONTINUOUS
 62
               7
100
AcDbLine
 10
-33.000030517578125
 20
9.0000152587890625
 30
0.0
 11
-33.000030517578125
 21
20.0
 31
0.0
  0
LINE
  5
309
100
AcDbEntity
  8
0
  6
CONTINUOUS
 62
               7
100
AcDbLine
 10
-67.500030517578125
 20
-48.999977111816406
 30
0.0
 11
-65.500030517578125
 21
-48.999977111816406
 31
0.0
  0
LINE
  5
30A
100
AcDbEntity
  8
0
  6
CONTINUOUS
 62
               7
100
AcDbLine
 10
-67.500030517578125
 20
-12.999984741210938
 30
0.0
 11
-62.500030517578125
 21
-12.999984741210938
 31
0.0
  0
LINE
  5
30B
100
AcDbEntity
  8
0
  6
CONTINUOUS
 62
               7
100
AcDbLine
 10
-67.500030517578125
 20
-6.9999847412109375
 30
0.0
 11
-62.500030517578125
 21
-6.9999847412109375
 31
0.0
  0
LINE
  5
30C
100
AcDbEntity
  8
0
  6
CONTINUOUS
 62
               2
100
AcDbLine
 10
-27.578521728515625
 20
-29.999988555908203
 30
0.0
 11
-12.4215087890625
 21
-29.999988555908203
 31
0.0
  0
LINE
  5
30D
100
AcDbEntity
  8
0
  6
CONTINUOUS
 62
               7
100
AcDbLine
 10
-30.000015258789063
 20
6.0
 30
0.0
 11
0.0
 21
6.0
 31
0.0
  0
LINE
  5
30E
100
AcDbEntity
  8
0
  6
CONTINUOUS
 62
               7
100
AcDbLine
 10
-30.000030517578125
 20
-65.999984741210938
 30
0.0
 11
-0.000030517578125
 21
-65.999984741210938
 31
0.0
  0
LINE
  5
30F
100
AcDbEntity
  8
0
  6
CONTINUOUS
 62
               7
100
AcDbLine
 10
-30.000015258789063
 20
-65.999984741210938
 30
0.0
 11
-30.000015258789063
 21
6.0
 31
0.0
  0
LINE
  5
310
100
AcDbEntity
  8
0
  6
CONTINUOUS
 62
               7
100
AcDbLine
 10
-62.500030517578125
 20
6.5000152587890625
 30
0.0
 11
-30.500015258789063
 21
6.5000152587890625
 31
0.0
  0
LINE
  5
311
100
AcDbEntity
  8
0
  6
CONTINUOUS
 62
               2
100
AcDbLine
 10
-22.578521728515625
 20
-49.999988555908203
 30
0.0
 11
-7.4215087890625
 21
-49.999988555908203
 31
0.0
  0
LINE
  5
312
100
AcDbEntity
  8
0
  6
CONTINUOUS
 62
               2
100
AcDbLine
 10
-22.578521728515625
 20
-10.0
 30
0.0
 11
-7.4215087890625
 21
-10.0
 31
0.0
  0
LINE
  5
313
100
AcDbEntity
  8
0
  6
CONTINUOUS
 62
               2
100
AcDbLine
 10
-28.500015258789063
 20
1.0
 30
0.0
 11
-21.5
 21
1.0
 31
0.0
  0
LINE
  5
314
100
AcDbEntity
  8
0
  6
CONTINUOUS
 62
               2
100
AcDbLine
 10
-25.0
 20
-2.5
 30
0.0
 11
-25.0
 21
4.5
 31
0.0
  0
LINE
  5
315
100
AcDbEntity
  8
0
  6
CONTINUOUS
 62
               2
100
AcDbLine
 10
-20.0
 20
-37.5784912109375
 30
0.0
 11
-20.0
 21
-22.421493530273438
 31
0.0
  0
LINE
  5
316
100
AcDbEntity
  8
0
  6
CONTINUOUS
 62
               7
100
AcDbLine
 10
0.0
 20
-66.0
 30
0.0
 11
0.0
 21
6.0
 31
0.0
  0
LINE
  5
317
100
AcDbEntity
  8
0
  6
CENTER
 62
               2
100
AcDbLine
 10
-15.0
 20
-57.5784912109375
 30
0.0
 11
-15.0
 21
-2.4214935302734375
 31
0.0
  0
LINE
  5
318
100
AcDbEntity
  8
0
  6
CONTINUOUS
 62
               7
100
AcDbLine
 10
-36.70001220703125
 20
-67.499984741210938
 30
0.0
 11
-36.70001220703125
 21
-64.999984741210937
 31
0.0
  0
LINE
  5
319
100
AcDbEntity
  8
0
  6
CONTINUOUS
 62
               7
100
AcDbLine
 10
-30.500015258789063
 20
-64.999984741210937
 30
0.0
 11
-36.70001220703125
 21
-64.999984741210937
 31
0.0
  0
LINE
  5
31A
100
AcDbEntity
  8
0
  6
CONTINUOUS
 62
               7
100
AcDbLine
 10
-32.250015258789063
 20
-66.999984741210938
 30
0.0
 11
-34.750015258789063
 21
-66.999984741210938
 31
0.0
  0
LINE
  5
31B
100
AcDbEntity
  8
0
  6
CONTINUOUS
 62
               7
100
AcDbLine
 10
-30.750015258789063
 20
-65.499984741210937
 30
0.0
 11
-30.750015258789063
 21
-64.999984741210937
 31
0.0
  0
LINE
  5
31C
100
AcDbEntity
  8
0
  6
CONTINUOUS
 62
               7
100
AcDbLine
 10
-36.250015258789063
 20
-65.499984741210937
 30
0.0
 11
-36.250015258789063
 21
-64.999984741210937
 31
0.0
  0
LINE
  5
31D
100
AcDbEntity
  8
0
  6
CONTINUOUS
 62
               7
100
AcDbLine
 10
-65.500030517578125
 20
-56.299972534179688
 30
0.0
 11
-65.500030517578125
 21
-48.999977111816406
 31
0.0
  0
LINE
  5
31E
100
AcDbEntity
  8
0
  6
CONTINUOUS
 62
               7
100
AcDbLine
 10
-66.000030517578125
 20
-54.749954223632813
 30
0.0
 11
-65.500030517578125
 21
-54.749954223632813
 31
0.0
  0
LINE
  5
31F
100
AcDbEntity
  8
0
  6
CONTINUOUS
 62
               7
100
AcDbLine
 10
-66.000030517578125
 20
-49.249965667724609
 30
0.0
 11
-65.500030517578125
 21
-49.249965667724609
 31
0.0
  0
LINE
  5
320
100
AcDbEntity
  8
0
  6
CONTINUOUS
 62
               7
100
AcDbLine
 10
-59.000030517578125
 20
9.0000152587890625
 30
0.0
 11
-59.000030517578125
 21
10.5
 31
0.0
  0
LINE
  5
321
100
AcDbEntity
  8
0
  6
CONTINUOUS
 62
               7
100
AcDbLine
 10
-60.000030517578125
 20
10.5
 30
0.0
 11
-59.000030517578125
 21
10.5
 31
0.0
  0
LINE
  5
322
100
AcDbEntity
  8
0
  6
CONTINUOUS
 62
               7
100
AcDbLine
 10
-57.000030517578125
 20
10.5
 30
0.0
 11
-37.300033569335938
 21
10.5
 31
0.0
  0
LINE
  5
323
100
AcDbEntity
  8
0
  6
CONTINUOUS
 62
               7
100
AcDbLine
 10
-57.000030517578125
 20
9.0000152587890625
 30
0.0
 11
-57.000030517578125
 21
10.5
 31
0.0
  0
LINE
  5
324
100
AcDbEntity
  8
0
  6
CONTINUOUS
 62
               7
100
AcDbLine
 10
-37.300033569335938
 20
9.0000152587890625
 30
0.0
 11
-37.300033569335938
 21
10.5
 31
0.0
  0
LINE
  5
325
100
AcDbEntity
  8
0
  6
CONTINUOUS
 62
               7
100
AcDbLine
 10
-34.300033569335938
 20
9.0000152587890625
 30
0.0
 11
-34.300033569335938
 21
10.5
 31
0.0
  0
LINE
  5
326
100
AcDbEntity
  8
0
  6
CONTINUOUS
 62
               7
100
AcDbLine
 10
-34.300033569335938
 20
10.5
 30
0.0
 11
-33.000030517578125
 21
10.5
 31
0.0
  0
ARC
  5
327
100
AcDbEntity
  8
0
  6
CONTINUOUS
 62
               7
100
AcDbCircle
 10
-31.000030517578125
 20
-66.999984741210938
 30
0.0
 40
0.5
100
AcDbArc
 50
270.00001798608872
 51
0.00001366037834
  0
ARC
  5
328
100
AcDbEntity
  8
0
  6
CONTINUOUS
 62
               7
100
AcDbCircle
 10
-64.000030517578125
 20
-66.999984741210938
 30
0.0
 40
0.5
100
AcDbArc
 50
180.0000359721783
 51
269.99996334457541
  0
CIRCLE
  5
329
100
AcDbEntity
  8
0
  6
CONTINUOUS
 62
               2
100
AcDbCircle
 10
-15.000030517578125
 20
-49.999992370605469
 30
0.0
 40
6.5784997940063477
  0
CIRCLE
  5
32A
100
AcDbEntity
  8
0
  6
CONTINUOUS
 62
               2
100
AcDbCircle
 10
-20.000030517578125
 20
-29.999992370605469
 30
0.0
 40
6.5784997940063477
  0
CIRCLE
  5
32B
100
AcDbEntity
  8
0
  6
CONTINUOUS
 62
               2
100
AcDbCircle
 10
-15.0
 20
-10.0
 30
0.0
 40
6.5784997940063477
  0
CIRCLE
  5
32C
100
AcDbEntity
  8
0
  6
CONTINUOUS
 62
               2
100
AcDbCircle
 10
-25.0
 20
1.0
 30
0.0
 40
2.5
  0
CIRCLE
  5
32D
100
AcDbEntity
  8
0
  6
CONTINUOUS
 62
               7
100
AcDbCircle
 10
-15.000030517578125
 20
-49.999992370605469
 30
0.0
 40
5.7224998474121094
  0
CIRCLE
  5
32E
100
AcDbEntity
  8
0
  6
CONTINUOUS
 62
               7
100
AcDbCircle
 10
-20.000030517578125
 20
-29.999992370605469
 30
0.0
 40
5.7224998474121094
  0
CIRCLE
  5
32F
100
AcDbEntity
  8
0
  6
CONTINUOUS
 62
               7
100
AcDbCircle
 10
-15.0
 20
-10.0
 30
0.0
 40
5.7224998474121094
  0
CIRCLE
  5
330
100
AcDbEntity
  8
0
  6
CONTINUOUS
 62
               7
100
AcDbCircle
 10
-25.0
 20
1.0
 30
0.0
 40
2.0669994354248047
  0
ARC
  5
331
100
AcDbEntity
  8
0
  6
CONTINUOUS
 62
               7
100
AcDbCircle
 10
-59.50006103515625
 20
9.5000762939453125
 30
0.0
 40
2.5000734329223633
100
AcDbArc
 50
220.54026862095205
 51
348.46195609548801
  0
ARC
  5
332
100
AcDbEntity
  8
0
  6
CONTINUOUS
 62
               7
100
AcDbCircle
 10
-34.750015258789063
 20
-65.499984741210937
 30
0.0
 40
1.5
100
AcDbArc
 50
179.99998133066492
 51
270.00001798608872
  0
ARC
  5
333
100
AcDbEntity
  8
0
  6
CONTINUOUS
 62
               7
100
AcDbCircle
 10
-32.250015258789063
 20
-65.499984741210937
 30
0.0
 40
1.5
100
AcDbArc
 50
270.00001798608872
 51
0.0
  0
ARC
  5
334
100
AcDbEntity
  8
0
  6
CONTINUOUS
 62
               7
100
AcDbCircle
 10
-66.000030517578125
 20
-50.749954223632813
 30
0.0
 40
1.5
100
AcDbArc
 50
89.999982013910454
 51
179.99996402782091
  0
ARC
  5
335
100
AcDbEntity
  8
0
  6
CONTINUOUS
 62
               7
100
AcDbCircle
 10
-66.000030517578125
 20
-53.249954223632812
 30
0.0
 40
1.5
100
AcDbArc
 50
179.99998133066492
 51
270.00001798608872
  0
LINE
  5
336
100
AcDbEntity
  8
0
  6
CONTINUOUS
 62
               7
100
AcDbLine
 10
-60.500030517578125
 20
9.0000152587890625
 30
0.0
 11
-32.500015258789063
 21
9.0000152587890625
 31
0.0
  0
LINE
  5
337
100
AcDbEntity
  8
0
  6
CONTINUOUS
 62
               7
100
AcDbLine
 10
-30.500007464036571
 20
6.5000125552023746
 30
0.0
 11
-32.500011563347471
 21
9.0000176793409992
 31
0.0
  0
LINE
  5
338
100
AcDbEntity
  8
0
  6
CONTINUOUS
 62
               7
100
AcDbLine
 10
-62.500032541627661
 20
6.5000125552023746
 30
0.0
 11
-60.500028442316761
 21
9.0000176793409992
 31
0.0
  0
LINE
  5
339
100
AcDbEntity
  8
0
  6
CONTINUOUS
 62
               7
100
AcDbLine
 10
-65.20001220703125
 20
-11.249984741210952
 30
0.0
 11
-65.20001220703125
 21
-8.7499847412109375
 31
0.0
  0
LINE
  5
33A
100
AcDbEntity
  8
0
  6
CONTINUOUS
 62
               7
100
AcDbLine
 10
-63.700027465820312
 20
-12.749984741210952
 30
0.0
 11
-63.200027465820312
 21
-12.749984741210952
 31
0.0
  0
LINE
  5
33B
100
AcDbEntity
  8
0
  6
CONTINUOUS
 62
               7
100
AcDbLine
 10
-63.700027465820312
 20
-7.25
 30
0.0
 11
-63.200027465820312
 21
-7.25
 31
0.0
  0
ARC
  5
33C
100
AcDbEntity
  8
0
  6
CONTINUOUS
 62
               7
100
AcDbCircle
 10
-63.70001220703125
 20
-8.7499847412109375
 30
0.0
 40
1.5
100
AcDbArc
 50
89.999927372397096
 51
179.99996402782091
  0
ARC
  5
33D
100
AcDbEntity
  8
0
  6
CONTINUOUS
 62
               7
100
AcDbCircle
 10
-63.70001220703125
 20
-11.249969482421875
 30
0.0
 40
1.5
100
AcDbArc
 50
180.0000359721783
 51
269.99996334457541
  0
LINE
  5
33E
100
AcDbEntity
  8
0
  6
CONTINUOUS
 62
               7
100
AcDbLine
 10
-63.200027465820312
 20
-7.04998779296875
 30
0.0
 11
-63.200027465820312
 21
-12.949981689453139
 31
0.0
  0
LINE
  5
33F
100
AcDbEntity
  8
0
  6
CONTINUOUS
 62
               7
100
AcDbLine
 10
-62.50003014719664
 20
-10.349972931886896
 30
0.0
 11
-63.200037479798311
 21
-10.537539332925462
 31
0.0
  0
LINE
  5
340
100
AcDbEntity
  8
0
  6
CONTINUOUS
 62
               7
100
AcDbLine
 10
-63.200013489037474
 20
-9.6499766268030953
 30
0.0
 11
-62.500020852099397
 21
-9.4624142182243531
 31
0.0
  0
LINE
  5
341
100
AcDbEntity
  8
0
  6
CONTINUOUS
 62
               7
100
AcDbLine
 10
-63.200027465820312
 20
-7.04998779296875
 30
0.0
 11
-62.500030517578125
 21
-7.04998779296875
 31
0.0
  0
LINE
  5
342
100
AcDbEntity
  8
0
  6
CONTINUOUS
 62
               7
100
AcDbLine
 10
-63.200027465820312
 20
-12.949981689453139
 30
0.0
 11
-62.500030517578125
 21
-12.949981689453139
 31
0.0
  0
LINE
  5
343
100
AcDbEntity
  8
0
  6
CONTINUOUS
 62
               7
100
AcDbLine
 10
-33.000030517578125
 20
20.0
 30
0.0
 11
-60.000030517578125
 21
20.0
 31
0.0
  0
LINE
  5
344
100
AcDbEntity
  8
0
  6
CONTINUOUS
 62
               4
100
AcDbLine
 10
-60.000030517578125
 20
20.0
 30
0.0
 11
-60.000030517578125
 21
44.0
 31
0.0
  0
LINE
  5
345
100
AcDbEntity
  8
0
  6
CONTINUOUS
 62
               4
100
AcDbLine
 10
-33.000030517578125
 20
20.0
 30
0.0
 11
-33.000030517578125
 21
44.0
 31
0.0
  0
LINE
  5
346
100
AcDbEntity
  8
0
  6
CONTINUOUS
 62
               4
100
AcDbLine
 10
-44.100030517578119
 20
53.0
 30
0.0
 11
-57.675030517578108
 21
53.0
 31
0.0
  0
LINE
  5
347
100
AcDbEntity
  8
0
  6
CONTINUOUS
 62
               4
100
AcDbLine
 10
-33.000030517578125
 20
52.5
 30
0.0
 11
-33.000030517578125
 21
44.0
 31
0.0
  0
LINE
  5
348
100
AcDbEntity
  8
0
  6
CONTINUOUS
 62
               4
100
AcDbLine
 10
-53.000030517578125
 20
46.400000000000006
 30
0.0
 11
-53.000030517578125
 21
45.450000000000017
 31
0.0
  0
LINE
  5
349
100
AcDbEntity
  8
0
  6
CONTINUOUS
 62
               4
100
AcDbLine
 10
-40.100030517578119
 20
46.400000000000006
 30
0.0
 11
-40.100030517578119
 21
45.450000000000017
 31
0.0
  0
LINE
  5
34A
100
AcDbEntity
  8
0
  6
CONTINUOUS
 62
               4
100
AcDbLine
 10
-55.100030517578119
 20
46.400000000000006
 30
0.0
 11
-53.000030517578125
 21
46.400000000000006
 31
0.0
  0
LINE
  5
34B
100
AcDbEntity
  8
0
  6
CONTINUOUS
 62
               4
100
AcDbLine
 10
-40.100030517578119
 20
46.400000000000006
 30
0.0
 11
-38.000030517578125
 21
46.400000000000006
 31
0.0
  0
LINE
  5
34C
100
AcDbEntity
  8
0
  6
CONTINUOUS
 62
               4
100
AcDbLine
 10
-60.000030517578125
 20
48.180000000000007
 30
0.0
 11
-60.000030517578125
 21
44.0
 31
0.0
  0
LINE
  5
34D
100
AcDbEntity
  8
0
  6
CONTINUOUS
 62
               4
100
AcDbLine
 10
-58.13003051757812
 20
52.705000000000013
 30
0.0
 11
-59.87003051757813
 21
48.789999999999992
 31
0.0
  0
ARC
  5
34E
100
AcDbEntity
  8
0
  6
CONTINUOUS
 62
               4
100
AcDbCircle
 10
-57.674051356142172
 20
52.500099937446265
 30
0.0
 40
0.4999010215015999
100
AcDbArc
 50
90.112225923134773
 51
155.80262379109485
  0
ARC
  5
34F
100
AcDbEntity
  8
0
  6
CONTINUOUS
 62
               4
100
AcDbCircle
 10
-58.502050912938699
 20
48.179610903929301
 30
0.0
 40
1.4979796551727449
100
AcDbArc
 50
155.95369022728892
 51
179.98511757963411
  0
LINE
  5
350
100
AcDbEntity
  8
0
  6
CONTINUOUS
 62
               4
100
AcDbLine
 10
-55.100030517578119
 20
46.400000000000006
 30
0.0
 11
-55.100030517578119
 21
45.450000000000017
 31
0.0
  0
LINE
  5
351
100
AcDbEntity
  8
0
  6
CONTINUOUS
 62
               4
100
AcDbLine
 10
-38.000030517578125
 20
46.400000000000006
 30
0.0
 11
-38.000030517578125
 21
45.450000000000017
 31
0.0
  0
LINE
  5
352
100
AcDbEntity
  8
0
  6
CONTINUOUS
 62
               4
100
AcDbLine
 10
-40.100030517578119
 20
45.450000000000017
 30
0.0
 11
-38.000030517578125
 21
45.450000000000017
 31
0.0
  0
LINE
  5
353
100
AcDbEntity
  8
0
  6
CONTINUOUS
 62
               4
100
AcDbLine
 10
-55.100030517578119
 20
45.450000000000017
 30
0.0
 11
-53.000030517578125
 21
45.450000000000017
 31
0.0
  0
LINE
  5
354
100
AcDbEntity
  8
0
  6
CONTINUOUS
 62
               4
100
AcDbLine
 10
-35.500030517578125
 20
57.5
 30
0.0
 11
-35.500030517578125
 21
53.0
 31
0.0
  0
LINE
  5
355
100
AcDbEntity
  8
0
  6
CONTINUOUS
 62
               4
100
AcDbLine
 10
-35.500030517578125
 20
53.0
 30
0.0
 11
-33.500030517578125
 21
53.0
 31
0.0
  0
ARC
  5
356
100
AcDbEntity
  8
0
  6
CONTINUOUS
 62
               4
100
AcDbCircle
 10
-33.500030517578125
 20
52.5
 30
0.0
 40
0.5
100
AcDbArc
 50
0.0
 51
89.999999999999815
  0
LINE
  5
357
100
AcDbEntity
  8
0
  6
CONTINUOUS
 62
               4
100
AcDbLine
 10
-47.750030517578125
 20
44.5
 30
0.0
 11
-47.750030517578125
 21
44.0
 31
0.0
  0
LINE
  5
358
100
AcDbEntity
  8
0
  6
CONTINUOUS
 62
               4
100
AcDbLine
 10
-45.250030517578125
 20
44.5
 30
0.0
 11
-45.250030517578125
 21
44.0
 31
0.0
  0
LINE
  5
359
100
AcDbEntity
  8
0
  6
CONTINUOUS
 62
               4
100
AcDbLine
 10
-45.250030517578125
 20
44.5
 30
0.0
 11
-47.750030517578125
 21
44.5
 31
0.0
  0
LINE
  5
35A
100
AcDbEntity
  8
0
  6
CONTINUOUS
 62
             200
100
AcDbLine
 10
-42.815024860675834
 20
69.464464815078827
 30
0.0
 11
-35.885014707156728
 21
65.46341291056342
 31
0.0
  0
LINE
  5
35B
100
AcDbEntity
  8
0
  6
CONTINUOUS
 62
             200
100
AcDbLine
 10
-42.815049409050147
 20
70.619105809934808
 30
0.0
 11
-35.885020317486664
 21
66.618057246153512
 31
0.0
  0
LINE
  5
35C
100
AcDbEntity
  8
0
  6
CONTINUOUS
 62
               4
100
AcDbLine
 10
-37.385034179687494
 20
64.0
 30
0.0
 11
-37.385034179687494
 21
66.329421997070312
 31
0.0
  0
LINE
  5
35D
100
AcDbEntity
  8
0
  6
CONTINUOUS
 62
               4
100
AcDbLine
 10
-38.815042114257807
 20
64.0
 30
0.0
 11
-38.815042114257807
 21
67.155029296875
 31
0.0
  0
LINE
  5
35E
100
AcDbEntity
  8
0
  6
CONTINUOUS
 62
               4
100
AcDbLine
 10
-37.700036621093744
 20
77.0
 30
0.0
 11
-38.500039672851557
 21
77.0
 31
0.0
  0
LINE
  5
35F
100
AcDbEntity
  8
0
  6
CONTINUOUS
 62
               4
100
AcDbLine
 10
-37.700036621093744
 20
72.0
 30
0.0
 11
-37.700036621093744
 21
76.999984741210937
 31
0.0
  0
LINE
  5
360
100
AcDbEntity
  8
0
  6
CONTINUOUS
 62
               4
100
AcDbLine
 10
-38.500039672851557
 20
72.0
 30
0.0
 11
-38.500039672851557
 21
77.0
 31
0.0
  0
LINE
  5
361
100
AcDbEntity
  8
0
  6
CONTINUOUS
 62
               4
100
AcDbLine
 10
-37.385034179687494
 20
72.0
 30
0.0
 11
-38.815042114257807
 21
72.0
 31
0.0
  0
LINE
  5
362
100
AcDbEntity
  8
0
  6
CONTINUOUS
 62
               4
100
AcDbLine
 10
-37.385034179687494
 20
67.484115600585937
 30
0.0
 11
-37.385034179687494
 21
72.0
 31
0.0
  0
LINE
  5
363
100
AcDbEntity
  8
0
  6
CONTINUOUS
 62
               4
100
AcDbLine
 10
-38.815042114257807
 20
68.309738159179688
 30
0.0
 11
-38.815042114257807
 21
72.0
 31
0.0
  0
LINE
  5
364
100
AcDbEntity
  8
0
  6
CONTINUOUS
 62
               4
100
AcDbLine
 10
-41.315042114257807
 20
69.75311279296875
 30
0.0
 11
-41.315042114257807
 21
72.0
 31
0.0
  0
LINE
  5
365
100
AcDbEntity
  8
0
  6
CONTINUOUS
 62
               4
100
AcDbLine
 10
-39.885034179687494
 20
68.927490234375
 30
0.0
 11
-39.885034179687494
 21
72.0
 31
0.0
  0
LINE
  5
366
100
AcDbEntity
  8
0
  6
CONTINUOUS
 62
               4
100
AcDbLine
 10
-41.315042114257807
 20
72.0
 30
0.0
 11
-39.885034179687494
 21
72.0
 31
0.0
  0
LINE
  5
367
100
AcDbEntity
  8
0
  6
CONTINUOUS
 62
               4
100
AcDbLine
 10
-39.885034179687494
 20
64.0
 30
0.0
 11
-39.885034179687494
 21
67.772796630859375
 31
0.0
  0
LINE
  5
368
100
AcDbEntity
  8
0
  6
CONTINUOUS
 62
               4
100
AcDbLine
 10
-41.315042114257807
 20
64.0
 30
0.0
 11
-41.315042114257807
 21
68.598403930664063
 31
0.0
  0
LINE
  5
369
100
AcDbEntity
  8
0
  6
CONTINUOUS
 62
               4
100
AcDbLine
 10
-41.000039672851557
 20
72.0
 30
0.0
 11
-41.000039672851557
 21
77.0
 31
0.0
  0
LINE
  5
36A
100
AcDbEntity
  8
0
  6
CONTINUOUS
 62
               4
100
AcDbLine
 10
-40.200036621093744
 20
72.0
 30
0.0
 11
-40.200036621093744
 21
77.0
 31
0.0
  0
LINE
  5
36B
100
AcDbEntity
  8
0
  6
CONTINUOUS
 62
               4
100
AcDbLine
 10
-41.000039672851557
 20
77.0
 30
0.0
 11
-40.200036621093744
 21
77.0
 31
0.0
  0
LINE
  5
36C
100
AcDbEntity
  8
0
  6
CONTINUOUS
 62
               4
100
AcDbLine
 10
-46.150033569335932
 20
62.5
 30
0.0
 11
-46.150033569335932
 21
64.0
 31
0.0
  0
LINE
  5
36D
100
AcDbEntity
  8
0
  6
CONTINUOUS
 62
               4
100
AcDbLine
 10
-44.150075029182148
 20
62.999958942901685
 30
0.0
 11
-44.727426844946052
 21
63.999967647856465
 31
0.0
  0
LINE
  5
36E
100
AcDbEntity
  8
0
  6
CONTINUOUS
 62
               4
100
AcDbLine
 10
-44.150033569335932
 20
57.5
 30
0.0
 11
-44.150033569335932
 21
64.0
 31
0.0
  0
LINE
  5
36F
100
AcDbEntity
  8
0
  6
CONTINUOUS
 62
               4
100
AcDbLine
 10
-45.150031819814643
 20
53.49845074175937
 30
0.0
 11
-45.650030928691734
 21
57.056138825448215
 31
0.0
  0
LINE
  5
370
100
AcDbEntity
  8
0
  6
CONTINUOUS
 62
               4
100
AcDbLine
 10
-45.650033569335932
 20
57.05615234375
 30
0.0
 11
-45.650033569335932
 21
62.5
 31
0.0
  0
LINE
  5
371
100
AcDbEntity
  8
0
  6
CONTINUOUS
 62
               4
100
AcDbLine
 10
-35.150018310546869
 20
63.0
 30
0.0
 11
-35.650018310546869
 21
63.0
 31
0.0
  0
LINE
  5
372
100
AcDbEntity
  8
0
  6
CONTINUOUS
 62
               4
100
AcDbLine
 10
-35.150033569335932
 20
63.0
 30
0.0
 11
-35.150033569335932
 21
64.0
 31
0.0
  0
LINE
  5
373
100
AcDbEntity
  8
0
  6
CONTINUOUS
 62
               4
100
AcDbLine
 10
-35.650033569335932
 20
57.5
 30
0.0
 11
-35.650033569335932
 21
63.0
 31
0.0
  0
LINE
  5
374
100
AcDbEntity
  8
0
  6
CONTINUOUS
 62
               4
100
AcDbLine
 10
-44.150030726985818
 20
53.498474151870141
 30
0.0
 11
-44.100010173679578
 21
53.548494705176381
 31
0.0
  0
LINE
  5
375
100
AcDbEntity
  8
0
  6
CONTINUOUS
 62
               4
100
AcDbLine
 10
-45.650025939941401
 20
62.5
 30
0.0
 11
-46.150025939941401
 21
62.5
 31
0.0
  0
LINE
  5
376
100
AcDbEntity
  8
0
  6
CONTINUOUS
 62
               4
100
AcDbLine
 10
-44.150033569335932
 20
54.998458862304688
 30
0.0
 11
-44.150033569335932
 21
57.5
 31
0.0
  0
LINE
  5
377
100
AcDbEntity
  8
0
  6
CONTINUOUS
 62
               4
100
AcDbLine
 10
-44.150033569335932
 20
53.498458862304688
 30
0.0
 11
-45.150025939941401
 21
53.498458862304688
 31
0.0
  0
LINE
  5
378
100
AcDbEntity
  8
0
  6
CONTINUOUS
 62
               4
100
AcDbLine
 10
-44.100030517578119
 20
54.998458862304688
 30
0.0
 11
-44.150033569335932
 21
54.998458862304688
 31
0.0
  0
LINE
  5
379
100
AcDbEntity
  8
0
  6
CONTINUOUS
 62
               4
100
AcDbLine
 10
-44.727380371093744
 20
64.0
 30
0.0
 11
-46.150025939941401
 21
64.0
 31
0.0
  0
LINE
  5
37A
100
AcDbEntity
  8
0
  6
CONTINUOUS
 62
               4
100
AcDbLine
 10
-35.500030517578125
 20
57.5
 30
0.0
 11
-44.150033569335932
 21
57.5
 31
0.0
  0
LINE
  5
37B
100
AcDbEntity
  8
0
  6
CONTINUOUS
 62
               4
100
AcDbLine
 10
-35.150018310546869
 20
64.0
 30
0.0
 11
-44.150018310546869
 21
64.0
 31
0.0
  0
LINE
  5
37C
100
AcDbEntity
  8
0
  6
CONTINUOUS
 62
               4
100
AcDbLine
 10
-44.100030517578119
 20
57.5
 30
0.0
 11
-44.100030517578119
 21
53.0
 31
0.0
  0
LINE
  5
37D
100
AcDbEntity
  8
0
  6
CONTINUOUS
 62
               4
100
AcDbLine
 10
-33.000030517578125
 20
44.0
 30
0.0
 11
-60.000022888183594
 21
44.0
 31
0.0
  0
LINE
  5
37E
100
AcDbEntity
  8
0
  6
CONTINUOUS
 62
               4
100
AcDbLine
 10
-33.000030517578125
 20
37.0
 30
0.0
 11
-34.600044250488281
 21
37.0
 31
0.0
  0
LINE
  5
37F
100
AcDbEntity
  8
0
  6
CONTINUOUS
 62
               4
100
AcDbLine
 10
-33.70004425048829
 20
37.0
 30
0.0
 11
-33.70004425048829
 21
44.0
 31
0.0
  0
LINE
  5
380
100
AcDbEntity
  8
0
  6
CONTINUOUS
 62
               4
100
AcDbLine
 10
-34.600044250488281
 20
37.0
 30
0.0
 11
-34.600044250488281
 21
44.0
 31
0.0
  0
LINE
  5
381
100
AcDbEntity
  8
0
  6
CONTINUOUS
 62
               4
100
AcDbLine
 10
-45.000036630678522
 20
41.000000038339124
 30
0.0
 11
-45.000036688187237
 21
23.000000038339124
 31
0.0
  0
LINE
  5
382
100
AcDbEntity
  8
0
  6
CONTINUOUS
 62
               4
100
AcDbLine
 10
-38.000036630678522
 20
41.000000015974649
 30
0.0
 11
-38.000036688187237
 21
23.000000015974649
 31
0.0
  0
LINE
  5
383
100
AcDbEntity
  8
0
  6
CONTINUOUS
 62
               4
100
AcDbLine
 10
-47.000036630678522
 20
41.000000044729006
 30
0.0
 11
-38.000036630678522
 21
41.000000015974649
 31
0.0
  0
LINE
  5
384
100
AcDbEntity
  8
0
  6
CONTINUOUS
 62
               4
100
AcDbLine
 10
-47.000036688187237
 20
23.000000044729006
 30
0.0
 11
-38.000036688187237
 21
23.000000015974649
 31
0.0
  0
LINE
  5
385
100
AcDbEntity
  8
0
  6
CONTINUOUS
 62
               2
100
AcDbLine
 10
-4.0
 20
0.0
 30
0.0
 11
4.0
 21
0.0
 31
0.0
  0
LINE
  5
386
100
AcDbEntity
  8
0
  6
CONTINUOUS
 62
               2
100
AcDbLine
 10
-4.0
 20
-60.0
 30
0.0
 11
4.0
 21
-60.0
 31
0.0
  0
LINE
  5
387
100
AcDbEntity
  8
0
  6
CONTINUOUS
 62
               7
100
AcDbLine
 10
-30.50002851688393
 20
-3.4999923706055469
 30
0.0
 11
-30.00002851688393
 21
-3.499992408354494
 31
0.0
  0
LINE
  5
388
100
AcDbEntity
  8
0
  6
CONTINUOUS
 62
               7
100
AcDbLine
 10
-30.50003251827232
 20
-56.499992370605391
 30
0.0
 11
-30.000032518272324
 21
-56.499992408354338
 31
0.0
  0
LINE
  5
389
100
AcDbEntity
  8
0
  6
CONTINUOUS
 62
               7
100
AcDbLine
 10
-30.500028045022088
 20
2.7500076293944389
 30
0.0
 11
-30.000028045022091
 21
2.7500075916454918
 31
0.0
  0
LINE
  5
38A
100
AcDbEntity
  8
0
  6
CONTINUOUS
 62
               7
100
AcDbLine
 10
-30.500028309264717
 20
-0.749992370605554
 30
0.0
 11
-30.000028309264721
 21
-0.7499924083545011
 31
0.0
  0
ENDBLK
  5
38B
100
AcDbEntity
  8
0
100
AcDbBlockEnd
  0
BLOCK
  5
38C
100
AcDbEntity
  8
0
100
AcDbBlockBegin
  2
F18T0-10
 70
               0
 10
0.0
 20
0.0
 30
0.0
  3
F18T0-10
  1

  0
LINE
  5
38D
100
AcDbEntity
  8
0
  6
CONTINUOUS
 62
               7
100
AcDbLine
 10
-3.5
 20
30.0
 30
0.0
 11
-3.5
 21
0.0
 31
0.0
  0
LINE
  5
38E
100
AcDbEntity
  8
0
  6
CONTINUOUS
 62
               7
100
AcDbLine
 10
30.5
 20
30.0
 30
0.0
 11
30.5
 21
0.0
 31
0.0
  0
LINE
  5
38F
100
AcDbEntity
  8
0
  6
CONTINUOUS
 62
               7
100
AcDbLine
 10
-3.5
 20
0.0
 30
0.0
 11
30.5
 21
0.0
 31
0.0
  0
LINE
  5
390
100
AcDbEntity
  8
0
  6
CONTINUOUS
 62
               7
100
AcDbLine
 10
-3.5
 20
30.0
 30
0.0
 11
30.5
 21
30.0
 31
0.0
  0
LINE
  5
391
100
AcDbEntity
  8
0
  6
CONTINUOUS
 62
               7
100
AcDbLine
 10
7.5
 20
56.5
 30
0.0
 11
4.5
 21
56.5
 31
0.0
  0
LINE
  5
392
100
AcDbEntity
  8
0
  6
CONTINUOUS
 62
               7
100
AcDbLine
 10
22.0
 20
64.5
 30
0.0
 11
5.0
 21
64.5
 31
0.0
  0
LINE
  5
393
100
AcDbEntity
  8
0
  6
CONTINUOUS
 62
               7
100
AcDbLine
 10
4.5
 20
67.0
 30
0.0
 11
4.5
 21
30.0
 31
0.0
  0
LINE
  5
394
100
AcDbEntity
  8
0
  6
CONTINUOUS
 62
               7
100
AcDbLine
 10
22.5
 20
67.0
 30
0.0
 11
22.5
 21
30.0
 31
0.0
  0
LINE
  5
395
100
AcDbEntity
  8
0
  6
CONTINUOUS
 62
               2
100
AcDbLine
 10
13.5
 20
75.060000000000002
 30
0.0
 11
13.5
 21
-5.2000000000000002
 31
0.0
  0
LINE
  5
396
100
AcDbEntity
  8
0
  6
CONTINUOUS
 62
               7
100
AcDbLine
 10
7.0
 20
66.5
 30
0.0
 11
6.0
 21
65.5
 31
0.0
  0
LINE
  5
397
100
AcDbEntity
  8
0
  6
CONTINUOUS
 62
               7
100
AcDbLine
 10
21.0
 20
65.5
 30
0.0
 11
20.0
 21
66.5
 31
0.0
  0
LINE
  5
398
100
AcDbEntity
  8
0
  6
CONTINUOUS
 62
               7
100
AcDbLine
 10
6.0
 20
65.5
 30
0.0
 11
6.0
 21
64.5
 31
0.0
  0
LINE
  5
399
100
AcDbEntity
  8
0
  6
CONTINUOUS
 62
               7
100
AcDbLine
 10
7.5
 20
62.5
 30
0.0
 11
4.5
 21
62.5
 31
0.0
  0
LINE
  5
39A
100
AcDbEntity
  8
0
  6
CONTINUOUS
 62
               7
100
AcDbLine
 10
18.43
 20
34.560000000000002
 30
0.0
 11
20.559999999999999
 21
32.43
 31
0.0
  0
LINE
  5
39B
100
AcDbEntity
  8
0
  6
CONTINUOUS
 62
               7
100
AcDbLine
 10
20.559999999999999
 20
34.560000000000002
 30
0.0
 11
18.43
 21
32.43
 31
0.0
  0
LINE
  5
39C
100
AcDbEntity
  8
0
  6
CONTINUOUS
 62
               7
100
AcDbLine
 10
16.5
 20
33.5
 30
0.0
 11
16.5
 21
30.5
 31
0.0
  0
LINE
  5
39D
100
AcDbEntity
  8
0
  6
CONTINUOUS
 62
               7
100
AcDbLine
 10
4.5
 20
30.5
 30
0.0
 11
4.5
 21
30.0
 31
0.0
  0
LINE
  5
39E
100
AcDbEntity
  8
0
  6
CONTINUOUS
 62
               7
100
AcDbLine
 10
22.5
 20
30.5
 30
0.0
 11
22.5
 21
30.0
 31
0.0
  0
LINE
  5
39F
100
AcDbEntity
  8
0
  6
CONTINUOUS
 62
               7
100
AcDbLine
 10
19.5
 20
36.5
 30
0.0
 11
22.5
 21
36.5
 31
0.0
  0
LINE
  5
3A0
100
AcDbEntity
  8
0
  6
CONTINUOUS
 62
               7
100
AcDbLine
 10
21.0
 20
65.5
 30
0.0
 11
21.0
 21
64.5
 31
0.0
  0
LINE
  5
3A1
100
AcDbEntity
  8
0
  6
CONTINUOUS
 62
               7
100
AcDbLine
 10
20.0
 20
66.5
 30
0.0
 11
7.0
 21
66.5
 31
0.0
  0
LINE
  5
3A2
100
AcDbEntity
  8
0
  6
CONTINUOUS
 62
               7
100
AcDbLine
 10
6.4299999999999997
 20
58.43
 30
0.0
 11
8.5600000000000005
 21
60.560000000000002
 31
0.0
  0
LINE
  5
3A3
100
AcDbEntity
  8
0
  6
CONTINUOUS
 62
               7
100
AcDbLine
 10
8.5600000000000005
 20
58.43
 30
0.0
 11
6.4299999999999997
 21
60.560000000000002
 31
0.0
  0
LINE
  5
3A4
100
AcDbEntity
  8
0
  6
CONTINUOUS
 62
               7
100
AcDbLine
 10
22.5
 20
30.5
 30
0.0
 11
4.5
 21
30.5
 31
0.0
  0
LINE
  5
3A5
100
AcDbEntity
  8
0
  6
CONTINUOUS
 62
               7
100
AcDbLine
 10
5.0
 20
67.5
 30
0.0
 11
22.0
 21
67.5
 31
0.0
  0
LINE
  5
3A6
100
AcDbEntity
  8
0
  6
CONTINUOUS
 62
               7
100
AcDbLine
 10
6.0
 20
65.5
 30
0.0
 11
21.0
 21
65.5
 31
0.0
  0
LINE
  5
3A7
100
AcDbEntity
  8
0
  6
CONTINUOUS
 62
               2
100
AcDbLine
 10
0.0
 20
3.0
 30
0.0
 11
0.0
 21
-3.0
 31
0.0
  0
ARC
  5
3A8
100
AcDbEntity
  8
0
  6
CONTINUOUS
 62
               7
100
AcDbCircle
 10
22.0
 20
67.0
 30
0.0
 40
0.5
100
AcDbArc
 50
0.0
 51
89.999999999999815
  0
ARC
  5
3A9
100
AcDbEntity
  8
0
  6
CONTINUOUS
 62
               7
100
AcDbCircle
 10
5.0
 20
67.0
 30
0.0
 40
0.5
100
AcDbArc
 50
89.999999999999815
 51
179.99999999999963
  0
ARC
  5
3AA
100
AcDbEntity
  8
0
  6
CONTINUOUS
 62
               7
100
AcDbCircle
 10
19.5
 20
33.5
 30
0.0
 40
3.0
100
AcDbArc
 50
89.999999999999815
 51
179.99999999999963
  0
CIRCLE
  5
3AB
100
AcDbEntity
  8
0
  6
CONTINUOUS
 62
               7
100
AcDbCircle
 10
19.5
 20
33.5
 30
0.0
 40
2.7999992370605469
  0
CIRCLE
  5
3AC
100
AcDbEntity
  8
0
  6
CONTINUOUS
 62
               7
100
AcDbCircle
 10
7.5
 20
59.5
 30
0.0
 40
2.7999992370605469
  0
ARC
  5
3AD
100
AcDbEntity
  8
0
  6
CONTINUOUS
 62
               7
100
AcDbCircle
 10
22.0
 20
64.0
 30
0.0
 40
0.5
100
AcDbArc
 50
0.0
 51
89.999999999999815
  0
ARC
  5
3AE
100
AcDbEntity
  8
0
  6
CONTINUOUS
 62
               7
100
AcDbCircle
 10
5.0
 20
64.0
 30
0.0
 40
0.5
100
AcDbArc
 50
89.999999999999815
 51
179.99999999999963
  0
ARC
  5
3AF
100
AcDbEntity
  8
0
  6
CONTINUOUS
 62
               7
100
AcDbCircle
 10
7.5
 20
59.5
 30
0.0
 40
3.0
100
AcDbArc
 50
269.99999999999937
 51
89.999999999999801
  0
ENDBLK
  5
3B0
100
AcDbEntity
  8
0
100
AcDbBlockEnd
  0
BLOCK
  5
3B1
100
AcDbEntity
  8
0
100
AcDbBlockBegin
  2
F18T0-11
 70
               0
 10
0.0
 20
0.0
 30
0.0
  3
F18T0-11
  1

  0
LINE
  5
3B2
100
AcDbEntity
  8
0
  6
CONTINUOUS
 62
               7
100
AcDbLine
 10
36.500015258789063
 20
16.999988555908203
 30
0.0
 11
4.5
 21
16.999988555908203
 31
0.0
  0
LINE
  5
3B3
100
AcDbEntity
  8
0
  6
CONTINUOUS
 62
               7
100
AcDbLine
 10
-7.0
 20
-36.499996185302734
 30
0.0
 11
-7.0
 21
17.500003814697266
 31
0.0
  0
LINE
  5
3B4
100
AcDbEntity
  8
0
  6
CONTINUOUS
 62
               2
100
AcDbLine
 10
3.5
 20
-19.0
 30
0.0
 11
-3.5
 21
-19.0
 31
0.0
  0
LINE
  5
3B5
100
AcDbEntity
  8
0
  6
DASHED
 62
               4
100
AcDbLine
 10
22.0
 20
-60.999996185302734
 30
0.0
 11
-18.0
 21
-60.999996185302734
 31
0.0
  0
LINE
  5
3B6
100
AcDbEntity
  8
0
  6
DASHED
 62
               4
100
AcDbLine
 10
-18.0
 20
-60.999996185302734
 30
0.0
 11
-18.0
 21
-59.399990081787109
 31
0.0
  0
LINE
  5
3B7
100
AcDbEntity
  8
0
  6
DASHED
 62
               4
100
AcDbLine
 10
-8.0
 20
-59.399990081787109
 30
0.0
 11
-18.0
 21
-59.399990081787109
 31
0.0
  0
LINE
  5
3B8
100
AcDbEntity
  8
0
  6
DASHED
 62
               4
100
AcDbLine
 10
22.0
 20
-60.999996185302734
 30
0.0
 11
22.0
 21
9.9999885559082031
 31
0.0
  0
LINE
  5
3B9
100
AcDbEntity
  8
0
  6
DASHED
 62
               4
100
AcDbLine
 10
22.0
 20
9.9999885559082031
 30
0.0
 11
-8.0
 21
9.9999885559082031
 31
0.0
  0
LINE
  5
3BA
100
AcDbEntity
  8
0
  6
CONTINUOUS
 62
               2
100
AcDbLine
 10
0.0
 20
3.4999885559082031
 30
0.0
 11
0.0
 21
-3.5
 31
0.0
  0
LINE
  5
3BB
100
AcDbEntity
  8
0
  6
CONTINUOUS
 62
               2
100
AcDbLine
 10
3.5
 20
0.0
 30
0.0
 11
-3.5
 21
0.0
 31
0.0
  0
LINE
  5
3BC
100
AcDbEntity
  8
0
  6
DASHED
 62
               4
100
AcDbLine
 10
-8.0
 20
9.9999885559082031
 30
0.0
 11
-8.0
 21
-60.999996185302734
 31
0.0
  0
LINE
  5
3BD
100
AcDbEntity
  8
0
  6
CONTINUOUS
 62
               2
100
AcDbLine
 10
0.0
 20
-22.499996185302734
 30
0.0
 11
0.0
 21
-15.5
 31
0.0
  0
LINE
  5
3BE
100
AcDbEntity
  8
0
  6
CONTINUOUS
 62
               7
100
AcDbLine
 10
4.5
 20
-46.499980926513672
 30
0.0
 11
4.5
 21
26.999988555908203
 31
0.0
  0
LINE
  5
3BF
100
AcDbEntity
  8
0
  6
CONTINUOUS
 62
               7
100
AcDbLine
 10
36.5
 20
-35.999996185302734
 30
0.0
 11
36.5
 21
27.000003814697266
 31
0.0
  0
LINE
  5
3C0
100
AcDbEntity
  8
0
  6
CONTINUOUS
 62
               7
100
AcDbLine
 10
38.5
 20
-35.999980926513672
 30
0.0
 11
4.5
 21
-35.999980926513672
 31
0.0
  0
LINE
  5
3C1
100
AcDbEntity
  8
0
  6
CONTINUOUS
 62
               7
100
AcDbLine
 10
38.5
 20
-46.499996185302734
 30
0.0
 11
38.5
 21
-35.999980926513672
 31
0.0
  0
LINE
  5
3C2
100
AcDbEntity
  8
0
  6
CONTINUOUS
 62
               7
100
AcDbLine
 10
38.0
 20
-46.999980926513672
 30
0.0
 11
5.0
 21
-46.999980926513672
 31
0.0
  0
LINE
  5
3C3
100
AcDbEntity
  8
0
  6
CENTER
 62
               2
100
AcDbLine
 10
36.0
 20
37.200000762939453
 30
0.0
 11
33.29998779296875
 21
37.200000762939453
 31
0.0
  0
LINE
  5
3C4
100
AcDbEntity
  8
0
  6
CONTINUOUS
 62
               7
100
AcDbLine
 10
35.0
 20
35.250003814697266
 30
0.0
 11
35.0
 21
36.899997711181641
 31
0.0
  0
LINE
  5
3C5
100
AcDbEntity
  8
0
  6
CONTINUOUS
 62
               7
100
AcDbLine
 10
35.0
 20
35.250003814697266
 30
0.0
 11
34.0
 21
35.250003814697266
 31
0.0
  0
LINE
  5
3C6
100
AcDbEntity
  8
0
  6
CONTINUOUS
 62
               7
100
AcDbLine
 10
35.0
 20
39.149997711181641
 30
0.0
 11
34.0
 21
39.149997711181641
 31
0.0
  0
LINE
  5
3C7
100
AcDbEntity
  8
0
  6
CONTINUOUS
 62
               7
100
AcDbLine
 10
34.399993896484375
 20
36.899997711181641
 30
0.0
 11
34.399993896484375
 21
37.499988555908203
 31
0.0
  0
LINE
  5
3C8
100
AcDbEntity
  8
0
  6
CONTINUOUS
 62
               7
100
AcDbLine
 10
35.0
 20
36.899997711181641
 30
0.0
 11
34.399993896484375
 21
36.899997711181641
 31
0.0
  0
LINE
  5
3C9
100
AcDbEntity
  8
0
  6
CONTINUOUS
 62
               7
100
AcDbLine
 10
35.0
 20
37.500003814697266
 30
0.0
 11
34.399993896484375
 21
37.500003814697266
 31
0.0
  0
LINE
  5
3CA
100
AcDbEntity
  8
0
  6
CONTINUOUS
 62
               7
100
AcDbLine
 10
35.0
 20
37.499988555908203
 30
0.0
 11
35.0
 21
39.149997711181641
 31
0.0
  0
LINE
  5
3CB
100
AcDbEntity
  8
0
  6
CONTINUOUS
 62
               7
100
AcDbLine
 10
34.0
 20
29.500003814697266
 30
0.0
 11
34.0
 21
40.499988555908203
 31
0.0
  0
LINE
  5
3CC
100
AcDbEntity
  8
0
  6
CONTINUOUS
 62
               7
100
AcDbLine
 10
7.0
 20
29.500003814697266
 30
0.0
 11
7.0
 21
40.499988555908203
 31
0.0
  0
LINE
  5
3CD
100
AcDbEntity
  8
0
  6
CONTINUOUS
 62
               7
100
AcDbLine
 10
36.5
 20
27.000003814697266
 30
0.0
 11
4.5
 21
27.000003814697266
 31
0.0
  0
LINE
  5
3CE
100
AcDbEntity
  8
0
  6
CONTINUOUS
 62
               7
100
AcDbLine
 10
36.699996948242188
 20
-46.999980926513672
 30
0.0
 11
36.699996948242188
 21
-44.499980926513672
 31
0.0
  0
LINE
  5
3CF
100
AcDbEntity
  8
0
  6
CONTINUOUS
 62
               7
100
AcDbLine
 10
30.300003051757812
 20
-46.999980926513672
 30
0.0
 11
30.300003051757812
 21
-44.499980926513672
 31
0.0
  0
LINE
  5
3D0
100
AcDbEntity
  8
0
  6
CONTINUOUS
 62
               7
100
AcDbLine
 10
36.699996948242188
 20
-44.499980926513672
 30
0.0
 11
30.300003051757812
 21
-44.499980926513672
 31
0.0
  0
LINE
  5
3D1
100
AcDbEntity
  8
0
  6
CONTINUOUS
 62
               7
100
AcDbLine
 10
34.75
 20
-46.499980926513672
 30
0.0
 11
32.25
 21
-46.499980926513672
 31
0.0
  0
LINE
  5
3D2
100
AcDbEntity
  8
0
  6
CONTINUOUS
 62
               7
100
AcDbLine
 10
36.25
 20
-44.999980926513672
 30
0.0
 11
36.25
 21
-44.499980926513672
 31
0.0
  0
LINE
  5
3D3
100
AcDbEntity
  8
0
  6
CONTINUOUS
 62
               7
100
AcDbLine
 10
30.75
 20
-44.999980926513672
 30
0.0
 11
30.75
 21
-44.499980926513672
 31
0.0
  0
LINE
  5
3D4
100
AcDbEntity
  8
0
  6
CONTINUOUS
 62
               7
100
AcDbLine
 10
8.0
 20
30.999988555908203
 30
0.0
 11
7.0
 21
30.999988555908203
 31
0.0
  0
LINE
  5
3D5
100
AcDbEntity
  8
0
  6
CONTINUOUS
 62
               7
100
AcDbLine
 10
8.0
 20
29.500003814697266
 30
0.0
 11
8.0
 21
30.999988555908203
 31
0.0
  0
LINE
  5
3D6
100
AcDbEntity
  8
0
  6
CONTINUOUS
 62
               7
100
AcDbLine
 10
29.699996948242187
 20
30.999988555908203
 30
0.0
 11
10.5
 21
30.999988555908203
 31
0.0
  0
LINE
  5
3D7
100
AcDbEntity
  8
0
  6
CONTINUOUS
 62
               7
100
AcDbLine
 10
10.5
 20
29.500003814697266
 30
0.0
 11
10.5
 21
30.999988555908203
 31
0.0
  0
LINE
  5
3D8
100
AcDbEntity
  8
0
  6
CONTINUOUS
 62
               7
100
AcDbLine
 10
29.699996948242187
 20
29.500003814697266
 30
0.0
 11
29.699996948242187
 21
30.999988555908203
 31
0.0
  0
LINE
  5
3D9
100
AcDbEntity
  8
0
  6
CONTINUOUS
 62
               7
100
AcDbLine
 10
32.699996948242188
 20
29.500003814697266
 30
0.0
 11
32.699996948242188
 21
30.999988555908203
 31
0.0
  0
LINE
  5
3DA
100
AcDbEntity
  8
0
  6
CONTINUOUS
 62
               7
100
AcDbLine
 10
34.0
 20
30.999988555908203
 30
0.0
 11
32.699996948242188
 21
30.999988555908203
 31
0.0
  0
CIRCLE
  5
3DB
100
AcDbEntity
  8
0
  6
CONTINUOUS
 62
               7
100
AcDbCircle
 10
0.0
 20
0.0
 30
0.0
 40
2.25
  0
CIRCLE
  5
3DC
100
AcDbEntity
  8
0
  6
CONTINUOUS
 62
               7
100
AcDbCircle
 10
0.0
 20
-19.0
 30
0.0
 40
2.25
  0
ARC
  5
3DD
100
AcDbEntity
  8
0
  6
CONTINUOUS
 62
               7
100
AcDbCircle
 10
5.0
 20
-46.499980926513672
 30
0.0
 40
0.5
100
AcDbArc
 50
179.99998133066492
 51
270.00007262760209
  0
ARC
  5
3DE
100
AcDbEntity
  8
0
  6
CONTINUOUS
 62
               7
100
AcDbCircle
 10
38.0
 20
-46.499980926513672
 30
0.0
 40
0.5
100
AcDbArc
 50
270.00007262760209
 51
0.0000409811350201
  0
ARC
  5
3DF
100
AcDbEntity
  8
0
  6
CONTINUOUS
 62
               7
100
AcDbCircle
 10
7.499969482421875
 20
30.000064849853516
 30
0.0
 40
2.5000734329223633
100
AcDbArc
 50
220.54037790397877
 51
348.46195609548801
  0
ARC
  5
3E0
100
AcDbEntity
  8
0
  6
CONTINUOUS
 62
               7
100
AcDbCircle
 10
32.25
 20
-44.999980926513672
 30
0.0
 40
1.5
100
AcDbArc
 50
179.99998133066492
 51
270.00001798608872
  0
ARC
  5
3E1
100
AcDbEntity
  8
0
  6
CONTINUOUS
 62
               7
100
AcDbCircle
 10
34.75
 20
-44.999980926513672
 30
0.0
 40
1.5
100
AcDbArc
 50
270.00001798608872
 51
0.0
  0
LINE
  5
3E2
100
AcDbEntity
  8
0
  6
CONTINUOUS
 62
               7
100
AcDbLine
 10
34.5
 20
29.500003814697266
 30
0.0
 11
6.5
 21
29.500003814697266
 31
0.0
  0
LINE
  5
3E3
100
AcDbEntity
  8
0
  6
CONTINUOUS
 62
               7
100
AcDbLine
 10
36.500008615770412
 20
27.000010310413984
 30
0.0
 11
34.50000868674897
 21
29.500010221690786
 31
0.0
  0
LINE
  5
3E4
100
AcDbEntity
  8
0
  6
CONTINUOUS
 62
               7
100
AcDbLine
 10
4.4999957511698767
 20
27.000011352986348
 30
0.0
 11
6.4999998504807763
 21
29.500016477124973
 31
0.0
  0
LINE
  5
3E5
100
AcDbEntity
  8
0
  6
CONTINUOUS
 62
               7
100
AcDbLine
 10
-7.0
 20
17.500003814697266
 30
0.0
 11
4.0
 21
17.500003814697266
 31
0.0
  0
LINE
  5
3E6
100
AcDbEntity
  8
0
  6
CONTINUOUS
 62
               7
100
AcDbLine
 10
-7.0
 20
-36.499996185302734
 30
0.0
 11
4.0
 21
-36.499996185302734
 31
0.0
  0
LINE
  5
3E7
100
AcDbEntity
  8
0
  6
CONTINUOUS
 62
               7
100
AcDbLine
 10
4.0
 20
-36.499996185302734
 30
0.0
 11
4.0
 21
17.500003814697266
 31
0.0
  0
LINE
  5
3E8
100
AcDbEntity
  8
0
  6
CONTINUOUS
 62
               4
100
AcDbLine
 10
18.099999999999994
 20
73.499988555908203
 30
0.0
 11
31.674999999999983
 21
73.499988555908203
 31
0.0
  0
LINE
  5
3E9
100
AcDbEntity
  8
0
  6
CONTINUOUS
 62
               4
100
AcDbLine
 10
34.0
 20
40.499988555908203
 30
0.0
 11
34.0
 21
64.499988555908203
 31
0.0
  0
LINE
  5
3EA
100
AcDbEntity
  8
0
  6
CONTINUOUS
 62
               4
100
AcDbLine
 10
7.0
 20
40.499988555908203
 30
0.0
 11
7.0
 21
64.499988555908203
 31
0.0
  0
LINE
  5
3EB
100
AcDbEntity
  8
0
  6
CONTINUOUS
 62
               4
100
AcDbLine
 10
7.0
 20
72.999988555908203
 30
0.0
 11
7.0
 21
64.499988555908203
 31
0.0
  0
LINE
  5
3EC
100
AcDbEntity
  8
0
  6
CONTINUOUS
 62
               4
100
AcDbLine
 10
27.0
 20
66.899988555908209
 30
0.0
 11
27.0
 21
65.94998855590822
 31
0.0
  0
LINE
  5
3ED
100
AcDbEntity
  8
0
  6
CONTINUOUS
 62
               4
100
AcDbLine
 10
14.099999999999994
 20
66.899988555908209
 30
0.0
 11
14.099999999999994
 21
65.94998855590822
 31
0.0
  0
LINE
  5
3EE
100
AcDbEntity
  8
0
  6
CONTINUOUS
 62
               4
100
AcDbLine
 10
29.099999999999994
 20
66.899988555908209
 30
0.0
 11
27.0
 21
66.899988555908209
 31
0.0
  0
LINE
  5
3EF
100
AcDbEntity
  8
0
  6
CONTINUOUS
 62
               4
100
AcDbLine
 10
14.099999999999994
 20
66.899988555908209
 30
0.0
 11
12.0
 21
66.899988555908209
 31
0.0
  0
LINE
  5
3F0
100
AcDbEntity
  8
0
  6
CONTINUOUS
 62
               4
100
AcDbLine
 10
34.0
 20
68.67998855590821
 30
0.0
 11
34.0
 21
64.499988555908203
 31
0.0
  0
LINE
  5
3F1
100
AcDbEntity
  8
0
  6
CONTINUOUS
 62
               4
100
AcDbLine
 10
32.129999999999995
 20
73.204988555908216
 30
0.0
 11
33.870000000000005
 21
69.289988555908195
 31
0.0
  0
ARC
  5
3F2
100
AcDbEntity
  8
0
  6
CONTINUOUS
 62
               4
100
AcDbCircle
 10
31.674020838564047
 20
73.000088493354468
 30
0.0
 40
0.4999010215015999
100
AcDbArc
 50
24.197376208904771
 51
89.887774076864815
  0
ARC
  5
3F3
100
AcDbEntity
  8
0
  6
CONTINUOUS
 62
               4
100
AcDbCircle
 10
32.502020395360574
 20
68.679599459837505
 30
0.0
 40
1.4979796551727449
100
AcDbArc
 50
0.0148824203654679
 51
24.046309772710686
  0
LINE
  5
3F4
100
AcDbEntity
  8
0
  6
CONTINUOUS
 62
               4
100
AcDbLine
 10
29.099999999999994
 20
66.899988555908209
 30
0.0
 11
29.099999999999994
 21
65.94998855590822
 31
0.0
  0
LINE
  5
3F5
100
AcDbEntity
  8
0
  6
CONTINUOUS
 62
               4
100
AcDbLine
 10
12.0
 20
66.899988555908209
 30
0.0
 11
12.0
 21
65.94998855590822
 31
0.0
  0
LINE
  5
3F6
100
AcDbEntity
  8
0
  6
CONTINUOUS
 62
               4
100
AcDbLine
 10
14.099999999999994
 20
65.94998855590822
 30
0.0
 11
12.0
 21
65.94998855590822
 31
0.0
  0
LINE
  5
3F7
100
AcDbEntity
  8
0
  6
CONTINUOUS
 62
               4
100
AcDbLine
 10
29.099999999999994
 20
65.94998855590822
 30
0.0
 11
27.0
 21
65.94998855590822
 31
0.0
  0
LINE
  5
3F8
100
AcDbEntity
  8
0
  6
CONTINUOUS
 62
               4
100
AcDbLine
 10
9.5
 20
77.999988555908203
 30
0.0
 11
9.5
 21
73.499988555908203
 31
0.0
  0
LINE
  5
3F9
100
AcDbEntity
  8
0
  6
CONTINUOUS
 62
               4
100
AcDbLine
 10
9.5
 20
73.499988555908203
 30
0.0
 11
7.5
 21
73.499988555908203
 31
0.0
  0
ARC
  5
3FA
100
AcDbEntity
  8
0
  6
CONTINUOUS
 62
               4
100
AcDbCircle
 10
7.5
 20
72.999988555908203
 30
0.0
 40
0.5
100
AcDbArc
 50
89.999999999999815
 51
179.99999999999963
  0
LINE
  5
3FB
100
AcDbEntity
  8
0
  6
CONTINUOUS
 62
               4
100
AcDbLine
 10
21.75
 20
64.999988555908203
 30
0.0
 11
21.75
 21
64.499988555908203
 31
0.0
  0
LINE
  5
3FC
100
AcDbEntity
  8
0
  6
CONTINUOUS
 62
               4
100
AcDbLine
 10
19.25
 20
64.999988555908203
 30
0.0
 11
19.25
 21
64.499988555908203
 31
0.0
  0
LINE
  5
3FD
100
AcDbEntity
  8
0
  6
CONTINUOUS
 62
               4
100
AcDbLine
 10
19.25
 20
64.999988555908203
 30
0.0
 11
21.75
 21
64.999988555908203
 31
0.0
  0
LINE
  5
3FE
100
AcDbEntity
  8
0
  6
CONTINUOUS
 62
             200
100
AcDbLine
 10
16.814994343097709
 20
89.96445337098703
 30
0.0
 11
9.8849841895786028
 21
85.963401466471623
 31
0.0
  0
LINE
  5
3FF
100
AcDbEntity
  8
0
  6
CONTINUOUS
 62
             200
100
AcDbLine
 10
16.815018891472022
 20
91.119094365843011
 30
0.0
 11
9.8849897999085385
 21
87.118045802061715
 31
0.0
  0
LINE
  5
400
100
AcDbEntity
  8
0
  6
CONTINUOUS
 62
               4
100
AcDbLine
 10
11.385003662109369
 20
84.499988555908203
 30
0.0
 11
11.385003662109369
 21
86.829410552978516
 31
0.0
  0
LINE
  5
401
100
AcDbEntity
  8
0
  6
CONTINUOUS
 62
               4
100
AcDbLine
 10
12.815011596679682
 20
84.499988555908203
 30
0.0
 11
12.815011596679682
 21
87.655017852783203
 31
0.0
  0
LINE
  5
402
100
AcDbEntity
  8
0
  6
CONTINUOUS
 62
               4
100
AcDbLine
 10
11.700006103515619
 20
97.499988555908203
 30
0.0
 11
12.500009155273432
 21
97.499988555908203
 31
0.0
  0
LINE
  5
403
100
AcDbEntity
  8
0
  6
CONTINUOUS
 62
               4
100
AcDbLine
 10
11.700006103515619
 20
92.499988555908203
 30
0.0
 11
11.700006103515619
 21
97.499973297119141
 31
0.0
  0
LINE
  5
404
100
AcDbEntity
  8
0
  6
CONTINUOUS
 62
               4
100
AcDbLine
 10
12.500009155273432
 20
92.499988555908203
 30
0.0
 11
12.500009155273432
 21
97.499988555908203
 31
0.0
  0
LINE
  5
405
100
AcDbEntity
  8
0
  6
CONTINUOUS
 62
               4
100
AcDbLine
 10
11.385003662109369
 20
92.499988555908203
 30
0.0
 11
12.815011596679682
 21
92.499988555908203
 31
0.0
  0
LINE
  5
406
100
AcDbEntity
  8
0
  6
CONTINUOUS
 62
               4
100
AcDbLine
 10
11.385003662109369
 20
87.984104156494141
 30
0.0
 11
11.385003662109369
 21
92.499988555908203
 31
0.0
  0
LINE
  5
407
100
AcDbEntity
  8
0
  6
CONTINUOUS
 62
               4
100
AcDbLine
 10
12.815011596679682
 20
88.809726715087891
 30
0.0
 11
12.815011596679682
 21
92.499988555908203
 31
0.0
  0
LINE
  5
408
100
AcDbEntity
  8
0
  6
CONTINUOUS
 62
               7
100
AcDbLine
 10
7.0
 20
40.499988555908203
 30
0.0
 11
34.0
 21
40.499988555908203
 31
0.0
  0
LINE
  5
409
100
AcDbEntity
  8
0
  6
CONTINUOUS
 62
               4
100
AcDbLine
 10
15.315011596679682
 20
90.253101348876953
 30
0.0
 11
15.315011596679682
 21
92.499988555908203
 31
0.0
  0
LINE
  5
40A
100
AcDbEntity
  8
0
  6
CONTINUOUS
 62
               4
100
AcDbLine
 10
13.885003662109369
 20
89.427478790283203
 30
0.0
 11
13.885003662109369
 21
92.499988555908203
 31
0.0
  0
LINE
  5
40B
100
AcDbEntity
  8
0
  6
CONTINUOUS
 62
               4
100
AcDbLine
 10
15.315011596679682
 20
92.499988555908203
 30
0.0
 11
13.885003662109369
 21
92.499988555908203
 31
0.0
  0
LINE
  5
40C
100
AcDbEntity
  8
0
  6
CONTINUOUS
 62
               4
100
AcDbLine
 10
13.885003662109369
 20
84.499988555908203
 30
0.0
 11
13.885003662109369
 21
88.272785186767578
 31
0.0
  0
LINE
  5
40D
100
AcDbEntity
  8
0
  6
CONTINUOUS
 62
               4
100
AcDbLine
 10
15.315011596679682
 20
84.499988555908203
 30
0.0
 11
15.315011596679682
 21
89.098392486572266
 31
0.0
  0
LINE
  5
40E
100
AcDbEntity
  8
0
  6
CONTINUOUS
 62
               4
100
AcDbLine
 10
15.000009155273432
 20
92.499988555908203
 30
0.0
 11
15.000009155273432
 21
97.499988555908203
 31
0.0
  0
LINE
  5
40F
100
AcDbEntity
  8
0
  6
CONTINUOUS
 62
               4
100
AcDbLine
 10
14.200006103515619
 20
92.499988555908203
 30
0.0
 11
14.200006103515619
 21
97.499988555908203
 31
0.0
  0
LINE
  5
410
100
AcDbEntity
  8
0
  6
CONTINUOUS
 62
               4
100
AcDbLine
 10
15.000009155273432
 20
97.499988555908203
 30
0.0
 11
14.200006103515619
 21
97.499988555908203
 31
0.0
  0
LINE
  5
411
100
AcDbEntity
  8
0
  6
CONTINUOUS
 62
               4
100
AcDbLine
 10
20.150003051757807
 20
82.999988555908203
 30
0.0
 11
20.150003051757807
 21
84.499988555908203
 31
0.0
  0
LINE
  5
412
100
AcDbEntity
  8
0
  6
CONTINUOUS
 62
               4
100
AcDbLine
 10
18.150044511604023
 20
83.499947498809888
 30
0.0
 11
18.727396327367927
 21
84.499956203764668
 31
0.0
  0
LINE
  5
413
100
AcDbEntity
  8
0
  6
CONTINUOUS
 62
               4
100
AcDbLine
 10
18.150003051757807
 20
77.999988555908203
 30
0.0
 11
18.150003051757807
 21
84.499988555908203
 31
0.0
  0
LINE
  5
414
100
AcDbEntity
  8
0
  6
CONTINUOUS
 62
               4
100
AcDbLine
 10
19.150001302236518
 20
73.998439297667574
 30
0.0
 11
19.650000411113609
 21
77.556127381356418
 31
0.0
  0
LINE
  5
415
100
AcDbEntity
  8
0
  6
CONTINUOUS
 62
               4
100
AcDbLine
 10
19.650003051757807
 20
77.556140899658203
 30
0.0
 11
19.650003051757807
 21
82.999988555908203
 31
0.0
  0
LINE
  5
416
100
AcDbEntity
  8
0
  6
CONTINUOUS
 62
               4
100
AcDbLine
 10
9.1499877929687443
 20
83.499988555908203
 30
0.0
 11
9.6499877929687443
 21
83.499988555908203
 31
0.0
  0
LINE
  5
417
100
AcDbEntity
  8
0
  6
CONTINUOUS
 62
               4
100
AcDbLine
 10
9.1500030517578068
 20
83.499988555908203
 30
0.0
 11
9.1500030517578068
 21
84.499988555908203
 31
0.0
  0
LINE
  5
418
100
AcDbEntity
  8
0
  6
CONTINUOUS
 62
               4
100
AcDbLine
 10
9.6500030517578068
 20
77.999988555908203
 30
0.0
 11
9.6500030517578068
 21
83.499988555908203
 31
0.0
  0
LINE
  5
419
100
AcDbEntity
  8
0
  6
CONTINUOUS
 62
               4
100
AcDbLine
 10
18.150000209407693
 20
73.998462707778344
 30
0.0
 11
18.099979656101453
 21
74.048483261084584
 31
0.0
  0
LINE
  5
41A
100
AcDbEntity
  8
0
  6
CONTINUOUS
 62
               4
100
AcDbLine
 10
19.649995422363276
 20
82.999988555908203
 30
0.0
 11
20.149995422363276
 21
82.999988555908203
 31
0.0
  0
LINE
  5
41B
100
AcDbEntity
  8
0
  6
CONTINUOUS
 62
               4
100
AcDbLine
 10
18.150003051757807
 20
75.498447418212891
 30
0.0
 11
18.150003051757807
 21
77.999988555908203
 31
0.0
  0
LINE
  5
41C
100
AcDbEntity
  8
0
  6
CONTINUOUS
 62
               4
100
AcDbLine
 10
18.150003051757807
 20
73.998447418212891
 30
0.0
 11
19.149995422363276
 21
73.998447418212891
 31
0.0
  0
LINE
  5
41D
100
AcDbEntity
  8
0
  6
CONTINUOUS
 62
               4
100
AcDbLine
 10
18.099999999999994
 20
75.498447418212891
 30
0.0
 11
18.150003051757807
 21
75.498447418212891
 31
0.0
  0
LINE
  5
41E
100
AcDbEntity
  8
0
  6
CONTINUOUS
 62
               4
100
AcDbLine
 10
18.727349853515619
 20
84.499988555908203
 30
0.0
 11
20.149995422363276
 21
84.499988555908203
 31
0.0
  0
LINE
  5
41F
100
AcDbEntity
  8
0
  6
CONTINUOUS
 62
               4
100
AcDbLine
 10
9.5
 20
77.999988555908203
 30
0.0
 11
18.150003051757807
 21
77.999988555908203
 31
0.0
  0
LINE
  5
420
100
AcDbEntity
  8
0
  6
CONTINUOUS
 62
               4
100
AcDbLine
 10
9.1499877929687443
 20
84.499988555908203
 30
0.0
 11
18.149987792968744
 21
84.499988555908203
 31
0.0
  0
LINE
  5
421
100
AcDbEntity
  8
0
  6
CONTINUOUS
 62
               4
100
AcDbLine
 10
18.099999999999994
 20
77.999988555908203
 30
0.0
 11
18.099999999999994
 21
73.499988555908203
 31
0.0
  0
LINE
  5
422
100
AcDbEntity
  8
0
  6
CONTINUOUS
 62
               4
100
AcDbLine
 10
7.0
 20
64.499988555908203
 30
0.0
 11
33.999992370605469
 21
64.499988555908203
 31
0.0
  0
LINE
  5
423
100
AcDbEntity
  8
0
  6
CONTINUOUS
 62
               4
100
AcDbLine
 10
7.0
 20
57.499988555908203
 30
0.0
 11
8.6000137329101562
 21
57.499988555908203
 31
0.0
  0
LINE
  5
424
100
AcDbEntity
  8
0
  6
CONTINUOUS
 62
               4
100
AcDbLine
 10
7.700013732910179
 20
57.499988555908203
 30
0.0
 11
7.700013732910179
 21
64.499988555908203
 31
0.0
  0
LINE
  5
425
100
AcDbEntity
  8
0
  6
CONTINUOUS
 62
               4
100
AcDbLine
 10
8.6000137329101562
 20
57.499988555908203
 30
0.0
 11
8.6000137329101562
 21
64.499988555908203
 31
0.0
  0
LINE
  5
426
100
AcDbEntity
  8
0
  6
CONTINUOUS
 62
               4
100
AcDbLine
 10
19.000006113100397
 20
61.499988594247327
 30
0.0
 11
19.000006170609112
 21
43.499988594247327
 31
0.0
  0
LINE
  5
427
100
AcDbEntity
  8
0
  6
CONTINUOUS
 62
               4
100
AcDbLine
 10
12.000006113100397
 20
61.499988571882852
 30
0.0
 11
12.000006170609112
 21
43.499988571882852
 31
0.0
  0
LINE
  5
428
100
AcDbEntity
  8
0
  6
CONTINUOUS
 62
               4
100
AcDbLine
 10
21.000006113100397
 20
61.499988600637209
 30
0.0
 11
12.000006113100397
 21
61.499988571882852
 31
0.0
  0
LINE
  5
429
100
AcDbEntity
  8
0
  6
CONTINUOUS
 62
               4
100
AcDbLine
 10
21.000006170609112
 20
43.499988600637209
 30
0.0
 11
12.000006170609112
 21
43.499988571882852
 31
0.0
  0
LINE
  5
42A
100
AcDbEntity
  8
0
  6
CONTINUOUS
 62
               7
100
AcDbLine
 10
44.500007629394531
 20
-26.499980926513672
 30
0.0
 11
36.5
 21
-26.499980926513672
 31
0.0
  0
LINE
  5
42B
100
AcDbEntity
  8
0
  6
CONTINUOUS
 62
               7
100
AcDbLine
 10
41.405267922553264
 20
-32.499980926513672
 30
0.0
 11
36.5
 21
-32.499980926513672
 31
0.0
  0
LINE
  5
42C
100
AcDbEntity
  8
0
  6
CONTINUOUS
 62
               2
100
AcDbLine
 10
69.100007629394526
 20
0.0000114440917969
 30
0.0
 11
35.500007629394531
 21
0.0000114440917969
 31
0.0
  0
LINE
  5
42D
100
AcDbEntity
  8
0
  6
CONTINUOUS
 62
               7
100
AcDbLine
 10
39.500007629394531
 20
16.800011444091808
 30
0.0
 11
36.500007629394531
 21
16.800011444091808
 31
0.0
  0
LINE
  5
42E
100
AcDbEntity
  8
0
  6
CONTINUOUS
 62
               2
100
AcDbLine
 10
69.100007629394526
 20
-18.999988555908203
 30
0.0
 11
35.500007629394531
 21
-18.999988555908203
 31
0.0
  0
LINE
  5
42F
100
AcDbEntity
  8
0
  6
CONTINUOUS
 62
               7
100
AcDbLine
 10
39.500007629394531
 20
-35.799988555908214
 30
0.0
 11
44.500007629394531
 21
-27.13973451806379
 31
0.0
  0
LINE
  5
430
100
AcDbEntity
  8
0
  6
CONTINUOUS
 62
               7
100
AcDbLine
 10
37.199996948242188
 20
-26.549983978271499
 30
0.0
 11
36.5
 21
-26.549983978271499
 31
0.0
  0
LINE
  5
431
100
AcDbEntity
  8
0
  6
CONTINUOUS
 62
               7
100
AcDbLine
 10
37.199996948242188
 20
-32.449977874755874
 30
0.0
 11
36.5
 21
-32.449977874755874
 31
0.0
  0
LINE
  5
432
100
AcDbEntity
  8
0
  6
CONTINUOUS
 62
               7
100
AcDbLine
 10
37.200015965828243
 20
-29.849981926465261
 30
0.0
 11
36.500023328890165
 21
-30.037544335044004
 31
0.0
  0
LINE
  5
433
100
AcDbEntity
  8
0
  6
CONTINUOUS
 62
               7
100
AcDbLine
 10
36.500027125927772
 20
-29.149980577701172
 30
0.0
 11
37.200034458529444
 21
-28.962414176662605
 31
0.0
  0
LINE
  5
434
100
AcDbEntity
  8
0
  6
CONTINUOUS
 62
               7
100
AcDbLine
 10
55.200007429394532
 20
-9.9999885559082031
 30
0.0
 11
44.500007629394531
 21
-9.9999885559082031
 31
0.0
  0
LINE
  5
435
100
AcDbEntity
  8
0
  6
CONTINUOUS
 62
               7
100
AcDbLine
 10
55.200007429394532
 20
-8.9999885559082031
 30
0.0
 11
44.500007629394531
 21
-8.9999885559082031
 31
0.0
  0
LINE
  5
436
100
AcDbEntity
  8
0
  6
CONTINUOUS
 62
               7
100
AcDbLine
 10
37.199996948242188
 20
-32.449977874755874
 30
0.0
 11
37.199996948242188
 21
-26.549983978271499
 31
0.0
  0
LINE
  5
437
100
AcDbEntity
  8
0
  6
CONTINUOUS
 62
               7
100
AcDbLine
 10
40.0
 20
15.250003814697266
 30
0.0
 11
39.5
 21
15.250003814697266
 31
0.0
  0
LINE
  5
438
100
AcDbEntity
  8
0
  6
CONTINUOUS
 62
               7
100
AcDbLine
 10
40.0
 20
9.7500038146972656
 30
0.0
 11
39.5
 21
9.7500038146972656
 31
0.0
  0
ARC
  5
439
100
AcDbEntity
  8
0
  6
CONTINUOUS
 62
               7
100
AcDbCircle
 10
40.0
 20
13.750003814697266
 30
0.0
 40
1.5
100
AcDbArc
 50
359.99998633962088
 51
89.999927372397096
  0
ARC
  5
43A
100
AcDbEntity
  8
0
  6
CONTINUOUS
 62
               7
100
AcDbCircle
 10
40.0
 20
11.250003814697266
 30
0.0
 40
1.5
100
AcDbArc
 50
270.00001798608872
 51
359.99998633962088
  0
LINE
  5
43B
100
AcDbEntity
  8
0
  6
CONTINUOUS
 62
               7
100
AcDbLine
 10
39.199981689453125
 20
-28.249980926513686
 30
0.0
 11
39.199981689453125
 21
-30.749980926513686
 31
0.0
  0
ARC
  5
43C
100
AcDbEntity
  8
0
  6
CONTINUOUS
 62
               7
100
AcDbCircle
 10
37.699981689453125
 20
-30.749980926513672
 30
0.0
 40
1.5
100
AcDbArc
 50
269.99990870306209
 51
359.99994604173207
  0
ARC
  5
43D
100
AcDbEntity
  8
0
  6
CONTINUOUS
 62
               7
100
AcDbCircle
 10
37.699981689453125
 20
-28.249996185302734
 30
0.0
 40
1.5
100
AcDbArc
 50
0.0000179860890374
 51
89.999982013910454
  0
LINE
  5
43E
100
AcDbEntity
  8
0
  6
CONTINUOUS
 62
               7
100
AcDbLine
 10
41.499999999999943
 20
13.750003457069397
 30
0.0
 11
41.499999999999943
 21
11.250003457069397
 31
0.0
  0
LINE
  5
43F
100
AcDbEntity
  8
0
  6
CONTINUOUS
 62
               7
100
AcDbLine
 10
39.500007629394531
 20
16.800011444091808
 30
0.0
 11
40.431513709076313
 21
15.186595586523623
 31
0.0
  0
LINE
  5
440
100
AcDbEntity
  8
0
  6
CONTINUOUS
 62
               7
100
AcDbLine
 10
60.300007629394543
 20
-8.9999885559082031
 30
0.0
 11
60.300007629394543
 21
9.0000114440917969
 31
0.0
  0
LINE
  5
441
100
AcDbEntity
  8
0
  6
CONTINUOUS
 62
               7
100
AcDbLine
 10
61.500007629394531
 20
-8.9999885559082031
 30
0.0
 11
61.500007629394531
 21
9.0000114440917969
 31
0.0
  0
LINE
  5
442
100
AcDbEntity
  8
0
  6
CONTINUOUS
 62
               7
100
AcDbLine
 10
63.864920629394533
 20
-8.9999885559082031
 30
0.0
 11
63.864920629394533
 21
9.0000114440917969
 31
0.0
  0
LINE
  5
443
100
AcDbEntity
  8
0
  6
CONTINUOUS
 62
               7
100
AcDbLine
 10
64.300006629394545
 20
-8.2463981559082242
 30
0.0
 11
64.300006629394545
 21
8.2464210440917896
 31
0.0
  0
LINE
  5
444
100
AcDbEntity
  8
0
  6
CONTINUOUS
 62
               7
100
AcDbLine
 10
65.900007629394537
 20
-7.0999885559081974
 30
0.0
 11
65.900007629394537
 21
7.1000114440917912
 31
0.0
  0
LINE
  5
445
100
AcDbEntity
  8
0
  6
CONTINUOUS
 62
               7
100
AcDbLine
 10
66.400007629394537
 20
6.0000114440917969
 30
0.0
 11
66.000007629394531
 21
6.0000114440917969
 31
0.0
  0
LINE
  5
446
100
AcDbEntity
  8
0
  6
CONTINUOUS
 62
               7
100
AcDbLine
 10
55.600007229394521
 20
-8.9999885559082031
 30
0.0
 11
55.600007229394521
 21
9.0000114440917969
 31
0.0
  0
LINE
  5
447
100
AcDbEntity
  8
0
  6
CONTINUOUS
 62
               7
100
AcDbLine
 10
55.400007629394537
 20
8.8000114440917798
 30
0.0
 11
55.200007429394532
 21
9.0000114440917969
 31
0.0
  0
LINE
  5
448
100
AcDbEntity
  8
0
  6
CONTINUOUS
 62
               7
100
AcDbLine
 10
55.200007429394532
 20
9.0000114440917969
 30
0.0
 11
55.200007429394532
 21
-9.4999885559082031
 31
0.0
  0
LINE
  5
449
100
AcDbEntity
  8
0
  6
CONTINUOUS
 62
               7
100
AcDbLine
 10
61.300007629394543
 20
-8.2999885559082145
 30
0.0
 11
60.400007629394537
 21
-8.2999885559082145
 31
0.0
  0
LINE
  5
44A
100
AcDbEntity
  8
0
  6
CONTINUOUS
 62
               7
100
AcDbLine
 10
61.300007629394543
 20
8.3000114440917798
 30
0.0
 11
60.400007629394537
 21
8.3000114440917798
 31
0.0
  0
LINE
  5
44B
100
AcDbEntity
  8
0
  6
CONTINUOUS
 62
               7
100
AcDbLine
 10
55.20000762939452
 20
9.0000114440917969
 30
0.0
 11
44.003302029394519
 21
9.0000114440917969
 31
0.0
  0
LINE
  5
44C
100
AcDbEntity
  8
0
  6
CONTINUOUS
 62
               7
100
AcDbLine
 10
55.400007629394537
 20
-8.7999885559082145
 30
0.0
 11
55.200007429394532
 21
-8.9999885559082031
 31
0.0
  0
LINE
  5
44D
100
AcDbEntity
  8
0
  6
CONTINUOUS
 62
               7
100
AcDbLine
 10
60.300007629394543
 20
-8.9999885559082031
 30
0.0
 11
60.400007629394537
 21
-8.8999885559082088
 31
0.0
  0
LINE
  5
44E
100
AcDbEntity
  8
0
  6
CONTINUOUS
 62
               7
100
AcDbLine
 10
60.300007629394543
 20
9.0000114440917969
 30
0.0
 11
60.400007629394537
 21
8.9000114440917741
 31
0.0
  0
LINE
  5
44F
100
AcDbEntity
  8
0
  6
CONTINUOUS
 62
               7
100
AcDbLine
 10
55.400007029394544
 20
-8.7999885559082145
 30
0.0
 11
55.600007229394521
 21
-8.9999885559082031
 31
0.0
  0
LINE
  5
450
100
AcDbEntity
  8
0
  6
CONTINUOUS
 62
               7
100
AcDbLine
 10
60.300007629394543
 20
-8.9999885559082031
 30
0.0
 11
55.600007229394521
 21
-8.9999885559082031
 31
0.0
  0
LINE
  5
451
100
AcDbEntity
  8
0
  6
CONTINUOUS
 62
               7
100
AcDbLine
 10
60.300007629394543
 20
9.0000114440917969
 30
0.0
 11
55.600007229394521
 21
9.0000114440917969
 31
0.0
  0
LINE
  5
452
100
AcDbEntity
  8
0
  6
CONTINUOUS
 62
               7
100
AcDbLine
 10
55.400007229394532
 20
-8.7999885559082145
 30
0.0
 11
55.400007229394532
 21
8.8000114440917798
 31
0.0
  0
LINE
  5
453
100
AcDbEntity
  8
0
  6
CONTINUOUS
 62
               7
100
AcDbLine
 10
55.400007029394544
 20
8.8000114440917798
 30
0.0
 11
55.600007229394521
 21
9.0000114440917969
 31
0.0
  0
LINE
  5
454
100
AcDbEntity
  8
0
  6
CONTINUOUS
 62
               7
100
AcDbLine
 10
63.86492162939453
 20
-8.9999885559082031
 30
0.0
 11
61.500007629394531
 21
-8.9999885559082031
 31
0.0
  0
LINE
  5
455
100
AcDbEntity
  8
0
  6
CONTINUOUS
 62
               7
100
AcDbLine
 10
61.300007629394543
 20
8.8000114440917798
 30
0.0
 11
61.500007629394531
 21
9.0000114440917969
 31
0.0
  0
LINE
  5
456
100
AcDbEntity
  8
0
  6
CONTINUOUS
 62
               7
100
AcDbLine
 10
63.86492162939453
 20
9.0000114440917969
 30
0.0
 11
61.500007629394531
 21
9.0000114440917969
 31
0.0
  0
LINE
  5
457
100
AcDbEntity
  8
0
  6
CONTINUOUS
 62
               7
100
AcDbLine
 10
61.300007629394543
 20
8.8000114440917798
 30
0.0
 11
61.300007629394543
 21
-8.7999885559082145
 31
0.0
  0
LINE
  5
458
100
AcDbEntity
  8
0
  6
CONTINUOUS
 62
               7
100
AcDbLine
 10
64.300006629394545
 20
-8.2463981559082242
 30
0.0
 11
64.900006629394539
 21
-7.8999877559081995
 31
0.0
  0
LINE
  5
459
100
AcDbEntity
  8
0
  6
CONTINUOUS
 62
               7
100
AcDbLine
 10
64.300006629394545
 20
8.2464210440917896
 30
0.0
 11
64.900006629394539
 21
7.9000106440917932
 31
0.0
  0
LINE
  5
45A
100
AcDbEntity
  8
0
  6
CONTINUOUS
 62
               7
100
AcDbLine
 10
63.864920629394533
 20
9.0000114440917969
 30
0.0
 11
64.300006629394545
 21
8.2464210440917896
 31
0.0
  0
LINE
  5
45B
100
AcDbEntity
  8
0
  6
CONTINUOUS
 62
               7
100
AcDbLine
 10
63.864920629394533
 20
-8.9999885559082031
 30
0.0
 11
64.300006629394545
 21
-8.2463981559082242
 31
0.0
  0
LINE
  5
45C
100
AcDbEntity
  8
0
  6
CONTINUOUS
 62
               7
100
AcDbLine
 10
61.300007629394543
 20
-8.7999885559082145
 30
0.0
 11
61.500007629394531
 21
-8.9999885559082031
 31
0.0
  0
LINE
  5
45D
100
AcDbEntity
  8
0
  6
CONTINUOUS
 62
               7
100
AcDbLine
 10
64.900006629394539
 20
-7.8999885559082088
 30
0.0
 11
64.900006629394539
 21
7.9000106440917932
 31
0.0
  0
LINE
  5
45E
100
AcDbEntity
  8
0
  6
CONTINUOUS
 62
               7
100
AcDbLine
 10
60.400007629394537
 20
8.9000114440917741
 30
0.0
 11
60.400007629394537
 21
-8.8999885559082088
 31
0.0
  0
LINE
  5
45F
100
AcDbEntity
  8
0
  6
CONTINUOUS
 62
               7
100
AcDbLine
 10
65.900007629394537
 20
-7.0999885559081974
 30
0.0
 11
64.900006629394539
 21
-7.0999885559081974
 31
0.0
  0
LINE
  5
460
100
AcDbEntity
  8
0
  6
CONTINUOUS
 62
               7
100
AcDbLine
 10
66.000007629394531
 20
-6.9999885559082031
 30
0.0
 11
66.000007629394531
 21
7.0000114440917969
 31
0.0
  0
LINE
  5
461
100
AcDbEntity
  8
0
  6
CONTINUOUS
 62
               7
100
AcDbLine
 10
66.000007629394531
 20
-6.9999885559082031
 30
0.0
 11
65.900007629394537
 21
-7.0999885559081974
 31
0.0
  0
LINE
  5
462
100
AcDbEntity
  8
0
  6
CONTINUOUS
 62
               7
100
AcDbLine
 10
66.000007629394531
 20
7.0000114440917969
 30
0.0
 11
65.900007629394537
 21
7.1000114440917912
 31
0.0
  0
LINE
  5
463
100
AcDbEntity
  8
0
  6
CONTINUOUS
 62
               7
100
AcDbLine
 10
65.900007629394537
 20
7.1000114440917912
 30
0.0
 11
64.900006629394539
 21
7.1000114440917912
 31
0.0
  0
LINE
  5
464
100
AcDbEntity
  8
0
  6
CONTINUOUS
 62
               7
100
AcDbLine
 10
66.400007629394537
 20
-5.9999885559082031
 30
0.0
 11
66.000007629394531
 21
-5.9999885559082031
 31
0.0
  0
LINE
  5
465
100
AcDbEntity
  8
0
  6
CONTINUOUS
 62
               7
100
AcDbLine
 10
67.800688629394529
 20
-8.3999885559082088
 30
0.0
 11
66.900007629394537
 21
-8.3999885559082088
 31
0.0
  0
LINE
  5
466
100
AcDbEntity
  8
0
  6
CONTINUOUS
 62
               7
100
AcDbLine
 10
66.900007629394537
 20
8.4000114440917741
 30
0.0
 11
66.900007629394537
 21
-8.3999885559082088
 31
0.0
  0
LINE
  5
467
100
AcDbEntity
  8
0
  6
CONTINUOUS
 62
               7
100
AcDbLine
 10
68.100007629394526
 20
-8.0999885559081974
 30
0.0
 11
68.100007629394526
 21
8.1000114440917912
 31
0.0
  0
LINE
  5
468
100
AcDbEntity
  8
0
  6
CONTINUOUS
 62
               7
100
AcDbLine
 10
67.800688629394529
 20
8.4000114440917741
 30
0.0
 11
66.900007629394537
 21
8.4000114440917741
 31
0.0
  0
ARC
  5
469
100
AcDbEntity
  8
0
  6
CONTINUOUS
 62
               7
100
AcDbCircle
 10
66.400007629394537
 20
6.5000114440917969
 30
0.0
 40
0.5
100
AcDbArc
 50
269.9999999999992
 51
0.0
  0
ARC
  5
46A
100
AcDbEntity
  8
0
  6
CONTINUOUS
 62
               7
100
AcDbCircle
 10
67.800007629394543
 20
-8.0999885559081974
 30
0.0
 40
0.3
100
AcDbArc
 50
269.9999999999992
 51
0.0
  0
ARC
  5
46B
100
AcDbEntity
  8
0
  6
CONTINUOUS
 62
               7
100
AcDbCircle
 10
66.400007629394537
 20
-6.4999885559082031
 30
0.0
 40
0.5
100
AcDbArc
 50
359.9999999999992
 51
89.99999999999919
  0
ARC
  5
46C
100
AcDbEntity
  8
0
  6
CONTINUOUS
 62
               7
100
AcDbCircle
 10
67.800007629394543
 20
8.1000114440917912
 30
0.0
 40
0.3
100
AcDbArc
 50
359.9999999999992
 51
89.99999999999919
  0
LINE
  5
46D
100
AcDbEntity
  8
0
  6
CONTINUOUS
 62
               7
100
AcDbLine
 10
43.714664594478791
 20
9.5000114440917969
 30
0.0
 11
39.500007629394531
 21
9.5000114440917969
 31
0.0
  0
LINE
  5
46E
100
AcDbEntity
  8
0
  6
CONTINUOUS
 62
               7
100
AcDbLine
 10
39.500007629394531
 20
16.800011444091808
 30
0.0
 11
39.500007629394531
 21
9.5000114321708793
 31
0.0
  0
LINE
  5
46F
100
AcDbEntity
  8
0
  6
CONTINUOUS
 62
               7
100
AcDbLine
 10
44.500007629394531
 20
8.1397574062473836
 30
0.0
 11
44.500007629394531
 21
-9.4999885559082031
 31
0.0
  0
LINE
  5
470
100
AcDbEntity
  8
0
  6
CONTINUOUS
 62
               7
100
AcDbLine
 10
55.200007429394532
 20
-27.999988555908203
 30
0.0
 11
55.200007429394532
 21
-9.4999885559082031
 31
0.0
  0
LINE
  5
471
100
AcDbEntity
  8
0
  6
CONTINUOUS
 62
               7
100
AcDbLine
 10
44.500007629394531
 20
-27.139734518063804
 30
0.0
 11
44.500007629394531
 21
-9.4999885559082031
 31
0.0
  0
ARC
  5
472
100
AcDbEntity
  8
0
  6
CONTINUOUS
 62
               7
100
AcDbCircle
 10
67.800007629394543
 20
-27.099988555908212
 30
0.0
 40
0.3
100
AcDbArc
 50
270.0
 51
0.0000000000008142
  0
ARC
  5
473
100
AcDbEntity
  8
0
  6
CONTINUOUS
 62
               7
100
AcDbCircle
 10
66.400007629394537
 20
-12.499988555908203
 30
0.0
 40
0.5
100
AcDbArc
 50
270.0
 51
0.0000000000008142
  0
ARC
  5
474
100
AcDbEntity
  8
0
  6
CONTINUOUS
 62
               7
100
AcDbCircle
 10
67.800007629394543
 20
-10.899988555908209
 30
0.0
 40
0.3
100
AcDbArc
 50
0.0
 51
90.0
  0
ARC
  5
475
100
AcDbEntity
  8
0
  6
CONTINUOUS
 62
               7
100
AcDbCircle
 10
66.400007629394537
 20
-25.499988555908203
 30
0.0
 40
0.5
100
AcDbArc
 50
0.0
 51
90.0
  0
LINE
  5
476
100
AcDbEntity
  8
0
  6
CONTINUOUS
 62
               7
100
AcDbLine
 10
67.800688629394529
 20
-27.399988555908209
 30
0.0
 11
66.900007629394537
 21
-27.399988555908209
 31
0.0
  0
LINE
  5
477
100
AcDbEntity
  8
0
  6
CONTINUOUS
 62
               7
100
AcDbLine
 10
68.100007629394526
 20
-10.899988555908209
 30
0.0
 11
68.100007629394526
 21
-27.099988555908212
 31
0.0
  0
LINE
  5
478
100
AcDbEntity
  8
0
  6
CONTINUOUS
 62
               7
100
AcDbLine
 10
66.900007629394537
 20
-27.399988555908209
 30
0.0
 11
66.900007629394537
 21
-10.599988555908197
 31
0.0
  0
LINE
  5
479
100
AcDbEntity
  8
0
  6
CONTINUOUS
 62
               7
100
AcDbLine
 10
67.800688629394529
 20
-10.599988555908197
 30
0.0
 11
66.900007629394537
 21
-10.599988555908197
 31
0.0
  0
LINE
  5
47A
100
AcDbEntity
  8
0
  6
CONTINUOUS
 62
               7
100
AcDbLine
 10
66.400007629394537
 20
-12.999988555908203
 30
0.0
 11
66.000007629394531
 21
-12.999988555908203
 31
0.0
  0
LINE
  5
47B
100
AcDbEntity
  8
0
  6
CONTINUOUS
 62
               7
100
AcDbLine
 10
65.900007629394537
 20
-26.099988555908212
 30
0.0
 11
64.900006629394539
 21
-26.099988555908212
 31
0.0
  0
LINE
  5
47C
100
AcDbEntity
  8
0
  6
CONTINUOUS
 62
               7
100
AcDbLine
 10
66.000007629394531
 20
-25.999988555908203
 30
0.0
 11
65.900007629394537
 21
-26.099988555908212
 31
0.0
  0
LINE
  5
47D
100
AcDbEntity
  8
0
  6
CONTINUOUS
 62
               7
100
AcDbLine
 10
66.000007629394531
 20
-11.999988555908203
 30
0.0
 11
65.900007629394537
 21
-11.899988555908209
 31
0.0
  0
LINE
  5
47E
100
AcDbEntity
  8
0
  6
CONTINUOUS
 62
               7
100
AcDbLine
 10
66.000007629394531
 20
-11.999988555908203
 30
0.0
 11
66.000007629394531
 21
-25.999988555908203
 31
0.0
  0
LINE
  5
47F
100
AcDbEntity
  8
0
  6
CONTINUOUS
 62
               7
100
AcDbLine
 10
65.900007629394537
 20
-11.899988555908209
 30
0.0
 11
64.900006629394539
 21
-11.899988555908209
 31
0.0
  0
LINE
  5
480
100
AcDbEntity
  8
0
  6
CONTINUOUS
 62
               7
100
AcDbLine
 10
60.400007629394537
 20
-27.899988555908209
 30
0.0
 11
60.400007629394537
 21
-10.099988555908197
 31
0.0
  0
LINE
  5
481
100
AcDbEntity
  8
0
  6
CONTINUOUS
 62
               7
100
AcDbLine
 10
64.900006629394539
 20
-11.099988555908197
 30
0.0
 11
64.900006629394539
 21
-26.899987755908214
 31
0.0
  0
LINE
  5
482
100
AcDbEntity
  8
0
  6
CONTINUOUS
 62
               7
100
AcDbLine
 10
61.300007629394543
 20
-10.19998855590822
 30
0.0
 11
61.500007629394531
 21
-9.9999885559082031
 31
0.0
  0
LINE
  5
483
100
AcDbEntity
  8
0
  6
CONTINUOUS
 62
               7
100
AcDbLine
 10
63.864920629394533
 20
-9.9999885559082031
 30
0.0
 11
64.300006629394545
 21
-10.75357895590821
 31
0.0
  0
LINE
  5
484
100
AcDbEntity
  8
0
  6
CONTINUOUS
 62
               7
100
AcDbLine
 10
63.864920629394533
 20
-27.999988555908203
 30
0.0
 11
64.300006629394545
 21
-27.24639815590821
 31
0.0
  0
LINE
  5
485
100
AcDbEntity
  8
0
  6
CONTINUOUS
 62
               7
100
AcDbLine
 10
64.300006629394545
 20
-27.24639815590821
 30
0.0
 11
64.900006629394539
 21
-26.899987755908214
 31
0.0
  0
LINE
  5
486
100
AcDbEntity
  8
0
  6
CONTINUOUS
 62
               7
100
AcDbLine
 10
64.300006629394545
 20
-10.75357895590821
 30
0.0
 11
64.900006629394539
 21
-11.099989355908207
 31
0.0
  0
LINE
  5
487
100
AcDbEntity
  8
0
  6
CONTINUOUS
 62
               7
100
AcDbLine
 10
61.300007629394543
 20
-27.799988555908214
 30
0.0
 11
61.300007629394543
 21
-10.19998855590822
 31
0.0
  0
LINE
  5
488
100
AcDbEntity
  8
0
  6
CONTINUOUS
 62
               7
100
AcDbLine
 10
63.86492162939453
 20
-27.999988555908203
 30
0.0
 11
61.500007629394531
 21
-27.999988555908203
 31
0.0
  0
LINE
  5
489
100
AcDbEntity
  8
0
  6
CONTINUOUS
 62
               7
100
AcDbLine
 10
61.300007629394543
 20
-27.799988555908214
 30
0.0
 11
61.500007629394531
 21
-27.999988555908203
 31
0.0
  0
LINE
  5
48A
100
AcDbEntity
  8
0
  6
CONTINUOUS
 62
               7
100
AcDbLine
 10
63.86492162939453
 20
-9.9999885559082031
 30
0.0
 11
61.500007629394531
 21
-9.9999885559082031
 31
0.0
  0
LINE
  5
48B
100
AcDbEntity
  8
0
  6
CONTINUOUS
 62
               7
100
AcDbLine
 10
55.400007029394544
 20
-27.799988555908214
 30
0.0
 11
55.600007229394521
 21
-27.999988555908203
 31
0.0
  0
LINE
  5
48C
100
AcDbEntity
  8
0
  6
CONTINUOUS
 62
               7
100
AcDbLine
 10
55.400007229394532
 20
-10.19998855590822
 30
0.0
 11
55.400007229394532
 21
-27.799988555908214
 31
0.0
  0
LINE
  5
48D
100
AcDbEntity
  8
0
  6
CONTINUOUS
 62
               7
100
AcDbLine
 10
60.300007629394543
 20
-27.999988555908203
 30
0.0
 11
55.600007229394521
 21
-27.999988555908203
 31
0.0
  0
LINE
  5
48E
100
AcDbEntity
  8
0
  6
CONTINUOUS
 62
               7
100
AcDbLine
 10
60.300007629394543
 20
-9.9999885559082031
 30
0.0
 11
55.600007229394521
 21
-9.9999885559082031
 31
0.0
  0
LINE
  5
48F
100
AcDbEntity
  8
0
  6
CONTINUOUS
 62
               7
100
AcDbLine
 10
55.400007029394544
 20
-10.19998855590822
 30
0.0
 11
55.600007229394521
 21
-9.9999885559082031
 31
0.0
  0
LINE
  5
490
100
AcDbEntity
  8
0
  6
CONTINUOUS
 62
               7
100
AcDbLine
 10
60.300007629394543
 20
-27.999988555908203
 30
0.0
 11
60.400007629394537
 21
-27.899988555908209
 31
0.0
  0
LINE
  5
491
100
AcDbEntity
  8
0
  6
CONTINUOUS
 62
               7
100
AcDbLine
 10
60.300007629394543
 20
-9.9999885559082031
 30
0.0
 11
60.400007629394537
 21
-10.099988555908197
 31
0.0
  0
LINE
  5
492
100
AcDbEntity
  8
0
  6
CONTINUOUS
 62
               7
100
AcDbLine
 10
55.400007629394537
 20
-10.19998855590822
 30
0.0
 11
55.200007429394532
 21
-9.9999885559082031
 31
0.0
  0
LINE
  5
493
100
AcDbEntity
  8
0
  6
CONTINUOUS
 62
               7
100
AcDbLine
 10
55.20000762939452
 20
-27.999988555908203
 30
0.0
 11
44.003302029394519
 21
-27.999988555908203
 31
0.0
  0
LINE
  5
494
100
AcDbEntity
  8
0
  6
CONTINUOUS
 62
               7
100
AcDbLine
 10
61.300007629394543
 20
-27.299988555908214
 30
0.0
 11
60.400007629394537
 21
-27.299988555908214
 31
0.0
  0
LINE
  5
495
100
AcDbEntity
  8
0
  6
CONTINUOUS
 62
               7
100
AcDbLine
 10
61.300007629394543
 20
-10.69998855590822
 30
0.0
 11
60.400007629394537
 21
-10.69998855590822
 31
0.0
  0
LINE
  5
496
100
AcDbEntity
  8
0
  6
CONTINUOUS
 62
               7
100
AcDbLine
 10
55.400007629394537
 20
-27.799988555908214
 30
0.0
 11
55.200007429394532
 21
-27.999988555908203
 31
0.0
  0
LINE
  5
497
100
AcDbEntity
  8
0
  6
CONTINUOUS
 62
               7
100
AcDbLine
 10
55.600007229394521
 20
-9.9999885559082031
 30
0.0
 11
55.600007229394521
 21
-27.999988555908203
 31
0.0
  0
LINE
  5
498
100
AcDbEntity
  8
0
  6
CONTINUOUS
 62
               7
100
AcDbLine
 10
66.400007629394537
 20
-24.999988555908203
 30
0.0
 11
66.000007629394531
 21
-24.999988555908203
 31
0.0
  0
LINE
  5
499
100
AcDbEntity
  8
0
  6
CONTINUOUS
 62
               7
100
AcDbLine
 10
65.900007629394537
 20
-11.899988555908209
 30
0.0
 11
65.900007629394537
 21
-26.099988555908212
 31
0.0
  0
LINE
  5
49A
100
AcDbEntity
  8
0
  6
CONTINUOUS
 62
               7
100
AcDbLine
 10
64.300006629394545
 20
-10.75357895590821
 30
0.0
 11
64.300006629394545
 21
-27.24639815590821
 31
0.0
  0
LINE
  5
49B
100
AcDbEntity
  8
0
  6
CONTINUOUS
 62
               7
100
AcDbLine
 10
63.864920629394533
 20
-9.9999885559082031
 30
0.0
 11
63.864920629394533
 21
-27.999988555908203
 31
0.0
  0
LINE
  5
49C
100
AcDbEntity
  8
0
  6
CONTINUOUS
 62
               7
100
AcDbLine
 10
61.500007629394531
 20
-9.9999885559082031
 30
0.0
 11
61.500007629394531
 21
-27.999988555908203
 31
0.0
  0
LINE
  5
49D
100
AcDbEntity
  8
0
  6
CONTINUOUS
 62
               7
100
AcDbLine
 10
60.300007629394543
 20
-9.9999885559082031
 30
0.0
 11
60.300007629394543
 21
-27.999988555908203
 31
0.0
  0
LINE
  5
49E
100
AcDbEntity
  8
0
  6
CONTINUOUS
 62
               7
100
AcDbLine
 10
41.499999999999943
 20
13.335923043453079
 30
0.0
 11
44.500007629394531
 21
8.1397574062473836
 31
0.0
  0
LINE
  5
49F
100
AcDbEntity
  8
0
  6
CONTINUOUS
 62
               7
100
AcDbLine
 10
37.699996948242187
 20
-32.249965667724624
 30
0.0
 11
37.199996948242188
 21
-32.249965667724624
 31
0.0
  0
LINE
  5
4A0
100
AcDbEntity
  8
0
  6
CONTINUOUS
 62
               7
100
AcDbLine
 10
37.699996948242187
 20
-26.749980926513686
 30
0.0
 11
37.199996948242188
 21
-26.749980926513686
 31
0.0
  0
LINE
  5
4A1
100
AcDbEntity
  8
0
  6
CONTINUOUS
 62
               7
100
AcDbLine
 10
39.500007629394531
 20
-35.799988555908214
 30
0.0
 11
36.500007629394531
 21
-35.799988555908214
 31
0.0
  0
LINE
  5
4A2
100
AcDbEntity
  8
0
  6
CENTER
 62
             200
100
AcDbLine
 10
-12.999893188476562
 20
-55.899938964843756
 30
0.0
 11
-12.999893188476562
 21
-64.919938964843752
 31
0.0
  0
LINE
  5
4A3
100
AcDbEntity
  8
0
  6
CONTINUOUS
 62
               7
100
AcDbLine
 10
4.4999979993058066
 20
16.999999999999922
 30
0.0
 11
3.9999979993058079
 21
16.999999962250975
 31
0.0
  0
LINE
  5
4A4
100
AcDbEntity
  8
0
  6
CONTINUOUS
 62
               7
100
AcDbLine
 10
4.5000020006941934
 20
-35.999999999999922
 30
0.0
 11
4.0000020006941952
 21
-36.000000037748869
 31
0.0
  0
ENDBLK
  5
4A5
100
AcDbEntity
  8
0
100
AcDbBlockEnd
  0
BLOCK
  5
4A6
100
AcDbEntity
  8
0
100
AcDbBlockBegin
  2
F18T0-12
 70
               0
 10
0.0
 20
0.0
 30
0.0
  3
F18T0-12
  1

  0
LINE
  5
4A7
100
AcDbEntity
  8
0
  6
CONTINUOUS
 62
               7
100
AcDbLine
 10
5.0
 20
40.399956269361354
 30
0.0
 11
15.0
 21
40.399956269361354
 31
0.0
  0
LINE
  5
4A8
100
AcDbEntity
  8
0
  6
CONTINUOUS
 62
               7
100
AcDbLine
 10
5.0
 20
30.999962372876979
 30
0.0
 11
15.0
 21
30.999962372876979
 31
0.0
  0
LINE
  5
4A9
100
AcDbEntity
  8
0
  6
CONTINUOUS
 62
               4
100
AcDbLine
 10
5.0000152587890625
 20
64.499977631666042
 30
0.0
 11
15.000015258789063
 21
64.499977631666042
 31
0.0
  0
LINE
  5
4AA
100
AcDbEntity
  8
0
  6
CONTINUOUS
 62
               7
100
AcDbLine
 10
5.0
 20
40.499962372876979
 30
0.0
 11
15.0
 21
40.499962372876979
 31
0.0
  0
LINE
  5
4AB
100
AcDbEntity
  8
0
  6
CONTINUOUS
 62
               4
100
AcDbLine
 10
5.0500030517578125
 20
64.499962372876979
 30
0.0
 11
5.0500030517578125
 21
84.499962372876979
 31
0.0
  0
LINE
  5
4AC
100
AcDbEntity
  8
0
  6
CONTINUOUS
 62
               4
100
AcDbLine
 10
14.949996948242188
 20
64.499962372876979
 30
0.0
 11
14.949996948242188
 21
84.499962372876979
 31
0.0
  0
LINE
  5
4AD
100
AcDbEntity
  8
0
  6
CONTINUOUS
 62
               4
100
AcDbLine
 10
11.284988403320313
 20
84.499962372876979
 30
0.0
 11
11.284988403320313
 21
88.326637787916042
 31
0.0
  0
LINE
  5
4AE
100
AcDbEntity
  8
0
  6
CONTINUOUS
 62
               4
100
AcDbLine
 10
12.715011596679687
 20
84.499962372876979
 30
0.0
 11
12.715011596679687
 21
88.709801240064479
 31
0.0
  0
LINE
  5
4AF
100
AcDbEntity
  8
0
  6
CONTINUOUS
 62
               4
100
AcDbLine
 10
11.599990844726563
 20
92.499962372876979
 30
0.0
 11
11.599990844726563
 21
97.499962372876979
 31
0.0
  0
LINE
  5
4B0
100
AcDbEntity
  8
0
  6
CONTINUOUS
 62
               4
100
AcDbLine
 10
12.400009155273438
 20
92.499962372876979
 30
0.0
 11
12.400009155273438
 21
97.499962372876979
 31
0.0
  0
LINE
  5
4B1
100
AcDbEntity
  8
0
  6
CONTINUOUS
 62
               4
100
AcDbLine
 10
11.599990844726563
 20
97.499962372876979
 30
0.0
 11
12.399993896484375
 21
97.499962372876979
 31
0.0
  0
LINE
  5
4B2
100
AcDbEntity
  8
0
  6
CONTINUOUS
 62
               4
100
AcDbLine
 10
11.284988403320313
 20
92.499962372876979
 30
0.0
 11
12.714996337890625
 21
92.499962372876979
 31
0.0
  0
LINE
  5
4B3
100
AcDbEntity
  8
0
  6
CONTINUOUS
 62
               4
100
AcDbLine
 10
11.284988403320313
 20
89.361916108228542
 30
0.0
 11
11.284988403320313
 21
92.499962372876979
 31
0.0
  0
LINE
  5
4B4
100
AcDbEntity
  8
0
  6
CONTINUOUS
 62
               4
100
AcDbLine
 10
12.715011596679687
 20
89.745079560376979
 30
0.0
 11
12.715011596679687
 21
92.499962372876979
 31
0.0
  0
LINE
  5
4B5
100
AcDbEntity
  8
0
  6
CONTINUOUS
 62
               4
100
AcDbLine
 10
5.0500030517578125
 20
84.499962372876979
 30
0.0
 11
14.949996948242188
 21
84.499962372876979
 31
0.0
  0
LINE
  5
4B6
100
AcDbEntity
  8
0
  6
CONTINUOUS
 62
               7
100
AcDbLine
 10
15.0
 20
29.499962372876979
 30
0.0
 11
15.0
 21
40.499962372876979
 31
0.0
  0
LINE
  5
4B7
100
AcDbEntity
  8
0
  6
CONTINUOUS
 62
               7
100
AcDbLine
 10
5.0
 20
29.499962372876979
 30
0.0
 11
5.0
 21
40.499962372876979
 31
0.0
  0
LINE
  5
4B8
100
AcDbEntity
  8
0
  6
CONTINUOUS
 62
               7
100
AcDbLine
 10
19.0
 20
-46.500037627123021
 30
0.0
 11
19.0
 21
-36.500037627123021
 31
0.0
  0
LINE
  5
4B9
100
AcDbEntity
  8
0
  6
CONTINUOUS
 62
               7
100
AcDbLine
 10
1.0
 20
-46.500037627123021
 30
0.0
 11
1.0
 21
-36.500037627123021
 31
0.0
  0
LINE
  5
4BA
100
AcDbEntity
  8
0
  6
CONTINUOUS
 62
               7
100
AcDbLine
 10
1.0
 20
26.999962372876979
 30
0.0
 11
19.0
 21
26.999962372876979
 31
0.0
  0
LINE
  5
4BB
100
AcDbEntity
  8
0
  6
CONTINUOUS
 62
               7
100
AcDbLine
 10
1.5
 20
-47.000037627123021
 30
0.0
 11
18.5
 21
-47.000037627123021
 31
0.0
  0
LINE
  5
4BC
100
AcDbEntity
  8
0
  6
CONTINUOUS
 62
               7
100
AcDbLine
 10
7.1999969482421875
 20
-47.000037627123021
 30
0.0
 11
7.1999969482421875
 21
-44.500037627123021
 31
0.0
  0
LINE
  5
4BD
100
AcDbEntity
  8
0
  6
CONTINUOUS
 62
               7
100
AcDbLine
 10
1.0
 20
-44.500037627123021
 30
0.0
 11
7.1999969482421875
 21
-44.500037627123021
 31
0.0
  0
LINE
  5
4BE
100
AcDbEntity
  8
0
  6
CONTINUOUS
 62
               7
100
AcDbLine
 10
2.75
 20
-46.500037627123021
 30
0.0
 11
5.25
 21
-46.500037627123021
 31
0.0
  0
LINE
  5
4BF
100
AcDbEntity
  8
0
  6
CONTINUOUS
 62
               7
100
AcDbLine
 10
1.25
 20
-45.000037627123021
 30
0.0
 11
1.25
 21
-44.500037627123021
 31
0.0
  0
LINE
  5
4C0
100
AcDbEntity
  8
0
  6
CONTINUOUS
 62
               7
100
AcDbLine
 10
6.75
 20
-45.000037627123021
 30
0.0
 11
6.75
 21
-44.500037627123021
 31
0.0
  0
LINE
  5
4C1
100
AcDbEntity
  8
0
  6
CONTINUOUS
 62
               2
100
AcDbLine
 10
10.0
 20
-62.302909331224583
 30
0.0
 11
10.0
 21
86.255028290845729
 31
0.0
  0
LINE
  5
4C2
100
AcDbEntity
  8
0
  6
CONTINUOUS
 62
               2
100
AcDbLine
 10
20.0
 20
-9.5000414418202865
 30
0.0
 11
-1.171478271484375
 21
-9.5000414418202865
 31
0.0
  0
LINE
  5
4C3
100
AcDbEntity
  8
0
  6
CONTINUOUS
 62
               7
100
AcDbLine
 10
19.0
 20
17.499962372876979
 30
0.0
 11
19.0
 21
26.999962372876979
 31
0.0
  0
LINE
  5
4C4
100
AcDbEntity
  8
0
  6
CONTINUOUS
 62
               7
100
AcDbLine
 10
1.0
 20
17.499962372876979
 30
0.0
 11
1.0
 21
26.999962372876979
 31
0.0
  0
LINE
  5
4C5
100
AcDbEntity
  8
0
  6
CONTINUOUS
 62
               2
100
AcDbLine
 10
11.5
 20
21.499947114087917
 30
0.0
 11
8.5
 21
21.499947114087917
 31
0.0
  0
LINE
  5
4C6
100
AcDbEntity
  8
0
  6
CONTINUOUS
 62
               7
100
AcDbLine
 10
0.0
 20
-36.500037627123021
 30
0.0
 11
0.0
 21
17.499962372876979
 31
0.0
  0
LINE
  5
4C7
100
AcDbEntity
  8
0
  6
CONTINUOUS
 62
               7
100
AcDbLine
 10
20.0
 20
-36.500037627123021
 30
0.0
 11
20.0
 21
17.499962372876979
 31
0.0
  0
LINE
  5
4C8
100
AcDbEntity
  8
0
  6
DASHED
 62
               4
100
AcDbLine
 10
21.600006103515625
 20
-59.400031523607396
 30
0.0
 11
21.600006103515625
 21
9.9999471140879166
 31
0.0
  0
LINE
  5
4C9
100
AcDbEntity
  8
0
  6
DASHED
 62
               4
100
AcDbLine
 10
20.0
 20
9.9999471140879166
 30
0.0
 11
21.600006103515625
 21
9.9999471140879166
 31
0.0
  0
LINE
  5
4CA
100
AcDbEntity
  8
0
  6
DASHED
 62
               4
100
AcDbLine
 10
1.0
 20
-59.400031523607396
 30
0.0
 11
20.0
 21
-59.400031523607396
 31
0.0
  0
LINE
  5
4CB
100
AcDbEntity
  8
0
  6
DASHED
 62
               4
100
AcDbLine
 10
1.0
 20
-61.000037627123021
 30
0.0
 11
20.0
 21
-61.000037627123021
 31
0.0
  0
LINE
  5
4CC
100
AcDbEntity
  8
0
  6
DASHED
 62
               4
100
AcDbLine
 10
1.0
 20
-59.400031523607396
 30
0.0
 11
1.0
 21
-61.000037627123021
 31
0.0
  0
LINE
  5
4CD
100
AcDbEntity
  8
0
  6
DASHED
 62
               4
100
AcDbLine
 10
20.0
 20
-36.500037627123021
 30
0.0
 11
20.0
 21
-61.000037627123021
 31
0.0
  0
LINE
  5
4CE
100
AcDbEntity
  8
0
  6
DASHED
 62
               4
100
AcDbLine
 10
-2.281524658203125
 20
3.9999623728769791
 30
0.0
 11
0.0
 21
3.9999623728769791
 31
0.0
  0
LINE
  5
4CF
100
AcDbEntity
  8
0
  6
DASHED
 62
               4
100
AcDbLine
 10
-2.281524658203125
 20
-4.0000338124257553
 30
0.0
 11
0.0
 21
-4.0000338124257553
 31
0.0
  0
LINE
  5
4D0
100
AcDbEntity
  8
0
  6
CONTINUOUS
 62
               4
100
AcDbLine
 10
9.4000091552734375
 20
74.999962372876979
 30
0.0
 11
10.600006103515625
 21
74.999962372876979
 31
0.0
  0
LINE
  5
4D1
100
AcDbEntity
  8
0
  6
CONTINUOUS
 62
               4
100
AcDbLine
 10
10.600006103515625
 20
77.999947114087917
 30
0.0
 11
10.600006103515625
 21
74.999947114087917
 31
0.0
  0
LINE
  5
4D2
100
AcDbEntity
  8
0
  6
CONTINUOUS
 62
               4
100
AcDbLine
 10
9.4000091552734375
 20
77.999947114087917
 30
0.0
 11
9.4000091552734375
 21
74.999947114087917
 31
0.0
  0
LINE
  5
4D3
100
AcDbEntity
  8
0
  6
CONTINUOUS
 62
               4
100
AcDbLine
 10
11.100022124228531
 20
77.999950044332621
 30
0.0
 11
10.600021930613536
 21
77.499953222455503
 31
0.0
  0
LINE
  5
4D4
100
AcDbEntity
  8
0
  6
CONTINUOUS
 62
               4
100
AcDbLine
 10
8.9000051392009709
 20
77.999949579901312
 30
0.0
 11
9.4000058807301912
 21
77.499949259841031
 31
0.0
  0
LINE
  5
4D5
100
AcDbEntity
  8
0
  6
CONTINUOUS
 62
               4
100
AcDbLine
 10
5.0500030517578125
 20
83.499962372876979
 30
0.0
 11
14.949996948242188
 21
83.499962372876979
 31
0.0
  0
LINE
  5
4D6
100
AcDbEntity
  8
0
  6
CONTINUOUS
 62
               4
100
AcDbLine
 10
5.0500030517578125
 20
77.999962372876979
 30
0.0
 11
9.4000091552734375
 21
77.999962372876979
 31
0.0
  0
LINE
  5
4D7
100
AcDbEntity
  8
0
  6
CONTINUOUS
 62
               4
100
AcDbLine
 10
10.600006103515625
 20
77.999962372876979
 30
0.0
 11
14.949996948242188
 21
77.999962372876979
 31
0.0
  0
LINE
  5
4D8
100
AcDbEntity
  8
0
  6
DASHED
 62
               4
100
AcDbLine
 10
-2.281524658203125
 20
-15.00002999772849
 30
0.0
 11
0.0
 21
-15.00002999772849
 31
0.0
  0
LINE
  5
4D9
100
AcDbEntity
  8
0
  6
DASHED
 62
               4
100
AcDbLine
 10
-2.281524658203125
 20
-23.000037627123021
 30
0.0
 11
0.0
 21
-23.000037627123021
 31
0.0
  0
ARC
  5
4DA
100
AcDbEntity
  8
0
  6
CONTINUOUS
 62
               7
100
AcDbCircle
 10
1.5
 20
-46.500022368333958
 30
0.0
 40
0.5
100
AcDbArc
 50
180.0000359721783
 51
269.99996334457541
  0
ARC
  5
4DB
100
AcDbEntity
  8
0
  6
CONTINUOUS
 62
               7
100
AcDbCircle
 10
18.5
 20
-46.500037627123021
 30
0.0
 40
0.5
100
AcDbArc
 50
270.00001798608872
 51
0.00001366037834
  0
ARC
  5
4DC
100
AcDbEntity
  8
0
  6
CONTINUOUS
 62
               7
100
AcDbCircle
 10
16.000045776367188
 20
30.000023408033229
 30
0.0
 40
2.5000734329223633
100
AcDbArc
 50
191.53802865027069
 51
319.45926533232142
  0
ARC
  5
4DD
100
AcDbEntity
  8
0
  6
CONTINUOUS
 62
               7
100
AcDbCircle
 10
5.25
 20
-45.000037627123021
 30
0.0
 40
1.5
100
AcDbArc
 50
270.00001798608872
 51
0.0000546415133601
  0
ARC
  5
4DE
100
AcDbEntity
  8
0
  6
CONTINUOUS
 62
               7
100
AcDbCircle
 10
2.75
 20
-45.000037627123021
 30
0.0
 40
1.5
100
AcDbArc
 50
180.0000359721783
 51
270.00001798608872
  0
CIRCLE
  5
4DF
100
AcDbEntity
  8
0
  6
CONTINUOUS
 62
               7
100
AcDbCircle
 10
10.0
 20
-9.5000452565175522
 30
0.0
 40
5.7224998474121094
  0
CIRCLE
  5
4E0
100
AcDbEntity
  8
0
  6
CONTINUOUS
 62
               2
100
AcDbCircle
 10
10.0
 20
-9.5000452565175522
 30
0.0
 40
6.5784997940063477
  0
CIRCLE
  5
4E1
100
AcDbEntity
  8
0
  6
CONTINUOUS
 62
               7
100
AcDbCircle
 10
10.0
 20
21.499947114087917
 30
0.0
 40
0.6000000238418579
  0
ARC
  5
4E2
100
AcDbEntity
  8
0
  6
DASHED
 62
               4
100
AcDbCircle
 10
20.0
 20
-59.400031523607396
 30
0.0
 40
1.5999994277954102
100
AcDbArc
 50
270.00001798608872
 51
0.0
  0
ARC
  5
4E3
100
AcDbEntity
  8
0
  6
DASHED
 62
               4
100
AcDbCircle
 10
2.4000091552734375
 20
-0.0000414418202865
 30
0.0
 40
6.5
100
AcDbArc
 50
146.20571797697198
 51
213.79426472018321
  0
ARC
  5
4E4
100
AcDbEntity
  8
0
  6
DASHED
 62
               4
100
AcDbCircle
 10
-2.281524658203125
 20
3.1332784129160416
 30
0.0
 40
0.8666666746139526
100
AcDbArc
 50
89.999982013910454
 51
146.20571797697198
  0
ARC
  5
4E5
100
AcDbEntity
  8
0
  6
DASHED
 62
               4
100
AcDbCircle
 10
-2.281524658203125
 20
-3.1333727406484115
 30
0.0
 40
0.8666666746139526
100
AcDbArc
 50
213.79433666454057
 51
270.00007262760209
  0
ARC
  5
4E6
100
AcDbEntity
  8
0
  6
DASHED
 62
               4
100
AcDbCircle
 10
-2.281524658203125
 20
-15.866706328294896
 30
0.0
 40
0.8666666746139526
100
AcDbArc
 50
89.999982013910454
 51
146.20571797697198
  0
ARC
  5
4E7
100
AcDbEntity
  8
0
  6
DASHED
 62
               4
100
AcDbCircle
 10
2.4000091552734375
 20
-19.000036673448705
 30
0.0
 40
6.5
100
AcDbArc
 50
146.20571797697198
 51
213.79426472018321
  0
ARC
  5
4E8
100
AcDbEntity
  8
0
  6
DASHED
 62
               4
100
AcDbCircle
 10
-2.281524658203125
 20
-22.133368925951146
 30
0.0
 40
0.8666666746139526
100
AcDbArc
 50
213.79433666454057
 51
270.00007262760209
  0
LINE
  5
4E9
100
AcDbEntity
  8
0
  6
CONTINUOUS
 62
               7
100
AcDbLine
 10
3.0
 20
29.499962372876979
 30
0.0
 11
17.0
 21
29.499962372876979
 31
0.0
  0
LINE
  5
4EA
100
AcDbEntity
  8
0
  6
CONTINUOUS
 62
               7
100
AcDbLine
 10
16.999998092111127
 20
29.499959545658129
 30
0.0
 11
18.999992659331838
 21
26.999966336632241
 31
0.0
  0
LINE
  5
4EB
100
AcDbEntity
  8
0
  6
CONTINUOUS
 62
               7
100
AcDbLine
 10
3.0000003762279448
 20
29.499964311703224
 30
0.0
 11
0.9999962769170452
 21
26.999959187564599
 31
0.0
  0
LINE
  5
4EC
100
AcDbEntity
  8
0
  6
CONTINUOUS
 62
               2
100
AcDbLine
 10
12.0
 20
1.9214559031504166
 30
0.0
 11
12.0
 21
17.078438325025417
 31
0.0
  0
LINE
  5
4ED
100
AcDbEntity
  8
0
  6
CONTINUOUS
 62
               2
100
AcDbLine
 10
8.0
 20
-36.078498320482396
 30
0.0
 11
8.0
 21
-20.921546416185521
 31
0.0
  0
LINE
  5
4EE
100
AcDbEntity
  8
0
  6
CONTINUOUS
 62
               2
100
AcDbLine
 10
15.578506469726563
 20
-28.500037627123021
 30
0.0
 11
0.4215087890625
 21
-28.500037627123021
 31
0.0
  0
LINE
  5
4EF
100
AcDbEntity
  8
0
  6
CONTINUOUS
 62
               2
100
AcDbLine
 10
19.578506469726562
 20
9.4999623728769791
 30
0.0
 11
4.4215240478515625
 21
9.4999623728769791
 31
0.0
  0
CIRCLE
  5
4F0
100
AcDbEntity
  8
0
  6
CONTINUOUS
 62
               7
100
AcDbCircle
 10
12.0
 20
9.4999623728769791
 30
0.0
 40
5.7224998474121094
  0
CIRCLE
  5
4F1
100
AcDbEntity
  8
0
  6
CONTINUOUS
 62
               2
100
AcDbCircle
 10
12.0
 20
9.4999623728769791
 30
0.0
 40
6.5784997940063477
  0
CIRCLE
  5
4F2
100
AcDbEntity
  8
0
  6
CONTINUOUS
 62
               7
100
AcDbCircle
 10
8.0
 20
-28.500037627123021
 30
0.0
 40
5.7224998474121094
  0
CIRCLE
  5
4F3
100
AcDbEntity
  8
0
  6
CONTINUOUS
 62
               2
100
AcDbCircle
 10
8.0
 20
-28.500037627123021
 30
0.0
 40
6.5784997940063477
  0
LINE
  5
4F4
100
AcDbEntity
  8
0
  6
DASHED
 62
               4
100
AcDbLine
 10
-1.0
 20
3.9999623728770075
 30
0.0
 11
-1.0
 21
-4.0000338124257269
 31
0.0
  0
LINE
  5
4F5
100
AcDbEntity
  8
0
  6
DASHED
 62
               4
100
AcDbLine
 10
0.0000241717771132
 20
-0.5000436127459409
 30
0.0
 11
-0.9999778811634315
 21
-0.7679932957992435
 31
0.0
  0
LINE
  5
4F6
100
AcDbEntity
  8
0
  6
DASHED
 62
               4
100
AcDbLine
 10
-0.9999769549413031
 20
0.4999579866659758
 30
0.0
 11
0.0000250979992416
 21
0.7679076697192784
 31
0.0
  0
LINE
  5
4F7
100
AcDbEntity
  8
0
  6
DASHED
 62
               4
100
AcDbLine
 10
-1.0
 20
-15.00002999772849
 30
0.0
 11
-1.0
 21
-23.000037627123021
 31
0.0
  0
LINE
  5
4F8
100
AcDbEntity
  8
0
  6
DASHED
 62
               4
100
AcDbLine
 10
0.0000243000573619
 20
-19.500027793395617
 30
0.0
 11
-0.9999777528831828
 21
-19.76797747644892
 31
0.0
  0
LINE
  5
4F9
100
AcDbEntity
  8
0
  6
DASHED
 62
               4
100
AcDbLine
 10
-0.9999768266610545
 20
-18.5000261939837
 30
0.0
 11
0.0000252262794902
 21
-18.232076510930398
 31
0.0
  0
LINE
  5
4FA
100
AcDbEntity
  8
0
  6
DASHED
 62
               4
100
AcDbLine
 10
23.199996948242188
 20
-21.500037627123021
 30
0.0
 11
23.199996948242188
 21
-16.50002999772849
 31
0.0
  0
LINE
  5
4FB
100
AcDbEntity
  8
0
  6
DASHED
 62
               4
100
AcDbLine
 10
22.100006103515625
 20
-21.500037627123021
 30
0.0
 11
23.199996948242188
 21
-21.500037627123021
 31
0.0
  0
LINE
  5
4FC
100
AcDbEntity
  8
0
  6
DASHED
 62
               4
100
AcDbLine
 10
22.100006103515625
 20
-16.50002999772849
 30
0.0
 11
23.199996948242188
 21
-16.50002999772849
 31
0.0
  0
ARC
  5
4FD
100
AcDbEntity
  8
0
  6
DASHED
 62
               4
100
AcDbCircle
 10
22.100006103515625
 20
-16.00002999772849
 30
0.0
 40
0.5
100
AcDbArc
 50
179.99998133066492
 51
270.00001798608872
  0
ARC
  5
4FE
100
AcDbEntity
  8
0
  6
DASHED
 62
               4
100
AcDbCircle
 10
22.100006103515625
 20
-22.000037627123021
 30
0.0
 40
0.5
100
AcDbArc
 50
89.999982013910454
 51
179.99996402782091
  0
LINE
  5
4FF
100
AcDbEntity
  8
0
  6
DASHED
 62
               4
100
AcDbLine
 10
23.199996948242188
 20
-2.5000357197743881
 30
0.0
 11
23.199996948242188
 21
2.4999623728769791
 31
0.0
  0
LINE
  5
500
100
AcDbEntity
  8
0
  6
DASHED
 62
               4
100
AcDbLine
 10
22.100006103515625
 20
-2.5000357197743881
 30
0.0
 11
23.199996948242188
 21
-2.5000357197743881
 31
0.0
  0
LINE
  5
501
100
AcDbEntity
  8
0
  6
DASHED
 62
               4
100
AcDbLine
 10
22.100006103515625
 20
2.4999623728769791
 30
0.0
 11
23.199996948242188
 21
2.4999623728769791
 31
0.0
  0
ARC
  5
502
100
AcDbEntity
  8
0
  6
DASHED
 62
               4
100
AcDbCircle
 10
22.100006103515625
 20
2.9999623728769791
 30
0.0
 40
0.5
100
AcDbArc
 50
179.99998133066492
 51
270.00001798608872
  0
ARC
  5
503
100
AcDbEntity
  8
0
  6
DASHED
 62
               4
100
AcDbCircle
 10
22.100006103515625
 20
-3.0000357197743881
 30
0.0
 40
0.5
100
AcDbArc
 50
89.999982013910454
 51
179.99996402782091
  0
LINE
  5
504
100
AcDbEntity
  8
0
  6
CONTINUOUS
 62
               7
100
AcDbLine
 10
20.0
 20
-36.500037627123021
 30
0.0
 11
0.0
 21
-36.500037627123021
 31
0.0
  0
LINE
  5
505
100
AcDbEntity
  8
0
  6
CONTINUOUS
 62
               7
100
AcDbLine
 10
20.0
 20
17.499962372876979
 30
0.0
 11
0.0
 21
17.499962372876979
 31
0.0
  0
LINE
  5
506
100
AcDbEntity
  8
0
  6
CONTINUOUS
 62
             200
100
AcDbLine
 10
10.0
 20
87.98230381735172
 30
0.0
 11
14.050010383584777
 21
89.067500838066479
 31
0.0
  0
LINE
  5
507
100
AcDbEntity
  8
0
  6
CONTINUOUS
 62
             200
100
AcDbLine
 10
10.0
 20
89.017579984382365
 30
0.0
 11
14.050005690402941
 21
90.102775747562845
 31
0.0
  0
LINE
  5
508
100
AcDbEntity
  8
0
  6
CONTINUOUS
 62
               4
100
AcDbLine
 10
14.949996948242188
 20
73.499947114087917
 30
0.0
 11
5.0500030517578125
 21
73.499947114087917
 31
0.0
  0
LINE
  5
509
100
AcDbEntity
  8
0
  6
CONTINUOUS
 62
               4
100
AcDbLine
 10
11.170000000000002
 20
59.19997763166603
 30
0.0
 11
12.829999999999998
 21
59.19997763166603
 31
0.0
  0
LINE
  5
50A
100
AcDbEntity
  8
0
  6
CONTINUOUS
 62
               4
100
AcDbLine
 10
7.1700000000000017
 20
59.19997763166603
 30
0.0
 11
8.8299999999999983
 21
59.19997763166603
 31
0.0
  0
LINE
  5
50B
100
AcDbEntity
  8
0
  6
CONTINUOUS
 62
               4
100
AcDbLine
 10
12.829999999999998
 20
59.19997763166603
 30
0.0
 11
12.829999999999998
 21
64.499977631666042
 31
0.0
  0
LINE
  5
50C
100
AcDbEntity
  8
0
  6
CONTINUOUS
 62
               4
100
AcDbLine
 10
11.170000000000002
 20
59.19997763166603
 30
0.0
 11
11.170000000000002
 21
64.499977631666042
 31
0.0
  0
LINE
  5
50D
100
AcDbEntity
  8
0
  6
CONTINUOUS
 62
               4
100
AcDbLine
 10
8.8299999999999983
 20
59.19997763166603
 30
0.0
 11
8.8299999999999983
 21
64.499977631666042
 31
0.0
  0
LINE
  5
50E
100
AcDbEntity
  8
0
  6
CONTINUOUS
 62
               4
100
AcDbLine
 10
7.1700000000000017
 20
59.19997763166603
 30
0.0
 11
7.1700000000000017
 21
64.499977631666042
 31
0.0
  0
LINE
  5
50F
100
AcDbEntity
  8
0
  6
CONTINUOUS
 62
               4
100
AcDbLine
 10
12.599999999999994
 20
59.19997763166603
 30
0.0
 11
12.599999999999994
 21
64.499977631666042
 31
0.0
  0
LINE
  5
510
100
AcDbEntity
  8
0
  6
CONTINUOUS
 62
               4
100
AcDbLine
 10
11.400000000000006
 20
59.19997763166603
 30
0.0
 11
11.400000000000006
 21
64.499977631666042
 31
0.0
  0
LINE
  5
511
100
AcDbEntity
  8
0
  6
CONTINUOUS
 62
               4
100
AcDbLine
 10
8.5999999999999943
 20
59.19997763166603
 30
0.0
 11
8.5999999999999943
 21
64.499977631666042
 31
0.0
  0
LINE
  5
512
100
AcDbEntity
  8
0
  6
CONTINUOUS
 62
               4
100
AcDbLine
 10
7.4000000000000057
 20
59.19997763166603
 30
0.0
 11
7.4000000000000057
 21
64.499977631666042
 31
0.0
  0
LINE
  5
513
100
AcDbEntity
  8
0
  6
CONTINUOUS
 62
               4
100
AcDbLine
 10
14.299999999999997
 20
57.499947114087917
 30
0.0
 11
15.0
 21
57.499947114087917
 31
0.0
  0
LINE
  5
514
100
AcDbEntity
  8
0
  6
CONTINUOUS
 62
               4
100
AcDbLine
 10
5.6165515765444525
 20
57.499947114087917
 30
0.0
 11
5.6165515765444525
 21
64.499977631666042
 31
0.0
  0
LINE
  5
515
100
AcDbEntity
  8
0
  6
CONTINUOUS
 62
               4
100
AcDbLine
 10
14.299999999999997
 20
57.499947114087917
 30
0.0
 11
14.299999999999997
 21
64.499977631666042
 31
0.0
  0
LINE
  5
516
100
AcDbEntity
  8
0
  6
CONTINUOUS
 62
               4
100
AcDbLine
 10
5.0
 20
57.499947114087917
 30
0.0
 11
5.6165515780448914
 21
57.499947114087917
 31
0.0
  0
LINE
  5
517
100
AcDbEntity
  8
0
  6
CONTINUOUS
 62
               4
100
AcDbLine
 10
15.0
 20
40.499962372876979
 30
0.0
 11
15.0
 21
64.499962372876979
 31
0.0
  0
LINE
  5
518
100
AcDbEntity
  8
0
  6
CONTINUOUS
 62
               4
100
AcDbLine
 10
5.0
 20
40.499962372876979
 30
0.0
 11
5.0
 21
64.499962372876979
 31
0.0
  0
ENDBLK
  5
519
100
AcDbEntity
  8
0
100
AcDbBlockEnd
  0
BLOCK
  5
51A
100
AcDbEntity
  8
0
100
AcDbBlockBegin
  2
F18T0-13
 70
               0
 10
0.0
 20
0.0
 30
0.0
  3
F18T0-13
  1

  0
LINE
  5
51B
100
AcDbEntity
  8
0
  6
CONTINUOUS
 62
               2
100
AcDbLine
 10
-10.0
 20
-62.302852630615234
 30
0.0
 11
-10.0
 21
86.255084991455078
 31
0.0
  0
LINE
  5
51C
100
AcDbEntity
  8
0
  6
CONTINUOUS
 62
               7
100
AcDbLine
 10
-19.0
 20
17.000019073486328
 30
0.0
 11
-1.0
 21
17.000019073486328
 31
0.0
  0
LINE
  5
51D
100
AcDbEntity
  8
0
  6
CONTINUOUS
 62
               7
100
AcDbLine
 10
-19.0
 20
-35.999980926513672
 30
0.0
 11
-1.0
 21
-35.999980926513672
 31
0.0
  0
LINE
  5
51E
100
AcDbEntity
  8
0
  6
CONTINUOUS
 62
               7
100
AcDbLine
 10
-19.0
 20
16.800006866455078
 30
0.0
 11
-1.0
 21
16.800006866455078
 31
0.0
  0
LINE
  5
51F
100
AcDbEntity
  8
0
  6
CONTINUOUS
 62
               7
100
AcDbLine
 10
-19.0
 20
-35.799968719482422
 30
0.0
 11
-1.0
 21
-35.799968719482422
 31
0.0
  0
LINE
  5
520
100
AcDbEntity
  8
0
  6
CONTINUOUS
 62
               7
100
AcDbLine
 10
-3.5
 20
13.500019073486328
 30
0.0
 11
-1.0
 21
13.500019073486328
 31
0.0
  0
LINE
  5
521
100
AcDbEntity
  8
0
  6
CONTINUOUS
 62
               7
100
AcDbLine
 10
-3.5
 20
7.5000190734863281
 30
0.0
 11
-1.0
 21
7.5000190734863281
 31
0.0
  0
LINE
  5
522
100
AcDbEntity
  8
0
  6
CONTINUOUS
 62
               7
100
AcDbLine
 10
-19.0
 20
-32.499980926513672
 30
0.0
 11
-16.5
 21
-32.499980926513672
 31
0.0
  0
LINE
  5
523
100
AcDbEntity
  8
0
  6
CONTINUOUS
 62
               7
100
AcDbLine
 10
-19.0
 20
-26.499980926513672
 30
0.0
 11
-16.5
 21
-26.499980926513672
 31
0.0
  0
LINE
  5
524
100
AcDbEntity
  8
0
  6
CONTINUOUS
 62
               7
100
AcDbLine
 10
-13.5
 20
12.500034332275391
 30
0.0
 11
-13.5
 21
16.800022125244141
 31
0.0
  0
LINE
  5
525
100
AcDbEntity
  8
0
  6
CONTINUOUS
 62
               7
100
AcDbLine
 10
-16.5
 20
9.5000190734863281
 30
0.0
 11
-19.0
 21
9.5000190734863281
 31
0.0
  0
LINE
  5
526
100
AcDbEntity
  8
0
  6
CONTINUOUS
 62
               7
100
AcDbLine
 10
0.0
 20
-36.499980926513672
 30
0.0
 11
0.0
 21
17.500019073486328
 31
0.0
  0
LINE
  5
527
100
AcDbEntity
  8
0
  6
CONTINUOUS
 62
               7
100
AcDbLine
 10
-20.0
 20
-36.499980926513672
 30
0.0
 11
-20.0
 21
17.500019073486328
 31
0.0
  0
LINE
  5
528
100
AcDbEntity
  8
0
  6
CONTINUOUS
 62
               7
100
AcDbLine
 10
-18.5
 20
-46.999980926513672
 30
0.0
 11
-1.5
 21
-46.999980926513672
 31
0.0
  0
LINE
  5
529
100
AcDbEntity
  8
0
  6
CONTINUOUS
 62
               7
100
AcDbLine
 10
-15.0
 20
31.000019073486328
 30
0.0
 11
-5.0
 21
31.000019073486328
 31
0.0
  0
LINE
  5
52A
100
AcDbEntity
  8
0
  6
CENTER
 62
               2
100
AcDbLine
 10
-12.5
 20
37.200016021728516
 30
0.0
 11
-7.5
 21
37.200016021728516
 31
0.0
  0
LINE
  5
52B
100
AcDbEntity
  8
0
  6
CONTINUOUS
 62
               4
100
AcDbLine
 10
-14.999984741210938
 20
64.500034332275391
 30
0.0
 11
-4.9999847412109375
 21
64.500034332275391
 31
0.0
  0
LINE
  5
52C
100
AcDbEntity
  8
0
  6
CONTINUOUS
 62
               7
100
AcDbLine
 10
-15.0
 20
40.500019073486328
 30
0.0
 11
-5.0
 21
40.500019073486328
 31
0.0
  0
LINE
  5
52D
100
AcDbEntity
  8
0
  6
CONTINUOUS
 62
               7
100
AcDbLine
 10
-11.926788330078125
 20
36.900012969970703
 30
0.0
 11
-8.073211669921875
 21
36.900012969970703
 31
0.0
  0
LINE
  5
52E
100
AcDbEntity
  8
0
  6
CONTINUOUS
 62
               7
100
AcDbLine
 10
-11.926788330078125
 20
37.500019073486328
 30
0.0
 11
-8.073211669921875
 21
37.500019073486328
 31
0.0
  0
LINE
  5
52F
100
AcDbEntity
  8
0
  6
CONTINUOUS
 62
               4
100
AcDbLine
 10
-14.949996948242188
 20
64.500019073486328
 30
0.0
 11
-14.949996948242188
 21
78.000019073486328
 31
0.0
  0
LINE
  5
530
100
AcDbEntity
  8
0
  6
CONTINUOUS
 62
               4
100
AcDbLine
 10
-5.4999847412109375
 20
73.500034332275391
 30
0.0
 11
-14.499984741210938
 21
73.500034332275391
 31
0.0
  0
LINE
  5
531
100
AcDbEntity
  8
0
  6
CENTER
 62
             200
100
AcDbLine
 10
-5.0500030517578125
 20
69.000034332275391
 30
0.0
 11
-14.949996948242188
 21
69.000034332275391
 31
0.0
  0
LINE
  5
532
100
AcDbEntity
  8
0
  6
CONTINUOUS
 62
               4
100
AcDbLine
 10
-5.0500030517578125
 20
64.500019073486328
 30
0.0
 11
-5.0500030517578125
 21
78.000019073486328
 31
0.0
  0
LINE
  5
533
100
AcDbEntity
  8
0
  6
CONTINUOUS
 62
               4
100
AcDbLine
 10
-14.949996948242188
 20
78.000019073486328
 30
0.0
 11
-13.499984741210937
 21
78.000019073486328
 31
0.0
  0
LINE
  5
534
100
AcDbEntity
  8
0
  6
CONTINUOUS
 62
               4
100
AcDbLine
 10
-14.050003051757813
 20
73.500019073486328
 30
0.0
 11
-14.050003051757813
 21
76.000019073486328
 31
0.0
  0
LINE
  5
535
100
AcDbEntity
  8
0
  6
CONTINUOUS
 62
               4
100
AcDbLine
 10
-5.9499969482421875
 20
73.500019073486328
 30
0.0
 11
-5.9499969482421875
 21
76.000019073486328
 31
0.0
  0
LINE
  5
536
100
AcDbEntity
  8
0
  6
CONTINUOUS
 62
               4
100
AcDbLine
 10
-6.5
 20
73.998477935791016
 30
0.0
 11
-6.5
 21
84.500019073486328
 31
0.0
  0
LINE
  5
537
100
AcDbEntity
  8
0
  6
CONTINUOUS
 62
               4
100
AcDbLine
 10
-13.5
 20
73.998477935791016
 30
0.0
 11
-13.5
 21
84.500019073486328
 31
0.0
  0
LINE
  5
538
100
AcDbEntity
  8
0
  6
CONTINUOUS
 62
               4
100
AcDbLine
 10
-13.499984741210937
 20
73.998493194580078
 30
0.0
 11
-6.4999847412109375
 21
73.998493194580078
 31
0.0
  0
LINE
  5
539
100
AcDbEntity
  8
0
  6
CONTINUOUS
 62
               4
100
AcDbLine
 10
-13.499984741210937
 20
77.556171417236328
 30
0.0
 11
-6.4999847412109375
 21
77.556171417236328
 31
0.0
  0
LINE
  5
53A
100
AcDbEntity
  8
0
  6
CONTINUOUS
 62
               4
100
AcDbLine
 10
-13.499984741210937
 20
83.000019073486328
 30
0.0
 11
-6.4999847412109375
 21
83.000019073486328
 31
0.0
  0
LINE
  5
53B
100
AcDbEntity
  8
0
  6
CONTINUOUS
 62
               4
100
AcDbLine
 10
-14.899993896484375
 20
84.500019073486328
 30
0.0
 11
-5.0999908447265625
 21
84.500019073486328
 31
0.0
  0
LINE
  5
53C
100
AcDbEntity
  8
0
  6
CONTINUOUS
 62
               4
100
AcDbLine
 10
-6.4999847412109375
 20
78.000019073486328
 30
0.0
 11
-5.0500030517578125
 21
78.000019073486328
 31
0.0
  0
LINE
  5
53D
100
AcDbEntity
  8
0
  6
CONTINUOUS
 62
               4
100
AcDbLine
 10
-6.4999847412109375
 20
77.000019073486328
 30
0.0
 11
-5.9499969482421875
 21
77.000019073486328
 31
0.0
  0
LINE
  5
53E
100
AcDbEntity
  8
0
  6
CONTINUOUS
 62
               4
100
AcDbLine
 10
-6.4999847412109375
 20
76.000019073486328
 30
0.0
 11
-5.9499969482421875
 21
76.000019073486328
 31
0.0
  0
LINE
  5
53F
100
AcDbEntity
  8
0
  6
CONTINUOUS
 62
               4
100
AcDbLine
 10
-14.050003051757813
 20
77.000019073486328
 30
0.0
 11
-13.499984741210937
 21
77.000019073486328
 31
0.0
  0
LINE
  5
540
100
AcDbEntity
  8
0
  6
CONTINUOUS
 62
               4
100
AcDbLine
 10
-14.050003051757813
 20
76.000019073486328
 30
0.0
 11
-13.499984741210937
 21
76.000019073486328
 31
0.0
  0
LINE
  5
541
100
AcDbEntity
  8
0
  6
CONTINUOUS
 62
               4
100
AcDbLine
 10
-14.050003051757813
 20
77.000019073486328
 30
0.0
 11
-14.050003051757813
 21
78.000019073486328
 31
0.0
  0
LINE
  5
542
100
AcDbEntity
  8
0
  6
CONTINUOUS
 62
               4
100
AcDbLine
 10
-5.9499969482421875
 20
77.000019073486328
 30
0.0
 11
-5.9499969482421875
 21
78.000019073486328
 31
0.0
  0
LINE
  5
543
100
AcDbEntity
  8
0
  6
CONTINUOUS
 62
               4
100
AcDbLine
 10
-11.284988403320313
 20
88.673343658447266
 30
0.0
 11
-11.284988403320313
 21
92.500019073486328
 31
0.0
  0
LINE
  5
544
100
AcDbEntity
  8
0
  6
CONTINUOUS
 62
               4
100
AcDbLine
 10
-12.715011596679687
 20
88.290164947509766
 30
0.0
 11
-12.715011596679687
 21
92.500019073486328
 31
0.0
  0
LINE
  5
545
100
AcDbEntity
  8
0
  6
CONTINUOUS
 62
               4
100
AcDbLine
 10
-12.715011596679687
 20
92.500019073486328
 30
0.0
 11
-11.285003662109375
 21
92.500019073486328
 31
0.0
  0
LINE
  5
546
100
AcDbEntity
  8
0
  6
CONTINUOUS
 62
               4
100
AcDbLine
 10
-11.599990844726563
 20
92.500019073486328
 30
0.0
 11
-11.599990844726563
 21
97.500019073486328
 31
0.0
  0
LINE
  5
547
100
AcDbEntity
  8
0
  6
CONTINUOUS
 62
               4
100
AcDbLine
 10
-12.400009155273438
 20
92.500019073486328
 30
0.0
 11
-12.400009155273438
 21
97.500019073486328
 31
0.0
  0
LINE
  5
548
100
AcDbEntity
  8
0
  6
CONTINUOUS
 62
               4
100
AcDbLine
 10
-12.400009155273438
 20
97.500019073486328
 30
0.0
 11
-11.600006103515625
 21
97.500019073486328
 31
0.0
  0
LINE
  5
549
100
AcDbEntity
  8
0
  6
CONTINUOUS
 62
               4
100
AcDbLine
 10
-11.284988403320313
 20
84.500019073486328
 30
0.0
 11
-11.284988403320313
 21
87.638065338134766
 31
0.0
  0
LINE
  5
54A
100
AcDbEntity
  8
0
  6
CONTINUOUS
 62
               4
100
AcDbLine
 10
-12.715011596679687
 20
84.500019073486328
 30
0.0
 11
-12.715011596679687
 21
87.254886627197266
 31
0.0
  0
LINE
  5
54B
100
AcDbEntity
  8
0
  6
CONTINUOUS
 62
               7
100
AcDbLine
 10
-5.0
 20
29.500019073486328
 30
0.0
 11
-5.0
 21
40.500019073486328
 31
0.0
  0
LINE
  5
54C
100
AcDbEntity
  8
0
  6
CONTINUOUS
 62
               7
100
AcDbLine
 10
-15.0
 20
29.500019073486328
 30
0.0
 11
-15.0
 21
40.500019073486328
 31
0.0
  0
LINE
  5
54D
100
AcDbEntity
  8
0
  6
CONTINUOUS
 62
               4
100
AcDbLine
 10
-5.0999908447265625
 20
78.000019073486328
 30
0.0
 11
-5.0999908447265625
 21
84.500019073486328
 31
0.0
  0
LINE
  5
54E
100
AcDbEntity
  8
0
  6
CONTINUOUS
 62
               4
100
AcDbLine
 10
-14.899993896484375
 20
78.000019073486328
 30
0.0
 11
-14.899993896484375
 21
84.500019073486328
 31
0.0
  0
LINE
  5
54F
100
AcDbEntity
  8
0
  6
CONTINUOUS
 62
               4
100
AcDbLine
 10
-14.0
 20
78.000019073486328
 30
0.0
 11
-14.0
 21
84.500019073486328
 31
0.0
  0
LINE
  5
550
100
AcDbEntity
  8
0
  6
CONTINUOUS
 62
               4
100
AcDbLine
 10
-6.0
 20
78.000019073486328
 30
0.0
 11
-6.0
 21
84.500019073486328
 31
0.0
  0
LINE
  5
551
100
AcDbEntity
  8
0
  6
CONTINUOUS
 62
               7
100
AcDbLine
 10
-19.0
 20
27.000019073486328
 30
0.0
 11
-1.0
 21
27.000019073486328
 31
0.0
  0
LINE
  5
552
100
AcDbEntity
  8
0
  6
CONTINUOUS
 62
               7
100
AcDbLine
 10
-1.0
 20
-46.499980926513672
 30
0.0
 11
-1.0
 21
8.9468421936035156
 31
0.0
  0
LINE
  5
553
100
AcDbEntity
  8
0
  6
CONTINUOUS
 62
               7
100
AcDbLine
 10
-19.0
 20
-46.499980926513672
 30
0.0
 11
-19.0
 21
-31.053142547607422
 31
0.0
  0
LINE
  5
554
100
AcDbEntity
  8
0
  6
CONTINUOUS
 62
               2
100
AcDbLine
 10
-20.0
 20
0.0000152587890625
 30
0.0
 11
1.467193603515625
 21
0.0000152587890625
 31
0.0
  0
LINE
  5
555
100
AcDbEntity
  8
0
  6
CONTINUOUS
 62
               2
100
AcDbLine
 10
-20.0
 20
-18.999984741210937
 30
0.0
 11
1.3137664794921875
 21
-18.999984741210937
 31
0.0
  0
LINE
  5
556
100
AcDbEntity
  8
0
  6
CONTINUOUS
 62
               7
100
AcDbLine
 10
-3.5
 20
-28.499980926513672
 30
0.0
 11
-1.0
 21
-28.499980926513672
 31
0.0
  0
LINE
  5
557
100
AcDbEntity
  8
0
  6
CONTINUOUS
 62
               7
100
AcDbLine
 10
-6.5
 20
-31.499965667724609
 30
0.0
 11
-6.5
 21
-35.799968719482422
 31
0.0
  0
LINE
  5
558
100
AcDbEntity
  8
0
  6
CONTINUOUS
 62
               7
100
AcDbLine
 10
-17.560637564985882
 20
-30.560663050906442
 30
0.0
 11
-15.439317078917156
 21
-28.43934274365165
 31
0.0
  0
LINE
  5
559
100
AcDbEntity
  8
0
  6
CONTINUOUS
 62
               7
100
AcDbLine
 10
-17.560626685984971
 20
-28.439331864651649
 30
0.0
 11
-15.43930637873018
 21
-30.560652350720375
 31
0.0
  0
LINE
  5
55A
100
AcDbEntity
  8
0
  6
CONTINUOUS
 62
               7
100
AcDbLine
 10
-4.5606556694865503
 20
-32.560655016694
 30
0.0
 11
-2.4393351834178247
 21
-30.439334709439208
 31
0.0
  0
LINE
  5
55B
100
AcDbEntity
  8
0
  6
CONTINUOUS
 62
               7
100
AcDbLine
 10
-4.5606555800795832
 20
-30.439334620032241
 30
0.0
 11
-2.4393352728247919
 21
-32.560655106100967
 31
0.0
  0
LINE
  5
55C
100
AcDbEntity
  8
0
  6
CONTINUOUS
 62
               7
100
AcDbLine
 10
-4.5606431097257882
 20
9.4393373922666797
 30
0.0
 11
-2.4393226236570626
 21
11.560657699521471
 31
0.0
  0
LINE
  5
55D
100
AcDbEntity
  8
0
  6
CONTINUOUS
 62
               7
100
AcDbLine
 10
-4.5606322307257869
 20
11.560646999334494
 30
0.0
 11
-2.4393119234709957
 21
9.4393265132657689
 31
0.0
  0
LINE
  5
55E
100
AcDbEntity
  8
0
  6
CONTINUOUS
 62
               7
100
AcDbLine
 10
-17.560657374005132
 20
11.439340147649091
 30
0.0
 11
-15.439336887936406
 21
13.560660454903882
 31
0.0
  0
LINE
  5
55F
100
AcDbEntity
  8
0
  6
CONTINUOUS
 62
               7
100
AcDbLine
 10
-17.560646495004221
 20
13.560671333903883
 30
0.0
 11
-15.43932618774943
 21
11.439350847835158
 31
0.0
  0
LINE
  5
560
100
AcDbEntity
  8
0
  6
DASHED
 62
               4
100
AcDbLine
 10
-21.599990844726562
 20
-59.399974822998047
 30
0.0
 11
-21.599990844726562
 21
10.000003814697266
 31
0.0
  0
LINE
  5
561
100
AcDbEntity
  8
0
  6
DASHED
 62
               4
100
AcDbLine
 10
-20.0
 20
10.000003814697266
 30
0.0
 11
-21.599990844726562
 21
10.000003814697266
 31
0.0
  0
LINE
  5
562
100
AcDbEntity
  8
0
  6
DASHED
 62
               4
100
AcDbLine
 10
-20.0
 20
-36.499980926513672
 30
0.0
 11
-20.0
 21
-59.399974822998047
 31
0.0
  0
LINE
  5
563
100
AcDbEntity
  8
0
  6
DASHED
 62
               4
100
AcDbLine
 10
-1.0
 20
-59.399974822998047
 30
0.0
 11
-20.0
 21
-59.399974822998047
 31
0.0
  0
LINE
  5
564
100
AcDbEntity
  8
0
  6
DASHED
 62
               4
100
AcDbLine
 10
-1.0
 20
-60.999980926513672
 30
0.0
 11
-20.0
 21
-60.999980926513672
 31
0.0
  0
LINE
  5
565
100
AcDbEntity
  8
0
  6
DASHED
 62
               4
100
AcDbLine
 10
-1.0
 20
-59.399974822998047
 30
0.0
 11
-1.0
 21
-60.999980926513672
 31
0.0
  0
LINE
  5
566
100
AcDbEntity
  8
0
  6
DASHED
 62
               4
100
AcDbLine
 10
2.281524658203125
 20
4.0000190734863281
 30
0.0
 11
0.0
 21
4.0000190734863281
 31
0.0
  0
LINE
  5
567
100
AcDbEntity
  8
0
  6
DASHED
 62
               4
100
AcDbLine
 10
2.281524658203125
 20
-3.9999771118164063
 30
0.0
 11
0.0
 21
-3.9999771118164063
 31
0.0
  0
LINE
  5
568
100
AcDbEntity
  8
0
  6
DASHED
 62
               4
100
AcDbLine
 10
2.281524658203125
 20
-14.999973297119141
 30
0.0
 11
0.0
 21
-14.999973297119141
 31
0.0
  0
LINE
  5
569
100
AcDbEntity
  8
0
  6
DASHED
 62
               4
100
AcDbLine
 10
2.281524658203125
 20
-22.999980926513672
 30
0.0
 11
0.0
 21
-22.999980926513672
 31
0.0
  0
ARC
  5
56A
100
AcDbEntity
  8
0
  6
CONTINUOUS
 62
               7
100
AcDbCircle
 10
-3.5
 20
10.500034332275391
 30
0.0
 40
3.0
100
AcDbArc
 50
89.999982013910454
 51
269.99994604173139
  0
ARC
  5
56B
100
AcDbEntity
  8
0
  6
CONTINUOUS
 62
               7
100
AcDbCircle
 10
-16.5
 20
-29.499965667724609
 30
0.0
 40
3.0
100
AcDbArc
 50
269.99996334457541
 51
89.999982013910454
  0
ARC
  5
56C
100
AcDbEntity
  8
0
  6
CONTINUOUS
 62
               7
100
AcDbCircle
 10
-16.5
 20
12.500034332275391
 30
0.0
 40
3.0
100
AcDbArc
 50
270.00001798608872
 51
0.00001366037834
  0
ARC
  5
56D
100
AcDbEntity
  8
0
  6
CONTINUOUS
 62
               7
100
AcDbCircle
 10
-1.5
 20
-46.499980926513672
 30
0.0
 40
0.5
100
AcDbArc
 50
270.00001798608872
 51
0.00001366037834
  0
ARC
  5
56E
100
AcDbEntity
  8
0
  6
CONTINUOUS
 62
               7
100
AcDbCircle
 10
-18.5
 20
-46.499965667724609
 30
0.0
 40
0.5
100
AcDbArc
 50
180.0000359721783
 51
269.99996334457541
  0
ARC
  5
56F
100
AcDbEntity
  8
0
  6
CONTINUOUS
 62
               7
100
AcDbCircle
 10
-3.9999542236328125
 20
30.000080108642578
 30
0.0
 40
2.5000734329223633
100
AcDbArc
 50
191.53802865027069
 51
319.4591594643893
  0
CIRCLE
  5
570
100
AcDbEntity
  8
0
  6
CONTINUOUS
 62
               7
100
AcDbCircle
 10
-10.0
 20
37.200016021728516
 30
0.0
 40
2.0
  0
CIRCLE
  5
571
100
AcDbEntity
  8
0
  6
CONTINUOUS
 62
               7
100
AcDbCircle
 10
-10.0
 20
37.200016021728516
 30
0.0
 40
1.9499998092651367
  0
ARC
  5
572
100
AcDbEntity
  8
0
  6
CONTINUOUS
 62
               4
100
AcDbCircle
 10
-5.5500030517578125
 20
73.000034332275391
 30
0.0
 40
0.5
100
AcDbArc
 50
359.99994535848583
 51
89.999982013910454
  0
ARC
  5
573
100
AcDbEntity
  8
0
  6
CONTINUOUS
 62
               4
100
AcDbCircle
 10
-14.449996948242188
 20
73.000034332275391
 30
0.0
 40
0.5
100
AcDbArc
 50
89.999982013910454
 51
179.99996402782091
  0
ARC
  5
574
100
AcDbEntity
  8
0
  6
CONTINUOUS
 62
               7
100
AcDbCircle
 10
-3.5
 20
-31.499965667724609
 30
0.0
 40
3.0
100
AcDbArc
 50
89.999982013910454
 51
179.99996402782091
  0
CIRCLE
  5
575
100
AcDbEntity
  8
0
  6
CONTINUOUS
 62
               7
100
AcDbCircle
 10
-16.499984741210937
 20
-29.499965667724609
 30
0.0
 40
2.7999992370605469
  0
CIRCLE
  5
576
100
AcDbEntity
  8
0
  6
CONTINUOUS
 62
               7
100
AcDbCircle
 10
-3.5
 20
-31.499950408935547
 30
0.0
 40
2.7999992370605469
  0
CIRCLE
  5
577
100
AcDbEntity
  8
0
  6
CONTINUOUS
 62
               7
100
AcDbCircle
 10
-3.5
 20
10.500019073486328
 30
0.0
 40
2.7999992370605469
  0
CIRCLE
  5
578
100
AcDbEntity
  8
0
  6
CONTINUOUS
 62
               7
100
AcDbCircle
 10
-16.5
 20
12.500034332275391
 30
0.0
 40
2.7999992370605469
  0
ARC
  5
579
100
AcDbEntity
  8
0
  6
DASHED
 62
               4
100
AcDbCircle
 10
-20.0
 20
-59.399974822998047
 30
0.0
 40
1.5999994277954102
100
AcDbArc
 50
179.99996402782091
 51
269.99994604173139
  0
ARC
  5
57A
100
AcDbEntity
  8
0
  6
DASHED
 62
               4
100
AcDbCircle
 10
-2.4000091552734375
 20
0.0000152587890625
 30
0.0
 40
6.5
100
AcDbArc
 50
326.20568564725858
 51
33.794232390470569
  0
ARC
  5
57B
100
AcDbEntity
  8
0
  6
DASHED
 62
               4
100
AcDbCircle
 10
2.281524658203125
 20
3.1333351135253906
 30
0.0
 40
0.8666666746139526
100
AcDbArc
 50
33.79423239047059
 51
89.999927372397096
  0
ARC
  5
57C
100
AcDbEntity
  8
0
  6
DASHED
 62
               4
100
AcDbCircle
 10
2.281524658203125
 20
-3.1333160400390625
 30
0.0
 40
0.8666666746139526
100
AcDbArc
 50
269.99996334457541
 51
326.20568564725858
  0
ARC
  5
57D
100
AcDbEntity
  8
0
  6
DASHED
 62
               4
100
AcDbCircle
 10
2.281524658203125
 20
-15.866649627685547
 30
0.0
 40
0.8666666746139526
100
AcDbArc
 50
33.79423239047059
 51
89.999927372397096
  0
ARC
  5
57E
100
AcDbEntity
  8
0
  6
DASHED
 62
               4
100
AcDbCircle
 10
-2.4000091552734375
 20
-18.999979972839355
 30
0.0
 40
6.5
100
AcDbArc
 50
326.20568564725858
 51
33.794232390470569
  0
ARC
  5
57F
100
AcDbEntity
  8
0
  6
DASHED
 62
               4
100
AcDbCircle
 10
2.281524658203125
 20
-22.133312225341797
 30
0.0
 40
0.8666666746139526
100
AcDbArc
 50
269.99996334457541
 51
326.20568564725858
  0
LINE
  5
580
100
AcDbEntity
  8
0
  6
DASHED
 62
               4
100
AcDbLine
 10
1.0
 20
-3.9999771118164063
 30
0.0
 11
1.0
 21
4.0000190734863281
 31
0.0
  0
LINE
  5
581
100
AcDbEntity
  8
0
  6
DASHED
 62
               4
100
AcDbLine
 10
0.0000115987641038
 20
0.500007520950021
 30
0.0
 11
1.0000136517046485
 21
0.7679572040033236
 31
0.0
  0
LINE
  5
582
100
AcDbEntity
  8
0
  6
DASHED
 62
               4
100
AcDbLine
 10
1.0000127254825202
 20
-0.4999940784618957
 30
0.0
 11
0.0000106725419755
 21
-0.7679437615151983
 31
0.0
  0
LINE
  5
583
100
AcDbEntity
  8
0
  6
DASHED
 62
               4
100
AcDbLine
 10
1.0
 20
-22.999980926513672
 30
0.0
 11
1.0
 21
-14.999973297119141
 31
0.0
  0
LINE
  5
584
100
AcDbEntity
  8
0
  6
DASHED
 62
               4
100
AcDbLine
 10
0.0000139485055115
 20
-18.499984950307407
 30
0.0
 11
1.0000160014460562
 21
-18.232035267254105
 31
0.0
  0
LINE
  5
585
100
AcDbEntity
  8
0
  6
DASHED
 62
               4
100
AcDbLine
 10
1.0000150752239279
 20
-19.499986549719324
 30
0.0
 11
0.0000130222833832
 21
-19.767936232772627
 31
0.0
  0
LINE
  5
586
100
AcDbEntity
  8
0
  6
CONTINUOUS
 62
               7
100
AcDbLine
 10
-17.0
 20
29.500019073486328
 30
0.0
 11
-3.0
 21
29.500019073486328
 31
0.0
  0
LINE
  5
587
100
AcDbEntity
  8
0
  6
CONTINUOUS
 62
               7
100
AcDbLine
 10
-16.999998208652869
 20
29.500006714177289
 30
0.0
 11
-18.999992775873579
 21
27.000013505151401
 31
0.0
  0
LINE
  5
588
100
AcDbEntity
  8
0
  6
CONTINUOUS
 62
               7
100
AcDbLine
 10
-3.0000004927696864
 20
29.500030544402762
 30
0.0
 11
-0.9999963934587868
 21
27.000025420264137
 31
0.0
  0
CIRCLE
  5
589
100
AcDbEntity
  8
0
  6
CONTINUOUS
 62
               7
100
AcDbCircle
 10
-16.499984741210937
 20
-29.499965667724609
 30
0.0
 40
2.9499998092651367
  0
LINE
  5
58A
100
AcDbEntity
  8
0
  6
CONTINUOUS
 62
               7
100
AcDbLine
 10
-19.0
 20
-27.946758270263672
 30
0.0
 11
-19.0
 21
27.000019073486328
 31
0.0
  0
CIRCLE
  5
58B
100
AcDbEntity
  8
0
  6
CONTINUOUS
 62
               7
100
AcDbCircle
 10
-3.5
 20
10.500019073486328
 30
0.0
 40
2.9499998092651367
  0
LINE
  5
58C
100
AcDbEntity
  8
0
  6
CONTINUOUS
 62
               7
100
AcDbLine
 10
-1.0
 20
12.066059112548828
 30
0.0
 11
-1.0
 21
27.000019073486328
 31
0.0
  0
LINE
  5
58D
100
AcDbEntity
  8
0
  6
DASHED
 62
               4
100
AcDbLine
 10
-23.199981689453125
 20
-16.499973297119169
 30
0.0
 11
-23.199981689453125
 21
-21.499980926513686
 31
0.0
  0
LINE
  5
58E
100
AcDbEntity
  8
0
  6
DASHED
 62
               4
100
AcDbLine
 10
-22.099990844726563
 20
-16.499973297119169
 30
0.0
 11
-23.199981689453125
 21
-16.499973297119169
 31
0.0
  0
LINE
  5
58F
100
AcDbEntity
  8
0
  6
DASHED
 62
               4
100
AcDbLine
 10
-22.099990844726563
 20
-21.499980926513686
 30
0.0
 11
-23.199981689453125
 21
-21.499980926513686
 31
0.0
  0
ARC
  5
590
100
AcDbEntity
  8
0
  6
DASHED
 62
               4
100
AcDbCircle
 10
-22.099990844726563
 20
-21.999980926513672
 30
0.0
 40
0.5
100
AcDbArc
 50
359.9999813306639
 51
90.000036655423813
  0
ARC
  5
591
100
AcDbEntity
  8
0
  6
DASHED
 62
               4
100
AcDbCircle
 10
-22.099990844726563
 20
-15.999973297119141
 30
0.0
 40
0.5
100
AcDbArc
 50
269.99996334457541
 51
359.99996402782114
  0
LINE
  5
592
100
AcDbEntity
  8
0
  6
DASHED
 62
               4
100
AcDbLine
 10
-23.199981689453125
 20
2.5000190734862997
 30
0.0
 11
-23.199981689453125
 21
-2.4999790191650675
 31
0.0
  0
LINE
  5
593
100
AcDbEntity
  8
0
  6
DASHED
 62
               4
100
AcDbLine
 10
-22.099990844726563
 20
2.5000190734862997
 30
0.0
 11
-23.199981689453125
 21
2.5000190734862997
 31
0.0
  0
LINE
  5
594
100
AcDbEntity
  8
0
  6
DASHED
 62
               4
100
AcDbLine
 10
-22.099990844726563
 20
-2.4999790191650675
 30
0.0
 11
-23.199981689453125
 21
-2.4999790191650675
 31
0.0
  0
ARC
  5
595
100
AcDbEntity
  8
0
  6
DASHED
 62
               4
100
AcDbCircle
 10
-22.099990844726563
 20
-2.9999790191650391
 30
0.0
 40
0.5
100
AcDbArc
 50
359.9999813306639
 51
90.000036655423813
  0
ARC
  5
596
100
AcDbEntity
  8
0
  6
DASHED
 62
               4
100
AcDbCircle
 10
-22.099990844726563
 20
3.0000190734863281
 30
0.0
 40
0.5
100
AcDbArc
 50
269.99996334457541
 51
359.99996402782114
  0
LINE
  5
597
100
AcDbEntity
  8
0
  6
CONTINUOUS
 62
               7
100
AcDbLine
 10
-20.0
 20
17.500019073486328
 30
0.0
 11
-19.0
 21
17.500019073486328
 31
0.0
  0
LINE
  5
598
100
AcDbEntity
  8
0
  6
CONTINUOUS
 62
               7
100
AcDbLine
 10
-20.0
 20
-36.499980926513672
 30
0.0
 11
-19.0
 21
-36.499980926513672
 31
0.0
  0
LINE
  5
599
100
AcDbEntity
  8
0
  6
CONTINUOUS
 62
               7
100
AcDbLine
 10
-1.0
 20
17.500019073486328
 30
0.0
 11
0.0
 21
17.500019073486328
 31
0.0
  0
LINE
  5
59A
100
AcDbEntity
  8
0
  6
CONTINUOUS
 62
               7
100
AcDbLine
 10
-1.0
 20
-36.499980926513672
 30
0.0
 11
0.0
 21
-36.499980926513672
 31
0.0
  0
LINE
  5
59B
100
AcDbEntity
  8
0
  6
CONTINUOUS
 62
             200
100
AcDbLine
 10
-13.999974673206452
 20
86.910572753298766
 30
0.0
 11
-10.0
 21
87.982362745712578
 31
0.0
  0
LINE
  5
59C
100
AcDbEntity
  8
0
  6
CONTINUOUS
 62
             200
100
AcDbLine
 10
-13.999979366388288
 20
87.945847662795131
 30
0.0
 11
-10.0
 21
89.017638912743223
 31
0.0
  0
LINE
  5
59D
100
AcDbEntity
  8
0
  6
CONTINUOUS
 62
               4
100
AcDbLine
 10
-15.0
 20
40.500019073486328
 30
0.0
 11
-15.0
 21
64.500019073486328
 31
0.0
  0
LINE
  5
59E
100
AcDbEntity
  8
0
  6
CONTINUOUS
 62
               4
100
AcDbLine
 10
-5.0
 20
40.500019073486328
 30
0.0
 11
-5.0
 21
64.500019073486328
 31
0.0
  0
CIRCLE
  5
59F
100
AcDbEntity
  8
0
  6
CONTINUOUS
 62
               7
100
AcDbCircle
 10
-10.0
 20
0.0000152587890625
 30
0.0
 40
5.0499999999999998
  0
CIRCLE
  5
5A0
100
AcDbEntity
  8
0
  6
CONTINUOUS
 62
               7
100
AcDbCircle
 10
-10.0
 20
0.0000152587890625
 30
0.0
 40
4.0499999999999998
  0
ARC
  5
5A1
100
AcDbEntity
  8
0
  6
CONTINUOUS
 62
               7
100
AcDbCircle
 10
-10.0
 20
0.0000152587890625
 30
0.0
 40
8.4000000000000004
100
AcDbArc
 50
7.1848403149542479
 51
172.81515968504539
  0
LINE
  5
5A2
100
AcDbEntity
  8
0
  6
CONTINUOUS
 62
               7
100
AcDbLine
 10
-19.0
 20
8.1397612209446493
 30
0.0
 11
-13.721160527519828
 21
8.1397612209446493
 31
0.0
  0
CIRCLE
  5
5A3
100
AcDbEntity
  8
0
  6
CONTINUOUS
 62
               7
100
AcDbCircle
 10
-10.0
 20
0.0000152587890625
 30
0.0
 40
8.9499999999999993
  0
ARC
  5
5A4
100
AcDbEntity
  8
0
  6
CONTINUOUS
 62
               7
100
AcDbCircle
 10
-10.0
 20
0.0000152587890625
 30
0.0
 40
8.4000000000000004
100
AcDbArc
 50
187.18484031495382
 51
352.81515968504499
  0
LINE
  5
5A5
100
AcDbEntity
  8
0
  6
CONTINUOUS
 62
               7
100
AcDbLine
 10
-17.899999999999977
 20
-0.7999847412109489
 30
0.0
 11
-17.899999999999977
 21
0.8000152528285867
 31
0.0
  0
LINE
  5
5A6
100
AcDbEntity
  8
0
  6
CONTINUOUS
 62
               7
100
AcDbLine
 10
-17.899999999999977
 20
-0.7999847412109489
 30
0.0
 11
-18.334041755690464
 21
-1.0505788656983555
 31
0.0
  0
LINE
  5
5A7
100
AcDbEntity
  8
0
  6
CONTINUOUS
 62
               7
100
AcDbLine
 10
-17.899999999999977
 20
0.8000152587890739
 30
0.0
 11
-18.334041755690464
 21
1.0506093832764805
 31
0.0
  0
LINE
  5
5A8
100
AcDbEntity
  8
0
  6
CONTINUOUS
 62
               7
100
AcDbLine
 10
-2.1000000000000227
 20
0.8000152587890739
 30
0.0
 11
-1.665958244309536
 21
1.0506093832764805
 31
0.0
  0
LINE
  5
5A9
100
AcDbEntity
  8
0
  6
CONTINUOUS
 62
               7
100
AcDbLine
 10
-2.1000000000000227
 20
-0.7999847412109489
 30
0.0
 11
-2.1000000000000227
 21
0.8000152528285867
 31
0.0
  0
LINE
  5
5AA
100
AcDbEntity
  8
0
  6
CONTINUOUS
 62
               7
100
AcDbLine
 10
-2.1000000000000227
 20
-0.7999847412109489
 30
0.0
 11
-1.665958244309536
 21
-1.0505788656983555
 31
0.0
  0
CIRCLE
  5
5AB
100
AcDbEntity
  8
0
  6
CONTINUOUS
 62
               7
100
AcDbCircle
 10
-10.0
 20
-18.999984741210937
 30
0.0
 40
8.9499999999999993
  0
ARC
  5
5AC
100
AcDbEntity
  8
0
  6
CONTINUOUS
 62
               7
100
AcDbCircle
 10
-10.0
 20
-18.999984741210937
 30
0.0
 40
8.4000000000000004
100
AcDbArc
 50
7.1848403149542479
 51
172.81515968504539
  0
CIRCLE
  5
5AD
100
AcDbEntity
  8
0
  6
CONTINUOUS
 62
               7
100
AcDbCircle
 10
-10.0
 20
-18.999984741210937
 30
0.0
 40
5.0499999999999998
  0
CIRCLE
  5
5AE
100
AcDbEntity
  8
0
  6
CONTINUOUS
 62
               7
100
AcDbCircle
 10
-10.0
 20
-18.999984741210937
 30
0.0
 40
4.0499999999999998
  0
ARC
  5
5AF
100
AcDbEntity
  8
0
  6
CONTINUOUS
 62
               7
100
AcDbCircle
 10
-11.050000000000011
 20
-9.8097725565004907
 30
0.0
 40
0.3
100
AcDbArc
 50
276.5178942089774
 51
0.0
  0
ARC
  5
5B0
100
AcDbEntity
  8
0
  6
CONTINUOUS
 62
               7
100
AcDbCircle
 10
-11.050000000000011
 20
-9.1901969259213558
 30
0.0
 40
0.3
100
AcDbArc
 50
0.0
 51
83.482105791022562
  0
LINE
  5
5B1
100
AcDbEntity
  8
0
  6
CONTINUOUS
 62
               7
100
AcDbLine
 10
-10.75
 20
-9.8097725565004907
 30
0.0
 11
-10.75
 21
-9.1901969259213558
 31
0.0
  0
ARC
  5
5B2
100
AcDbEntity
  8
0
  6
CONTINUOUS
 62
               7
100
AcDbCircle
 10
-8.9500000000000455
 20
-9.8097725565004907
 30
0.0
 40
0.3
100
AcDbArc
 50
179.99999999999963
 51
263.48210579102226
  0
ARC
  5
5B3
100
AcDbEntity
  8
0
  6
CONTINUOUS
 62
               7
100
AcDbCircle
 10
-8.9500000000000455
 20
-9.1901969259213558
 30
0.0
 40
0.3
100
AcDbArc
 50
96.517894208978376
 51
179.99999999999963
  0
LINE
  5
5B4
100
AcDbEntity
  8
0
  6
CONTINUOUS
 62
               7
100
AcDbLine
 10
-9.25
 20
-9.8097725565004907
 30
0.0
 11
-9.25
 21
-9.1901969259213558
 31
0.0
  0
ARC
  5
5B5
100
AcDbEntity
  8
0
  6
CONTINUOUS
 62
               7
100
AcDbCircle
 10
-10.0
 20
-18.999984741210937
 30
0.0
 40
8.4000000000000004
100
AcDbArc
 50
187.18484031495382
 51
352.81515968504499
  0
LINE
  5
5B6
100
AcDbEntity
  8
0
  6
CONTINUOUS
 62
               7
100
AcDbLine
 10
-17.899999999999977
 20
-18.199984741210926
 30
0.0
 11
-18.334041755690464
 21
-17.949390616723491
 31
0.0
  0
LINE
  5
5B7
100
AcDbEntity
  8
0
  6
CONTINUOUS
 62
               7
100
AcDbLine
 10
-17.899999999999977
 20
-19.799984741210949
 30
0.0
 11
-18.334041755690464
 21
-20.050578865698355
 31
0.0
  0
LINE
  5
5B8
100
AcDbEntity
  8
0
  6
CONTINUOUS
 62
               7
100
AcDbLine
 10
-17.899999999999977
 20
-19.79998474121092
 30
0.0
 11
-17.899999999999977
 21
-18.199984747171385
 31
0.0
  0
LINE
  5
5B9
100
AcDbEntity
  8
0
  6
CONTINUOUS
 62
               7
100
AcDbLine
 10
-2.1000000000000227
 20
-19.79998474121092
 30
0.0
 11
-2.1000000000000227
 21
-18.199984747171385
 31
0.0
  0
LINE
  5
5BA
100
AcDbEntity
  8
0
  6
CONTINUOUS
 62
               7
100
AcDbLine
 10
-2.1000000000000227
 20
-18.199984741210926
 30
0.0
 11
-1.665958244309536
 21
-17.949390616723491
 31
0.0
  0
LINE
  5
5BB
100
AcDbEntity
  8
0
  6
CONTINUOUS
 62
               7
100
AcDbLine
 10
-2.1000000000000227
 20
-19.799984741210949
 30
0.0
 11
-1.665958244309536
 21
-20.050578865698355
 31
0.0
  0
LINE
  5
5BC
100
AcDbEntity
  8
0
  6
CONTINUOUS
 62
               7
100
AcDbLine
 10
-6.2788394724801719
 20
8.1397612209446493
 30
0.0
 11
-5.3517858515306784
 21
8.1397612209446493
 31
0.0
  0
LINE
  5
5BD
100
AcDbEntity
  8
0
  6
CONTINUOUS
 62
               7
100
AcDbLine
 10
-6.2788394689559937
 20
-27.139730703366524
 30
0.0
 11
-1.0
 21
-27.139730703366524
 31
0.0
  0
LINE
  5
5BE
100
AcDbEntity
  8
0
  6
CONTINUOUS
 62
               7
100
AcDbLine
 10
-14.648165527639776
 20
-27.139730703366524
 30
0.0
 11
-13.721160531044006
 21
-27.139730703366524
 31
0.0
  0
ENDBLK
  5
5BF
100
AcDbEntity
  8
0
100
AcDbBlockEnd
  0
BLOCK
  5
5C0
100
AcDbEntity
  8
0
100
AcDbBlockBegin
  2
F18T0-14
 70
               0
 10
0.0
 20
0.0
 30
0.0
  3
F18T0-14
  1

  0
LINE
  5
5C1
100
AcDbEntity
  8
0
  6
CONTINUOUS
 62
               7
100
AcDbLine
 10
30.50006103515625
 20
-3.9999847412109375
 30
0.0
 11
30.50006103515625
 21
-0.9999847412109375
 31
0.0
  0
LINE
  5
5C2
100
AcDbEntity
  8
0
  6
CONTINUOUS
 62
             200
100
AcDbLine
 10
-9.499969482421875
 20
-14.999984741210938
 30
0.0
 11
-16.499969482421875
 21
-14.999984741210938
 31
0.0
  0
LINE
  5
5C3
100
AcDbEntity
  8
0
  6
CONTINUOUS
 62
             200
100
AcDbLine
 10
-12.999984741210938
 20
-18.499984741210938
 30
0.0
 11
-12.999984741210938
 21
-11.499984741210938
 31
0.0
  0
LINE
  5
5C4
100
AcDbEntity
  8
0
  6
CONTINUOUS
 62
               2
100
AcDbLine
 10
70.831337562327803
 20
-9.9999847412109375
 30
0.0
 11
-19.74212646484375
 21
-9.9999847412109375
 31
0.0
  0
LINE
  5
5C5
100
AcDbEntity
  8
0
  6
CONTINUOUS
 62
               7
100
AcDbLine
 10
38.000045776367188
 20
-18.999984741210937
 30
0.0
 11
4.000030517578125
 21
-18.999984741210937
 31
0.0
  0
LINE
  5
5C6
100
AcDbEntity
  8
0
  6
CONTINUOUS
 62
               7
100
AcDbLine
 10
38.000045776367188
 20
-0.9999847412109375
 30
0.0
 11
4.000030517578125
 21
-0.9999847412109375
 31
0.0
  0
LINE
  5
5C7
100
AcDbEntity
  8
0
  6
CONTINUOUS
 62
               7
100
AcDbLine
 10
38.500045776367188
 20
-18.499984741210938
 30
0.0
 11
38.500045776367188
 21
-1.4999847412109375
 31
0.0
  0
LINE
  5
5C8
100
AcDbEntity
  8
0
  6
DASHED
 62
               4
100
AcDbLine
 10
22.000030517578125
 20
-18.999984741210937
 30
0.0
 11
22.000030517578125
 21
1.6000213623046875
 31
0.0
  0
LINE
  5
5C9
100
AcDbEntity
  8
0
  6
DASHED
 62
               4
100
AcDbLine
 10
-17.999984741210937
 20
-18.999984741210937
 30
0.0
 11
-17.999984741210937
 21
0.0000152587890625
 31
0.0
  0
LINE
  5
5CA
100
AcDbEntity
  8
0
  6
DASHED
 62
               4
100
AcDbLine
 10
-6.999969482421875
 20
-18.999984741210937
 30
0.0
 11
-17.999984741210937
 21
-18.999984741210937
 31
0.0
  0
LINE
  5
5CB
100
AcDbEntity
  8
0
  6
DASHED
 62
               4
100
AcDbLine
 10
22.000030517578125
 20
0.0000152587890625
 30
0.0
 11
4.000030517578125
 21
0.0000152587890625
 31
0.0
  0
LINE
  5
5CC
100
AcDbEntity
  8
0
  6
DASHED
 62
               4
100
AcDbLine
 10
22.000030517578125
 20
1.6000213623046875
 30
0.0
 11
-7.999969482421875
 21
1.6000213623046875
 31
0.0
  0
LINE
  5
5CD
100
AcDbEntity
  8
0
  6
DASHED
 62
               4
100
AcDbLine
 10
-7.999969482421875
 20
0.0000152587890625
 30
0.0
 11
-7.999969482421875
 21
1.6000213623046875
 31
0.0
  0
LINE
  5
5CE
100
AcDbEntity
  8
0
  6
CONTINUOUS
 62
             200
100
AcDbLine
 10
-12.999984741210938
 20
-0.4999847412109375
 30
0.0
 11
-12.999984741210938
 21
-7.4999847412109375
 31
0.0
  0
LINE
  5
5CF
100
AcDbEntity
  8
0
  6
CONTINUOUS
 62
             200
100
AcDbLine
 10
-9.499969482421875
 20
-3.9999847412109375
 30
0.0
 11
-16.499969482421875
 21
-3.9999847412109375
 31
0.0
  0
LINE
  5
5D0
100
AcDbEntity
  8
0
  6
CONTINUOUS
 62
               7
100
AcDbLine
 10
4.000030517578125
 20
-19.999984741210937
 30
0.0
 11
4.000030517578125
 21
0.0000152587890625
 31
0.0
  0
LINE
  5
5D1
100
AcDbEntity
  8
0
  6
CONTINUOUS
 62
               7
100
AcDbLine
 10
-6.999969482421875
 20
-19.999984741210937
 30
0.0
 11
-6.999969482421875
 21
0.0000152587890625
 31
0.0
  0
LINE
  5
5D2
100
AcDbEntity
  8
0
  6
CONTINUOUS
 62
               7
100
AcDbLine
 10
4.000030517578125
 20
-19.999984741210937
 30
0.0
 11
-6.999969482421875
 21
-19.999984741210937
 31
0.0
  0
LINE
  5
5D3
100
AcDbEntity
  8
0
  6
CONTINUOUS
 62
               7
100
AcDbLine
 10
4.000030517578125
 20
0.0000152587890625
 30
0.0
 11
-6.999969482421875
 21
0.0000152587890625
 31
0.0
  0
LINE
  5
5D4
100
AcDbEntity
  8
0
  6
CONTINUOUS
 62
               7
100
AcDbLine
 10
32.439374495848824
 20
-5.0606669511653308
 30
0.0
 11
34.560695697173287
 21
-2.9393473591662769
 31
0.0
  0
LINE
  5
5D5
100
AcDbEntity
  8
0
  6
CONTINUOUS
 62
               7
100
AcDbLine
 10
32.439353721299995
 20
-2.9394112920563202
 30
0.0
 11
34.560673313299048
 21
-5.0607324933807831
 31
0.0
  0
LINE
  5
5D6
100
AcDbEntity
  8
0
  6
CONTINUOUS
 62
               7
100
AcDbLine
 10
10.500015258789062
 20
-15.999984741210938
 30
0.0
 11
10.500015258789062
 21
-18.999984741210937
 31
0.0
  0
LINE
  5
5D7
100
AcDbEntity
  8
0
  6
CONTINUOUS
 62
               7
100
AcDbLine
 10
7.500030517578125
 20
-12.999984741210938
 30
0.0
 11
4.500030517578125
 21
-12.999984741210938
 31
0.0
  0
LINE
  5
5D8
100
AcDbEntity
  8
0
  6
CONTINUOUS
 62
               7
100
AcDbLine
 10
8.560596241820349
 20
-17.060738563014638
 30
0.0
 11
6.4392762921934263
 21
-14.939417719318044
 31
0.0
  0
LINE
  5
5D9
100
AcDbEntity
  8
0
  6
CONTINUOUS
 62
               7
100
AcDbLine
 10
8.5606506368430928
 20
-14.939321060022849
 30
0.0
 11
6.4393297931464986
 21
-17.060641009649771
 31
0.0
  0
LINE
  5
5DA
100
AcDbEntity
  8
0
  6
CONTINUOUS
 62
               7
100
AcDbLine
 10
36.500030517578125
 20
-3.9999847412109375
 30
0.0
 11
36.500030517578125
 21
-0.9999847412109375
 31
0.0
  0
LINE
  5
5DB
100
AcDbEntity
  8
0
  6
DASHED
 62
               4
100
AcDbLine
 10
-6.999969482421875
 20
0.0000152587890625
 30
0.0
 11
-17.999984741210937
 21
0.0000152587890625
 31
0.0
  0
LINE
  5
5DC
100
AcDbEntity
  8
0
  6
DASHED
 62
               4
100
AcDbLine
 10
-3.999969482421875
 20
-22.281509399414062
 30
0.0
 11
-3.999969482421875
 21
-19.999984741210937
 31
0.0
  0
LINE
  5
5DD
100
AcDbEntity
  8
0
  6
DASHED
 62
               4
100
AcDbLine
 10
4.000030517578125
 20
-22.281509399414062
 30
0.0
 11
4.000030517578125
 21
-19.999984741210937
 31
0.0
  0
ARC
  5
5DE
100
AcDbEntity
  8
0
  6
CONTINUOUS
 62
               7
100
AcDbCircle
 10
33.50006103515625
 20
-3.9999847412109375
 30
0.0
 40
3.0
100
AcDbArc
 50
179.99996402782091
 51
0.0000919801827092
  0
ARC
  5
5DF
100
AcDbEntity
  8
0
  6
CONTINUOUS
 62
               7
100
AcDbCircle
 10
38.000045776367188
 20
-18.499984741210938
 30
0.0
 40
0.5
100
AcDbArc
 50
270.00001798608872
 51
0.0
  0
ARC
  5
5E0
100
AcDbEntity
  8
0
  6
CONTINUOUS
 62
               7
100
AcDbCircle
 10
38.000045776367188
 20
-1.4999847412109375
 30
0.0
 40
0.5
100
AcDbArc
 50
359.99998633962088
 51
89.999982013910454
  0
CIRCLE
  5
5E1
100
AcDbEntity
  8
0
  6
DASHED
 62
               4
100
AcDbCircle
 10
-12.999969482421875
 20
-14.999969482421875
 30
0.0
 40
2.25
  0
CIRCLE
  5
5E2
100
AcDbEntity
  8
0
  6
DASHED
 62
               4
100
AcDbCircle
 10
-12.999969482421875
 20
-3.9999847412109375
 30
0.0
 40
2.25
  0
CIRCLE
  5
5E3
100
AcDbEntity
  8
0
  6
CONTINUOUS
 62
               7
100
AcDbCircle
 10
33.500045776367188
 20
-3.9999847412109375
 30
0.0
 40
2.7999992370605469
  0
ARC
  5
5E4
100
AcDbEntity
  8
0
  6
CONTINUOUS
 62
               7
100
AcDbCircle
 10
7.500030517578125
 20
-15.999984741210938
 30
0.0
 40
3.0
100
AcDbArc
 50
0.0
 51
89.999982013910454
  0
CIRCLE
  5
5E5
100
AcDbEntity
  8
0
  6
CONTINUOUS
 62
               7
100
AcDbCircle
 10
7.500030517578125
 20
-15.999984741210938
 30
0.0
 40
2.7999992370605469
  0
ARC
  5
5E6
100
AcDbEntity
  8
0
  6
DASHED
 62
               4
100
AcDbCircle
 10
-3.13330078125
 20
-22.281509399414062
 30
0.0
 40
0.8666666746139526
100
AcDbArc
 50
179.99996402782091
 51
236.20569999088247
  0
ARC
  5
5E7
100
AcDbEntity
  8
0
  6
DASHED
 62
               4
100
AcDbCircle
 10
0.000030517578125
 20
-17.5999755859375
 30
0.0
 40
6.5
100
AcDbArc
 50
236.20577193523982
 51
303.79429135769436
  0
ARC
  5
5E8
100
AcDbEntity
  8
0
  6
DASHED
 62
               4
100
AcDbCircle
 10
3.13336181640625
 20
-22.281509399414062
 30
0.0
 40
0.8666666746139526
100
AcDbArc
 50
303.79430501807269
 51
0.0000273207566801
  0
LINE
  5
5E9
100
AcDbEntity
  8
0
  6
DASHED
 62
               4
100
AcDbLine
 10
-3.999969482421875
 20
-20.999984741210937
 30
0.0
 11
4.000030517578125
 21
-20.999984741210937
 31
0.0
  0
LINE
  5
5EA
100
AcDbEntity
  8
0
  6
DASHED
 62
               4
100
AcDbLine
 10
0.5000536076204298
 20
-19.999980596889145
 30
0.0
 11
0.7680032906737324
 21
-20.99998264982969
 31
0.0
  0
LINE
  5
5EB
100
AcDbEntity
  8
0
  6
DASHED
 62
               4
100
AcDbLine
 10
-0.4999479917914869
 20
-20.999981723607561
 30
0.0
 11
-0.7678976748447894
 21
-19.999979670667017
 31
0.0
  0
LINE
  5
5EC
100
AcDbEntity
  8
0
  6
DASHED
 62
               4
100
AcDbLine
 10
2.500030517578125
 20
3.2000122070312784
 30
0.0
 11
-2.499969482421875
 21
3.2000122070312784
 31
0.0
  0
LINE
  5
5ED
100
AcDbEntity
  8
0
  6
DASHED
 62
               4
100
AcDbLine
 10
2.500030517578125
 20
2.1000213623047159
 30
0.0
 11
2.500030517578125
 21
3.2000122070312784
 31
0.0
  0
LINE
  5
5EE
100
AcDbEntity
  8
0
  6
DASHED
 62
               4
100
AcDbLine
 10
-2.499969482421875
 20
2.1000213623047159
 30
0.0
 11
-2.499969482421875
 21
3.2000122070312784
 31
0.0
  0
ARC
  5
5EF
100
AcDbEntity
  8
0
  6
DASHED
 62
               4
100
AcDbCircle
 10
-2.999969482421875
 20
2.1000213623046875
 30
0.0
 40
0.5
100
AcDbArc
 50
269.99996334457541
 51
0.0000179860890374
  0
ARC
  5
5F0
100
AcDbEntity
  8
0
  6
DASHED
 62
               4
100
AcDbCircle
 10
3.000030517578125
 20
2.1000213623046875
 30
0.0
 40
0.5
100
AcDbArc
 50
179.99996402782091
 51
269.99994604173139
  0
LINE
  5
5F1
100
AcDbEntity
  8
0
  6
CONTINUOUS
 62
               7
100
AcDbLine
 10
55.200053205761719
 20
-0.9999847412109375
 30
0.0
 11
38.000045776367188
 21
-0.9999847412109375
 31
0.0
  0
ARC
  5
5F2
100
AcDbEntity
  8
0
  6
CONTINUOUS
 62
               7
100
AcDbCircle
 10
40.000045776367188
 20
-15.299984753131863
 30
0.0
 40
1.5
100
AcDbArc
 50
359.99998633962088
 51
89.999999999999801
  0
ARC
  5
5F3
100
AcDbEntity
  8
0
  6
CONTINUOUS
 62
               7
100
AcDbCircle
 10
40.000045776367188
 20
-17.799984753131863
 30
0.0
 40
1.5
100
AcDbArc
 50
270.00001798608872
 51
359.99998633962088
  0
LINE
  5
5F4
100
AcDbEntity
  8
0
  6
CONTINUOUS
 62
               7
100
AcDbLine
 10
41.714672405761718
 20
-13.499984741210937
 30
0.0
 11
39.500053405761719
 21
-13.499984741210937
 31
0.0
  0
LINE
  5
5F5
100
AcDbEntity
  8
0
  6
CONTINUOUS
 62
               7
100
AcDbLine
 10
43.714672405761718
 20
-18.999984741210937
 30
0.0
 11
43.714672405761718
 21
-16.499984741210937
 31
0.0
  0
SPLINE
  5
5F6
100
AcDbEntity
  8
0
  6
CONTINUOUS
 62
               7
100
AcDbSpline
210
0.0
220
0.0
230
1.0
 70
               0
 71
               3
 72
               0
 73
               0
 74
              37
 44
0.000001
 12
-0.1535883647102109
 22
0.9881349170157096
 32
0.0
 13
-0.9599592804102283
 23
0.2801395722747442
 33
0.0
 11
43.714672405761718
 21
-16.499984741210937
 31
0.0
 11
43.692804992701099
 21
-16.36974488347651
 31
0.0
 11
43.667772279220593
 21
-16.240067385387157
 31
0.0
 11
43.63957499486672
 21
-16.111019575188394
 31
0.0
 11
43.608219436132543
 21
-15.982706935978335
 31
0.0
 11
43.582368468271916
 21
-15.886043695190525
 31
0.0
 11
43.554728051551692
 21
-15.789877874539965
 31
0.0
 11
43.5253215818055
 21
-15.694241445192036
 31
0.0
 11
43.494170698883011
 21
-15.59915748188935
 31
0.0
 11
43.453090385538488
 21
-15.481931377545457
 31
0.0
 11
43.409306464887194
 21
-15.365686920317856
 31
0.0
 11
43.362767580639662
 21
-15.250511306360339
 31
0.0
 11
43.313428861161356
 21
-15.136508239802968
 31
0.0
 11
43.267709594905263
 21
-15.037360220436117
 31
0.0
 11
43.219724982607055
 21
-14.939289134882731
 31
0.0
 11
43.169415517965327
 21
-14.842402431909342
 31
0.0
 11
43.116715835127081
 21
-14.746795896884834
 31
0.0
 11
43.070827440063979
 21
-14.668015966433474
 31
0.0
 11
43.023177547395136
 21
-14.590290169591732
 31
0.0
 11
42.973711029233392
 21
-14.513700519781564
 31
0.0
 11
42.922383211668432
 21
-14.43834432234334
 31
0.0
 11
42.865265437940174
 21
-14.359088492046451
 31
0.0
 11
42.805872456140179
 21
-14.281522605428018
 31
0.0
 11
42.74412760599445
 21
-14.205822793436655
 31
0.0
 11
42.679957442886234
 21
-14.132169215938042
 31
0.0
 11
42.618876623412952
 21
-14.066538958003632
 31
0.0
 11
42.555666623200594
 21
-14.002958026789567
 31
0.0
 11
42.490294421929043
 21
-13.941589291124535
 31
0.0
 11
42.422751206167163
 21
-13.882616764250415
 31
0.0
 11
42.354147413698755
 21
-13.827123251961028
 31
0.0
 11
42.283368114399174
 21
-13.774434047042007
 31
0.0
 11
42.210364110048758
 21
-13.724865501364391
 31
0.0
 11
42.135128248089018
 21
-13.678758459502539
 31
0.0
 11
42.034282177438918
 21
-13.624532687644184
 31
0.0
 11
41.930226384861115
 21
-13.576678844508574
 31
0.0
 11
41.823547634318707
 21
-13.5351791519359
 31
0.0
 11
41.714672405761718
 21
-13.499984741210937
 31
0.0
  0
SPLINE
  5
5F7
100
AcDbEntity
  8
0
  6
CONTINUOUS
 62
               7
100
AcDbSpline
210
0.0
220
0.0
230
1.0
 70
               0
 71
               3
 72
               0
 73
               0
 74
              41
 44
0.000001
 12
0.1127480865187747
 22
-0.9936236052884185
 32
0.0
 13
0.6499379612954508
 23
0.7599872673059156
 33
0.0
 11
41.405313405761717
 21
-3.4999847412109375
 31
0.0
 11
41.428169043976219
 21
-3.6835797500282967
 31
0.0
 11
41.454941194071829
 21
-3.8666534218533966
 31
0.0
 11
41.485525140866244
 21
-4.0491758045366666
 31
0.0
 11
41.519804312275056
 21
-4.2310415647656328
 31
0.0
 11
41.564044757887878
 21
-4.4406473652695997
 31
0.0
 11
41.613464864830682
 21
-4.6490916201550432
 31
0.0
 11
41.66843375506992
 21
-4.8561442322669999
 31
0.0
 11
41.729304067561372
 21
-5.0615427543023159
 31
0.0
 11
41.786293483393962
 21
-5.2352906912129082
 31
0.0
 11
41.848684313019717
 21
-5.4071632674045169
 31
0.0
 11
41.917304429024497
 21
-5.5766564908897722
 31
0.0
 11
41.992909870596606
 21
-5.7431639892295365
 31
0.0
 11
42.064992535389621
 21
-5.8846432650900198
 31
0.0
 11
42.144630118198961
 21
-6.0220048203863907
 31
0.0
 11
42.233570612326844
 21
-6.1539555956183003
 31
0.0
 11
42.332754389122954
 21
-6.2783250019153698
 31
0.0
 11
42.396328882355355
 21
-6.3468590335992126
 31
0.0
 11
42.464782713577961
 21
-6.4105308133431187
 31
0.0
 11
42.538221825882019
 21
-6.4671216923566757
 31
0.0
 11
42.617492498570584
 21
-6.5149826106625426
 31
0.0
 11
42.69625907613554
 21
-6.5499025706668528
 31
0.0
 11
42.778622621185477
 21
-6.5755004213556099
 31
0.0
 11
42.863717567227987
 21
-6.5921830545071263
 31
0.0
 11
42.950053405761707
 21
-6.5999847412109389
 31
0.0
 11
43.081552970876281
 21
-6.5956177240025768
 31
0.0
 11
43.211513041870056
 21
-6.573899777137572
 31
0.0
 11
43.338631754666935
 21
-6.5371894492528693
 31
0.0
 11
43.461423389231697
 21
-6.4879881233847385
 31
0.0
 11
43.576433263039767
 21
-6.430137554596091
 31
0.0
 11
43.686646087407716
 21
-6.36363826713609
 31
0.0
 11
43.791503451333845
 21
-6.2896712035976021
 31
0.0
 11
43.89131480173387
 21
-6.2090160365482205
 31
0.0
 11
43.984183491564067
 21
-6.1245103510751653
 31
0.0
 11
44.072518973723412
 21
-6.0352751795251827
 31
0.0
 11
44.156668204170884
 21
-5.9419687286381038
 31
0.0
 11
44.236922330908016
 21
-5.8453108996481831
 31
0.0
 11
44.302499742101304
 21
-5.7612522191330022
 31
0.0
 11
44.367170478561725
 21
-5.6764689672059925
 31
0.0
 11
44.432478922025382
 21
-5.5923017603040108
 31
0.0
 11
44.500053405761719
 21
-5.5099847412109355
 31
0.0
  0
LINE
  5
5F8
100
AcDbEntity
  8
0
  6
CONTINUOUS
 62
               7
100
AcDbLine
 10
41.405313405761717
 20
-0.9999847412109375
 30
0.0
 11
41.405313405761717
 21
-3.4999847412109375
 31
0.0
  0
LINE
  5
5F9
100
AcDbEntity
  8
0
  6
CONTINUOUS
 62
               7
100
AcDbLine
 10
44.003347805761706
 20
-18.999984741210937
 30
0.0
 11
40.90004579226175
 21
-18.999984741210937
 31
0.0
  0
LINE
  5
5FA
100
AcDbEntity
  8
0
  6
CONTINUOUS
 62
               7
100
AcDbLine
 10
44.500053405761719
 20
-18.999984741210937
 30
0.0
 11
44.500053405761719
 21
-13.721145241210941
 31
0.0
  0
ARC
  5
5FB
100
AcDbEntity
  8
0
  6
CONTINUOUS
 62
               7
100
AcDbCircle
 10
58.190576538265702
 20
-9.9999847412109375
 30
0.0
 40
14.187228732503996
100
AcDbArc
 50
164.79404619011402
 51
195.2059538098853
  0
LINE
  5
5FC
100
AcDbEntity
  8
0
  6
CONTINUOUS
 62
               7
100
AcDbLine
 10
41.500045776367131
 20
-15.299985110759732
 30
0.0
 11
41.500045776367131
 21
-17.799985110759732
 31
0.0
  0
LINE
  5
5FD
100
AcDbEntity
  8
0
  6
CONTINUOUS
 62
               7
100
AcDbLine
 10
44.500053405761719
 20
-6.2788242412109341
 30
0.0
 11
44.500053405761719
 21
-0.9999847412109375
 31
0.0
  0
LINE
  5
5FE
100
AcDbEntity
  8
0
  6
CONTINUOUS
 62
               7
100
AcDbLine
 10
55.200053205761719
 20
-18.999984741210937
 30
0.0
 11
55.200053205761719
 21
-0.9999847412109375
 31
0.0
  0
LINE
  5
5FF
100
AcDbEntity
  8
0
  6
CONTINUOUS
 62
               7
100
AcDbLine
 10
60.30005340576173
 20
-0.9999847412109446
 30
0.0
 11
60.30005340576173
 21
-18.999984741210937
 31
0.0
  0
LINE
  5
600
100
AcDbEntity
  8
0
  6
CONTINUOUS
 62
               7
100
AcDbLine
 10
61.500053405761719
 20
-0.9999847412109446
 30
0.0
 11
61.500053405761719
 21
-18.999984741210937
 31
0.0
  0
LINE
  5
601
100
AcDbEntity
  8
0
  6
CONTINUOUS
 62
               7
100
AcDbLine
 10
63.86496640576172
 20
-0.9999847412109446
 30
0.0
 11
63.86496640576172
 21
-18.999984741210937
 31
0.0
  0
LINE
  5
602
100
AcDbEntity
  8
0
  6
CONTINUOUS
 62
               7
100
AcDbLine
 10
64.300052405761733
 20
-1.7535751412109377
 30
0.0
 11
64.300052405761733
 21
-18.246394341210944
 31
0.0
  0
LINE
  5
603
100
AcDbEntity
  8
0
  6
CONTINUOUS
 62
               7
100
AcDbLine
 10
65.900053405761724
 20
-2.8999847412109503
 30
0.0
 11
65.900053405761724
 21
-17.099984741210946
 31
0.0
  0
LINE
  5
604
100
AcDbEntity
  8
0
  6
CONTINUOUS
 62
               7
100
AcDbLine
 10
66.400053405761724
 20
-15.999984741210938
 30
0.0
 11
66.000053405761719
 21
-15.999984741210938
 31
0.0
  0
LINE
  5
605
100
AcDbEntity
  8
0
  6
CONTINUOUS
 62
               7
100
AcDbLine
 10
55.600053005761708
 20
-0.9999847412109446
 30
0.0
 11
55.600053005761708
 21
-18.999984741210937
 31
0.0
  0
LINE
  5
606
100
AcDbEntity
  8
0
  6
CONTINUOUS
 62
               7
100
AcDbLine
 10
55.400053405761724
 20
-18.799984741210949
 30
0.0
 11
55.200053205761719
 21
-18.999984741210937
 31
0.0
  0
LINE
  5
607
100
AcDbEntity
  8
0
  6
CONTINUOUS
 62
               7
100
AcDbLine
 10
61.30005340576173
 20
-1.6999847412109474
 30
0.0
 11
60.400053405761724
 21
-1.6999847412109474
 31
0.0
  0
LINE
  5
608
100
AcDbEntity
  8
0
  6
CONTINUOUS
 62
               7
100
AcDbLine
 10
61.30005340576173
 20
-18.299984741210949
 30
0.0
 11
60.400053405761724
 21
-18.299984741210949
 31
0.0
  0
LINE
  5
609
100
AcDbEntity
  8
0
  6
CONTINUOUS
 62
               7
100
AcDbLine
 10
55.400053405761724
 20
-1.1999847412109474
 30
0.0
 11
55.200053205761719
 21
-0.9999847412109446
 31
0.0
  0
LINE
  5
60A
100
AcDbEntity
  8
0
  6
CONTINUOUS
 62
               7
100
AcDbLine
 10
60.30005340576173
 20
-0.9999847412109446
 30
0.0
 11
60.400053405761724
 21
-1.0999847412109389
 31
0.0
  0
LINE
  5
60B
100
AcDbEntity
  8
0
  6
CONTINUOUS
 62
               7
100
AcDbLine
 10
60.30005340576173
 20
-18.999984741210937
 30
0.0
 11
60.400053405761724
 21
-18.899984741210943
 31
0.0
  0
LINE
  5
60C
100
AcDbEntity
  8
0
  6
CONTINUOUS
 62
               7
100
AcDbLine
 10
55.400052805761732
 20
-1.1999847412109474
 30
0.0
 11
55.600053005761708
 21
-0.9999847412109446
 31
0.0
  0
LINE
  5
60D
100
AcDbEntity
  8
0
  6
CONTINUOUS
 62
               7
100
AcDbLine
 10
60.30005340576173
 20
-0.9999847412109446
 30
0.0
 11
55.600053005761708
 21
-0.9999847412109446
 31
0.0
  0
LINE
  5
60E
100
AcDbEntity
  8
0
  6
CONTINUOUS
 62
               7
100
AcDbLine
 10
60.30005340576173
 20
-18.999984741210937
 30
0.0
 11
55.600053005761708
 21
-18.999984741210937
 31
0.0
  0
LINE
  5
60F
100
AcDbEntity
  8
0
  6
CONTINUOUS
 62
               7
100
AcDbLine
 10
55.40005300576172
 20
-1.1999847412109474
 30
0.0
 11
55.40005300576172
 21
-18.799984741210949
 31
0.0
  0
LINE
  5
610
100
AcDbEntity
  8
0
  6
CONTINUOUS
 62
               7
100
AcDbLine
 10
55.400052805761732
 20
-18.799984741210949
 30
0.0
 11
55.600053005761708
 21
-18.999984741210937
 31
0.0
  0
LINE
  5
611
100
AcDbEntity
  8
0
  6
CONTINUOUS
 62
               7
100
AcDbLine
 10
63.864967405761718
 20
-0.9999847412109446
 30
0.0
 11
61.500053405761719
 21
-0.9999847412109446
 31
0.0
  0
LINE
  5
612
100
AcDbEntity
  8
0
  6
CONTINUOUS
 62
               7
100
AcDbLine
 10
61.30005340576173
 20
-18.799984741210949
 30
0.0
 11
61.500053405761719
 21
-18.999984741210937
 31
0.0
  0
LINE
  5
613
100
AcDbEntity
  8
0
  6
CONTINUOUS
 62
               7
100
AcDbLine
 10
63.864967405761718
 20
-18.999984741210937
 30
0.0
 11
61.500053405761719
 21
-18.999984741210937
 31
0.0
  0
LINE
  5
614
100
AcDbEntity
  8
0
  6
CONTINUOUS
 62
               7
100
AcDbLine
 10
61.30005340576173
 20
-18.799984741210949
 30
0.0
 11
61.30005340576173
 21
-1.1999847412109474
 31
0.0
  0
LINE
  5
615
100
AcDbEntity
  8
0
  6
CONTINUOUS
 62
               7
100
AcDbLine
 10
64.300052405761733
 20
-1.7535751412109377
 30
0.0
 11
64.900052405761727
 21
-2.0999855412109483
 31
0.0
  0
LINE
  5
616
100
AcDbEntity
  8
0
  6
CONTINUOUS
 62
               7
100
AcDbLine
 10
64.300052405761733
 20
-18.246394341210944
 30
0.0
 11
64.900052405761727
 21
-17.899983941210948
 31
0.0
  0
LINE
  5
617
100
AcDbEntity
  8
0
  6
CONTINUOUS
 62
               7
100
AcDbLine
 10
63.86496640576172
 20
-18.999984741210937
 30
0.0
 11
64.300052405761733
 21
-18.246394341210944
 31
0.0
  0
LINE
  5
618
100
AcDbEntity
  8
0
  6
CONTINUOUS
 62
               7
100
AcDbLine
 10
63.86496640576172
 20
-0.9999847412109446
 30
0.0
 11
64.300052405761733
 21
-1.7535751412109377
 31
0.0
  0
LINE
  5
619
100
AcDbEntity
  8
0
  6
CONTINUOUS
 62
               7
100
AcDbLine
 10
61.30005340576173
 20
-1.1999847412109474
 30
0.0
 11
61.500053405761719
 21
-0.9999847412109446
 31
0.0
  0
LINE
  5
61A
100
AcDbEntity
  8
0
  6
CONTINUOUS
 62
               7
100
AcDbLine
 10
64.900052405761727
 20
-2.0999847412109389
 30
0.0
 11
64.900052405761727
 21
-17.899983941210948
 31
0.0
  0
LINE
  5
61B
100
AcDbEntity
  8
0
  6
CONTINUOUS
 62
               7
100
AcDbLine
 10
60.400053405761724
 20
-18.899984741210943
 30
0.0
 11
60.400053405761724
 21
-1.0999847412109389
 31
0.0
  0
LINE
  5
61C
100
AcDbEntity
  8
0
  6
CONTINUOUS
 62
               7
100
AcDbLine
 10
65.900053405761724
 20
-2.8999847412109503
 30
0.0
 11
64.900052405761727
 21
-2.8999847412109503
 31
0.0
  0
LINE
  5
61D
100
AcDbEntity
  8
0
  6
CONTINUOUS
 62
               7
100
AcDbLine
 10
66.000053405761719
 20
-2.9999847412109446
 30
0.0
 11
66.000053405761719
 21
-16.999984741210937
 31
0.0
  0
LINE
  5
61E
100
AcDbEntity
  8
0
  6
CONTINUOUS
 62
               7
100
AcDbLine
 10
66.000053405761719
 20
-2.9999847412109446
 30
0.0
 11
65.900053405761724
 21
-2.8999847412109503
 31
0.0
  0
LINE
  5
61F
100
AcDbEntity
  8
0
  6
CONTINUOUS
 62
               7
100
AcDbLine
 10
66.000053405761719
 20
-16.999984741210937
 30
0.0
 11
65.900053405761724
 21
-17.099984741210946
 31
0.0
  0
LINE
  5
620
100
AcDbEntity
  8
0
  6
CONTINUOUS
 62
               7
100
AcDbLine
 10
65.900053405761724
 20
-17.099984741210946
 30
0.0
 11
64.900052405761727
 21
-17.099984741210946
 31
0.0
  0
LINE
  5
621
100
AcDbEntity
  8
0
  6
CONTINUOUS
 62
               7
100
AcDbLine
 10
66.400053405761724
 20
-3.9999847412109446
 30
0.0
 11
66.000053405761719
 21
-3.9999847412109446
 31
0.0
  0
LINE
  5
622
100
AcDbEntity
  8
0
  6
CONTINUOUS
 62
               7
100
AcDbLine
 10
67.800734405761716
 20
-1.5999847412109389
 30
0.0
 11
66.900053405761724
 21
-1.5999847412109389
 31
0.0
  0
LINE
  5
623
100
AcDbEntity
  8
0
  6
CONTINUOUS
 62
               7
100
AcDbLine
 10
66.900053405761724
 20
-18.399984741210943
 30
0.0
 11
66.900053405761724
 21
-1.5999847412109389
 31
0.0
  0
LINE
  5
624
100
AcDbEntity
  8
0
  6
CONTINUOUS
 62
               7
100
AcDbLine
 10
68.100053405761713
 20
-1.8999847412109503
 30
0.0
 11
68.100053405761713
 21
-18.099984741210946
 31
0.0
  0
LINE
  5
625
100
AcDbEntity
  8
0
  6
CONTINUOUS
 62
               7
100
AcDbLine
 10
67.800734405761716
 20
-18.399984741210943
 30
0.0
 11
66.900053405761724
 21
-18.399984741210943
 31
0.0
  0
ARC
  5
626
100
AcDbEntity
  8
0
  6
CONTINUOUS
 62
               7
100
AcDbCircle
 10
66.400053405761724
 20
-16.499984741210937
 30
0.0
 40
0.5
100
AcDbArc
 50
0.0
 51
90.0
  0
ARC
  5
627
100
AcDbEntity
  8
0
  6
CONTINUOUS
 62
               7
100
AcDbCircle
 10
67.80005340576173
 20
-1.8999847412109503
 30
0.0
 40
0.3
100
AcDbArc
 50
0.0
 51
90.0
  0
ARC
  5
628
100
AcDbEntity
  8
0
  6
CONTINUOUS
 62
               7
100
AcDbCircle
 10
66.400053405761724
 20
-3.4999847412109446
 30
0.0
 40
0.5
100
AcDbArc
 50
270.0
 51
0.0000000000008142
  0
ARC
  5
629
100
AcDbEntity
  8
0
  6
CONTINUOUS
 62
               7
100
AcDbCircle
 10
67.80005340576173
 20
-18.099984741210946
 30
0.0
 40
0.3
100
AcDbArc
 50
270.0
 51
0.0000000000008142
  0
LINE
  5
62A
100
AcDbEntity
  8
0
  6
CONTINUOUS
 62
               7
100
AcDbLine
 10
55.200053405761707
 20
-18.999984741210937
 30
0.0
 11
44.003347805761706
 21
-18.999984741210937
 31
0.0
  0
LINE
  5
62B
100
AcDbEntity
  8
0
  6
CONTINUOUS
 62
               7
100
AcDbLine
 10
40.000045776367188
 20
-19.299984753131863
 30
0.0
 11
39.500045776367188
 21
-19.299984753131863
 31
0.0
  0
LINE
  5
62C
100
AcDbEntity
  8
0
  6
CONTINUOUS
 62
               7
100
AcDbLine
 10
39.500053405761719
 20
-19.299984753131863
 30
0.0
 11
39.500053405761719
 21
-0.9999847412109375
 31
0.0
  0
LINE
  5
62D
100
AcDbEntity
  8
0
  6
CONTINUOUS
 62
               7
100
AcDbLine
 10
39.500053405761719
 20
-18.999984741210937
 30
0.0
 11
38.000045776367188
 21
-18.999984741210937
 31
0.0
  0
LINE
  5
62E
100
AcDbEntity
  8
0
  6
CONTINUOUS
 62
               7
100
AcDbLine
 10
40.000045776367188
 20
-13.7999854683876
 30
0.0
 11
39.500045776367188
 21
-13.7999854683876
 31
0.0
  0
LINE
  5
62F
100
AcDbEntity
  8
0
  6
CONTINUOUS
 62
               7
100
AcDbLine
 10
4.500030517578125
 20
-18.999984741210937
 30
0.0
 11
4.500030517578125
 21
-0.9999847412109375
 31
0.0
  0
ENDBLK
  5
630
100
AcDbEntity
  8
0
100
AcDbBlockEnd
  0
BLOCK
  5
631
100
AcDbEntity
  8
0
100
AcDbBlockBegin
  2
F18T0-15
 70
               0
 10
0.0
 20
0.0
 30
0.0
  3
F18T0-15
  1

  0
LINE
  5
632
100
AcDbEntity
  8
0
  6
CENTER
 62
             200
100
AcDbLine
 10
-12.999954223632813
 20
-55.900061035156256
 30
0.0
 11
-12.999954223632813
 21
-64.170061035156266
 31
0.0
  0
LINE
  5
633
100
AcDbEntity
  8
0
  6
CONTINUOUS
 62
               7
100
AcDbLine
 10
36.50006103515625
 20
16.999927520751953
 30
0.0
 11
4.5000457763671875
 21
16.999927520751953
 31
0.0
  0
LINE
  5
634
100
AcDbEntity
  8
0
  6
CONTINUOUS
 62
               7
100
AcDbLine
 10
-6.9999542236328125
 20
-36.500057220458984
 30
0.0
 11
-6.9999542236328125
 21
17.499942779541016
 31
0.0
  0
LINE
  5
635
100
AcDbEntity
  8
0
  6
CONTINUOUS
 62
               2
100
AcDbLine
 10
3.5000457763671875
 20
-19.00006103515625
 30
0.0
 11
-3.4999542236328125
 21
-19.00006103515625
 31
0.0
  0
LINE
  5
636
100
AcDbEntity
  8
0
  6
DASHED
 62
               4
100
AcDbLine
 10
22.000045776367188
 20
-61.000057220458984
 30
0.0
 11
-17.999954223632813
 21
-61.000057220458984
 31
0.0
  0
LINE
  5
637
100
AcDbEntity
  8
0
  6
DASHED
 62
               4
100
AcDbLine
 10
-17.999954223632813
 20
-61.000057220458984
 30
0.0
 11
-17.999954223632813
 21
-59.400051116943359
 31
0.0
  0
LINE
  5
638
100
AcDbEntity
  8
0
  6
DASHED
 62
               4
100
AcDbLine
 10
-7.9999542236328125
 20
-59.400051116943359
 30
0.0
 11
-17.999954223632813
 21
-59.400051116943359
 31
0.0
  0
LINE
  5
639
100
AcDbEntity
  8
0
  6
DASHED
 62
               4
100
AcDbLine
 10
22.000045776367188
 20
-61.000057220458984
 30
0.0
 11
22.000045776367188
 21
9.9999275207519531
 31
0.0
  0
LINE
  5
63A
100
AcDbEntity
  8
0
  6
DASHED
 62
               4
100
AcDbLine
 10
22.000045776367188
 20
9.9999275207519531
 30
0.0
 11
-7.9999542236328125
 21
9.9999275207519531
 31
0.0
  0
LINE
  5
63B
100
AcDbEntity
  8
0
  6
CONTINUOUS
 62
               2
100
AcDbLine
 10
0.0000457763671875
 20
3.4999275207519531
 30
0.0
 11
0.0000457763671875
 21
-3.50006103515625
 31
0.0
  0
LINE
  5
63C
100
AcDbEntity
  8
0
  6
CONTINUOUS
 62
               2
100
AcDbLine
 10
3.5000457763671875
 20
-0.00006103515625
 30
0.0
 11
-3.4999542236328125
 21
-0.00006103515625
 31
0.0
  0
LINE
  5
63D
100
AcDbEntity
  8
0
  6
DASHED
 62
               4
100
AcDbLine
 10
-7.9999542236328125
 20
9.9999275207519531
 30
0.0
 11
-7.9999542236328125
 21
-61.000057220458984
 31
0.0
  0
LINE
  5
63E
100
AcDbEntity
  8
0
  6
CONTINUOUS
 62
               2
100
AcDbLine
 10
0.0000457763671875
 20
-22.500057220458984
 30
0.0
 11
0.0000457763671875
 21
-15.50006103515625
 31
0.0
  0
LINE
  5
63F
100
AcDbEntity
  8
0
  6
CONTINUOUS
 62
               7
100
AcDbLine
 10
4.5000457763671875
 20
-46.500041961669922
 30
0.0
 11
4.5000457763671875
 21
26.999927520751953
 31
0.0
  0
LINE
  5
640
100
AcDbEntity
  8
0
  6
CONTINUOUS
 62
               7
100
AcDbLine
 10
36.500045776367188
 20
-36.000057220458984
 30
0.0
 11
36.500045776367188
 21
26.999942779541016
 31
0.0
  0
LINE
  5
641
100
AcDbEntity
  8
0
  6
CONTINUOUS
 62
               7
100
AcDbLine
 10
38.500045776367188
 20
-36.000041961669922
 30
0.0
 11
4.5000457763671875
 21
-36.000041961669922
 31
0.0
  0
LINE
  5
642
100
AcDbEntity
  8
0
  6
CONTINUOUS
 62
               7
100
AcDbLine
 10
38.500045776367188
 20
-46.500057220458984
 30
0.0
 11
38.500045776367188
 21
-36.000041961669922
 31
0.0
  0
LINE
  5
643
100
AcDbEntity
  8
0
  6
CONTINUOUS
 62
               7
100
AcDbLine
 10
38.000045776367188
 20
-47.000041961669922
 30
0.0
 11
5.0000457763671875
 21
-47.000041961669922
 31
0.0
  0
LINE
  5
644
100
AcDbEntity
  8
0
  6
CENTER
 62
               2
100
AcDbLine
 10
36.000045776367188
 20
37.199939727783203
 30
0.0
 11
33.300033569335938
 21
37.199939727783203
 31
0.0
  0
LINE
  5
645
100
AcDbEntity
  8
0
  6
CONTINUOUS
 62
               7
100
AcDbLine
 10
35.000045776367188
 20
35.249942779541016
 30
0.0
 11
35.000045776367188
 21
36.899936676025391
 31
0.0
  0
LINE
  5
646
100
AcDbEntity
  8
0
  6
CONTINUOUS
 62
               7
100
AcDbLine
 10
35.000045776367188
 20
35.249942779541016
 30
0.0
 11
34.000045776367188
 21
35.249942779541016
 31
0.0
  0
LINE
  5
647
100
AcDbEntity
  8
0
  6
CONTINUOUS
 62
               7
100
AcDbLine
 10
35.000045776367188
 20
39.149936676025391
 30
0.0
 11
34.000045776367188
 21
39.149936676025391
 31
0.0
  0
LINE
  5
648
100
AcDbEntity
  8
0
  6
CONTINUOUS
 62
               7
100
AcDbLine
 10
34.400039672851562
 20
36.899936676025391
 30
0.0
 11
34.400039672851562
 21
37.499927520751953
 31
0.0
  0
LINE
  5
649
100
AcDbEntity
  8
0
  6
CONTINUOUS
 62
               7
100
AcDbLine
 10
35.000045776367188
 20
36.899936676025391
 30
0.0
 11
34.400039672851562
 21
36.899936676025391
 31
0.0
  0
LINE
  5
64A
100
AcDbEntity
  8
0
  6
CONTINUOUS
 62
               7
100
AcDbLine
 10
35.000045776367188
 20
37.499942779541016
 30
0.0
 11
34.400039672851562
 21
37.499942779541016
 31
0.0
  0
LINE
  5
64B
100
AcDbEntity
  8
0
  6
CONTINUOUS
 62
               7
100
AcDbLine
 10
35.000045776367188
 20
37.499927520751953
 30
0.0
 11
35.000045776367188
 21
39.149936676025391
 31
0.0
  0
LINE
  5
64C
100
AcDbEntity
  8
0
  6
CONTINUOUS
 62
               7
100
AcDbLine
 10
34.000045776367188
 20
29.499942779541016
 30
0.0
 11
34.000045776367188
 21
40.499927520751953
 31
0.0
  0
LINE
  5
64D
100
AcDbEntity
  8
0
  6
CONTINUOUS
 62
               7
100
AcDbLine
 10
7.0000457763671875
 20
29.499942779541016
 30
0.0
 11
7.0000457763671875
 21
40.499927520751953
 31
0.0
  0
LINE
  5
64E
100
AcDbEntity
  8
0
  6
CONTINUOUS
 62
               7
100
AcDbLine
 10
36.500045776367188
 20
26.999942779541016
 30
0.0
 11
4.5000457763671875
 21
26.999942779541016
 31
0.0
  0
LINE
  5
64F
100
AcDbEntity
  8
0
  6
CONTINUOUS
 62
               7
100
AcDbLine
 10
36.700042724609375
 20
-47.000041961669922
 30
0.0
 11
36.700042724609375
 21
-44.500041961669922
 31
0.0
  0
LINE
  5
650
100
AcDbEntity
  8
0
  6
CONTINUOUS
 62
               7
100
AcDbLine
 10
30.300048828125
 20
-47.000041961669922
 30
0.0
 11
30.300048828125
 21
-44.500041961669922
 31
0.0
  0
LINE
  5
651
100
AcDbEntity
  8
0
  6
CONTINUOUS
 62
               7
100
AcDbLine
 10
36.700042724609375
 20
-44.500041961669922
 30
0.0
 11
30.300048828125
 21
-44.500041961669922
 31
0.0
  0
LINE
  5
652
100
AcDbEntity
  8
0
  6
CONTINUOUS
 62
               7
100
AcDbLine
 10
34.750045776367188
 20
-46.500041961669922
 30
0.0
 11
32.250045776367188
 21
-46.500041961669922
 31
0.0
  0
LINE
  5
653
100
AcDbEntity
  8
0
  6
CONTINUOUS
 62
               7
100
AcDbLine
 10
36.250045776367188
 20
-45.000041961669922
 30
0.0
 11
36.250045776367188
 21
-44.500041961669922
 31
0.0
  0
LINE
  5
654
100
AcDbEntity
  8
0
  6
CONTINUOUS
 62
               7
100
AcDbLine
 10
30.750045776367188
 20
-45.000041961669922
 30
0.0
 11
30.750045776367188
 21
-44.500041961669922
 31
0.0
  0
LINE
  5
655
100
AcDbEntity
  8
0
  6
CONTINUOUS
 62
               7
100
AcDbLine
 10
8.0000457763671875
 20
30.999927520751953
 30
0.0
 11
7.0000457763671875
 21
30.999927520751953
 31
0.0
  0
LINE
  5
656
100
AcDbEntity
  8
0
  6
CONTINUOUS
 62
               7
100
AcDbLine
 10
8.0000457763671875
 20
29.499942779541016
 30
0.0
 11
8.0000457763671875
 21
30.999927520751953
 31
0.0
  0
LINE
  5
657
100
AcDbEntity
  8
0
  6
CONTINUOUS
 62
               7
100
AcDbLine
 10
29.700042724609375
 20
30.999927520751953
 30
0.0
 11
10.500045776367187
 21
30.999927520751953
 31
0.0
  0
LINE
  5
658
100
AcDbEntity
  8
0
  6
CONTINUOUS
 62
               7
100
AcDbLine
 10
10.500045776367187
 20
29.499942779541016
 30
0.0
 11
10.500045776367187
 21
30.999927520751953
 31
0.0
  0
LINE
  5
659
100
AcDbEntity
  8
0
  6
CONTINUOUS
 62
               7
100
AcDbLine
 10
29.700042724609375
 20
29.499942779541016
 30
0.0
 11
29.700042724609375
 21
30.999927520751953
 31
0.0
  0
LINE
  5
65A
100
AcDbEntity
  8
0
  6
CONTINUOUS
 62
               7
100
AcDbLine
 10
32.700042724609375
 20
29.499942779541016
 30
0.0
 11
32.700042724609375
 21
30.999927520751953
 31
0.0
  0
LINE
  5
65B
100
AcDbEntity
  8
0
  6
CONTINUOUS
 62
               7
100
AcDbLine
 10
34.000045776367188
 20
30.999927520751953
 30
0.0
 11
32.700042724609375
 21
30.999927520751953
 31
0.0
  0
CIRCLE
  5
65C
100
AcDbEntity
  8
0
  6
CONTINUOUS
 62
               7
100
AcDbCircle
 10
0.0000457763671875
 20
-0.00006103515625
 30
0.0
 40
2.25
  0
CIRCLE
  5
65D
100
AcDbEntity
  8
0
  6
CONTINUOUS
 62
               7
100
AcDbCircle
 10
0.0000457763671875
 20
-19.00006103515625
 30
0.0
 40
2.25
  0
ARC
  5
65E
100
AcDbEntity
  8
0
  6
CONTINUOUS
 62
               7
100
AcDbCircle
 10
5.0000457763671875
 20
-46.500041961669922
 30
0.0
 40
0.5
100
AcDbArc
 50
179.99998133066492
 51
270.00007262760209
  0
ARC
  5
65F
100
AcDbEntity
  8
0
  6
CONTINUOUS
 62
               7
100
AcDbCircle
 10
38.000045776367188
 20
-46.500041961669922
 30
0.0
 40
0.5
100
AcDbArc
 50
270.00007262760209
 51
0.0000409811350201
  0
ARC
  5
660
100
AcDbEntity
  8
0
  6
CONTINUOUS
 62
               7
100
AcDbCircle
 10
7.5000152587890625
 20
30.000003814697266
 30
0.0
 40
2.5000734329223633
100
AcDbArc
 50
220.54037790397877
 51
348.46195609548801
  0
ARC
  5
661
100
AcDbEntity
  8
0
  6
CONTINUOUS
 62
               7
100
AcDbCircle
 10
32.250045776367188
 20
-45.000041961669922
 30
0.0
 40
1.5
100
AcDbArc
 50
179.99998133066492
 51
270.00001798608872
  0
ARC
  5
662
100
AcDbEntity
  8
0
  6
CONTINUOUS
 62
               7
100
AcDbCircle
 10
34.750045776367188
 20
-45.000041961669922
 30
0.0
 40
1.5
100
AcDbArc
 50
270.00001798608872
 51
0.0
  0
LINE
  5
663
100
AcDbEntity
  8
0
  6
CONTINUOUS
 62
               7
100
AcDbLine
 10
34.500045776367188
 20
29.499942779541016
 30
0.0
 11
6.5000457763671875
 21
29.499942779541016
 31
0.0
  0
LINE
  5
664
100
AcDbEntity
  8
0
  6
CONTINUOUS
 62
               7
100
AcDbLine
 10
36.500054392137599
 20
26.999949275257734
 30
0.0
 11
34.500054463116157
 21
29.499949186534536
 31
0.0
  0
LINE
  5
665
100
AcDbEntity
  8
0
  6
CONTINUOUS
 62
               7
100
AcDbLine
 10
4.5000415275370642
 20
26.999950317830098
 30
0.0
 11
6.5000456268479638
 21
29.499955441968723
 31
0.0
  0
LINE
  5
666
100
AcDbEntity
  8
0
  6
CONTINUOUS
 62
               7
100
AcDbLine
 10
-6.9999542236328125
 20
17.499942779541016
 30
0.0
 11
4.0000457763671875
 21
17.499942779541016
 31
0.0
  0
LINE
  5
667
100
AcDbEntity
  8
0
  6
CONTINUOUS
 62
               7
100
AcDbLine
 10
-6.9999542236328125
 20
-36.500057220458984
 30
0.0
 11
4.0000457763671875
 21
-36.500057220458984
 31
0.0
  0
LINE
  5
668
100
AcDbEntity
  8
0
  6
CONTINUOUS
 62
               7
100
AcDbLine
 10
4.0000457763671875
 20
-36.500057220458984
 30
0.0
 11
4.0000457763671875
 21
17.499942779541016
 31
0.0
  0
LINE
  5
669
100
AcDbEntity
  8
0
  6
CONTINUOUS
 62
               4
100
AcDbLine
 10
18.100045776367182
 20
73.499927520751953
 30
0.0
 11
31.67504577636717
 21
73.499927520751953
 31
0.0
  0
LINE
  5
66A
100
AcDbEntity
  8
0
  6
CONTINUOUS
 62
               4
100
AcDbLine
 10
34.000045776367188
 20
40.499927520751953
 30
0.0
 11
34.000045776367188
 21
64.499927520751953
 31
0.0
  0
LINE
  5
66B
100
AcDbEntity
  8
0
  6
CONTINUOUS
 62
               4
100
AcDbLine
 10
7.0000457763671875
 20
40.499927520751953
 30
0.0
 11
7.0000457763671875
 21
64.499927520751953
 31
0.0
  0
LINE
  5
66C
100
AcDbEntity
  8
0
  6
CONTINUOUS
 62
               4
100
AcDbLine
 10
7.0000457763671875
 20
72.999927520751953
 30
0.0
 11
7.0000457763671875
 21
64.499927520751953
 31
0.0
  0
LINE
  5
66D
100
AcDbEntity
  8
0
  6
CONTINUOUS
 62
               4
100
AcDbLine
 10
27.000045776367188
 20
66.899927520751959
 30
0.0
 11
27.000045776367188
 21
65.94992752075197
 31
0.0
  0
LINE
  5
66E
100
AcDbEntity
  8
0
  6
CONTINUOUS
 62
               4
100
AcDbLine
 10
14.100045776367182
 20
66.899927520751959
 30
0.0
 11
14.100045776367182
 21
65.94992752075197
 31
0.0
  0
LINE
  5
66F
100
AcDbEntity
  8
0
  6
CONTINUOUS
 62
               4
100
AcDbLine
 10
29.100045776367182
 20
66.899927520751959
 30
0.0
 11
27.000045776367188
 21
66.899927520751959
 31
0.0
  0
LINE
  5
670
100
AcDbEntity
  8
0
  6
CONTINUOUS
 62
               4
100
AcDbLine
 10
14.100045776367182
 20
66.899927520751959
 30
0.0
 11
12.000045776367188
 21
66.899927520751959
 31
0.0
  0
LINE
  5
671
100
AcDbEntity
  8
0
  6
CONTINUOUS
 62
               4
100
AcDbLine
 10
34.000045776367188
 20
68.67992752075196
 30
0.0
 11
34.000045776367188
 21
64.499927520751953
 31
0.0
  0
LINE
  5
672
100
AcDbEntity
  8
0
  6
CONTINUOUS
 62
               4
100
AcDbLine
 10
32.130045776367183
 20
73.204927520751966
 30
0.0
 11
33.870045776367192
 21
69.289927520751945
 31
0.0
  0
ARC
  5
673
100
AcDbEntity
  8
0
  6
CONTINUOUS
 62
               4
100
AcDbCircle
 10
31.674066614931235
 20
73.000027458198218
 30
0.0
 40
0.4999010215015999
100
AcDbArc
 50
24.197376208904771
 51
89.887774076864815
  0
ARC
  5
674
100
AcDbEntity
  8
0
  6
CONTINUOUS
 62
               4
100
AcDbCircle
 10
32.502066171727762
 20
68.679538424681255
 30
0.0
 40
1.4979796551727449
100
AcDbArc
 50
0.0148824203654679
 51
24.046309772710686
  0
LINE
  5
675
100
AcDbEntity
  8
0
  6
CONTINUOUS
 62
               4
100
AcDbLine
 10
29.100045776367182
 20
66.899927520751959
 30
0.0
 11
29.100045776367182
 21
65.94992752075197
 31
0.0
  0
LINE
  5
676
100
AcDbEntity
  8
0
  6
CONTINUOUS
 62
               4
100
AcDbLine
 10
12.000045776367188
 20
66.899927520751959
 30
0.0
 11
12.000045776367188
 21
65.94992752075197
 31
0.0
  0
LINE
  5
677
100
AcDbEntity
  8
0
  6
CONTINUOUS
 62
               4
100
AcDbLine
 10
14.100045776367182
 20
65.94992752075197
 30
0.0
 11
12.000045776367188
 21
65.94992752075197
 31
0.0
  0
LINE
  5
678
100
AcDbEntity
  8
0
  6
CONTINUOUS
 62
               4
100
AcDbLine
 10
29.100045776367182
 20
65.94992752075197
 30
0.0
 11
27.000045776367188
 21
65.94992752075197
 31
0.0
  0
LINE
  5
679
100
AcDbEntity
  8
0
  6
CONTINUOUS
 62
               4
100
AcDbLine
 10
9.5000457763671875
 20
77.999927520751953
 30
0.0
 11
9.5000457763671875
 21
73.499927520751953
 31
0.0
  0
LINE
  5
67A
100
AcDbEntity
  8
0
  6
CONTINUOUS
 62
               4
100
AcDbLine
 10
9.5000457763671875
 20
73.499927520751953
 30
0.0
 11
7.5000457763671875
 21
73.499927520751953
 31
0.0
  0
ARC
  5
67B
100
AcDbEntity
  8
0
  6
CONTINUOUS
 62
               4
100
AcDbCircle
 10
7.5000457763671875
 20
72.999927520751953
 30
0.0
 40
0.5
100
AcDbArc
 50
89.999999999999815
 51
179.99999999999963
  0
LINE
  5
67C
100
AcDbEntity
  8
0
  6
CONTINUOUS
 62
               4
100
AcDbLine
 10
21.750045776367187
 20
64.999927520751953
 30
0.0
 11
21.750045776367187
 21
64.499927520751953
 31
0.0
  0
LINE
  5
67D
100
AcDbEntity
  8
0
  6
CONTINUOUS
 62
               4
100
AcDbLine
 10
19.250045776367188
 20
64.999927520751953
 30
0.0
 11
19.250045776367188
 21
64.499927520751953
 31
0.0
  0
LINE
  5
67E
100
AcDbEntity
  8
0
  6
CONTINUOUS
 62
               4
100
AcDbLine
 10
19.250045776367188
 20
64.999927520751953
 30
0.0
 11
21.750045776367187
 21
64.999927520751953
 31
0.0
  0
LINE
  5
67F
100
AcDbEntity
  8
0
  6
CONTINUOUS
 62
             200
100
AcDbLine
 10
16.815040119464896
 20
89.96439233583078
 30
0.0
 11
9.8850299659457903
 21
85.963340431315373
 31
0.0
  0
LINE
  5
680
100
AcDbEntity
  8
0
  6
CONTINUOUS
 62
             200
100
AcDbLine
 10
16.815064667839209
 20
91.119033330686761
 30
0.0
 11
9.885035576275726
 21
87.117984766905465
 31
0.0
  0
LINE
  5
681
100
AcDbEntity
  8
0
  6
CONTINUOUS
 62
               4
100
AcDbLine
 10
11.385049438476557
 20
84.499927520751953
 30
0.0
 11
11.385049438476557
 21
86.829349517822266
 31
0.0
  0
LINE
  5
682
100
AcDbEntity
  8
0
  6
CONTINUOUS
 62
               4
100
AcDbLine
 10
12.815057373046869
 20
84.499927520751953
 30
0.0
 11
12.815057373046869
 21
87.654956817626953
 31
0.0
  0
LINE
  5
683
100
AcDbEntity
  8
0
  6
CONTINUOUS
 62
               4
100
AcDbLine
 10
11.700051879882807
 20
97.499927520751953
 30
0.0
 11
12.500054931640619
 21
97.499927520751953
 31
0.0
  0
LINE
  5
684
100
AcDbEntity
  8
0
  6
CONTINUOUS
 62
               4
100
AcDbLine
 10
11.700051879882807
 20
92.499927520751953
 30
0.0
 11
11.700051879882807
 21
97.499912261962891
 31
0.0
  0
LINE
  5
685
100
AcDbEntity
  8
0
  6
CONTINUOUS
 62
               4
100
AcDbLine
 10
12.500054931640619
 20
92.499927520751953
 30
0.0
 11
12.500054931640619
 21
97.499927520751953
 31
0.0
  0
LINE
  5
686
100
AcDbEntity
  8
0
  6
CONTINUOUS
 62
               4
100
AcDbLine
 10
11.385049438476557
 20
92.499927520751953
 30
0.0
 11
12.815057373046869
 21
92.499927520751953
 31
0.0
  0
LINE
  5
687
100
AcDbEntity
  8
0
  6
CONTINUOUS
 62
               4
100
AcDbLine
 10
11.385049438476557
 20
87.984043121337891
 30
0.0
 11
11.385049438476557
 21
92.499927520751953
 31
0.0
  0
LINE
  5
688
100
AcDbEntity
  8
0
  6
CONTINUOUS
 62
               4
100
AcDbLine
 10
12.815057373046869
 20
88.809665679931641
 30
0.0
 11
12.815057373046869
 21
92.499927520751953
 31
0.0
  0
LINE
  5
689
100
AcDbEntity
  8
0
  6
CONTINUOUS
 62
               7
100
AcDbLine
 10
7.0000457763671875
 20
40.499927520751953
 30
0.0
 11
34.000045776367188
 21
40.499927520751953
 31
0.0
  0
LINE
  5
68A
100
AcDbEntity
  8
0
  6
CONTINUOUS
 62
               4
100
AcDbLine
 10
15.315057373046869
 20
90.253040313720703
 30
0.0
 11
15.315057373046869
 21
92.499927520751953
 31
0.0
  0
LINE
  5
68B
100
AcDbEntity
  8
0
  6
CONTINUOUS
 62
               4
100
AcDbLine
 10
13.885049438476557
 20
89.427417755126953
 30
0.0
 11
13.885049438476557
 21
92.499927520751953
 31
0.0
  0
LINE
  5
68C
100
AcDbEntity
  8
0
  6
CONTINUOUS
 62
               4
100
AcDbLine
 10
15.315057373046869
 20
92.499927520751953
 30
0.0
 11
13.885049438476557
 21
92.499927520751953
 31
0.0
  0
LINE
  5
68D
100
AcDbEntity
  8
0
  6
CONTINUOUS
 62
               4
100
AcDbLine
 10
13.885049438476557
 20
84.499927520751953
 30
0.0
 11
13.885049438476557
 21
88.272724151611328
 31
0.0
  0
LINE
  5
68E
100
AcDbEntity
  8
0
  6
CONTINUOUS
 62
               4
100
AcDbLine
 10
15.315057373046869
 20
84.499927520751953
 30
0.0
 11
15.315057373046869
 21
89.098331451416016
 31
0.0
  0
LINE
  5
68F
100
AcDbEntity
  8
0
  6
CONTINUOUS
 62
               4
100
AcDbLine
 10
15.000054931640619
 20
92.499927520751953
 30
0.0
 11
15.000054931640619
 21
97.499927520751953
 31
0.0
  0
LINE
  5
690
100
AcDbEntity
  8
0
  6
CONTINUOUS
 62
               4
100
AcDbLine
 10
14.200051879882807
 20
92.499927520751953
 30
0.0
 11
14.200051879882807
 21
97.499927520751953
 31
0.0
  0
LINE
  5
691
100
AcDbEntity
  8
0
  6
CONTINUOUS
 62
               4
100
AcDbLine
 10
15.000054931640619
 20
97.499927520751953
 30
0.0
 11
14.200051879882807
 21
97.499927520751953
 31
0.0
  0
LINE
  5
692
100
AcDbEntity
  8
0
  6
CONTINUOUS
 62
               4
100
AcDbLine
 10
20.150048828124994
 20
82.999927520751953
 30
0.0
 11
20.150048828124994
 21
84.499927520751953
 31
0.0
  0
LINE
  5
693
100
AcDbEntity
  8
0
  6
CONTINUOUS
 62
               4
100
AcDbLine
 10
18.15009028797121
 20
83.499886463653638
 30
0.0
 11
18.727442103735115
 21
84.499895168608418
 31
0.0
  0
LINE
  5
694
100
AcDbEntity
  8
0
  6
CONTINUOUS
 62
               4
100
AcDbLine
 10
18.150048828124994
 20
77.999927520751953
 30
0.0
 11
18.150048828124994
 21
84.499927520751953
 31
0.0
  0
LINE
  5
695
100
AcDbEntity
  8
0
  6
CONTINUOUS
 62
               4
100
AcDbLine
 10
19.150047078603706
 20
73.998378262511324
 30
0.0
 11
19.650046187480797
 21
77.556066346200168
 31
0.0
  0
LINE
  5
696
100
AcDbEntity
  8
0
  6
CONTINUOUS
 62
               4
100
AcDbLine
 10
19.650048828124994
 20
77.556079864501953
 30
0.0
 11
19.650048828124994
 21
82.999927520751953
 31
0.0
  0
LINE
  5
697
100
AcDbEntity
  8
0
  6
CONTINUOUS
 62
               4
100
AcDbLine
 10
9.1500335693359318
 20
83.499927520751953
 30
0.0
 11
9.6500335693359318
 21
83.499927520751953
 31
0.0
  0
LINE
  5
698
100
AcDbEntity
  8
0
  6
CONTINUOUS
 62
               4
100
AcDbLine
 10
9.1500488281249943
 20
83.499927520751953
 30
0.0
 11
9.1500488281249943
 21
84.499927520751953
 31
0.0
  0
LINE
  5
699
100
AcDbEntity
  8
0
  6
CONTINUOUS
 62
               4
100
AcDbLine
 10
9.6500488281249943
 20
77.999927520751953
 30
0.0
 11
9.6500488281249943
 21
83.499927520751953
 31
0.0
  0
LINE
  5
69A
100
AcDbEntity
  8
0
  6
CONTINUOUS
 62
               4
100
AcDbLine
 10
18.150045985774881
 20
73.998401672622094
 30
0.0
 11
18.100025432468641
 21
74.048422225928334
 31
0.0
  0
LINE
  5
69B
100
AcDbEntity
  8
0
  6
CONTINUOUS
 62
               4
100
AcDbLine
 10
19.650041198730463
 20
82.999927520751953
 30
0.0
 11
20.150041198730463
 21
82.999927520751953
 31
0.0
  0
LINE
  5
69C
100
AcDbEntity
  8
0
  6
CONTINUOUS
 62
               4
100
AcDbLine
 10
18.150048828124994
 20
75.498386383056641
 30
0.0
 11
18.150048828124994
 21
77.999927520751953
 31
0.0
  0
LINE
  5
69D
100
AcDbEntity
  8
0
  6
CONTINUOUS
 62
               4
100
AcDbLine
 10
18.150048828124994
 20
73.998386383056641
 30
0.0
 11
19.150041198730463
 21
73.998386383056641
 31
0.0
  0
LINE
  5
69E
100
AcDbEntity
  8
0
  6
CONTINUOUS
 62
               4
100
AcDbLine
 10
18.100045776367182
 20
75.498386383056641
 30
0.0
 11
18.150048828124994
 21
75.498386383056641
 31
0.0
  0
LINE
  5
69F
100
AcDbEntity
  8
0
  6
CONTINUOUS
 62
               4
100
AcDbLine
 10
18.727395629882807
 20
84.499927520751953
 30
0.0
 11
20.150041198730463
 21
84.499927520751953
 31
0.0
  0
LINE
  5
6A0
100
AcDbEntity
  8
0
  6
CONTINUOUS
 62
               4
100
AcDbLine
 10
9.5000457763671875
 20
77.999927520751953
 30
0.0
 11
18.150048828124994
 21
77.999927520751953
 31
0.0
  0
LINE
  5
6A1
100
AcDbEntity
  8
0
  6
CONTINUOUS
 62
               4
100
AcDbLine
 10
9.1500335693359318
 20
84.499927520751953
 30
0.0
 11
18.150033569335932
 21
84.499927520751953
 31
0.0
  0
LINE
  5
6A2
100
AcDbEntity
  8
0
  6
CONTINUOUS
 62
               4
100
AcDbLine
 10
18.100045776367182
 20
77.999927520751953
 30
0.0
 11
18.100045776367182
 21
73.499927520751953
 31
0.0
  0
LINE
  5
6A3
100
AcDbEntity
  8
0
  6
CONTINUOUS
 62
               4
100
AcDbLine
 10
7.0000457763671875
 20
64.499927520751953
 30
0.0
 11
34.000038146972656
 21
64.499927520751953
 31
0.0
  0
LINE
  5
6A4
100
AcDbEntity
  8
0
  6
CONTINUOUS
 62
               4
100
AcDbLine
 10
7.0000457763671875
 20
57.499927520751953
 30
0.0
 11
8.6000595092773437
 21
57.499927520751953
 31
0.0
  0
LINE
  5
6A5
100
AcDbEntity
  8
0
  6
CONTINUOUS
 62
               4
100
AcDbLine
 10
7.7000595092773665
 20
57.499927520751953
 30
0.0
 11
7.7000595092773665
 21
64.499927520751953
 31
0.0
  0
LINE
  5
6A6
100
AcDbEntity
  8
0
  6
CONTINUOUS
 62
               4
100
AcDbLine
 10
8.6000595092773437
 20
57.499927520751953
 30
0.0
 11
8.6000595092773437
 21
64.499927520751953
 31
0.0
  0
LINE
  5
6A7
100
AcDbEntity
  8
0
  6
CONTINUOUS
 62
               4
100
AcDbLine
 10
19.000051889467585
 20
61.499927559091091
 30
0.0
 11
19.000051946976299
 21
43.499927559091091
 31
0.0
  0
LINE
  5
6A8
100
AcDbEntity
  8
0
  6
CONTINUOUS
 62
               4
100
AcDbLine
 10
12.000051889467585
 20
61.499927536726602
 30
0.0
 11
12.000051946976299
 21
43.499927536726602
 31
0.0
  0
LINE
  5
6A9
100
AcDbEntity
  8
0
  6
CONTINUOUS
 62
               4
100
AcDbLine
 10
21.000051889467585
 20
61.499927565480945
 30
0.0
 11
12.000051889467585
 21
61.499927536726602
 31
0.0
  0
LINE
  5
6AA
100
AcDbEntity
  8
0
  6
CONTINUOUS
 62
               4
100
AcDbLine
 10
21.000051946976299
 20
43.499927565480945
 30
0.0
 11
12.000051946976299
 21
43.499927536726602
 31
0.0
  0
LINE
  5
6AB
100
AcDbEntity
  8
0
  6
CONTINUOUS
 62
               7
100
AcDbLine
 10
41.500063897717155
 20
16.799945831298828
 30
0.0
 11
36.500045776367188
 21
16.799945831298828
 31
0.0
  0
LINE
  5
6AC
100
AcDbEntity
  8
0
  6
CONTINUOUS
 62
               7
100
AcDbLine
 10
43.500035565301005
 20
-33.800030120981319
 30
0.0
 11
41.500018774993805
 21
-35.80003915621819
 31
0.0
  0
LINE
  5
6AD
100
AcDbEntity
  8
0
  6
CONTINUOUS
 62
               7
100
AcDbLine
 10
43.500045776367188
 20
-26.500041961669922
 30
0.0
 11
36.500045776367188
 21
-26.500041961669922
 31
0.0
  0
LINE
  5
6AE
100
AcDbEntity
  8
0
  6
CONTINUOUS
 62
               7
100
AcDbLine
 10
43.500045776367188
 20
-32.500041961669922
 30
0.0
 11
36.500045776367188
 21
-32.500041961669922
 31
0.0
  0
LINE
  5
6AF
100
AcDbEntity
  8
0
  6
CONTINUOUS
 62
               7
100
AcDbLine
 10
36.500063006566961
 20
-29.150053408520762
 30
0.0
 11
37.200070339168633
 21
-28.962487007482196
 31
0.0
  0
LINE
  5
6B0
100
AcDbEntity
  8
0
  6
CONTINUOUS
 62
               7
100
AcDbLine
 10
37.200048262204291
 20
-29.850039807691246
 30
0.0
 11
36.500055625266214
 21
-30.037602216269988
 31
0.0
  0
LINE
  5
6B1
100
AcDbEntity
  8
0
  6
CONTINUOUS
 62
               7
100
AcDbLine
 10
37.200042724609375
 20
-32.450038909912109
 30
0.0
 11
36.500045776367188
 21
-32.450038909912109
 31
0.0
  0
LINE
  5
6B2
100
AcDbEntity
  8
0
  6
CONTINUOUS
 62
               7
100
AcDbLine
 10
37.200042724609375
 20
-26.550045013427734
 30
0.0
 11
36.500045776367188
 21
-26.550045013427734
 31
0.0
  0
LINE
  5
6B3
100
AcDbEntity
  8
0
  6
CONTINUOUS
 62
               7
100
AcDbLine
 10
41.500045776367187
 20
-19.000045776367188
 30
0.0
 11
43.500045776367188
 21
-19.000045776367188
 31
0.0
  0
LINE
  5
6B4
100
AcDbEntity
  8
0
  6
CONTINUOUS
 62
               7
100
AcDbLine
 10
41.500045776367187
 20
-0.0000457763671875
 30
0.0
 11
43.500045776367188
 21
-0.0000457763671875
 31
0.0
  0
LINE
  5
6B5
100
AcDbEntity
  8
0
  6
CONTINUOUS
 62
               7
100
AcDbLine
 10
41.500045776367187
 20
13.749927520751953
 30
0.0
 11
41.500045776367187
 21
11.249927520751953
 31
0.0
  0
LINE
  5
6B6
100
AcDbEntity
  8
0
  6
CONTINUOUS
 62
               7
100
AcDbLine
 10
41.500045776367187
 20
-19.000045776367188
 30
0.0
 11
41.500045776367187
 21
-0.0000457763671875
 31
0.0
  0
LINE
  5
6B7
100
AcDbEntity
  8
0
  6
CONTINUOUS
 62
               7
100
AcDbLine
 10
43.500045776367188
 20
-0.0000457763671875
 30
0.0
 11
43.500045776367188
 21
14.799945831298828
 31
0.0
  0
ARC
  5
6B8
100
AcDbEntity
  8
0
  6
CONTINUOUS
 62
               7
100
AcDbCircle
 10
48.00006103515625
 20
-10.500045776367187
 30
0.0
 40
0.5
100
AcDbArc
 50
0.0
 51
89.999999999999815
  0
ARC
  5
6B9
100
AcDbEntity
  8
0
  6
CONTINUOUS
 62
               7
100
AcDbCircle
 10
48.00006103515625
 20
-8.5000457763671875
 30
0.0
 40
0.5
100
AcDbArc
 50
270.00000000000023
 51
0.0
  0
LINE
  5
6BA
100
AcDbEntity
  8
0
  6
CONTINUOUS
 62
               7
100
AcDbLine
 10
48.50006103515625
 20
-8.5000457763671875
 30
0.0
 11
48.50006103515625
 21
8.4999427795410156
 31
0.0
  0
LINE
  5
6BB
100
AcDbEntity
  8
0
  6
CONTINUOUS
 62
               7
100
AcDbLine
 10
41.500045776367187
 20
-10.000045776367187
 30
0.0
 11
48.00006103515625
 21
-10.000045776367187
 31
0.0
  0
LINE
  5
6BC
100
AcDbEntity
  8
0
  6
CONTINUOUS
 62
               7
100
AcDbLine
 10
41.500045776367187
 20
-9.0000457763671875
 30
0.0
 11
48.00006103515625
 21
-9.0000457763671875
 31
0.0
  0
LINE
  5
6BD
100
AcDbEntity
  8
0
  6
CONTINUOUS
 62
               7
100
AcDbLine
 10
37.200042724609375
 20
-32.450038909912109
 30
0.0
 11
37.200042724609375
 21
-26.550045013427734
 31
0.0
  0
ARC
  5
6BE
100
AcDbEntity
  8
0
  6
CONTINUOUS
 62
               7
100
AcDbCircle
 10
37.700027465820313
 20
-28.250057220458984
 30
0.0
 40
1.5
100
AcDbArc
 50
0.0000179860890374
 51
89.999982013910454
  0
ARC
  5
6BF
100
AcDbEntity
  8
0
  6
CONTINUOUS
 62
               7
100
AcDbCircle
 10
37.700027465820313
 20
-30.750041961669922
 30
0.0
 40
1.5
100
AcDbArc
 50
269.99990870306209
 51
359.99994604173207
  0
LINE
  5
6C0
100
AcDbEntity
  8
0
  6
CONTINUOUS
 62
               7
100
AcDbLine
 10
37.700042724609375
 20
-32.250026702880859
 30
0.0
 11
37.200042724609375
 21
-32.250026702880859
 31
0.0
  0
LINE
  5
6C1
100
AcDbEntity
  8
0
  6
CONTINUOUS
 62
               7
100
AcDbLine
 10
37.700042724609375
 20
-26.750041961669922
 30
0.0
 11
37.200042724609375
 21
-26.750041961669922
 31
0.0
  0
LINE
  5
6C2
100
AcDbEntity
  8
0
  6
CONTINUOUS
 62
               7
100
AcDbLine
 10
39.200027465820312
 20
-28.250041961669922
 30
0.0
 11
39.200027465820312
 21
-30.750041961669922
 31
0.0
  0
ARC
  5
6C3
100
AcDbEntity
  8
0
  6
CONTINUOUS
 62
               7
100
AcDbCircle
 10
40.000045776367188
 20
11.249927520751953
 30
0.0
 40
1.5
100
AcDbArc
 50
270.00001798608872
 51
0.0
  0
ARC
  5
6C4
100
AcDbEntity
  8
0
  6
CONTINUOUS
 62
               7
100
AcDbCircle
 10
40.000045776367188
 20
13.749927520751953
 30
0.0
 40
1.5
100
AcDbArc
 50
0.0
 51
89.999982013910454
  0
ARC
  5
6C5
100
AcDbEntity
  8
0
  6
CONTINUOUS
 62
               7
100
AcDbCircle
 10
48.00006103515625
 20
-27.500041961669922
 30
0.0
 40
0.5
100
AcDbArc
 50
269.99996334457541
 51
0.0
  0
ARC
  5
6C6
100
AcDbEntity
  8
0
  6
CONTINUOUS
 62
               7
100
AcDbCircle
 10
48.00006103515625
 20
8.4999427795410156
 30
0.0
 40
0.5
100
AcDbArc
 50
0.0
 51
89.999982013910454
  0
LINE
  5
6C7
100
AcDbEntity
  8
0
  6
CONTINUOUS
 62
               7
100
AcDbLine
 10
40.000045776367188
 20
15.249927520751953
 30
0.0
 11
39.500045776367188
 21
15.249927520751953
 31
0.0
  0
LINE
  5
6C8
100
AcDbEntity
  8
0
  6
CONTINUOUS
 62
               7
100
AcDbLine
 10
40.000045776367188
 20
9.7499275207519531
 30
0.0
 11
39.500045776367188
 21
9.7499275207519531
 31
0.0
  0
LINE
  5
6C9
100
AcDbEntity
  8
0
  6
CONTINUOUS
 62
               7
100
AcDbLine
 10
39.500045776367188
 20
9.4999427795410156
 30
0.0
 11
39.500045776367188
 21
16.799945831298828
 31
0.0
  0
LINE
  5
6CA
100
AcDbEntity
  8
0
  6
CONTINUOUS
 62
               7
100
AcDbLine
 10
43.500045776367188
 20
9.4999427795410156
 30
0.0
 11
39.500045776367188
 21
9.4999427795410156
 31
0.0
  0
LINE
  5
6CB
100
AcDbEntity
  8
0
  6
CONTINUOUS
 62
               7
100
AcDbLine
 10
43.500049330769798
 20
14.799972101739513
 30
0.0
 11
41.500063897717155
 21
16.799969504445471
 31
0.0
  0
LINE
  5
6CC
100
AcDbEntity
  8
0
  6
CONTINUOUS
 62
               7
100
AcDbLine
 10
43.500045776367188
 20
-33.800029754638672
 30
0.0
 11
43.500045776367188
 21
-19.000045776367188
 31
0.0
  0
LINE
  5
6CD
100
AcDbEntity
  8
0
  6
CONTINUOUS
 62
               2
100
AcDbLine
 10
50.285690307617188
 20
-0.0000457763671875
 30
0.0
 11
39.597457885742188
 21
-0.0000457763671875
 31
0.0
  0
LINE
  5
6CE
100
AcDbEntity
  8
0
  6
CONTINUOUS
 62
               2
100
AcDbLine
 10
50.285690307617188
 20
-19.000045776367188
 30
0.0
 11
39.597457885742188
 21
-19.000045776367188
 31
0.0
  0
LINE
  5
6CF
100
AcDbEntity
  8
0
  6
CONTINUOUS
 62
               7
100
AcDbLine
 10
48.00006103515625
 20
-28.000041961669922
 30
0.0
 11
43.500045776367188
 21
-28.000041961669922
 31
0.0
  0
LINE
  5
6D0
100
AcDbEntity
  8
0
  6
CONTINUOUS
 62
               7
100
AcDbLine
 10
48.00006103515625
 20
8.9999427795410156
 30
0.0
 11
43.500045776367188
 21
8.9999427795410156
 31
0.0
  0
LINE
  5
6D1
100
AcDbEntity
  8
0
  6
CONTINUOUS
 62
               7
100
AcDbLine
 10
48.50006103515625
 20
-27.500041961669922
 30
0.0
 11
48.50006103515625
 21
-10.500045776367187
 31
0.0
  0
LINE
  5
6D2
100
AcDbEntity
  8
0
  6
CONTINUOUS
 62
               7
100
AcDbLine
 10
41.500028176609788
 20
-35.800029754638672
 30
0.0
 11
36.500045776367188
 21
-35.800029754638672
 31
0.0
  0
LINE
  5
6D3
100
AcDbEntity
  8
0
  6
CONTINUOUS
 62
               7
100
AcDbLine
 10
4.5000437756729941
 20
16.999938964843672
 30
0.0
 11
4.0000437756729958
 21
16.999938927094725
 31
0.0
  0
LINE
  5
6D4
100
AcDbEntity
  8
0
  6
CONTINUOUS
 62
               7
100
AcDbLine
 10
4.5000477770613809
 20
-36.000061035156172
 30
0.0
 11
4.0000477770613827
 21
-36.000061072905119
 31
0.0
  0
ENDBLK
  5
6D5
100
AcDbEntity
  8
0
100
AcDbBlockEnd
  0
ENDSEC
  0
SECTION
  2
ENTITIES
  0
INSERT
  5
6D6
100
AcDbEntity
  8
0
  6
ByBlock
100
AcDbBlockReference
  2
F18T0-10
 10
-212.23750305175781
 20
-54.4920654296875
 30
0.0
  0
INSERT
  5
6D7
100
AcDbEntity
  8
0
  6
ByBlock
100
AcDbBlockReference
  2
F18T0-1
 10
-212.2374267578125
 20
138.68840026855469
 30
0.0
 50
0.000219707565762
  0
INSERT
  5
6D8
100
AcDbEntity
  8
0
  6
ByBlock
100
AcDbBlockReference
  2
F18T0-8
 10
-344.8974609375
 20
138.68844604492188
 30
0.0
  0
INSERT
  5
6D9
100
AcDbEntity
  8
0
  6
ByBlock
100
AcDbBlockReference
  2
F18T0-9
 10
-61.237533569335937
 20
138.6884765625
 30
0.0
 50
359.99973772113526
  0
INSERT
  5
6DA
100
AcDbEntity
  8
0
  6
ByBlock
100
AcDbBlockReference
  2
F18T0-11
 10
170.43905639648437
 20
148.6883544921875
 30
0.0
 50
359.99999037153975
  0
INSERT
  5
6DB
100
AcDbEntity
  8
0
  6
ByBlock
100
AcDbBlockReference
  2
F18T0-12
 10
56.339187622070312
 20
148.68841552734375
 30
0.0
 50
0.0001835758030761
  0
INSERT
  5
6DC
100
AcDbEntity
  8
0
  6
ByBlock
100
AcDbBlockReference
  2
F18T0-13
 10
321.0390625
 20
148.68841552734375
 30
0.0
 50
359.99982514715646
  0
INSERT
  5
6DD
100
AcDbEntity
  8
0
  6
ByBlock
100
AcDbBlockReference
  2
F18T0-14
 10
170.43914794921875
 20
45.229080200195313
 30
0.0
 50
0.0000129520624514
  0
INSERT
  5
6DE
100
AcDbEntity
  8
0
  6
ByBlock
100
AcDbBlockReference
  2
F18T0-15
 10
180.43911743164062
 20
-128.69355773925781
 30
0.0
 50
0.0000901301895172
  0
INSERT
  5
6DF
100
AcDbEntity
  8
0
  6
ByBlock
100
AcDbBlockReference
  2
F18T0-2
 10
60.939178466796875
 20
-128.69357299804687
 30
0.0
 50
0.0005012115162207
  0
INSERT
  5
6E0
100
AcDbEntity
  8
0
  6
ByBlock
100
AcDbBlockReference
  2
F18T0-3
 10
321.0390625
 20
-128.693603515625
 30
0.0
 50
359.99982514715646
  0
INSERT
  5
6E1
100
AcDbEntity
  8
0
  6
ByBlock
100
AcDbBlockReference
  2
F18T0-4
 10
180.43916320800781
 20
-234.55523681640625
 30
0.0
 50
0.0000540781988067
  0
INSERT
  5
6E2
100
AcDbEntity
  8
0
  6
ByBlock
100
AcDbBlockReference
  2
F18T0-5
 10
-207.08010864257812
 20
-189.75076293945312
 30
0.0
 50
0.0003497094208193
  0
INSERT
  5
6E3
100
AcDbEntity
  8
0
  6
ByBlock
100
AcDbBlockReference
  2
F18T0-6
 10
-305.580078125
 20
-189.750732421875
 30
0.0
 50
0.0001942809364141
  0
INSERT
  5
6E4
100
AcDbEntity
  8
0
  6
ByBlock
100
AcDbBlockReference
  2
F18T0-7
 10
-98.580245971679688
 20
-189.75091552734375
 30
0.0
 50
359.99903832257075
  0
LINE
  5
6E5
100
AcDbEntity
  8
0
  6
CONTINUOUS
 62
               7
100
AcDbLine
 10
399.80000000000001
 20
276.25
 30
0.0
 11
399.80000000000001
 21
-276.75
 31
0.0
  0
LINE
  5
6E6
100
AcDbEntity
  8
0
  6
CONTINUOUS
 62
               7
100
AcDbLine
 10
-399.25
 20
276.25
 30
0.0
 11
-399.25
 21
-276.75
 31
0.0
  0
LINE
  5
6E7
100
AcDbEntity
  8
0
  6
CONTINUOUS
 62
               7
100
AcDbLine
 10
-399.25
 20
276.25
 30
0.0
 11
399.80000000000001
 21
276.25
 31
0.0
  0
LINE
  5
6E8
100
AcDbEntity
  8
0
  6
CONTINUOUS
 62
               7
100
AcDbLine
 10
-399.25
 20
-276.75
 30
0.0
 11
399.80000000000001
 21
-276.75
 31
0.0
  0
LINE
  5
6E9
100
AcDbEntity
  8
0
  6
CONTINUOUS
 62
               7
100
AcDbLine
 10
239.80000000000001
 20
-251.75
 30
0.0
 11
399.80000000000001
 21
-251.75
 31
0.0
  0
LINE
  5
6EA
100
AcDbEntity
  8
0
  6
CONTINUOUS
 62
               7
100
AcDbLine
 10
239.80000000000001
 20
251.25
 30
0.0
 11
399.80000000000001
 21
251.25
 31
0.0
  0
LINE
  5
6EB
100
AcDbEntity
  8
0
  6
CONTINUOUS
 62
               7
100
AcDbLine
 10
-399.25
 20
251.25
 30
0.0
 11
-239.25
 21
251.25
 31
0.0
  0
LINE
  5
6EC
100
AcDbEntity
  8
0
  6
CONTINUOUS
 62
               7
100
AcDbLine
 10
239.80000000000001
 20
-251.75
 30
0.0
 11
239.80000000000001
 21
-276.75
 31
0.0
  0
LINE
  5
6ED
100
AcDbEntity
  8
0
  6
CONTINUOUS
 62
               7
100
AcDbLine
 10
239.80000000000001
 20
251.25
 30
0.0
 11
239.80000000000001
 21
276.25
 31
0.0
  0
LINE
  5
6EE
100
AcDbEntity
  8
0
  6
CONTINUOUS
 62
               7
100
AcDbLine
 10
-239.25
 20
276.25
 30
0.0
 11
-239.25
 21
251.25
 31
0.0
  0
LINE
  5
6EF
100
AcDbEntity
  8
0
  6
CONTINUOUS
 62
               7
100
AcDbLine
 10
-399.25
 20
-92.409999999999997
 30
0.0
 11
0.27
 21
-92.409999999999997
 31
0.0
  0
LINE
  5
6F0
100
AcDbEntity
  8
0
  6
CONTINUOUS
 62
               7
100
AcDbLine
 10
0.27
 20
-0.25
 30
0.0
 11
399.80000000000001
 21
-0.25
 31
0.0
  0
LINE
  5
6F1
100
AcDbEntity
  8
0
  6
CONTINUOUS
 62
               7
100
AcDbLine
 10
0.27
 20
276.25
 30
0.0
 11
0.27
 21
-276.75
 31
0.0
  0
MTEXT
  5
6F2
100
AcDbEntity
  8
0
  6
CONTINUOUS
 62
               7
100
AcDbMText
 10
245.88456269755227
 20
-264.25
 30
0.0
 40
12.5
 41
0.0
 71
               4
 72
               1
  1
\W1.121;\A1;KOGANEI CORP.
  0
MTEXT
  5
6F3
100
AcDbEntity
  8
0
  6
CONTINUOUS
 62
               7
100
AcDbMText
 10
290.20888922989093
 20
263.75
 30
0.0
 40
9.0
 41
0.0
 71
               4
 72
               1
  1
\W1.273;\A1;Ver.1.0
  0
MTEXT
  5
6F4
100
AcDbEntity
  8
0
  6
CONTINUOUS
 62
               7
100
AcDbMText
 10
-382.13947423898645
 20
231.25
 30
0.0
 40
9.0
 41
0.0
 71
               4
 72
               1
  1
\W1.074;\A1;MODEL:F18T0-A2-PS
  0
MTEXT
  5
6F5
100
AcDbEntity
  8
0
  6
CONTINUOUS
 62
               7
100
AcDbMText
 10
-362.57090654372104
 20
263.75
 30
0.0
 40
9.0
 41
0.0
 71
               4
 72
               1
  1
\W1.119;\A1;F18 SERIES
  0
MTEXT
  5
6F6
100
AcDbEntity
  8
0
  6
CONTINUOUS
 62
               7
100
AcDbMText
 10
17.385519657497955
 20
256.25
 30
0.0
 40
9.0
 41
0.0
 71
               4
 72
               1
  1
\W1.074;\A1;MODEL:F18T0-F3-PS
  0
MTEXT
  5
6F7
100
AcDbEntity
  8
0
  6
CONTINUOUS
 62
               7
100
AcDbMText
 10
17.385519657497955
 20
-20.25
 30
0.0
 40
9.0
 41
0.0
 71
               4
 72
               1
  1
\W1.074;\A1;MODEL:F18T0-F4-PS
  0
MTEXT
  5
6F8
100
AcDbEntity
  8
0
  6
CONTINUOUS
 62
               7
100
AcDbMText
 10
-382.13000067858695
 20
-112.41665649414062
 30
0.0
 40
9.0
 41
0.0
 71
               4
 72
               1
  1
\W1.080;\A1;MODEL:-PL
  0
LINE
  5
6F9
100
AcDbEntity
  8
0
  6
CONTINUOUS
 62
               7
100
AcDbLine
 10
-305.580078125
 20
-189.74956541057995
 30
0.0
 11
-278.580078125
 21
-189.74956541057995
 31
0.0
  0
LINE
  5
6FA
100
AcDbEntity
  8
0
  6
CONTINUOUS
 62
               7
100
AcDbLine
 10
-125.57999998113627
 20
-189.74956541057995
 30
0.0
 11
-98.579999977556298
 21
-189.74956541057995
 31
0.0
  0
LINE
  5
6FB
100
AcDbEntity
  8
0
  6
CONTINUOUS
 62
               7
100
AcDbLine
 10
-207.08010864988734
 20
-189.74956541057995
 30
0.0
 11
-197.08010864970109
 21
-189.74956541057995
 31
0.0
  0
ENDSEC
  0
SECTION
  2
OBJECTS
  0
DICTIONARY
  5
19
100
AcDbDictionary
  3
ACAD_GROUP
350
1A
  3
ACAD_MLINESTYLE
350
1B
  0
DICTIONARY
  5
1A
102
{ACAD_REACTORS
330
19
102
}
100
AcDbDictionary
  0
DICTIONARY
  5
1B
102
{ACAD_REACTORS
330
19
102
}
100
AcDbDictionary
  3
STANDARD
350
1C
  0
MLINESTYLE
  5
1C
102
{ACAD_REACTORS
330
1B
102
}
100
AcDbMlineStyle
  2
Standard
 70
               0
  3

 62
               0
 51
90.0
 52
90.0
 71
               2
 49
0.5
 62
             256
  6
ByLayer
 49
-0.5
 62
             256
  6
ByLayer
  0
ENDSEC
  0
EOF
