  0
SECTION
  2
HEADER
  9
$ACADVER
  1
AC1012
  9
$DWGCODEPAGE
  3
dos932
  9
$INSBASE
 10
0.0
 20
0.0
 30
0.0
  9
$EXTMIN
 10
-194.25
 20
-133.5
 30
0.0
  9
$EXTMAX
 10
196.2723600854633
 20
132.60000610351562
 30
0.0
  9
$LIMMIN
 10
-194.25
 20
-133.5
  9
$LIMMAX
 10
196.2723600854633
 20
132.60000610351562
  9
$ORTHOMODE
 70
               0
  9
$REGENMODE
 70
               1
  9
$FILLMODE
 70
               1
  9
$QTEXTMODE
 70
               0
  9
$MIRRTEXT
 70
               1
  9
$DRAGMODE
 70
               2
  9
$LTSCALE
 40
1.0
  9
$OSMODE
 70
               0
  9
$ATTMODE
 70
               1
  9
$TEXTSIZE
 40
3.2000000476837158
  9
$TRACEWID
 40
0.05
  9
$TEXTSTYLE
  7
MX_NOTE_STANDARD
  9
$CLAYER
  8
0
  9
$CELTYPE
  6
CONTINUOUS
  9
$CECOLOR
 62
             256
  9
$CELTSCALE
 40
1.0
  9
$DELOBJ
 70
               1
  9
$DISPSILH
 70
               0
  9
$DIMSCALE
 40
1.0
  9
$DIMASZ
 40
2.5
  9
$DIMEXO
 40
1.5
  9
$DIMDLI
 40
3.75
  9
$DIMRND
 40
0.0
  9
$DIMDLE
 40
0.0
  9
$DIMEXE
 40
1.5
  9
$DIMTP
 40
0.0
  9
$DIMTM
 40
0.0
  9
$DIMTXT
 40
3.2000000476837158
  9
$DIMCEN
 40
2.5
  9
$DIMTSZ
 40
0.0
  9
$DIMTOL
 70
               0
  9
$DIMLIM
 70
               0
  9
$DIMTIH
 70
               0
  9
$DIMTOH
 70
               0
  9
$DIMSE1
 70
               0
  9
$DIMSE2
 70
               0
  9
$DIMTAD
 70
               1
  9
$DIMZIN
 70
               8
  9
$DIMBLK
  1

  9
$DIMASO
 70
               1
  9
$DIMSHO
 70
               1
  9
$DIMPOST
  1

  9
$DIMAPOST
  1

  9
$DIMALT
 70
               0
  9
$DIMALTD
 70
               4
  9
$DIMALTF
 40
0.03937007874016
  9
$DIMLFAC
 40
1.0
  9
$DIMTOFL
 70
               1
  9
$DIMTVP
 40
0.0
  9
$DIMTIX
 70
               0
  9
$DIMSOXD
 70
               0
  9
$DIMSAH
 70
               0
  9
$DIMBLK1
  1

  9
$DIMBLK2
  1

  9
$DIMSTYLE
  2
MXDIMSTYLE
  9
$DIMCLRD
 70
               0
  9
$DIMCLRE
 70
               0
  9
$DIMCLRT
 70
               0
  9
$DIMTFAC
 40
1.0
  9
$DIMGAP
 40
1.0
  9
$DIMJUST
 70
               0
  9
$DIMSD1
 70
               0
  9
$DIMSD2
 70
               0
  9
$DIMTOLJ
 70
               1
  9
$DIMTZIN
 70
               0
  9
$DIMALTZ
 70
               0
  9
$DIMALTTZ
 70
               0
  9
$DIMFIT
 70
               3
  9
$DIMUPT
 70
               1
  9
$DIMUNIT
 70
               2
  9
$DIMDEC
 70
               4
  9
$DIMTDEC
 70
               4
  9
$DIMALTU
 70
               2
  9
$DIMALTTD
 70
               4
  9
$DIMTXSTY
  7
MX_NOTE_STANDARD
  9
$DIMAUNIT
 70
               0
  9
$LUNITS
 70
               2
  9
$LUPREC
 70
               4
  9
$SKETCHINC
 40
0.1
  9
$FILLETRAD
 40
0.0
  9
$AUNITS
 70
               0
  9
$AUPREC
 70
               0
  9
$MENU
  1
acad
  9
$ELEVATION
 40
0.0
  9
$PELEVATION
 40
0.0
  9
$THICKNESS
 40
0.0
  9
$LIMCHECK
 70
               0
  9
$BLIPMODE
 70
               1
  9
$CHAMFERA
 40
0.0
  9
$CHAMFERB
 40
0.0
  9
$CHAMFERC
 40
0.0
  9
$CHAMFERD
 40
0.0
  9
$SKPOLY
 70
               0
  9
$TDCREATE
 40
2453378.356550926
  9
$TDUPDATE
 40
2453378.356550926
  9
$TDINDWG
 40
0.0000000000
  9
$TDUSRTIMER
 40
0.0000000000
  9
$USRTIMER
 70
               1
  9
$ANGBASE
 50
0.0
  9
$ANGDIR
 70
               0
  9
$PDMODE
 70
               0
  9
$PDSIZE
 40
0.0
  9
$PLINEWID
 40
0.0
  9
$COORDS
 70
               1
  9
$SPLFRAME
 70
               0
  9
$SPLINETYPE
 70
               6
  9
$SPLINESEGS
 70
               8
  9
$ATTDIA
 70
               0
  9
$ATTREQ
 70
               1
  9
$HANDLING
 70
               1
  9
$HANDSEED
  5
150
  9
$SURFTAB1
 70
               6
  9
$SURFTAB2
 70
               6
  9
$SURFTYPE
 70
               6
  9
$SURFU
 70
               6
  9
$SURFV
 70
               6
  9
$UCSNAME
  2

  9
$UCSORG
 10
0.0
 20
0.0
 30
0.0
  9
$UCSXDIR
 10
1.0
 20
0.0
 30
0.0
  9
$UCSYDIR
 10
0.0
 20
1.0
 30
0.0
  9
$PUCSNAME
  2

  9
$PUCSORG
 10
0.0
 20
0.0
 30
0.0
  9
$PUCSXDIR
 10
1.0
 20
0.0
 30
0.0
  9
$PUCSYDIR
 10
0.0
 20
1.0
 30
0.0
  9
$USERI1
 70
               0
  9
$USERI2
 70
               0
  9
$USERI3
 70
               0
  9
$USERI4
 70
               0
  9
$USERI5
 70
               0
  9
$USERR1
 40
0.0
  9
$USERR2
 40
0.0
  9
$USERR3
 40
0.0
  9
$USERR4
 40
0.0
  9
$USERR5
 40
0.0
  9
$WORLDVIEW
 70
               1
  9
$SHADEDGE
 70
               3
  9
$SHADEDIF
 70
              70
  9
$TILEMODE
 70
               1
  9
$MAXACTVP
 70
              16
  9
$PINSBASE
 10
0.0
 20
0.0
 30
0.0
  9
$PLIMCHECK
 70
               0
  9
$PEXTMIN
 10
1.0000000000000000E+20
 20
1.0000000000000000E+20
 30
1.0000000000000000E+20
  9
$PEXTMAX
 10
-1.0000000000000000E+20
 20
-1.0000000000000000E+20
 30
-1.0000000000000000E+20
  9
$PLIMMIN
 10
0.0
 20
0.0
  9
$PLIMMAX
 10
12.0
 20
9.0
  9
$UNITMODE
 70
               0
  9
$VISRETAIN
 70
               0
  9
$PLINEGEN
 70
               1
  9
$PSLTSCALE
 70
               0
  9
$TREEDEPTH
 70
            3020
  9
$PICKSTYLE
 70
               1
  9
$CMLSTYLE
  2
Standard
  9
$CMLJUST
 70
               0
  9
$CMLSCALE
 40
1.0
  9
$SAVEIMAGES
 70
               0
  0
ENDSEC
  0
SECTION
  2
CLASSES
  0
CLASS
  1
LWPOLYLINE
  2
AcDbPolyline
  3
"AutoCAD"
 90
        0
280
               0
281
               1
  0
CLASS
  1
IMAGE
  2
AcDbRasterImage
  3
ISM
 90
      127
280
               0
281
               1
  0
CLASS
  1
OLE2FRAME
  2
AcDbOle2Frame
  3
""
 90
        0
280
               0
281
               1
  0
CLASS
  1
HATCH
  2
AcDbHatch
  3
"ACAD_SEDONA"
 90
        0
280
               0
281
               1
  0
CLASS
  1
DICTIONARYVAR
  2
AcDbDictionaryVar
  3
"AutoCAD"
 90
        0
280
               0
281
               0
  0
CLASS
  1
RASTERVARIABLES
  2
AcDbRasterVariables
  3
ISM
 90
        0
280
               0
281
               0
  0
CLASS
  1
IMAGEDEF
  2
AcDbRasterImageDef
  3
ISM
 90
        0
280
               0
281
               0
  0
CLASS
  1
IMAGEDEF_REACTOR
  2
AcDbRasterImageDefReactor
  3
ISM
 90
        1
280
               0
281
               0
  0
CLASS
  1
IDBUFFER
  2
AcDbIdBuffer
  3
"Acad"
 90
        0
280
               0
281
               0
  0
CLASS
  1
SPATIAL_FILTER
  2
AcDbSpatialFilter
  3
"Acad"
 90
        0
280
               0
281
               0
  0
CLASS
  1
XRECORD
  2
AcDbXrecord
  3
"<Built In>"
 90
        0
280
               0
281
               0
  0
CLASS
  1
SORTENTSTABLE
  2
AcDbSortentsTable
  3
"AutoCAD"
 90
        0
280
               0
281
               0
  0
CLASS
  1
LAYER_INDEX
  2
AcDbLayerIndex
  3
"Acad"
 90
        0
280
               0
281
               0
  0
CLASS
  1
SPATIAL_INDEX
  2
AcDbSpatialIndex
  3
"Acad"
 90
        0
280
               0
281
               0
  0
CLASS
  1
OBJECT_PTR
  2
CAseDLPNTableRecord
  3
"ASE-LPNTableRecord"
 90
        1
280
               0
281
               0
  0
CLASS
  1
LAYOUT
  2
AcDbLayout
  3
"AutoCAD 2000"
 90
        1
280
               0
281
               0
  0
CLASS
  1
PLOTSETTINGS
  2
AcDbPlotSettings
  3
"AutoCAD 2000"
 90
        1
280
               0
281
               0
  0
CLASS
  1
ACDBDICTIONARYWDFLT
  2
AcDbDictionaryWithDefault
  3
"AutoCAD 2000"
 90
        1
280
               0
281
               0
  0
CLASS
  1
ACDBPLACEHOLDER
  2
AcDbPlaceHolder
  3
"AutoCAD 2000"
 90
        1
280
               0
281
               0
  0
ENDSEC
  0
SECTION
  2
TABLES
  0
TABLE
  2
VPORT
  5
7
100
AcDbSymbolTable
 70
               1
  0
VPORT
  5
15
100
AcDbSymbolTableRecord
100
AcDbViewportTableRecord
  2
*ACTIVE
 70
               0
 10
0.0
 20
0.0
 11
1.0
 21
1.0
 12
1.0111800427316666
 22
-0.4499969482421875
 13
0.0
 23
0.0
 14
1.0
 24
1.0
 15
0.0
 25
0.0
 16
0.0
 26
0.0
 36
1.0
 17
0.0
 27
0.0
 37
0.0
 40
268.76100616455079
 41
1.7320508075688772
 42
50.0
 43
0.0
 44
0.0
 50
0.0
 51
0.0
 71
               0
 72
             100
 73
               1
 74
               1
 75
               0
 76
               0
 77
               0
 78
               0
  0
ENDTAB
  0
TABLE
  2
LTYPE
  5
4
100
AcDbSymbolTable
 70
               5
  0
LTYPE
  5
11
100
AcDbSymbolTableRecord
100
AcDbLinetypeTableRecord
  2
BYBLOCK
 70
              64
  3

 72
              65
 73
               0
 40
0.0
  0
LTYPE
  5
12
100
AcDbSymbolTableRecord
100
AcDbLinetypeTableRecord
  2
BYLAYER
 70
              64
  3

 72
              65
 73
               0
 40
0.0
  0
LTYPE
  5
13
100
AcDbSymbolTableRecord
100
AcDbLinetypeTableRecord
  2
CONTINUOUS
 70
              64
  3
Solid line
 72
              65
 73
               0
 40
0.0
  0
LTYPE
  5
26
100
AcDbSymbolTableRecord
100
AcDbLinetypeTableRecord
  2
DASHED
 70
              64
  3
Dashed __ __ __ __ __ __ __ __ __ __ __ __ __ _
 72
              65
 73
               2
 40
4.0
 49
2.0
 74
               0
 49
-2.0
 74
               0
  0
LTYPE
  5
4D
100
AcDbSymbolTableRecord
100
AcDbLinetypeTableRecord
  2
CENTER
 70
              64
  3
Center ____ _ ____ _ ____ _ ____ _ ____ _ ____
 72
              65
 73
               4
 40
26.0
 49
20.0
 74
               0
 49
-2.0
 74
               0
 49
2.0
 74
               0
 49
-2.0
 74
               0
  0
ENDTAB
  0
TABLE
  2
LAYER
  5
2
100
AcDbSymbolTable
 70
               2
  0
LAYER
  5
14
100
AcDbSymbolTableRecord
100
AcDbLayerTableRecord
  2
0
 70
               0
 62
               7
  6
CONTINUOUS
  0
LAYER
  5
1D
100
AcDbSymbolTableRecord
100
AcDbLayerTableRecord
  2
DEFPOINTS
 70
               0
 62
               7
  6
CONTINUOUS
  0
ENDTAB
  0
TABLE
  2
STYLE
  5
3
100
AcDbSymbolTable
 70
               1
  0
STYLE
  5
17
100
AcDbSymbolTableRecord
100
AcDbTextStyleTableRecord
  2
MX_NOTE_STANDARD
 70
               0
 40
0.0
 41
1.0
 50
0.0
 71
               0
 42
3.2000000476837158
  3
txt.shx
  4
extfont.shx
  0
ENDTAB
  0
TABLE
  2
VIEW
  5
5
100
AcDbSymbolTable
 70
               0
  0
ENDTAB
  0
TABLE
  2
UCS
  5
6
100
AcDbSymbolTable
 70
               0
  0
ENDTAB
  0
TABLE
  2
APPID
  5
8
100
AcDbSymbolTable
 70
               1
  0
APPID
  5
16
100
AcDbSymbolTableRecord
100
AcDbRegAppTableRecord
  2
ACAD
 70
               0
  0
ENDTAB
  0
TABLE
  2
DIMSTYLE
  5
9
100
AcDbSymbolTable
 70
               1
  0
DIMSTYLE
105
18
100
AcDbSymbolTableRecord
100
AcDbDimStyleTableRecord
  2
MXDIMSTYLE
 70
               0
  3

  4

  5

  6

  7

 40
1.0
 41
2.5
 42
1.5
 43
3.75
 44
1.5
 45
0.0
 46
0.0
 47
0.0
 48
0.0
 71
               0
 72
               0
 73
               0
 74
               0
 75
               0
 76
               0
 77
               1
 78
               8
140
3.2000000476837158
141
2.5
142
0.0
143
0.03937007874016
144
1.0
145
0.0
146
1.0
147
1.0
170
               0
171
               4
172
               1
173
               0
174
               0
175
               0
176
               0
177
               0
178
               0
270
               2
271
               4
272
               4
273
               2
274
               4
275
               0
280
               0
281
               0
282
               0
283
               1
284
               0
285
               0
286
               0
287
               3
288
               1
340
17
  0
ENDTAB
  0
TABLE
  2
BLOCK_RECORD
  5
1
100
AcDbSymbolTable
 70
               6
  0
BLOCK_RECORD
  5
A
100
AcDbSymbolTableRecord
100
AcDbBlockTableRecord
  2
*MODEL_SPACE
  0
BLOCK_RECORD
  5
B
100
AcDbSymbolTableRecord
100
AcDbBlockTableRecord
  2
*PAPER_SPACE
  0
BLOCK_RECORD
  5
1E
100
AcDbSymbolTableRecord
100
AcDbBlockTableRecord
  2
F18Z-1
  0
BLOCK_RECORD
  5
1F
100
AcDbSymbolTableRecord
100
AcDbBlockTableRecord
  2
F18Z-2
  0
BLOCK_RECORD
  5
20
100
AcDbSymbolTableRecord
100
AcDbBlockTableRecord
  2
F18Z-3
  0
BLOCK_RECORD
  5
21
100
AcDbSymbolTableRecord
100
AcDbBlockTableRecord
  2
F18Z-4
  0
BLOCK_RECORD
  5
22
100
AcDbSymbolTableRecord
100
AcDbBlockTableRecord
  2
F18Z-5
  0
BLOCK_RECORD
  5
23
100
AcDbSymbolTableRecord
100
AcDbBlockTableRecord
  2
F18Z-6
  0
ENDTAB
  0
ENDSEC
  0
SECTION
  2
BLOCKS
  0
BLOCK
  5
D
100
AcDbEntity
  8
0
100
AcDbBlockBegin
  2
*MODEL_SPACE
 70
               0
 10
0.0
 20
0.0
 30
0.0
  3
*MODEL_SPACE
  1

  0
ENDBLK
  5
E
100
AcDbEntity
  8
0
100
AcDbBlockEnd
  0
BLOCK
  5
F
100
AcDbEntity
 67
               1
  8
0
100
AcDbBlockBegin
  2
*PAPER_SPACE
 70
               0
 10
0.0
 20
0.0
 30
0.0
  3
*PAPER_SPACE
  1

  0
ENDBLK
  5
10
100
AcDbEntity
 67
               1
  8
0
100
AcDbBlockEnd
  0
BLOCK
  5
24
100
AcDbEntity
  8
0
100
AcDbBlockBegin
  2
F18Z-1
 70
               0
 10
0.0
 20
0.0
 30
0.0
  3
F18Z-1
  1

  0
LINE
  5
25
100
AcDbEntity
  8
0
  6
CONTINUOUS
 62
               2
100
AcDbLine
 10
-14.399999999999991
 20
0.0
 30
0.0
 11
14.400000000000006
 21
0.0
 31
0.0
  0
LINE
  5
27
100
AcDbEntity
  8
0
  6
DASHED
 62
               2
100
AcDbLine
 10
4.0
 20
-102.90001506805419
 30
0.0
 11
4.0
 21
-92.75775667294765
 31
0.0
  0
LINE
  5
28
100
AcDbEntity
  8
0
  6
DASHED
 62
               2
100
AcDbLine
 10
-4.0
 20
-102.90001506805419
 30
0.0
 11
-4.0
 21
-92.75775667294765
 31
0.0
  0
LINE
  5
29
100
AcDbEntity
  8
0
  6
CONTINUOUS
 62
               7
100
AcDbLine
 10
6.6999998092651367
 20
-102.90001506805419
 30
0.0
 11
-6.6999998092651367
 21
-102.90001506805419
 31
0.0
  0
LINE
  5
2A
100
AcDbEntity
  8
0
  6
CONTINUOUS
 62
               7
100
AcDbLine
 10
6.8999996185302734
 20
-100.90001506805419
 30
0.0
 11
-6.8999996185302734
 21
-100.90001506805419
 31
0.0
  0
LINE
  5
2B
100
AcDbEntity
  8
0
  6
CONTINUOUS
 62
               7
100
AcDbLine
 10
-6.8999996185302734
 20
-100.90001506805419
 30
0.0
 11
-6.8999996185302734
 21
-102.70001430511473
 31
0.0
  0
LINE
  5
2C
100
AcDbEntity
  8
0
  6
CONTINUOUS
 62
               7
100
AcDbLine
 10
6.8999996185302734
 20
-100.90001506805419
 30
0.0
 11
6.8999996185302734
 21
-102.70001430511473
 31
0.0
  0
LINE
  5
2D
100
AcDbEntity
  8
0
  6
CONTINUOUS
 62
               7
100
AcDbLine
 10
7.6999998092651367
 20
-95.200015258789051
 30
0.0
 11
-7.6999988555908203
 21
-95.200015258789051
 31
0.0
  0
LINE
  5
2E
100
AcDbEntity
  8
0
  6
CONTINUOUS
 62
               7
100
AcDbLine
 10
-7.9000010109001551
 20
-95.000017060332937
 30
0.0
 11
-7.6999999050675569
 21
-95.200017205214408
 31
0.0
  0
LINE
  5
2F
100
AcDbEntity
  8
0
  6
CONTINUOUS
 62
               7
100
AcDbLine
 10
7.6999989272237599
 20
-95.200014651107892
 30
0.0
 11
7.8999989878129782
 21
-95.000014826540962
 31
0.0
  0
LINE
  5
30
100
AcDbEntity
  8
0
  6
CONTINUOUS
 62
               7
100
AcDbLine
 10
7.8999996185302734
 20
-95.000015449523914
 30
0.0
 11
-7.8999996185302734
 21
-95.000015449523914
 31
0.0
  0
LINE
  5
31
100
AcDbEntity
  8
0
  6
CONTINUOUS
 62
               7
100
AcDbLine
 10
6.1339740753173828
 20
-98.000015449523914
 30
0.0
 11
-6.1339740753173828
 21
-98.000015449523914
 31
0.0
  0
LINE
  5
32
100
AcDbEntity
  8
0
  6
CONTINUOUS
 62
               7
100
AcDbLine
 10
7.0
 20
-95.200015258789051
 30
0.0
 11
7.0
 21
-97.100015830993641
 31
0.0
  0
LINE
  5
33
100
AcDbEntity
  8
0
  6
CONTINUOUS
 62
               7
100
AcDbLine
 10
-7.0
 20
-95.200015258789051
 30
0.0
 11
-7.0
 21
-97.100015830993641
 31
0.0
  0
LINE
  5
34
100
AcDbEntity
  8
0
  6
CONTINUOUS
 62
               7
100
AcDbLine
 10
7.0
 20
-97.100015830993641
 30
0.0
 11
-7.0
 21
-97.100015830993641
 31
0.0
  0
LINE
  5
35
100
AcDbEntity
  8
0
  6
CONTINUOUS
 62
               7
100
AcDbLine
 10
-7.0000001091696618
 20
-97.100016402520964
 30
0.0
 11
-6.4803837199565351
 21
-97.400017105855852
 31
0.0
  0
LINE
  5
36
100
AcDbEntity
  8
0
  6
CONTINUOUS
 62
               7
100
AcDbLine
 10
7.0000001091696618
 20
-97.100016402520964
 30
0.0
 11
6.4803837199565351
 21
-97.400017105855852
 31
0.0
  0
LINE
  5
37
100
AcDbEntity
  8
0
  6
CONTINUOUS
 62
               7
100
AcDbLine
 10
6.4803838729858398
 20
-97.400016021728504
 30
0.0
 11
-6.4803838729858398
 21
-97.400016021728504
 31
0.0
  0
LINE
  5
38
100
AcDbEntity
  8
0
  6
CONTINUOUS
 62
               7
100
AcDbLine
 10
6.4803848486289439
 20
-97.400016028350365
 30
0.0
 11
6.133975082942527
 21
-98.000015444809122
 31
0.0
  0
LINE
  5
39
100
AcDbEntity
  8
0
  6
CONTINUOUS
 62
               7
100
AcDbLine
 10
-6.480385103811301
 20
-97.400015586361491
 30
0.0
 11
-6.1339751127448494
 21
-98.000015393189983
 31
0.0
  0
LINE
  5
3A
100
AcDbEntity
  8
0
  6
CONTINUOUS
 62
               7
100
AcDbLine
 10
-5.6000003814697266
 20
-98.000015449523914
 30
0.0
 11
-5.6000003814697266
 21
-98.500015449523914
 31
0.0
  0
LINE
  5
3B
100
AcDbEntity
  8
0
  6
CONTINUOUS
 62
               7
100
AcDbLine
 10
5.5999994277954102
 20
-98.000015449523914
 30
0.0
 11
5.5999994277954102
 21
-98.500015449523914
 31
0.0
  0
LINE
  5
3C
100
AcDbEntity
  8
0
  6
CONTINUOUS
 62
               7
100
AcDbLine
 10
5.5999994277954102
 20
-100.00001544952391
 30
0.0
 11
-5.6000003814697266
 21
-100.00001544952391
 31
0.0
  0
LINE
  5
3D
100
AcDbEntity
  8
0
  6
CONTINUOUS
 62
               7
100
AcDbLine
 10
5.0
 20
-100.00001544952391
 30
0.0
 11
5.0
 21
-100.90001506805419
 31
0.0
  0
LINE
  5
3E
100
AcDbEntity
  8
0
  6
CONTINUOUS
 62
               7
100
AcDbLine
 10
-5.0
 20
-100.00001544952391
 30
0.0
 11
-5.0
 21
-100.90001506805419
 31
0.0
  0
LINE
  5
3F
100
AcDbEntity
  8
0
  6
CONTINUOUS
 62
               7
100
AcDbLine
 10
5.4000005722045898
 20
-98.700015258789051
 30
0.0
 11
-5.4000005722045898
 21
-98.700015258789051
 31
0.0
  0
LINE
  5
40
100
AcDbEntity
  8
0
  6
CONTINUOUS
 62
               7
100
AcDbLine
 10
5.5999994277954102
 20
-98.900015068054188
 30
0.0
 11
-5.6000003814697266
 21
-98.900015068054188
 31
0.0
  0
LINE
  5
41
100
AcDbEntity
  8
0
  6
CONTINUOUS
 62
               7
100
AcDbLine
 10
5.5999994277954102
 20
-98.500015449523914
 30
0.0
 11
-5.6000003814697266
 21
-98.500015449523914
 31
0.0
  0
LINE
  5
42
100
AcDbEntity
  8
0
  6
CONTINUOUS
 62
               7
100
AcDbLine
 10
5.5999994277954102
 20
-98.900015068054188
 30
0.0
 11
5.5999994277954102
 21
-100.00001544952391
 31
0.0
  0
LINE
  5
43
100
AcDbEntity
  8
0
  6
CONTINUOUS
 62
               7
100
AcDbLine
 10
-5.6000003814697266
 20
-98.900015068054188
 30
0.0
 11
-5.6000003814697266
 21
-100.00001544952391
 31
0.0
  0
LINE
  5
44
100
AcDbEntity
  8
0
  6
CONTINUOUS
 62
               7
100
AcDbLine
 10
5.5999999684782438
 20
-98.500016755077922
 30
0.0
 11
5.4000000259001695
 21
-98.700016714514732
 31
0.0
  0
LINE
  5
45
100
AcDbEntity
  8
0
  6
CONTINUOUS
 62
               7
100
AcDbLine
 10
-5.4000003209280862
 20
-98.70001510450507
 30
0.0
 11
-5.6000002635061605
 21
-98.900015063941879
 31
0.0
  0
LINE
  5
46
100
AcDbEntity
  8
0
  6
CONTINUOUS
 62
               7
100
AcDbLine
 10
-5.6000020336738601
 20
-98.500016038581407
 30
0.0
 11
-5.400001753920975
 21
-98.700016335193027
 31
0.0
  0
LINE
  5
47
100
AcDbEntity
  8
0
  6
CONTINUOUS
 62
               7
100
AcDbLine
 10
5.4000004895154348
 20
-98.700016284616879
 30
0.0
 11
5.5999997577439444
 21
-98.900015569704067
 31
0.0
  0
ARC
  5
48
100
AcDbEntity
  8
0
  6
CONTINUOUS
 62
               7
100
AcDbCircle
 10
6.6999998092651367
 20
-102.70001430511473
 30
0.0
 40
0.199999988079071
100
AcDbArc
 50
269.99999999999937
 51
359.99998201390986
  0
ARC
  5
49
100
AcDbEntity
  8
0
  6
CONTINUOUS
 62
               7
100
AcDbCircle
 10
-6.6999998092651367
 20
-102.70001430511473
 30
0.0
 40
0.199999988079071
100
AcDbArc
 50
180.00001798608895
 51
269.99999999999937
  0
LINE
  5
4A
100
AcDbEntity
  8
0
  6
CONTINUOUS
 62
               7
100
AcDbLine
 10
-7.8999996185302734
 20
-93.500015258789034
 30
0.0
 11
-7.8999996185302734
 21
-95.000015449523914
 31
0.0
  0
LINE
  5
4B
100
AcDbEntity
  8
0
  6
CONTINUOUS
 62
               7
100
AcDbLine
 10
7.8999996185302734
 20
-93.500015258789048
 30
0.0
 11
7.8999996185302734
 21
-95.000015449523914
 31
0.0
  0
LINE
  5
4C
100
AcDbEntity
  8
0
  6
CONTINUOUS
 62
               2
100
AcDbLine
 10
0.0
 20
51.793611850151507
 30
0.0
 11
0.0
 21
-105.8005983352661
 31
0.0
  0
LINE
  5
4E
100
AcDbEntity
  8
0
  6
CENTER
 62
               2
100
AcDbLine
 10
-2.9999999999999858
 20
-49.000015258789048
 30
0.0
 11
-9.9999999999999858
 21
-49.000015258789048
 31
0.0
  0
LINE
  5
4F
100
AcDbEntity
  8
0
  6
CENTER
 62
               2
100
AcDbLine
 10
6.5000000000000142
 20
-6.0000152587890483
 30
0.0
 11
6.5000000000000142
 21
-11.963684224545872
 31
0.0
  0
LINE
  5
50
100
AcDbEntity
  8
0
  6
CENTER
 62
               2
100
AcDbLine
 10
10.000000000000014
 20
-9.0000152587890483
 30
0.0
 11
3.9050000000000011
 21
-9.0000152587890483
 31
0.0
  0
LINE
  5
51
100
AcDbEntity
  8
0
  6
CONTINUOUS
 62
               7
100
AcDbLine
 10
-9.3999999999999915
 20
7.3749847412109375
 30
0.0
 11
-7.2999999999999829
 21
9.9999847412109375
 31
0.0
  0
LINE
  5
52
100
AcDbEntity
  8
0
  6
CONTINUOUS
 62
               7
100
AcDbLine
 10
9.4000000000000057
 20
7.2499847412109375
 30
0.0
 11
7.2000000000000171
 21
9.9999847412109375
 31
0.0
  0
LINE
  5
53
100
AcDbEntity
  8
0
  6
CENTER
 62
               2
100
AcDbLine
 10
-6.4999999999999858
 20
-46.415015258789055
 30
0.0
 11
-6.4999999999999858
 21
-52.000015258789048
 31
0.0
  0
LINE
  5
54
100
AcDbEntity
  8
0
  6
CONTINUOUS
 62
               7
100
AcDbLine
 10
9.4000000000000057
 20
-79.30001525878906
 30
0.0
 11
-9.3999999999999915
 21
-79.300015258789045
 31
0.0
  0
LINE
  5
55
100
AcDbEntity
  8
0
  6
CONTINUOUS
 62
               7
100
AcDbLine
 10
-9.3999999999999915
 20
7.3749847412109375
 30
0.0
 11
-9.3999999999999915
 21
-93.500015258789063
 31
0.0
  0
LINE
  5
56
100
AcDbEntity
  8
0
  6
CONTINUOUS
 62
               7
100
AcDbLine
 10
9.4000000000000057
 20
7.2499847412109375
 30
0.0
 11
9.4000000000000057
 21
-93.500015258789063
 31
0.0
  0
LINE
  5
57
100
AcDbEntity
  8
0
  6
CONTINUOUS
 62
               7
100
AcDbLine
 10
9.4000000000000057
 20
-93.500015258789063
 30
0.0
 11
-9.3999999999999915
 21
-93.500015258789063
 31
0.0
  0
LINE
  5
58
100
AcDbEntity
  8
0
  6
CONTINUOUS
 62
               7
100
AcDbLine
 10
7.9000000000000057
 20
-80.80001525878906
 30
0.0
 11
-7.8999999999999915
 21
-80.800015258789045
 31
0.0
  0
LINE
  5
59
100
AcDbEntity
  8
0
  6
CONTINUOUS
 62
               7
100
AcDbLine
 10
7.9000000000000057
 20
-92.000015258789063
 30
0.0
 11
-7.8999999999999915
 21
-92.000015258789063
 31
0.0
  0
LINE
  5
5A
100
AcDbEntity
  8
0
  6
CONTINUOUS
 62
               7
100
AcDbLine
 10
7.2000000000000171
 20
9.9999847412109375
 30
0.0
 11
-7.2999999999999829
 21
9.9999847412109375
 31
0.0
  0
LINE
  5
5B
100
AcDbEntity
  8
0
  6
CONTINUOUS
 62
               7
100
AcDbLine
 10
-7.8999999999999915
 20
-80.800015258789045
 30
0.0
 11
-7.8999999999999915
 21
-92.000015258789063
 31
0.0
  0
LINE
  5
5C
100
AcDbEntity
  8
0
  6
CONTINUOUS
 62
               7
100
AcDbLine
 10
7.9000000000000057
 20
-80.80001525878906
 30
0.0
 11
7.9000000000000057
 21
-92.000015258789063
 31
0.0
  0
CIRCLE
  5
5D
100
AcDbEntity
  8
0
  6
CONTINUOUS
 62
               7
100
AcDbCircle
 10
6.5000122070312614
 20
-9.000016784667956
 30
0.0
 40
1.5
  0
CIRCLE
  5
5E
100
AcDbEntity
  8
0
  6
CONTINUOUS
 62
               7
100
AcDbCircle
 10
-6.4999725341796761
 20
-49.000016784667956
 30
0.0
 40
1.5999999046325684
  0
LINE
  5
5F
100
AcDbEntity
  8
0
  6
DASHED
 62
               2
100
AcDbLine
 10
5.0000000000000142
 20
27.999984741210937
 30
0.0
 11
5.0000000000000142
 21
9.9999847412109375
 31
0.0
  0
LINE
  5
60
100
AcDbEntity
  8
0
  6
DASHED
 62
               2
100
AcDbLine
 10
-4.9999999999999858
 20
27.999984741210937
 30
0.0
 11
-4.9999999999999858
 21
9.9999847412109375
 31
0.0
  0
LINE
  5
61
100
AcDbEntity
  8
0
  6
DASHED
 62
               2
100
AcDbLine
 10
-4.9999999892711884
 20
48.999984741210937
 30
0.0
 11
5.0000000000000142
 21
48.999984741210937
 31
0.0
  0
LINE
  5
62
100
AcDbEntity
  8
0
  6
DASHED
 62
               2
100
AcDbLine
 10
-5.9999999999999858
 20
47.999984730482112
 30
0.0
 11
-5.9999999999999858
 21
28.999984741210909
 31
0.0
  0
LINE
  5
63
100
AcDbEntity
  8
0
  6
DASHED
 62
               2
100
AcDbLine
 10
6.0
 20
47.999984741210938
 30
0.0
 11
6.0
 21
28.999984741210909
 31
0.0
  0
LINE
  5
64
100
AcDbEntity
  8
0
  6
DASHED
 62
               2
100
AcDbLine
 10
-4.9999999892711884
 20
48.999984741210937
 30
0.0
 11
-5.9999999999999858
 21
47.999984730482112
 31
0.0
  0
LINE
  5
65
100
AcDbEntity
  8
0
  6
DASHED
 62
               2
100
AcDbLine
 10
5.0000000000000142
 20
48.999984741210937
 30
0.0
 11
6.0
 21
47.999984741210938
 31
0.0
  0
LINE
  5
66
100
AcDbEntity
  8
0
  6
DASHED
 62
               2
100
AcDbLine
 10
-5.1000000000000085
 20
46.999984741210937
 30
0.0
 11
5.0999999999999801
 21
46.999984741210937
 31
0.0
  0
LINE
  5
67
100
AcDbEntity
  8
0
  6
DASHED
 62
               2
100
AcDbLine
 10
-5.9999999999999858
 20
37.099984741210932
 30
0.0
 11
6.0
 21
37.099984741210932
 31
0.0
  0
LINE
  5
68
100
AcDbEntity
  8
0
  6
DASHED
 62
               2
100
AcDbLine
 10
5.0000000000000142
 20
27.999984741210937
 30
0.0
 11
6.0
 21
28.999984741210909
 31
0.0
  0
LINE
  5
69
100
AcDbEntity
  8
0
  6
DASHED
 62
               2
100
AcDbLine
 10
-4.9999999999999858
 20
27.999984741210937
 30
0.0
 11
-5.9999999999999858
 21
28.999984741210909
 31
0.0
  0
LINE
  5
6A
100
AcDbEntity
  8
0
  6
DASHED
 62
               2
100
AcDbLine
 10
5.0999999999999801
 20
46.999984741210937
 30
0.0
 11
5.0999999999999801
 21
37.099984741210932
 31
0.0
  0
LINE
  5
6B
100
AcDbEntity
  8
0
  6
DASHED
 62
               2
100
AcDbLine
 10
-5.1000000000000085
 20
46.999984741210937
 30
0.0
 11
-5.1000000000000085
 21
37.099984741210932
 31
0.0
  0
LINE
  5
6C
100
AcDbEntity
  8
0
  6
DASHED
 62
               2
100
AcDbLine
 10
-4.9999999892711884
 20
16.999984741210937
 30
0.0
 11
5.0000000000000142
 21
16.999984741210937
 31
0.0
  0
LINE
  5
6D
100
AcDbEntity
  8
0
  6
DASHED
 62
               2
100
AcDbLine
 10
-4.9999999892711884
 20
14.999984741210938
 30
0.0
 11
5.0000000000000142
 21
14.999984741210938
 31
0.0
  0
ENDBLK
  5
6E
100
AcDbEntity
  8
0
100
AcDbBlockEnd
  0
BLOCK
  5
6F
100
AcDbEntity
  8
0
100
AcDbBlockBegin
  2
F18Z-2
 70
               0
 10
0.0
 20
0.0
 30
0.0
  3
F18Z-2
  1

  0
LINE
  5
70
100
AcDbEntity
  8
0
  6
CONTINUOUS
 62
               2
100
AcDbLine
 10
-5.0000000119209176
 20
0.0
 30
0.0
 11
18.0
 21
0.0
 31
0.0
  0
ARC
  5
71
100
AcDbEntity
  8
0
  6
CONTINUOUS
 62
               7
100
AcDbCircle
 10
15.699999809265137
 20
-102.70001430511473
 30
0.0
 40
0.199999988079071
100
AcDbArc
 50
269.99999999999937
 51
359.99998201390986
  0
ARC
  5
72
100
AcDbEntity
  8
0
  6
CONTINUOUS
 62
               7
100
AcDbCircle
 10
2.3000001907348633
 20
-102.70001430511473
 30
0.0
 40
0.199999988079071
100
AcDbArc
 50
180.00001798608895
 51
269.99999999999937
  0
LINE
  5
73
100
AcDbEntity
  8
0
  6
CONTINUOUS
 62
               7
100
AcDbLine
 10
3.5999995104845652
 20
-98.700016284616879
 30
0.0
 11
3.4000002422560556
 21
-98.900015569704067
 31
0.0
  0
LINE
  5
74
100
AcDbEntity
  8
0
  6
CONTINUOUS
 62
               7
100
AcDbLine
 10
14.60000203367386
 20
-98.500016038581407
 30
0.0
 11
14.400001753920975
 21
-98.700016335193027
 31
0.0
  0
LINE
  5
75
100
AcDbEntity
  8
0
  6
CONTINUOUS
 62
               7
100
AcDbLine
 10
14.400000320928086
 20
-98.700015104505056
 30
0.0
 11
14.600000263506161
 21
-98.900015063941865
 31
0.0
  0
LINE
  5
76
100
AcDbEntity
  8
0
  6
CONTINUOUS
 62
               7
100
AcDbLine
 10
3.4000000315217562
 20
-98.500016755077965
 30
0.0
 11
3.5999999740998305
 21
-98.700016714514774
 31
0.0
  0
LINE
  5
77
100
AcDbEntity
  8
0
  6
CONTINUOUS
 62
               7
100
AcDbLine
 10
14.600000381469727
 20
-98.900015068054188
 30
0.0
 11
14.600000381469727
 21
-100.00001544952391
 31
0.0
  0
LINE
  5
78
100
AcDbEntity
  8
0
  6
CONTINUOUS
 62
               7
100
AcDbLine
 10
3.4000005722045898
 20
-98.900015068054188
 30
0.0
 11
3.4000005722045898
 21
-100.00001544952391
 31
0.0
  0
LINE
  5
79
100
AcDbEntity
  8
0
  6
CONTINUOUS
 62
               7
100
AcDbLine
 10
3.4000005722045898
 20
-98.500015449523914
 30
0.0
 11
14.600000381469727
 21
-98.500015449523914
 31
0.0
  0
LINE
  5
7A
100
AcDbEntity
  8
0
  6
CONTINUOUS
 62
               7
100
AcDbLine
 10
3.4000005722045898
 20
-98.900015068054188
 30
0.0
 11
14.600000381469727
 21
-98.900015068054188
 31
0.0
  0
LINE
  5
7B
100
AcDbEntity
  8
0
  6
CONTINUOUS
 62
               7
100
AcDbLine
 10
3.5999994277954102
 20
-98.700015258789051
 30
0.0
 11
14.40000057220459
 21
-98.700015258789051
 31
0.0
  0
LINE
  5
7C
100
AcDbEntity
  8
0
  6
CONTINUOUS
 62
               7
100
AcDbLine
 10
14.0
 20
-100.00001544952391
 30
0.0
 11
14.0
 21
-100.90001506805419
 31
0.0
  0
LINE
  5
7D
100
AcDbEntity
  8
0
  6
CONTINUOUS
 62
               7
100
AcDbLine
 10
4.0
 20
-100.00001544952391
 30
0.0
 11
4.0
 21
-100.90001506805419
 31
0.0
  0
LINE
  5
7E
100
AcDbEntity
  8
0
  6
CONTINUOUS
 62
               7
100
AcDbLine
 10
3.4000005722045898
 20
-100.00001544952391
 30
0.0
 11
14.600000381469727
 21
-100.00001544952391
 31
0.0
  0
LINE
  5
7F
100
AcDbEntity
  8
0
  6
CONTINUOUS
 62
               7
100
AcDbLine
 10
3.4000005722045898
 20
-98.000015449523914
 30
0.0
 11
3.4000005722045898
 21
-98.500015449523914
 31
0.0
  0
LINE
  5
80
100
AcDbEntity
  8
0
  6
CONTINUOUS
 62
               7
100
AcDbLine
 10
14.600000381469727
 20
-98.000015449523914
 30
0.0
 11
14.600000381469727
 21
-98.500015449523914
 31
0.0
  0
LINE
  5
81
100
AcDbEntity
  8
0
  6
CONTINUOUS
 62
               7
100
AcDbLine
 10
15.480385103811301
 20
-97.400015586361491
 30
0.0
 11
15.133975112744849
 21
-98.000015393189983
 31
0.0
  0
LINE
  5
82
100
AcDbEntity
  8
0
  6
CONTINUOUS
 62
               7
100
AcDbLine
 10
2.5196151513710561
 20
-97.400016028350407
 30
0.0
 11
2.866024917057473
 21
-98.000015444809122
 31
0.0
  0
LINE
  5
83
100
AcDbEntity
  8
0
  6
CONTINUOUS
 62
               7
100
AcDbLine
 10
2.5196161270141602
 20
-97.400016021728504
 30
0.0
 11
15.48038387298584
 21
-97.400016021728504
 31
0.0
  0
LINE
  5
84
100
AcDbEntity
  8
0
  6
CONTINUOUS
 62
               7
100
AcDbLine
 10
1.9999998908303382
 20
-97.100016402520964
 30
0.0
 11
2.5196162800434649
 21
-97.400017105855852
 31
0.0
  0
LINE
  5
85
100
AcDbEntity
  8
0
  6
CONTINUOUS
 62
               7
100
AcDbLine
 10
16.000000109169662
 20
-97.100016402520964
 30
0.0
 11
15.480383719956535
 21
-97.400017105855852
 31
0.0
  0
LINE
  5
86
100
AcDbEntity
  8
0
  6
CONTINUOUS
 62
               7
100
AcDbLine
 10
2.0
 20
-97.100015830993641
 30
0.0
 11
16.0
 21
-97.100015830993641
 31
0.0
  0
LINE
  5
87
100
AcDbEntity
  8
0
  6
CONTINUOUS
 62
               7
100
AcDbLine
 10
16.0
 20
-95.200015258789051
 30
0.0
 11
16.0
 21
-97.100015830993641
 31
0.0
  0
LINE
  5
88
100
AcDbEntity
  8
0
  6
CONTINUOUS
 62
               7
100
AcDbLine
 10
2.0
 20
-95.200015258789051
 30
0.0
 11
2.0
 21
-97.100015830993641
 31
0.0
  0
LINE
  5
89
100
AcDbEntity
  8
0
  6
CONTINUOUS
 62
               7
100
AcDbLine
 10
2.8660259246826172
 20
-98.000015449523914
 30
0.0
 11
15.133974075317383
 21
-98.000015449523914
 31
0.0
  0
LINE
  5
8A
100
AcDbEntity
  8
0
  6
CONTINUOUS
 62
               7
100
AcDbLine
 10
1.1000003814697266
 20
-95.000015449523914
 30
0.0
 11
16.899999618530273
 21
-95.000015449523914
 31
0.0
  0
LINE
  5
8B
100
AcDbEntity
  8
0
  6
CONTINUOUS
 62
               7
100
AcDbLine
 10
1.3000010727762401
 20
-95.200014651107892
 30
0.0
 11
1.1000010121870218
 21
-95.000014826540962
 31
0.0
  0
LINE
  5
8C
100
AcDbEntity
  8
0
  6
CONTINUOUS
 62
               7
100
AcDbLine
 10
16.900001010900155
 20
-95.000017060332937
 30
0.0
 11
16.699999905067557
 21
-95.200017205214408
 31
0.0
  0
LINE
  5
8D
100
AcDbEntity
  8
0
  6
CONTINUOUS
 62
               7
100
AcDbLine
 10
1.3000001907348633
 20
-95.200015258789051
 30
0.0
 11
16.69999885559082
 21
-95.200015258789051
 31
0.0
  0
LINE
  5
8E
100
AcDbEntity
  8
0
  6
CONTINUOUS
 62
               7
100
AcDbLine
 10
2.1000003814697266
 20
-100.90001506805419
 30
0.0
 11
2.1000003814697266
 21
-102.70001430511473
 31
0.0
  0
LINE
  5
8F
100
AcDbEntity
  8
0
  6
CONTINUOUS
 62
               7
100
AcDbLine
 10
15.899999618530273
 20
-100.90001506805419
 30
0.0
 11
15.899999618530273
 21
-102.70001430511473
 31
0.0
  0
LINE
  5
90
100
AcDbEntity
  8
0
  6
CONTINUOUS
 62
               7
100
AcDbLine
 10
2.1000003814697266
 20
-100.90001506805419
 30
0.0
 11
15.899999618530273
 21
-100.90001506805419
 31
0.0
  0
LINE
  5
91
100
AcDbEntity
  8
0
  6
CONTINUOUS
 62
               7
100
AcDbLine
 10
2.3000001907348633
 20
-102.90001506805419
 30
0.0
 11
15.699999809265137
 21
-102.90001506805419
 31
0.0
  0
LINE
  5
92
100
AcDbEntity
  8
0
  6
CONTINUOUS
 62
               7
100
AcDbLine
 10
16.899999618530273
 20
-93.50001525878902
 30
0.0
 11
16.899999618530273
 21
-95.000015449523914
 31
0.0
  0
LINE
  5
93
100
AcDbEntity
  8
0
  6
CONTINUOUS
 62
               7
100
AcDbLine
 10
1.1000003814697266
 20
-93.50001525878902
 30
0.0
 11
1.1000003814697266
 21
-95.000015449523914
 31
0.0
  0
LINE
  5
94
100
AcDbEntity
  8
0
  6
CONTINUOUS
 62
               7
100
AcDbLine
 10
18.0
 20
-93.500015258789063
 30
0.0
 11
0.0
 21
-93.500015258789063
 31
0.0
  0
LINE
  5
95
100
AcDbEntity
  8
0
  6
CONTINUOUS
 62
               7
100
AcDbLine
 10
18.0
 20
-79.300015258789031
 30
0.0
 11
13.0
 21
-79.300015258789031
 31
0.0
  0
LINE
  5
96
100
AcDbEntity
  8
0
  6
CONTINUOUS
 62
               7
100
AcDbLine
 10
0.0
 20
9.9999847412109517
 30
0.0
 11
0.0
 21
-93.500015258789063
 31
0.0
  0
LINE
  5
97
100
AcDbEntity
  8
0
  6
CONTINUOUS
 62
               7
100
AcDbLine
 10
0.0
 20
9.9999847412109517
 30
0.0
 11
13.0
 21
9.9999847412109517
 31
0.0
  0
LINE
  5
98
100
AcDbEntity
  8
0
  6
CONTINUOUS
 62
               7
100
AcDbLine
 10
18.0
 20
-79.300015258789031
 30
0.0
 11
18.0
 21
-93.500015258789063
 31
0.0
  0
LINE
  5
99
100
AcDbEntity
  8
0
  6
CONTINUOUS
 62
               7
100
AcDbLine
 10
13.0
 20
9.9999847412109517
 30
0.0
 11
13.0
 21
-79.300015258789074
 31
0.0
  0
LINE
  5
9A
100
AcDbEntity
  8
0
  6
CONTINUOUS
 62
               7
100
AcDbLine
 10
0.0000000277402137
 20
7.2499847412109517
 30
0.0
 11
13.0
 21
7.2499847412109517
 31
0.0
  0
LINE
  5
9B
100
AcDbEntity
  8
0
  6
DASHED
 62
               2
100
AcDbLine
 10
2.0
 20
10.499984741210952
 30
0.0
 11
2.5
 21
9.9999847412109517
 31
0.0
  0
LINE
  5
9C
100
AcDbEntity
  8
0
  6
DASHED
 62
               2
100
AcDbLine
 10
13.0
 20
9.9999847412109517
 30
0.0
 11
13.0
 21
14.999984741210952
 31
0.0
  0
LINE
  5
9D
100
AcDbEntity
  8
0
  6
DASHED
 62
               2
100
AcDbLine
 10
15.0
 20
27.999984741210937
 30
0.0
 11
2.0
 21
27.999984741210937
 31
0.0
  0
LINE
  5
9E
100
AcDbEntity
  8
0
  6
DASHED
 62
               2
100
AcDbLine
 10
15.0
 20
28.999984741210909
 30
0.0
 11
2.0
 21
28.999984741210909
 31
0.0
  0
LINE
  5
9F
100
AcDbEntity
  8
0
  6
DASHED
 62
               2
100
AcDbLine
 10
2.000000011920946
 20
47.999984741210938
 30
0.0
 11
12.000000011920946
 21
47.999984741210938
 31
0.0
  0
LINE
  5
A0
100
AcDbEntity
  8
0
  6
DASHED
 62
               2
100
AcDbLine
 10
12.0
 20
48.999984741210937
 30
0.0
 11
2.0
 21
48.999984741210937
 31
0.0
  0
LINE
  5
A1
100
AcDbEntity
  8
0
  6
DASHED
 62
               2
100
AcDbLine
 10
15.0
 20
16.999984741210952
 30
0.0
 11
15.0
 21
37.099984741210932
 31
0.0
  0
LINE
  5
A2
100
AcDbEntity
  8
0
  6
DASHED
 62
               2
100
AcDbLine
 10
2.0
 20
38.79998474121092
 30
0.0
 11
1.2000000000000455
 21
38.79998474121092
 31
0.0
  0
LINE
  5
A3
100
AcDbEntity
  8
0
  6
DASHED
 62
               2
100
AcDbLine
 10
1.2000000000000455
 20
38.79998474121092
 30
0.0
 11
1.2000000000000455
 21
44.999984741210937
 31
0.0
  0
LINE
  5
A4
100
AcDbEntity
  8
0
  6
DASHED
 62
               2
100
AcDbLine
 10
-0.2999999999999545
 20
44.999984741210937
 30
0.0
 11
-0.2999999999999545
 21
46.999984741210937
 31
0.0
  0
LINE
  5
A5
100
AcDbEntity
  8
0
  6
DASHED
 62
               2
100
AcDbLine
 10
1.2000000000000455
 20
44.999984741210937
 30
0.0
 11
-0.2999999999999545
 21
44.999984741210937
 31
0.0
  0
LINE
  5
A6
100
AcDbEntity
  8
0
  6
DASHED
 62
               2
100
AcDbLine
 10
13.0
 20
14.999984741210952
 30
0.0
 11
15.0
 21
16.999984741210952
 31
0.0
  0
LINE
  5
A7
100
AcDbEntity
  8
0
  6
DASHED
 62
               2
100
AcDbLine
 10
15.0
 20
37.099984741210932
 30
0.0
 11
13.5
 21
37.099984741210932
 31
0.0
  0
LINE
  5
A8
100
AcDbEntity
  8
0
  6
DASHED
 62
               2
100
AcDbLine
 10
12.0
 20
38.599984741210932
 30
0.0
 11
12.0
 21
48.999984741210937
 31
0.0
  0
ARC
  5
A9
100
AcDbEntity
  8
0
  6
DASHED
 62
               2
100
AcDbCircle
 10
13.5
 20
38.599984741210932
 30
0.0
 40
1.5
100
AcDbArc
 50
179.99999999999963
 51
269.99999999999937
  0
LINE
  5
AA
100
AcDbEntity
  8
0
  6
DASHED
 62
               2
100
AcDbLine
 10
-0.7999999999999545
 20
46.999984741210937
 30
0.0
 11
-0.7999999999999545
 21
48.799984741210949
 31
0.0
  0
LINE
  5
AB
100
AcDbEntity
  8
0
  6
DASHED
 62
               2
100
AcDbLine
 10
-0.7999999999999545
 20
48.799984741210949
 30
0.0
 11
2.0
 21
48.799984741210949
 31
0.0
  0
LINE
  5
AC
100
AcDbEntity
  8
0
  6
DASHED
 62
               2
100
AcDbLine
 10
-0.7999999761581194
 20
46.999984741210937
 30
0.0
 11
-0.2999999761581194
 21
46.999984741210937
 31
0.0
  0
LINE
  5
AD
100
AcDbEntity
  8
0
  6
DASHED
 62
               2
100
AcDbLine
 10
2.0
 20
10.499984741210952
 30
0.0
 11
2.0
 21
48.999984741210937
 31
0.0
  0
LINE
  5
AE
100
AcDbEntity
  8
0
  6
CONTINUOUS
 62
               2
100
AcDbLine
 10
9.0
 20
-78.755015258789058
 30
0.0
 11
9.0
 21
-107.3896691785273
 31
0.0
  0
ENDBLK
  5
AF
100
AcDbEntity
  8
0
100
AcDbBlockEnd
  0
BLOCK
  5
B0
100
AcDbEntity
  8
0
100
AcDbBlockBegin
  2
F18Z-3
 70
               0
 10
0.0
 20
0.0
 30
0.0
  3
F18Z-3
  1

  0
LINE
  5
B1
100
AcDbEntity
  8
0
  6
CONTINUOUS
 62
               7
100
AcDbLine
 10
-9.4000000000000057
 20
0.0
 30
0.0
 11
9.3999999999999915
 21
0.0
 31
0.0
  0
LINE
  5
B2
100
AcDbEntity
  8
0
  6
CONTINUOUS
 62
               7
100
AcDbLine
 10
-9.4000000000000057
 20
18.0
 30
0.0
 11
9.3999999999999915
 21
18.0
 31
0.0
  0
LINE
  5
B3
100
AcDbEntity
  8
0
  6
CONTINUOUS
 62
               2
100
AcDbLine
 10
-12.515000000000001
 20
9.0
 30
0.0
 11
12.515000000000001
 21
9.0
 31
0.0
  0
LINE
  5
B4
100
AcDbEntity
  8
0
  6
CONTINUOUS
 62
               7
100
AcDbLine
 10
9.3999999999999915
 20
18.0
 30
0.0
 11
9.3999999999999915
 21
0.0
 31
0.0
  0
LINE
  5
B5
100
AcDbEntity
  8
0
  6
CONTINUOUS
 62
               7
100
AcDbLine
 10
-9.4000000000000057
 20
18.0
 30
0.0
 11
-9.4000000000000057
 21
0.0
 31
0.0
  0
LINE
  5
B6
100
AcDbEntity
  8
0
  6
CONTINUOUS
 62
               2
100
AcDbLine
 10
0.0
 20
21.515000000000001
 30
0.0
 11
0.0
 21
-3.5150000000000006
 31
0.0
  0
CIRCLE
  5
B7
100
AcDbEntity
  8
0
  6
CONTINUOUS
 62
               7
100
AcDbCircle
 10
-0.0000000000000142
 20
9.0
 30
0.0
 40
6.8999996185302734
  0
CIRCLE
  5
B8
100
AcDbEntity
  8
0
  6
CONTINUOUS
 62
               7
100
AcDbCircle
 10
-0.0000000000000142
 20
9.0
 30
0.0
 40
4.0
  0
CIRCLE
  5
B9
100
AcDbEntity
  8
0
  6
CONTINUOUS
 62
               7
100
AcDbCircle
 10
-0.0000000000000142
 20
9.0
 30
0.0
 40
7.8999996185302734
  0
ENDBLK
  5
BA
100
AcDbEntity
  8
0
100
AcDbBlockEnd
  0
BLOCK
  5
BB
100
AcDbEntity
  8
0
100
AcDbBlockBegin
  2
F18Z-4
 70
               0
 10
0.0
 20
0.0
 30
0.0
  3
F18Z-4
  1

  0
LINE
  5
BC
100
AcDbEntity
  8
0
  6
CONTINUOUS
 62
               2
100
AcDbLine
 10
-0.0000000000000284
 20
-85.460015258789042
 30
0.0
 11
-0.0000000000000284
 21
-114.61001525878905
 31
0.0
  0
LINE
  5
BD
100
AcDbEntity
  8
0
  6
CONTINUOUS
 62
               2
100
AcDbLine
 10
0.0
 20
51.793611850151507
 30
0.0
 11
-0.0000000000000142
 21
-99.355015258789052
 31
0.0
  0
LINE
  5
BE
100
AcDbEntity
  8
0
  6
CONTINUOUS
 62
               2
100
AcDbLine
 10
-14.399999999999991
 20
0.0
 30
0.0
 11
14.400000023841855
 21
0.0
 31
0.0
  0
LINE
  5
BF
100
AcDbEntity
  8
0
  6
DASHED
 62
               2
100
AcDbLine
 10
-4.9999999892712026
 20
14.999984741210938
 30
0.0
 11
4.9999999999999858
 21
14.999984741210938
 31
0.0
  0
LINE
  5
C0
100
AcDbEntity
  8
0
  6
DASHED
 62
               2
100
AcDbLine
 10
-4.9999999892712026
 20
16.999984741210937
 30
0.0
 11
4.9999999999999858
 21
16.999984741210937
 31
0.0
  0
LINE
  5
C1
100
AcDbEntity
  8
0
  6
DASHED
 62
               2
100
AcDbLine
 10
-5.1000000000000227
 20
46.999984741210937
 30
0.0
 11
-5.1000000000000227
 21
37.099984741210932
 31
0.0
  0
LINE
  5
C2
100
AcDbEntity
  8
0
  6
DASHED
 62
               2
100
AcDbLine
 10
5.0999999999999517
 20
46.999984741210937
 30
0.0
 11
5.0999999999999517
 21
37.099984741210932
 31
0.0
  0
LINE
  5
C3
100
AcDbEntity
  8
0
  6
DASHED
 62
               2
100
AcDbLine
 10
-5.0
 20
27.999984741210937
 30
0.0
 11
-6.0
 21
28.999984741210909
 31
0.0
  0
LINE
  5
C4
100
AcDbEntity
  8
0
  6
DASHED
 62
               2
100
AcDbLine
 10
4.9999999999999858
 20
27.999984741210937
 30
0.0
 11
5.9999999999999858
 21
28.999984741210909
 31
0.0
  0
LINE
  5
C5
100
AcDbEntity
  8
0
  6
DASHED
 62
               2
100
AcDbLine
 10
-6.0
 20
37.099984741210932
 30
0.0
 11
5.9999999999999858
 21
37.099984741210932
 31
0.0
  0
LINE
  5
C6
100
AcDbEntity
  8
0
  6
DASHED
 62
               2
100
AcDbLine
 10
-5.1000000000000227
 20
46.999984741210937
 30
0.0
 11
5.0999999999999517
 21
46.999984741210937
 31
0.0
  0
LINE
  5
C7
100
AcDbEntity
  8
0
  6
DASHED
 62
               2
100
AcDbLine
 10
4.9999999999999858
 20
48.999984741210937
 30
0.0
 11
5.9999999999999858
 21
47.999984741210938
 31
0.0
  0
LINE
  5
C8
100
AcDbEntity
  8
0
  6
DASHED
 62
               2
100
AcDbLine
 10
-4.9999999892712026
 20
48.999984741210937
 30
0.0
 11
-6.0
 21
47.999984730482112
 31
0.0
  0
LINE
  5
C9
100
AcDbEntity
  8
0
  6
DASHED
 62
               2
100
AcDbLine
 10
5.9999999999999858
 20
47.999984741210938
 30
0.0
 11
5.9999999999999858
 21
28.999984741210909
 31
0.0
  0
LINE
  5
CA
100
AcDbEntity
  8
0
  6
DASHED
 62
               2
100
AcDbLine
 10
-6.0
 20
47.999984730482112
 30
0.0
 11
-6.0
 21
28.999984741210909
 31
0.0
  0
LINE
  5
CB
100
AcDbEntity
  8
0
  6
DASHED
 62
               2
100
AcDbLine
 10
-4.9999999892712026
 20
48.999984741210937
 30
0.0
 11
4.9999999999999858
 21
48.999984741210937
 31
0.0
  0
LINE
  5
CC
100
AcDbEntity
  8
0
  6
DASHED
 62
               2
100
AcDbLine
 10
-5.0
 20
27.999984741210937
 30
0.0
 11
-5.0
 21
9.9999847412109375
 31
0.0
  0
LINE
  5
CD
100
AcDbEntity
  8
0
  6
DASHED
 62
               2
100
AcDbLine
 10
4.9999999999999858
 20
27.999984741210937
 30
0.0
 11
4.9999999999999858
 21
9.9999847412109375
 31
0.0
  0
LINE
  5
CE
100
AcDbEntity
  8
0
  6
CONTINUOUS
 62
               7
100
AcDbLine
 10
8.6999999999999744
 20
-95.000015258789063
 30
0.0
 11
8.8999999999999631
 21
-94.800015258789045
 31
0.0
  0
LINE
  5
CF
100
AcDbEntity
  8
0
  6
CONTINUOUS
 62
               7
100
AcDbLine
 10
-8.7000000000000171
 20
-95.000015258789063
 30
0.0
 11
-8.9000000000000057
 21
-94.800015258789045
 31
0.0
  0
LINE
  5
D0
100
AcDbEntity
  8
0
  6
CONTINUOUS
 62
               7
100
AcDbLine
 10
-8.9000000000000057
 20
-93.500015258789063
 30
0.0
 11
-8.9000000000000057
 21
-94.800015258789045
 31
0.0
  0
LINE
  5
D1
100
AcDbEntity
  8
0
  6
CONTINUOUS
 62
               7
100
AcDbLine
 10
8.8999999999999631
 20
-93.500015258789063
 30
0.0
 11
8.8999999999999631
 21
-94.800015258789045
 31
0.0
  0
LINE
  5
D2
100
AcDbEntity
  8
0
  6
CONTINUOUS
 62
               7
100
AcDbLine
 10
-8.9000000000000057
 20
-94.800015258789045
 30
0.0
 11
8.8999999999999631
 21
-94.800015258789045
 31
0.0
  0
LINE
  5
D3
100
AcDbEntity
  8
0
  6
CONTINUOUS
 62
               7
100
AcDbLine
 10
-8.7000000000000171
 20
-95.000015258789063
 30
0.0
 11
8.6999999999999744
 21
-95.000015258789063
 31
0.0
  0
LINE
  5
D4
100
AcDbEntity
  8
0
  6
DASHED
 62
               2
100
AcDbLine
 10
-5.0000000000000284
 20
-93.500015258789063
 30
0.0
 11
-5.0000000000000284
 21
-111.00001525878906
 31
0.0
  0
LINE
  5
D5
100
AcDbEntity
  8
0
  6
DASHED
 62
               2
100
AcDbLine
 10
4.9999999999999858
 20
-93.500015258789063
 30
0.0
 11
4.9999999999999858
 21
-111.00001525878906
 31
0.0
  0
LINE
  5
D6
100
AcDbEntity
  8
0
  6
CONTINUOUS
 62
               7
100
AcDbLine
 10
8.7499999999999858
 20
-95.000015258789063
 30
0.0
 11
8.7499999999999858
 21
-106.00001525878906
 31
0.0
  0
LINE
  5
D7
100
AcDbEntity
  8
0
  6
CONTINUOUS
 62
               7
100
AcDbLine
 10
-8.7500000000000284
 20
-104.00001525878906
 30
0.0
 11
8.7499999999999858
 21
-104.00001525878906
 31
0.0
  0
LINE
  5
D8
100
AcDbEntity
  8
0
  6
CONTINUOUS
 62
               7
100
AcDbLine
 10
-8.7500000000000284
 20
-95.000015258789063
 30
0.0
 11
-8.7500000000000284
 21
-106.00001525878906
 31
0.0
  0
LINE
  5
D9
100
AcDbEntity
  8
0
  6
CONTINUOUS
 62
               7
100
AcDbLine
 10
-8.7500000000000284
 20
-106.00001525878906
 30
0.0
 11
8.7499999999999858
 21
-106.00001525878906
 31
0.0
  0
LINE
  5
DA
100
AcDbEntity
  8
0
  6
CONTINUOUS
 62
               7
100
AcDbLine
 10
-8.5000000000000284
 20
-106.00001525878906
 30
0.0
 11
-8.5000000000000284
 21
-108.00001525878906
 31
0.0
  0
LINE
  5
DB
100
AcDbEntity
  8
0
  6
CONTINUOUS
 62
               7
100
AcDbLine
 10
8.4999999999999858
 20
-106.00001525878906
 30
0.0
 11
8.4999999999999858
 21
-108.00001525878906
 31
0.0
  0
LINE
  5
DC
100
AcDbEntity
  8
0
  6
CONTINUOUS
 62
               7
100
AcDbLine
 10
-8.5000000000000284
 20
-108.00001525878906
 30
0.0
 11
8.4999999999999858
 21
-108.00001525878906
 31
0.0
  0
LINE
  5
DD
100
AcDbEntity
  8
0
  6
CONTINUOUS
 62
               7
100
AcDbLine
 10
8.3999999999999631
 20
-108.80001525878905
 30
0.0
 11
8.3999999999999631
 21
-111.00001525878906
 31
0.0
  0
LINE
  5
DE
100
AcDbEntity
  8
0
  6
CONTINUOUS
 62
               7
100
AcDbLine
 10
-8.4000000000000341
 20
-108.80001525878905
 30
0.0
 11
8.3999999999999631
 21
-108.80001525878905
 31
0.0
  0
LINE
  5
DF
100
AcDbEntity
  8
0
  6
CONTINUOUS
 62
               7
100
AcDbLine
 10
-6.0000000000000284
 20
-108.00001525878906
 30
0.0
 11
-6.0000000000000284
 21
-108.80001525878905
 31
0.0
  0
LINE
  5
E0
100
AcDbEntity
  8
0
  6
CONTINUOUS
 62
               7
100
AcDbLine
 10
5.9999999999999858
 20
-108.00001525878906
 30
0.0
 11
5.9999999999999858
 21
-108.80001525878905
 31
0.0
  0
LINE
  5
E1
100
AcDbEntity
  8
0
  6
CONTINUOUS
 62
               7
100
AcDbLine
 10
-8.4000000000000341
 20
-111.00001525878906
 30
0.0
 11
8.3999999999999631
 21
-111.00001525878906
 31
0.0
  0
LINE
  5
E2
100
AcDbEntity
  8
0
  6
CONTINUOUS
 62
               7
100
AcDbLine
 10
-8.4000000000000341
 20
-108.80001525878905
 30
0.0
 11
-8.4000000000000341
 21
-111.00001525878906
 31
0.0
  0
CIRCLE
  5
E3
100
AcDbEntity
  8
0
  6
CONTINUOUS
 62
               7
100
AcDbCircle
 10
-6.4999725341797046
 20
-49.000016784667963
 30
0.0
 40
1.5999999046325684
  0
CIRCLE
  5
E4
100
AcDbEntity
  8
0
  6
CONTINUOUS
 62
               7
100
AcDbCircle
 10
6.5000122070312472
 20
-9.0000167846679702
 30
0.0
 40
1.5
  0
LINE
  5
E5
100
AcDbEntity
  8
0
  6
CONTINUOUS
 62
               7
100
AcDbLine
 10
7.8999999999999631
 20
-80.80001525878906
 30
0.0
 11
7.8999999999999631
 21
-92.000015258789063
 31
0.0
  0
LINE
  5
E6
100
AcDbEntity
  8
0
  6
CONTINUOUS
 62
               7
100
AcDbLine
 10
-7.9000000000000199
 20
-80.80001525878906
 30
0.0
 11
-7.9000000000000199
 21
-92.000015258789063
 31
0.0
  0
LINE
  5
E7
100
AcDbEntity
  8
0
  6
CONTINUOUS
 62
               7
100
AcDbLine
 10
7.1999999999999744
 20
9.9999847412109375
 30
0.0
 11
-7.3000000000000114
 21
9.9999847412109375
 31
0.0
  0
LINE
  5
E8
100
AcDbEntity
  8
0
  6
CONTINUOUS
 62
               7
100
AcDbLine
 10
7.8999999999999631
 20
-92.000015258789063
 30
0.0
 11
-7.9000000000000199
 21
-92.000015258789063
 31
0.0
  0
LINE
  5
E9
100
AcDbEntity
  8
0
  6
CONTINUOUS
 62
               7
100
AcDbLine
 10
7.8999999999999631
 20
-80.80001525878906
 30
0.0
 11
-7.9000000000000199
 21
-80.80001525878906
 31
0.0
  0
LINE
  5
EA
100
AcDbEntity
  8
0
  6
CONTINUOUS
 62
               7
100
AcDbLine
 10
9.3999999999999631
 20
-93.500015258789063
 30
0.0
 11
-9.4000000000000199
 21
-93.500015258789063
 31
0.0
  0
LINE
  5
EB
100
AcDbEntity
  8
0
  6
CONTINUOUS
 62
               7
100
AcDbLine
 10
9.3999999999999631
 20
7.2499847412109375
 30
0.0
 11
9.3999999999999631
 21
-93.500015258789063
 31
0.0
  0
LINE
  5
EC
100
AcDbEntity
  8
0
  6
CONTINUOUS
 62
               7
100
AcDbLine
 10
-9.4000000000000199
 20
7.3749847412109375
 30
0.0
 11
-9.4000000000000199
 21
-93.500015258789063
 31
0.0
  0
LINE
  5
ED
100
AcDbEntity
  8
0
  6
CONTINUOUS
 62
               7
100
AcDbLine
 10
9.3999999999999631
 20
-79.30001525878906
 30
0.0
 11
-9.4000000000000199
 21
-79.30001525878906
 31
0.0
  0
LINE
  5
EE
100
AcDbEntity
  8
0
  6
CENTER
 62
               2
100
AcDbLine
 10
-6.5000000000000142
 20
-46.415015258789055
 30
0.0
 11
-6.5000000000000142
 21
-52.000015258789063
 31
0.0
  0
LINE
  5
EF
100
AcDbEntity
  8
0
  6
CONTINUOUS
 62
               7
100
AcDbLine
 10
9.3999999999999631
 20
7.2499847412109375
 30
0.0
 11
7.1999999999999744
 21
9.9999847412109375
 31
0.0
  0
LINE
  5
F0
100
AcDbEntity
  8
0
  6
CONTINUOUS
 62
               7
100
AcDbLine
 10
-9.4000000000000199
 20
7.3749847412109375
 30
0.0
 11
-7.3000000000000114
 21
9.9999847412109375
 31
0.0
  0
LINE
  5
F1
100
AcDbEntity
  8
0
  6
CENTER
 62
               2
100
AcDbLine
 10
9.4999999999999858
 20
-9.0000152587890625
 30
0.0
 11
3.4999999999999858
 21
-9.0000152587890625
 31
0.0
  0
LINE
  5
F2
100
AcDbEntity
  8
0
  6
CENTER
 62
               2
100
AcDbLine
 10
6.4999999999999858
 20
-6.0000152587890625
 30
0.0
 11
6.4999999999999858
 21
-12.000015258789055
 31
0.0
  0
LINE
  5
F3
100
AcDbEntity
  8
0
  6
CENTER
 62
               2
100
AcDbLine
 10
-3.0000000000000142
 20
-49.000015258789063
 30
0.0
 11
-10.000000000000014
 21
-49.000015258789055
 31
0.0
  0
ENDBLK
  5
F4
100
AcDbEntity
  8
0
100
AcDbBlockEnd
  0
BLOCK
  5
F5
100
AcDbEntity
  8
0
100
AcDbBlockBegin
  2
F18Z-5
 70
               0
 10
0.0
 20
0.0
 30
0.0
  3
F18Z-5
  1

  0
LINE
  5
F6
100
AcDbEntity
  8
0
  6
CONTINUOUS
 62
               2
100
AcDbLine
 10
-4.9999999999999574
 20
0.0
 30
0.0
 11
17.999999999999986
 21
0.0
 31
0.0
  0
LINE
  5
F7
100
AcDbEntity
  8
0
  6
CONTINUOUS
 62
               2
100
AcDbLine
 10
8.9999999999999574
 20
-78.755015258789086
 30
0.0
 11
8.9999999999999574
 21
-114.61001525878902
 31
0.0
  0
LINE
  5
F8
100
AcDbEntity
  8
0
  6
DASHED
 62
               2
100
AcDbLine
 10
1.9999999999999858
 20
10.499984741210952
 30
0.0
 11
1.9999999999999858
 21
48.999984741210937
 31
0.0
  0
LINE
  5
F9
100
AcDbEntity
  8
0
  6
DASHED
 62
               2
100
AcDbLine
 10
-0.7999999761581478
 20
46.999984741210937
 30
0.0
 11
-0.2999999761581478
 21
46.999984741210937
 31
0.0
  0
LINE
  5
FA
100
AcDbEntity
  8
0
  6
DASHED
 62
               2
100
AcDbLine
 10
-0.799999999999983
 20
48.799984741210949
 30
0.0
 11
1.9999999999999858
 21
48.799984741210949
 31
0.0
  0
LINE
  5
FB
100
AcDbEntity
  8
0
  6
DASHED
 62
               2
100
AcDbLine
 10
-0.799999999999983
 20
46.999984741210937
 30
0.0
 11
-0.799999999999983
 21
48.799984741210949
 31
0.0
  0
ARC
  5
FC
100
AcDbEntity
  8
0
  6
DASHED
 62
               2
100
AcDbCircle
 10
13.499999999999986
 20
38.599984741210932
 30
0.0
 40
1.5
100
AcDbArc
 50
179.99999999999963
 51
269.99999999999937
  0
LINE
  5
FD
100
AcDbEntity
  8
0
  6
DASHED
 62
               2
100
AcDbLine
 10
11.999999999999986
 20
38.599984741210932
 30
0.0
 11
11.999999999999986
 21
48.999984741210937
 31
0.0
  0
LINE
  5
FE
100
AcDbEntity
  8
0
  6
DASHED
 62
               2
100
AcDbLine
 10
14.999999999999986
 20
37.099984741210932
 30
0.0
 11
13.499999999999986
 21
37.099984741210932
 31
0.0
  0
LINE
  5
FF
100
AcDbEntity
  8
0
  6
DASHED
 62
               2
100
AcDbLine
 10
12.999999999999986
 20
14.999984741210952
 30
0.0
 11
14.999999999999986
 21
16.999984741210952
 31
0.0
  0
LINE
  5
100
100
AcDbEntity
  8
0
  6
DASHED
 62
               2
100
AcDbLine
 10
1.2000000000000028
 20
44.999984741210937
 30
0.0
 11
-0.299999999999983
 21
44.999984741210937
 31
0.0
  0
LINE
  5
101
100
AcDbEntity
  8
0
  6
DASHED
 62
               2
100
AcDbLine
 10
-0.299999999999983
 20
44.999984741210937
 30
0.0
 11
-0.299999999999983
 21
46.999984741210937
 31
0.0
  0
LINE
  5
102
100
AcDbEntity
  8
0
  6
DASHED
 62
               2
100
AcDbLine
 10
1.2000000000000028
 20
38.79998474121092
 30
0.0
 11
1.2000000000000028
 21
44.999984741210937
 31
0.0
  0
LINE
  5
103
100
AcDbEntity
  8
0
  6
DASHED
 62
               2
100
AcDbLine
 10
1.9999999999999858
 20
38.79998474121092
 30
0.0
 11
1.2000000000000028
 21
38.79998474121092
 31
0.0
  0
LINE
  5
104
100
AcDbEntity
  8
0
  6
DASHED
 62
               2
100
AcDbLine
 10
14.999999999999986
 20
16.999984741210952
 30
0.0
 11
14.999999999999986
 21
37.099984741210932
 31
0.0
  0
LINE
  5
105
100
AcDbEntity
  8
0
  6
DASHED
 62
               2
100
AcDbLine
 10
11.999999999999986
 20
48.999984741210937
 30
0.0
 11
1.9999999999999858
 21
48.999984741210937
 31
0.0
  0
LINE
  5
106
100
AcDbEntity
  8
0
  6
DASHED
 62
               2
100
AcDbLine
 10
2.0000000119209176
 20
47.999984741210938
 30
0.0
 11
12.000000011920918
 21
47.999984741210938
 31
0.0
  0
LINE
  5
107
100
AcDbEntity
  8
0
  6
DASHED
 62
               2
100
AcDbLine
 10
14.999999999999986
 20
28.999984741210923
 30
0.0
 11
1.9999999999999858
 21
28.999984741210923
 31
0.0
  0
LINE
  5
108
100
AcDbEntity
  8
0
  6
DASHED
 62
               2
100
AcDbLine
 10
14.999999999999986
 20
27.999984741210952
 30
0.0
 11
1.9999999999999858
 21
27.999984741210952
 31
0.0
  0
LINE
  5
109
100
AcDbEntity
  8
0
  6
DASHED
 62
               2
100
AcDbLine
 10
12.999999999999986
 20
9.9999847412109517
 30
0.0
 11
12.999999999999986
 21
14.999984741210952
 31
0.0
  0
LINE
  5
10A
100
AcDbEntity
  8
0
  6
DASHED
 62
               2
100
AcDbLine
 10
1.9999999999999858
 20
10.499984741210952
 30
0.0
 11
2.4999999999999858
 21
9.9999847412109517
 31
0.0
  0
LINE
  5
10B
100
AcDbEntity
  8
0
  6
CONTINUOUS
 62
               7
100
AcDbLine
 10
0.2999999999999687
 20
-95.000015258789091
 30
0.0
 11
0.0999999999999659
 21
-94.800015258789074
 31
0.0
  0
LINE
  5
10C
100
AcDbEntity
  8
0
  6
CONTINUOUS
 62
               7
100
AcDbLine
 10
17.699999999999946
 20
-95.000015258789091
 30
0.0
 11
17.899999999999935
 21
-94.800015258789074
 31
0.0
  0
LINE
  5
10D
100
AcDbEntity
  8
0
  6
CONTINUOUS
 62
               7
100
AcDbLine
 10
17.899999999999935
 20
-93.500015258789091
 30
0.0
 11
17.899999999999935
 21
-94.800015258789074
 31
0.0
  0
LINE
  5
10E
100
AcDbEntity
  8
0
  6
CONTINUOUS
 62
               7
100
AcDbLine
 10
0.0999999999999659
 20
-93.500015258789091
 30
0.0
 11
0.0999999999999659
 21
-94.800015258789074
 31
0.0
  0
LINE
  5
10F
100
AcDbEntity
  8
0
  6
CONTINUOUS
 62
               7
100
AcDbLine
 10
17.899999999999935
 20
-94.800015258789074
 30
0.0
 11
0.0999999999999659
 21
-94.800015258789074
 31
0.0
  0
LINE
  5
110
100
AcDbEntity
  8
0
  6
CONTINUOUS
 62
               7
100
AcDbLine
 10
17.699999999999946
 20
-95.000015258789091
 30
0.0
 11
0.2999999999999687
 21
-95.000015258789091
 31
0.0
  0
LINE
  5
111
100
AcDbEntity
  8
0
  6
CONTINUOUS
 62
               7
100
AcDbLine
 10
0.2499999999999574
 20
-95.000015258789091
 30
0.0
 11
0.2499999999999574
 21
-106.00001525878909
 31
0.0
  0
LINE
  5
112
100
AcDbEntity
  8
0
  6
CONTINUOUS
 62
               7
100
AcDbLine
 10
17.749999999999957
 20
-104.00001525878906
 30
0.0
 11
0.2499999999999574
 21
-104.00001525878906
 31
0.0
  0
LINE
  5
113
100
AcDbEntity
  8
0
  6
CONTINUOUS
 62
               7
100
AcDbLine
 10
17.749999999999957
 20
-95.000015258789091
 30
0.0
 11
17.749999999999957
 21
-106.00001525878909
 31
0.0
  0
LINE
  5
114
100
AcDbEntity
  8
0
  6
CONTINUOUS
 62
               7
100
AcDbLine
 10
17.749999999999957
 20
-106.00001525878909
 30
0.0
 11
0.2499999999999574
 21
-106.00001525878909
 31
0.0
  0
LINE
  5
115
100
AcDbEntity
  8
0
  6
CONTINUOUS
 62
               7
100
AcDbLine
 10
17.499999999999957
 20
-106.00001525878909
 30
0.0
 11
17.499999999999957
 21
-108.00001525878909
 31
0.0
  0
LINE
  5
116
100
AcDbEntity
  8
0
  6
CONTINUOUS
 62
               7
100
AcDbLine
 10
0.4999999999999574
 20
-106.00001525878909
 30
0.0
 11
0.4999999999999574
 21
-108.00001525878909
 31
0.0
  0
LINE
  5
117
100
AcDbEntity
  8
0
  6
CONTINUOUS
 62
               7
100
AcDbLine
 10
17.499999999999957
 20
-108.00001525878909
 30
0.0
 11
0.4999999999999574
 21
-108.00001525878909
 31
0.0
  0
LINE
  5
118
100
AcDbEntity
  8
0
  6
CONTINUOUS
 62
               7
100
AcDbLine
 10
0.5999999999999517
 20
-108.80001525878902
 30
0.0
 11
0.5999999999999517
 21
-111.00001525878909
 31
0.0
  0
LINE
  5
119
100
AcDbEntity
  8
0
  6
CONTINUOUS
 62
               7
100
AcDbLine
 10
17.399999999999963
 20
-108.80001525878902
 30
0.0
 11
0.5999999999999517
 21
-108.80001525878902
 31
0.0
  0
LINE
  5
11A
100
AcDbEntity
  8
0
  6
CONTINUOUS
 62
               7
100
AcDbLine
 10
14.999999999999957
 20
-108.00001525878909
 30
0.0
 11
14.999999999999957
 21
-108.80001525878902
 31
0.0
  0
LINE
  5
11B
100
AcDbEntity
  8
0
  6
CONTINUOUS
 62
               7
100
AcDbLine
 10
2.9999999999999574
 20
-108.00001525878909
 30
0.0
 11
2.9999999999999574
 21
-108.80001525878902
 31
0.0
  0
LINE
  5
11C
100
AcDbEntity
  8
0
  6
CONTINUOUS
 62
               7
100
AcDbLine
 10
17.399999999999963
 20
-111.00001525878909
 30
0.0
 11
0.5999999999999517
 21
-111.00001525878909
 31
0.0
  0
LINE
  5
11D
100
AcDbEntity
  8
0
  6
CONTINUOUS
 62
               7
100
AcDbLine
 10
17.399999999999963
 20
-108.80001525878902
 30
0.0
 11
17.399999999999963
 21
-111.00001525878909
 31
0.0
  0
LINE
  5
11E
100
AcDbEntity
  8
0
  6
CONTINUOUS
 62
               7
100
AcDbLine
 10
0.0000000277402137
 20
7.2499847412109517
 30
0.0
 11
12.999999999999986
 21
7.2499847412109517
 31
0.0
  0
LINE
  5
11F
100
AcDbEntity
  8
0
  6
CONTINUOUS
 62
               7
100
AcDbLine
 10
12.999999999999986
 20
9.9999847412109517
 30
0.0
 11
12.999999999999957
 21
-79.300015258789102
 31
0.0
  0
LINE
  5
120
100
AcDbEntity
  8
0
  6
CONTINUOUS
 62
               7
100
AcDbLine
 10
17.999999999999957
 20
-79.300015258789045
 30
0.0
 11
17.999999999999957
 21
-93.500015258789091
 31
0.0
  0
LINE
  5
121
100
AcDbEntity
  8
0
  6
CONTINUOUS
 62
               7
100
AcDbLine
 10
0.0
 20
9.9999847412109517
 30
0.0
 11
12.999999999999986
 21
9.9999847412109517
 31
0.0
  0
LINE
  5
122
100
AcDbEntity
  8
0
  6
CONTINUOUS
 62
               7
100
AcDbLine
 10
0.0
 20
9.9999847412109517
 30
0.0
 11
-0.0000000000000284
 21
-93.500015258789091
 31
0.0
  0
LINE
  5
123
100
AcDbEntity
  8
0
  6
CONTINUOUS
 62
               7
100
AcDbLine
 10
17.999999999999957
 20
-79.300015258789045
 30
0.0
 11
12.999999999999957
 21
-79.300015258789045
 31
0.0
  0
LINE
  5
124
100
AcDbEntity
  8
0
  6
CONTINUOUS
 62
               7
100
AcDbLine
 10
17.999999999999957
 20
-93.500015258789091
 30
0.0
 11
-0.0000000000000284
 21
-93.500015258789091
 31
0.0
  0
ENDBLK
  5
125
100
AcDbEntity
  8
0
100
AcDbBlockEnd
  0
BLOCK
  5
126
100
AcDbEntity
  8
0
100
AcDbBlockBegin
  2
F18Z-6
 70
               0
 10
0.0
 20
0.0
 30
0.0
  3
F18Z-6
  1

  0
LINE
  5
127
100
AcDbEntity
  8
0
  6
CONTINUOUS
 62
               2
100
AcDbLine
 10
0.0
 20
21.515000000000001
 30
0.0
 11
0.0
 21
-3.5150000000000006
 31
0.0
  0
LINE
  5
128
100
AcDbEntity
  8
0
  6
CONTINUOUS
 62
               7
100
AcDbLine
 10
-9.3999999999999915
 20
18.0
 30
0.0
 11
-9.3999999999999915
 21
0.0
 31
0.0
  0
LINE
  5
129
100
AcDbEntity
  8
0
  6
CONTINUOUS
 62
               7
100
AcDbLine
 10
9.3999999999999915
 20
18.0
 30
0.0
 11
9.3999999999999915
 21
0.0
 31
0.0
  0
LINE
  5
12A
100
AcDbEntity
  8
0
  6
CONTINUOUS
 62
               2
100
AcDbLine
 10
-12.515000000000001
 20
9.0
 30
0.0
 11
12.515000000000001
 21
9.0
 31
0.0
  0
LINE
  5
12B
100
AcDbEntity
  8
0
  6
CONTINUOUS
 62
               7
100
AcDbLine
 10
-9.3999999999999915
 20
18.0
 30
0.0
 11
9.3999999999999915
 21
18.0
 31
0.0
  0
LINE
  5
12C
100
AcDbEntity
  8
0
  6
CONTINUOUS
 62
               7
100
AcDbLine
 10
-9.3999999999999915
 20
0.0
 30
0.0
 11
9.3999999999999915
 21
0.0
 31
0.0
  0
CIRCLE
  5
12D
100
AcDbEntity
  8
0
  6
CONTINUOUS
 62
               7
100
AcDbCircle
 10
-0.0033343505859023
 20
8.9999938964843693
 30
0.0
 40
8.8999996185302734
  0
CIRCLE
  5
12E
100
AcDbEntity
  8
0
  6
CONTINUOUS
 62
               7
100
AcDbCircle
 10
-0.0033343505859023
 20
8.9999938964843693
 30
0.0
 40
8.75
  0
CIRCLE
  5
12F
100
AcDbEntity
  8
0
  6
CONTINUOUS
 62
               7
100
AcDbCircle
 10
-0.0033343505859023
 20
8.9999938964843693
 30
0.0
 40
8.3999996185302734
  0
CIRCLE
  5
130
100
AcDbEntity
  8
0
  6
CONTINUOUS
 62
               7
100
AcDbCircle
 10
-0.0033343505859023
 20
8.9999938964843693
 30
0.0
 40
5.0
  0
ENDBLK
  5
131
100
AcDbEntity
  8
0
100
AcDbBlockEnd
  0
ENDSEC
  0
SECTION
  2
ENTITIES
  0
INSERT
  5
132
100
AcDbEntity
  8
0
  6
ByBlock
100
AcDbBlockReference
  2
F18Z-1
 10
-82.037499237060558
 20
27.683580731901571
 30
0.0
  0
INSERT
  5
133
100
AcDbEntity
  8
0
  6
ByBlock
100
AcDbBlockReference
  2
F18Z-2
 10
-147.53749923706056
 20
27.683580731901571
 30
0.0
  0
INSERT
  5
134
100
AcDbEntity
  8
0
  6
ByBlock
100
AcDbBlockReference
  2
F18Z-3
 10
-82.037499237060544
 20
-112.81643452688749
 30
0.0
  0
INSERT
  5
135
100
AcDbEntity
  8
0
  6
ByBlock
100
AcDbBlockReference
  2
F18Z-4
 10
112.48750228881836
 20
27.683580731901571
 30
0.0
  0
INSERT
  5
136
100
AcDbEntity
  8
0
  6
ByBlock
100
AcDbBlockReference
  2
F18Z-5
 10
46.987502288818391
 20
27.683580731901571
 30
0.0
  0
INSERT
  5
137
100
AcDbEntity
  8
0
  6
ByBlock
100
AcDbBlockReference
  2
F18Z-6
 10
112.48750228881833
 20
-112.81643452688749
 30
0.0
  0
MTEXT
  5
138
100
AcDbEntity
  8
0
  6
CONTINUOUS
 62
               7
100
AcDbMText
 10
115.52672595002113
 20
-126.0
 30
0.0
 40
6.3000001907348633
 41
0.0
 71
               4
 72
               1
  1
\W1.121;\A1;KOGANEI CORP.
  0
MTEXT
  5
139
100
AcDbEntity
  8
0
  6
CONTINUOUS
 62
               7
100
AcDbMText
 10
135.28361320185996
 20
125.10000610351562
 30
0.0
 40
4.5
 41
0.0
 71
               4
 72
               1
  1
\W1.311;\A1;Ver. 1.0
  0
LINE
  5
13A
100
AcDbEntity
  8
0
  6
CONTINUOUS
 62
               7
100
AcDbLine
 10
-109.25
 20
132.60000610351562
 30
0.0
 11
-109.25
 21
117.60000610351562
 31
0.0
  0
LINE
  5
13B
100
AcDbEntity
  8
0
  6
CONTINUOUS
 62
               7
100
AcDbLine
 10
-194.25
 20
117.60000610351562
 30
0.0
 11
-109.25
 21
117.60000610351562
 31
0.0
  0
LINE
  5
13C
100
AcDbEntity
  8
0
  6
CONTINUOUS
 62
               7
100
AcDbLine
 10
109.80000305175781
 20
117.60000610351562
 30
0.0
 11
194.80000305175781
 21
117.60000610351562
 31
0.0
  0
LINE
  5
13D
100
AcDbEntity
  8
0
  6
CONTINUOUS
 62
               7
100
AcDbLine
 10
109.80000305175781
 20
132.60000610351562
 30
0.0
 11
109.80000305175781
 21
117.60000610351562
 31
0.0
  0
LINE
  5
13E
100
AcDbEntity
  8
0
  6
CONTINUOUS
 62
               7
100
AcDbLine
 10
109.80000305175781
 20
-118.5
 30
0.0
 11
194.80000305175781
 21
-118.5
 31
0.0
  0
LINE
  5
13F
100
AcDbEntity
  8
0
  6
CONTINUOUS
 62
               7
100
AcDbLine
 10
109.80000305175781
 20
-118.5
 30
0.0
 11
109.80000305175781
 21
-133.5
 31
0.0
  0
LINE
  5
140
100
AcDbEntity
  8
0
  6
CONTINUOUS
 62
               7
100
AcDbLine
 10
-194.25
 20
-133.5
 30
0.0
 11
194.80000305175781
 21
-133.5
 31
0.0
  0
LINE
  5
141
100
AcDbEntity
  8
0
  6
CONTINUOUS
 62
               7
100
AcDbLine
 10
-194.25
 20
132.60000610351562
 30
0.0
 11
-194.25
 21
-133.5
 31
0.0
  0
LINE
  5
142
100
AcDbEntity
  8
0
  6
CONTINUOUS
 62
               7
100
AcDbLine
 10
194.80000305175781
 20
132.60000610351562
 30
0.0
 11
194.80000305175781
 21
-133.5
 31
0.0
  0
LINE
  5
143
100
AcDbEntity
  8
0
  6
CONTINUOUS
 62
               7
100
AcDbLine
 10
-194.25
 20
132.60000610351562
 30
0.0
 11
194.80000305175781
 21
132.60000610351562
 31
0.0
  0
MTEXT
  5
144
100
AcDbEntity
  8
0
  6
CONTINUOUS
 62
               7
100
AcDbMText
 10
-185.6923077197001
 20
107.60000610351562
 30
0.0
 40
4.5
 41
0.0
 71
               4
 72
               1
  1
\W1.077;\A1;MODEL:F18Z-NP8
  0
MTEXT
  5
145
100
AcDbEntity
  8
0
  6
CONTINUOUS
 62
               1
100
AcDbMText
 10
-173.41044320134441
 20
125.10000610351562
 30
0.0
 40
4.5
 41
0.0
 71
               4
 72
               1
  1
\W1.119;\A1;F18 SERIES
  0
MTEXT
  5
146
100
AcDbEntity
  8
0
  6
CONTINUOUS
 62
               7
100
AcDbMText
 10
-158.71739134727576
 20
101.85000601410866
 30
0.0
 40
4.5
 41
0.0
 71
               1
 72
               1
  1
\W1.043;\A1;F18Z-NR8
  0
MTEXT
  5
147
100
AcDbEntity
  8
0
  6
CONTINUOUS
 62
               7
100
AcDbMText
 10
-161.16666664039462
 20
93.850006014108658
 30
0.0
 40
4.5
 41
0.0
 71
               1
 72
               1
  1
\W1.111;\A1;(F18Z-PP8)
  0
MTEXT
  5
148
100
AcDbEntity
  8
0
  6
CONTINUOUS
 62
               7
100
AcDbMText
 10
-161.16666664039462
 20
85.850006014108658
 30
0.0
 40
4.5
 41
0.0
 71
               1
 72
               1
  1
\W1.111;\A1;(F18Z-PR8)
  0
MTEXT
  5
149
100
AcDbEntity
  8
0
  6
CONTINUOUS
 62
               7
100
AcDbMText
 10
8.8431833346660778
 20
107.60000610351562
 30
0.0
 40
4.5
 41
0.0
 71
               4
 72
               1
  1
\W1.091;\A1;MODEL:F18Z-NP0
  0
MTEXT
  5
14A
100
AcDbEntity
  8
0
  6
CONTINUOUS
 62
               7
100
AcDbMText
 10
35.825001492102935
 20
101.85000601410866
 30
0.0
 40
4.5
 41
0.0
 71
               1
 72
               1
  1
\W1.067;\A1;F18Z-NR0
  0
MTEXT
  5
14B
100
AcDbEntity
  8
0
  6
CONTINUOUS
 62
               7
100
AcDbMText
 10
33.411794075095912
 20
93.850006014108658
 30
0.0
 40
4.5
 41
0.0
 71
               1
 72
               1
  1
\W1.132;\A1;(F18Z-PP0)
  0
MTEXT
  5
14C
100
AcDbEntity
  8
0
  6
CONTINUOUS
 62
               7
100
AcDbMText
 10
33.411794075095912
 20
85.850006014108658
 30
0.0
 40
4.5
 41
0.0
 71
               1
 72
               1
  1
\W1.132;\A1;(F18Z-PR0)
  0
LINE
  5
14D
100
AcDbEntity
  8
0
  6
CONTINUOUS
 62
               7
100
AcDbLine
 10
0.2750015258789063
 20
132.60000610351562
 30
0.0
 11
0.2750015258789063
 21
-133.5
 31
0.0
  0
ENDSEC
  0
SECTION
  2
OBJECTS
  0
DICTIONARY
  5
19
100
AcDbDictionary
  3
ACAD_GROUP
350
1A
  3
ACAD_MLINESTYLE
350
1B
  0
DICTIONARY
  5
1A
102
{ACAD_REACTORS
330
19
102
}
100
AcDbDictionary
  0
DICTIONARY
  5
1B
102
{ACAD_REACTORS
330
19
102
}
100
AcDbDictionary
  3
STANDARD
350
1C
  0
MLINESTYLE
  5
1C
102
{ACAD_REACTORS
330
1B
102
}
100
AcDbMlineStyle
  2
Standard
 70
               0
  3

 62
               0
 51
90.0
 52
90.0
 71
               2
 49
0.5
 62
             256
  6
ByLayer
 49
-0.5
 62
             256
  6
ByLayer
  0
ENDSEC
  0
EOF
