  0
SECTION
  2
HEADER
  0
ENDSEC
  0
SECTION
  2
TABLES
  0
TABLE
  2
LTYPE
 70
     4
  0
LTYPE
  2
CONTINUOUS
 70
    64
  3
Solid line
 72
    65
 73
     0
 40
0.000000
  0
LTYPE
  2
DASHED
 70
    64
  3
__ __ __ __ __ __ __ __ __ __ __ __ __ __ __
 72
    65
 73
     2
 40
3.500000
 49
2.000000
 49
-1.500000
  0
LTYPE
  2
CENTER
 70
    64
  3
____ _ ____ _ ____ _ ____ _ ____ _ ____ _ ____
 72
    65
 73
     4
 40
17.500000
 49
13.000000
 49
-1.500000
 49
1.500000
 49
-1.500000
  0
LTYPE
  2
PHANTOM
 70
    64
  3
_____ _ _ _____ _ _ _____ _ _ _____ _ _ ____  
 72
    65
 73
     6
 40
15.500000
 49
8.000000
 49
-1.500000
 49
1.500000
 49
-1.500000
 49
1.500000
 49
-1.500000
  0
LTYPE
  2
DASHED1
 70
    64
  3
__ __ __ __ __ __ __ __ __ __ __ __ __ __ __
 72
    65
 73
     2
 40
1.500000
 49
1.000000
 49
-0.500000
  0
LTYPE
  2
DASHED2
 70
    64
  3
__ __ __ __ __ __ __ __ __ __ __ __ __ __ __
 72
    65
 73
     2
 40
3.500000
 49
2.500000
 49
-1.000000
  0
LTYPE
  2
DASHED3
 70
    64
  3
__ __ __ __ __ __ __ __ __ __ __ __ __ __ __
 72
    65
 73
     2
 40
6.000000
 49
4.000000
 49
-2.000000
  0
LTYPE
  2
DASHED4
 70
    64
  3
__ __ __ __ __ __ __ __ __ __ __ __ __ __ __
 72
    65
 73
     2
 40
12.000000
 49
10.000000
 49
-2.000000
  0
LTYPE
  2
DASHED5
 70
    64
  3
__ __ __ __ __ __ __ __ __ __ __ __ __ __ __
 72
    65
 73
     2
 40
17.000000
 49
15.000000
 49
-2.000000
  0
LTYPE
  2
DASHED6
 70
    64
  3
__ __ __ __ __ __ __ __ __ __ __ __ __ __ __
 72
    65
 73
     2
 40
29.000000
 49
27.000000
 49
-2.000000
  0
LTYPE
  2
PHANTOM1
 70
    64
  3
_____ _ _ _____ _ _ _____ _ _ _____ _ _ ____  
 72
    65
 73
     6
 40
31.000000
 49
25.000000
 49
-1.500000
 49
1.000000
 49
-1.000000
 49
1.000000
 49
-1.500000
  0
LTYPE
  2
PHANTOM2
 70
    64
  3
_____ _ _ _____ _ _ _____ _ _ _____ _ _ ____  
 72
    65
 73
     6
 40
36.000000
 49
27.000000
 49
-1.500000
 49
2.500000
 49
-1.000000
 49
2.500000
 49
-1.500000
  0
LTYPE
  2
PHANTOM3
 70
    64
  3
_____ _ _ _____ _ _ _____ _ _ _____ _ _ ____  
 72
    65
 73
     6
 40
78.000000
 49
64.000000
 49
-2.000000
 49
4.000000
 49
-2.000000
 49
4.000000
 49
-2.000000
  0
LTYPE
  2
CENTER1
 70
    64
  3
____ _ ____ _ ____ _ ____ _ ____ _ ____ _ ____
 72
    65
 73
     4
 40
19.000000
 49
14.000000
 49
-1.000000
 49
3.000000
 49
-1.000000
  0
LTYPE
  2
CENTER2
 70
    64
  3
____ _ ____ _ ____ _ ____ _ ____ _ ____ _ ____
 72
    65
 73
     4
 40
28.500000
 49
25.000000
 49
-1.000000
 49
1.500000
 49
-1.000000
  0
LTYPE
  2
CENTER3
 70
    64
  3
____ _ ____ _ ____ _ ____ _ ____ _ ____ _ ____
 72
    65
 73
     4
 40
31.500000
 49
27.000000
 49
-1.000000
 49
2.500000
 49
-1.000000
  0
LTYPE
  2
CENTER4
 70
    64
  3
____ _ ____ _ ____ _ ____ _ ____ _ ____ _ ____
 72
    65
 73
     4
 40
50.000000
 49
45.000000
 49
-1.000000
 49
3.000000
 49
-1.000000
  0
LTYPE
  2
CENTER5
 70
    64
  3
____ _ ____ _ ____ _ ____ _ ____ _ ____ _ ____
 72
    65
 73
     4
 40
100.000000
 49
92.000000
 49
-2.000000
 49
4.000000
 49
-2.000000
  0
LTYPE
  2
SBK1
 70
    64
  3
______ _ _ _ ______ _ _ _ ______ _ _ _ _____  
 72
    65
 73
     8
 40
60.500000
 49
45.000000
 49
-2.000000
 49
2.500000
 49
-2.000000
 49
2.500000
 49
-2.000000
 49
2.500000
 49
-2.000000
  0
LTYPE
  2
SBK2
 70
    64
  3
______ _ _ _ ______ _ _ _ ______ _ _ _ _____  
 72
    65
 73
     8
 40
84.000000
 49
64.000000
 49
-2.000000
 49
4.000000
 49
-2.000000
 49
4.000000
 49
-2.000000
 49
4.000000
 49
-2.000000
  0
LTYPE
  2
STCH
 70
    64
  3
__ __ __ __ __ __ __ __ __ __ __ __ __ __ __
 72
    65
 73
     2
 40
3.000000
 49
1.000000
 49
-2.000000
  0
LTYPE
  2
MTCH
 70
    64
  3
_____ _ _ _____ _ _ _____ _ _ _____ _ _ ____  
 72
    65
 73
     6
 40
80.000000
 49
66.000000
 49
-2.000000
 49
4.000000
 49
-2.000000
 49
4.000000
 49
-2.000000
  0
ENDTAB
  0
TABLE
  2
LAYER
 70
     1
  0
LAYER
  2
0
 70
     0
 62
     7
  6
CONTINUOUS
  0
ENDTAB
  0
TABLE
  2
STYLE
 70
     1
  0
STYLE
  2
STANDARD
 70
     0
 40
0.000000
 41
1.000000
 50
0.000000
 71
     0
 42
0.200000
  3
txt
  4
BIGFONT
  0
ENDTAB
  0
TABLE
  2
VIEW
 70
     0
  0
ENDTAB
  0
ENDSEC
  0
SECTION
  2
BLOCKS
  0
ENDSEC
  0
SECTION
  2
ENTITIES
  0
LINE
  8
0
 62
     4
 10
-135.294495
 20
-114.979980
 11
-122.294487
 21
-114.979980
  0
LINE
  8
0
 62
     4
 10
-131.644485
 20
-117.379990
 11
-131.644485
 21
-115.479980
  0
LINE
  8
0
 62
     4
 10
-125.944489
 20
-117.379990
 11
-125.944489
 21
-115.479980
  0
LINE
  8
0
 62
     4
 10
-125.544487
 20
-117.579987
 11
-125.974487
 21
-119.979988
  0
LINE
  8
0
 62
     4
 10
-125.544487
 20
-120.179985
 11
-125.974487
 21
-122.579987
  0
LINE
  8
0
 62
     4
 10
-132.044495
 20
-120.179985
 11
-131.614487
 21
-122.579987
  0
LINE
  8
0
 62
     4
 10
-132.044495
 20
-117.579987
 11
-131.614487
 21
-119.979988
  0
LINE
  8
0
 62
     4
 10
-125.544487
 20
-117.579987
 11
-125.544487
 21
-117.379990
  0
LINE
  8
0
 62
     4
 10
-132.044495
 20
-117.579987
 11
-132.044495
 21
-117.379990
  0
LINE
  8
0
 62
     4
 10
-125.544487
 20
-120.179993
 11
-132.044495
 21
-120.179993
  0
LINE
  8
0
 62
     4
 10
-125.544487
 20
-117.579987
 11
-132.044495
 21
-117.579987
  0
LINE
  8
0
 62
     4
 10
-125.544487
 20
-117.379990
 11
-132.044495
 21
-117.379990
  0
LINE
  8
0
 62
     4
 10
-125.544487
 20
-119.979980
 11
-132.044495
 21
-119.979980
  0
LINE
  8
0
 62
     4
 10
-125.544487
 20
-120.179993
 11
-125.544487
 21
-119.979980
  0
LINE
  8
0
 62
     4
 10
-132.044495
 20
-120.179993
 11
-132.044495
 21
-119.979980
  0
LINE
  8
0
 62
     4
 10
-125.974487
 20
-122.579987
 11
-131.614487
 21
-122.579987
  0
LINE
  8
0
 62
     4
 10
-122.794487
 20
-115.479988
 11
-122.294495
 21
-114.979988
  0
LINE
  8
0
 62
     4
 10
-135.294479
 20
-114.979973
 11
-134.794479
 21
-115.479973
  0
LINE
  8
0
 62
     4
 10
-135.294495
 20
-114.979980
 11
-135.294495
 21
-114.079987
  0
LINE
  8
0
 62
     4
 10
-122.294487
 20
-114.979980
 11
-122.294487
 21
-114.079987
  0
LINE
  8
0
 62
     4
 10
-122.794487
 20
-115.479980
 11
-134.794495
 21
-115.479980
  0
LINE
  8
0
 62
     4
 10
-121.044487
 20
-101.079994
 11
-136.544495
 21
-101.079994
  0
LINE
  8
0
 62
     4
 10
-135.054489
 20
-113.579987
 11
-135.804489
 21
-113.579987
  0
LINE
  8
0
 62
     4
 10
-121.784485
 20
-113.579987
 11
-122.534485
 21
-113.579987
  0
LINE
  8
0
 62
     4
 10
-130.634491
 20
-113.579987
 11
-132.444489
 21
-113.579987
  0
LINE
  8
0
 62
     4
 10
-135.224503
 20
-113.079994
 11
-135.054504
 21
-113.579994
  0
LINE
  8
0
 62
     4
 10
-122.364487
 20
-113.079994
 11
-122.534485
 21
-113.579994
  0
LINE
  8
0
 62
     4
 10
-121.784485
 20
-103.869995
 11
-121.194496
 21
-103.579994
  0
LINE
  8
0
 62
     4
 10
-125.144493
 20
-103.870003
 11
-124.484497
 21
-103.579994
  0
LINE
  8
0
 10
-126.954491
 20
-103.869995
 11
-127.294487
 21
-103.579994
  0
LINE
  8
0
 62
     4
 10
-130.634491
 20
-103.869995
 11
-130.294495
 21
-103.579994
  0
LINE
  8
0
 62
     4
 10
-132.444489
 20
-103.870003
 11
-133.104492
 21
-103.580002
  0
LINE
  8
0
 62
     4
 10
-135.804489
 20
-103.869987
 11
-136.394485
 21
-103.579987
  0
LINE
  8
0
 62
     4
 10
-135.804489
 20
-113.579987
 11
-136.394485
 21
-113.079987
  0
LINE
  8
0
 62
     4
 10
-132.444489
 20
-113.579994
 11
-133.104492
 21
-113.079994
  0
LINE
  8
0
 62
     4
 10
-130.294479
 20
-113.079994
 11
-130.634491
 21
-113.580002
  0
LINE
  8
0
 10
-126.954498
 20
-113.579994
 11
-127.294495
 21
-113.079994
  0
LINE
  8
0
 62
     4
 10
-125.144485
 20
-113.579987
 11
-124.484489
 21
-113.079994
  0
LINE
  8
0
 62
     4
 10
-121.784492
 20
-113.579987
 11
-121.194504
 21
-113.079987
  0
LINE
  8
0
 62
     4
 10
-125.144485
 20
-113.579987
 11
-126.954491
 21
-113.579987
  0
LINE
  8
0
 62
     4
 10
-122.364487
 20
-113.079994
 11
-124.484489
 21
-113.079994
  0
LINE
  8
0
 62
     4
 10
-136.394485
 20
-113.079994
 11
-136.544495
 21
-113.079994
  0
LINE
  8
0
 62
     4
 10
-133.104492
 20
-113.079994
 11
-135.224487
 21
-113.079994
  0
LINE
  8
0
 62
     4
 10
-127.294487
 20
-113.079994
 11
-130.294495
 21
-113.079994
  0
LINE
  8
0
 62
     4
 10
-135.224487
 20
-103.869995
 11
-135.804489
 21
-103.869995
  0
LINE
  8
0
 62
     4
 10
-135.224487
 20
-103.579994
 11
-136.394485
 21
-103.579994
  0
LINE
  8
0
 62
     4
 10
-125.144485
 20
-103.869995
 11
-126.954491
 21
-103.869995
  0
LINE
  8
0
 62
     4
 10
-124.484489
 20
-103.579994
 11
-127.294487
 21
-103.579994
  0
LINE
  8
0
 62
     4
 10
-130.634491
 20
-103.869995
 11
-132.444489
 21
-103.869995
  0
LINE
  8
0
 62
     4
 10
-130.294495
 20
-103.579994
 11
-133.104492
 21
-103.579994
  0
LINE
  8
0
 62
     4
 10
-121.044487
 20
-113.079994
 11
-121.194489
 21
-113.079994
  0
LINE
  8
0
 62
     4
 10
-121.784485
 20
-103.869995
 11
-122.364487
 21
-103.869995
  0
LINE
  8
0
 62
     4
 10
-121.194489
 20
-103.579994
 11
-122.364487
 21
-103.579994
  0
LINE
  8
0
 62
     4
 10
-121.194489
 20
-103.579994
 11
-121.194489
 21
-113.079994
  0
LINE
  8
0
 62
     4
 10
-121.784485
 20
-103.869995
 11
-121.784485
 21
-113.579987
  0
LINE
  8
0
 62
     4
 10
-122.364487
 20
-103.579994
 11
-122.364487
 21
-113.079994
  0
LINE
  8
0
 62
     4
 10
-124.484489
 20
-103.579994
 11
-124.484489
 21
-113.079994
  0
LINE
  8
0
 62
     4
 10
-125.144485
 20
-103.869995
 11
-125.144485
 21
-113.579987
  0
LINE
  8
0
 62
     4
 10
-136.394485
 20
-103.579994
 11
-136.394485
 21
-113.079994
  0
LINE
  8
0
 62
     4
 10
-135.804489
 20
-103.869995
 11
-135.804489
 21
-113.579987
  0
LINE
  8
0
 62
     4
 10
-135.224487
 20
-103.579994
 11
-135.224487
 21
-113.079994
  0
LINE
  8
0
 62
     4
 10
-133.104492
 20
-103.579994
 11
-133.104492
 21
-113.079994
  0
LINE
  8
0
 62
     4
 10
-132.444489
 20
-103.869995
 11
-132.444489
 21
-113.579987
  0
LINE
  8
0
 62
     4
 10
-130.634491
 20
-103.869995
 11
-130.634491
 21
-113.579987
  0
LINE
  8
0
 62
     4
 10
-126.954491
 20
-103.869995
 11
-126.954491
 21
-113.579987
  0
LINE
  8
0
 62
     4
 10
-127.294487
 20
-103.579994
 11
-127.294487
 21
-113.079994
  0
LINE
  8
0
 62
     4
 10
-130.294495
 20
-103.579994
 11
-130.294495
 21
-113.079994
  0
LINE
  8
0
 62
     1
 10
-123.544487
 20
-99.289993
 11
-123.544487
 21
-100.579994
  0
LINE
  8
0
 62
     1
 10
-134.044495
 20
-99.289993
 11
-134.044495
 21
-100.579994
  0
LINE
  8
0
 62
     4
 10
-134.794495
 20
-99.289993
 11
-134.794495
 21
-100.579994
  0
LINE
  8
0
 62
     4
 10
-122.794487
 20
-99.289993
 11
-122.794487
 21
-100.579994
  0
LINE
  8
0
 62
     4
 10
-136.044495
 20
-100.579994
 11
-136.544495
 21
-101.079994
  0
LINE
  8
0
 62
     4
 10
-121.544479
 20
-100.579987
 11
-121.044479
 21
-101.079987
  0
LINE
  8
0
 62
     4
 10
-121.544487
 20
-100.579994
 11
-136.044495
 21
-100.579994
  0
LINE
  8
0
 62
     4
 10
-135.544479
 20
-114.079979
 11
-136.544479
 21
-113.079987
  0
LINE
  8
0
 62
     4
 10
-121.044495
 20
-113.079987
 11
-122.044495
 21
-114.079987
  0
LINE
  8
0
 62
     4
 10
-136.544495
 20
-101.079994
 11
-136.544495
 21
-113.079994
  0
LINE
  8
0
 62
     4
 10
-121.044487
 20
-101.079994
 11
-121.044487
 21
-113.079994
  0
LINE
  8
0
 62
     4
 10
-122.044487
 20
-114.079987
 11
-135.544495
 21
-114.079987
  0
LINE
  8
0
 62
     4
 10
-136.364487
 20
-99.289986
 11
-136.864487
 21
-98.789986
  0
LINE
  8
0
 62
     4
 10
-121.224487
 20
-99.289993
 11
-120.724487
 21
-98.789993
  0
LINE
  8
0
 62
     4
 10
-136.364487
 20
-99.289993
 11
-121.224487
 21
-99.289993
  0
LINE
  8
0
 62
     4
 10
-120.724487
 20
-98.789993
 11
-120.724487
 21
-97.289993
  0
LINE
  8
0
 62
     4
 10
-136.864487
 20
-98.789993
 11
-136.864487
 21
-97.289993
  0
LINE
  8
0
 10
-3.672806
 20
95.102356
 11
-3.672806
 21
65.102356
  0
LINE
  8
0
 10
-64.672806
 20
65.102356
 11
-64.672806
 21
95.102356
  0
LINE
  8
0
 10
-65.672806
 20
66.102356
 11
-2.672806
 21
66.102356
  0
LINE
  8
0
 10
-65.672806
 20
94.102356
 11
-2.672806
 21
94.102356
  0
LINE
  8
0
 10
-63.172802
 20
82.602356
 11
-56.312809
 21
80.102356
  0
LINE
  8
0
 10
-63.172806
 20
77.602356
 11
-56.312805
 21
80.102356
  0
LINE
  8
0
 10
-63.172806
 20
77.602356
 11
-63.172806
 21
82.602356
  0
LINE
  8
0
 10
-3.672811
 20
95.102364
 11
-2.672809
 21
94.102364
  0
LINE
  8
0
 10
-3.672815
 20
65.102348
 11
-2.672813
 21
66.102348
  0
LINE
  8
0
 10
-65.672806
 20
66.102356
 11
-64.672806
 21
65.102356
  0
LINE
  8
0
 10
-65.672806
 20
94.102356
 11
-64.672806
 21
95.102356
  0
LINE
  8
0
 10
-2.672806
 20
66.102356
 11
-2.672806
 21
94.102356
  0
LINE
  8
0
 10
-65.672806
 20
66.102356
 11
-65.672806
 21
94.102356
  0
LINE
  8
0
 10
-64.672806
 20
95.102356
 11
-3.672806
 21
95.102356
  0
LINE
  8
0
 10
-64.672806
 20
65.102356
 11
-3.672806
 21
65.102356
  0
LINE
  8
0
  6
CENTER
 62
     2
 10
-71.422806
 20
80.102356
 11
4.327194
 21
80.102356
  0
LINE
  8
0
  6
CENTER
 62
     2
 10
-34.172806
 20
43.272369
 11
-34.172806
 21
116.602356
  0
LINE
  8
0
 10
97.827148
 20
-114.977623
 11
98.327141
 21
-115.477623
  0
LINE
  8
0
 10
110.327156
 20
-115.477623
 11
110.827156
 21
-114.977615
  0
LINE
  8
0
 10
97.827148
 20
-114.977615
 11
110.827148
 21
-114.977615
  0
LINE
  8
0
 10
110.327148
 20
-115.477615
 11
98.327148
 21
-115.477615
  0
LINE
  8
0
 10
126.327148
 20
23.102373
 11
126.657143
 21
4.092375
  0
LINE
  8
0
 10
82.327148
 20
23.102373
 11
81.997154
 21
4.092375
  0
LINE
  8
0
 10
104.327148
 20
26.602375
 11
104.327148
 21
26.102375
  0
LINE
  8
0
 10
106.827148
 20
26.602375
 11
106.827148
 21
26.102375
  0
LINE
  8
0
 10
101.827148
 20
26.602375
 11
101.827148
 21
26.102375
  0
LINE
  8
0
 10
101.827148
 20
26.602375
 11
106.827148
 21
26.602375
  0
LINE
  8
0
  6
CENTER
 62
     2
 10
95.327148
 20
14.102374
 11
113.327148
 21
14.102374
  0
LINE
  8
0
 10
125.327141
 20
24.102369
 11
126.327141
 21
23.102369
  0
LINE
  8
0
 10
82.327156
 20
23.102369
 11
83.327156
 21
24.102369
  0
LINE
  8
0
 10
119.327148
 20
23.102375
 11
126.327148
 21
23.102375
  0
LINE
  8
0
 10
82.327148
 20
23.102375
 11
89.327148
 21
23.102375
  0
LINE
  8
0
 10
83.327148
 20
24.102375
 11
88.827148
 21
24.102375
  0
LINE
  8
0
 10
119.827148
 20
24.102375
 11
125.327148
 21
24.102375
  0
LINE
  8
0
 10
73.327148
 20
-14.897626
 11
135.327148
 21
-14.897626
  0
LINE
  8
0
 10
134.327148
 20
-15.897629
 11
135.327148
 21
-14.897628
  0
LINE
  8
0
 10
135.327148
 20
2.102374
 11
135.327148
 21
-14.897626
  0
LINE
  8
0
 10
74.327148
 20
-15.897627
 11
73.327148
 21
-14.897625
  0
LINE
  8
0
 10
73.327148
 20
2.102374
 11
73.327148
 21
-14.897626
  0
LINE
  8
0
  6
CENTER
 62
     2
 10
77.797150
 20
14.102374
 11
131.007141
 21
14.102374
  0
LINE
  8
0
 10
118.327148
 20
26.102375
 11
118.327148
 21
3.102374
  0
LINE
  8
0
 10
90.327148
 20
26.102375
 11
90.327148
 21
3.102374
  0
LINE
  8
0
 10
89.327148
 20
25.102375
 11
119.327148
 21
25.102375
  0
LINE
  8
0
 10
118.327133
 20
26.102367
 11
119.327141
 21
25.102365
  0
LINE
  8
0
 10
89.327156
 20
25.102369
 11
90.327156
 21
26.102364
  0
LINE
  8
0
 10
90.327148
 20
26.102375
 11
118.327148
 21
26.102375
  0
LINE
  8
0
 10
89.327148
 20
25.102375
 11
89.327148
 21
4.102374
  0
LINE
  8
0
 10
119.327148
 20
25.102375
 11
119.327148
 21
4.102374
  0
LINE
  8
0
 10
73.327148
 20
2.102374
 11
135.327148
 21
2.102374
  0
LINE
  8
0
 10
134.327133
 20
3.102382
 11
135.327133
 21
2.102386
  0
LINE
  8
0
 10
73.327156
 20
2.102382
 11
74.327156
 21
3.102384
  0
LINE
  8
0
 10
74.327148
 20
3.102374
 11
134.327148
 21
3.102374
  0
LINE
  8
0
 10
74.327148
 20
-15.897626
 11
134.327148
 21
-15.897626
  0
LINE
  8
0
 10
129.857147
 20
-87.767601
 11
130.487137
 21
-15.897614
  0
LINE
  8
0
 10
78.797157
 20
-87.767609
 11
78.167160
 21
-15.897614
  0
LINE
  8
0
 10
96.257149
 20
-98.687622
 11
112.407150
 21
-98.687622
  0
LINE
  8
0
 10
112.077148
 20
-100.977615
 11
96.577148
 21
-100.977615
  0
LINE
  8
0
 10
98.067146
 20
-113.477615
 11
97.317146
 21
-113.477615
  0
LINE
  8
0
 10
111.337151
 20
-113.477615
 11
110.587151
 21
-113.477615
  0
LINE
  8
0
 10
102.487152
 20
-113.477615
 11
100.667145
 21
-113.477615
  0
LINE
  8
0
 10
97.887146
 20
-112.977615
 11
98.067146
 21
-113.477615
  0
LINE
  8
0
 10
110.767143
 20
-112.977608
 11
110.587135
 21
-113.477623
  0
LINE
  8
0
 10
111.337151
 20
-103.767609
 11
111.927139
 21
-103.477608
  0
LINE
  8
0
 10
107.987160
 20
-103.767624
 11
108.647156
 21
-103.477623
  0
LINE
  8
0
 10
106.167152
 20
-103.767616
 11
105.827141
 21
-103.477615
  0
LINE
  8
0
 10
102.487152
 20
-103.767616
 11
102.827156
 21
-103.477615
  0
LINE
  8
0
 10
100.667137
 20
-103.767616
 11
100.007149
 21
-103.477615
  0
LINE
  8
0
 10
97.317139
 20
-103.767616
 11
96.727150
 21
-103.477615
  0
LINE
  8
0
 10
97.317139
 20
-113.477615
 11
96.727158
 21
-112.977631
  0
LINE
  8
0
 10
100.667152
 20
-113.477631
 11
100.017143
 21
-112.977631
  0
LINE
  8
0
 10
102.827156
 20
-112.977623
 11
102.487160
 21
-113.477615
  0
LINE
  8
0
 10
106.167152
 20
-113.477615
 11
105.827148
 21
-112.977615
  0
LINE
  8
0
 10
107.987129
 20
-113.477615
 11
108.647133
 21
-112.977608
  0
LINE
  8
0
 10
111.337158
 20
-113.477615
 11
111.927147
 21
-112.977623
  0
LINE
  8
0
 10
107.987152
 20
-113.477615
 11
106.167145
 21
-113.477615
  0
LINE
  8
0
 10
110.767151
 20
-112.977615
 11
108.647148
 21
-112.977615
  0
LINE
  8
0
 10
96.727150
 20
-112.977615
 11
96.577148
 21
-112.977615
  0
LINE
  8
0
 10
100.017151
 20
-112.977615
 11
97.887146
 21
-112.977615
  0
LINE
  8
0
 10
105.827148
 20
-112.977615
 11
102.827148
 21
-112.977615
  0
LINE
  8
0
 10
97.887146
 20
-103.767624
 11
97.317146
 21
-103.767624
  0
LINE
  8
0
 10
97.887146
 20
-103.477615
 11
96.727150
 21
-103.477615
  0
LINE
  8
0
 10
107.987152
 20
-103.767624
 11
106.167145
 21
-103.767624
  0
LINE
  8
0
 10
108.647148
 20
-103.477615
 11
105.827148
 21
-103.477615
  0
LINE
  8
0
 10
102.487152
 20
-103.767624
 11
100.667145
 21
-103.767624
  0
LINE
  8
0
 10
102.827148
 20
-103.477615
 11
100.017151
 21
-103.477615
  0
LINE
  8
0
 10
112.077148
 20
-112.977615
 11
111.927147
 21
-112.977615
  0
LINE
  8
0
 10
111.337151
 20
-103.767624
 11
110.767151
 21
-103.767624
  0
LINE
  8
0
 10
111.927147
 20
-103.477615
 11
110.767151
 21
-103.477615
  0
LINE
  8
0
 10
111.927147
 20
-103.477615
 11
111.927147
 21
-112.977615
  0
LINE
  8
0
 10
111.337151
 20
-103.767624
 11
111.337151
 21
-113.477615
  0
LINE
  8
0
 10
110.767151
 20
-103.477615
 11
110.767151
 21
-112.977615
  0
LINE
  8
0
 10
108.647148
 20
-103.477615
 11
108.647148
 21
-112.977615
  0
LINE
  8
0
 10
107.987152
 20
-103.767624
 11
107.987152
 21
-113.477615
  0
LINE
  8
0
 10
96.727150
 20
-103.477615
 11
96.727150
 21
-112.977615
  0
LINE
  8
0
 10
97.317146
 20
-103.767624
 11
97.317146
 21
-113.477615
  0
LINE
  8
0
 10
97.887146
 20
-103.477615
 11
97.887146
 21
-112.977615
  0
LINE
  8
0
 10
100.017151
 20
-103.477615
 11
100.017151
 21
-112.977615
  0
LINE
  8
0
 10
100.667145
 20
-103.767624
 11
100.667145
 21
-113.477615
  0
LINE
  8
0
 10
102.487152
 20
-103.767624
 11
102.487152
 21
-113.477615
  0
LINE
  8
0
 10
106.167145
 20
-103.767624
 11
106.167145
 21
-113.477615
  0
LINE
  8
0
 10
105.827148
 20
-103.477615
 11
105.827148
 21
-112.977615
  0
LINE
  8
0
 10
102.827148
 20
-103.477615
 11
102.827148
 21
-112.977615
  0
LINE
  8
0
 62
     2
 10
109.577148
 20
-99.187622
 11
109.577148
 21
-100.477615
  0
LINE
  8
0
 62
     2
 10
99.077148
 20
-99.187622
 11
99.077148
 21
-100.477615
  0
LINE
  8
0
 10
98.327148
 20
-99.187622
 11
98.327148
 21
-100.477615
  0
LINE
  8
0
 10
110.327148
 20
-99.187622
 11
110.327148
 21
-100.477615
  0
LINE
  8
0
 10
97.077156
 20
-100.477615
 11
96.577156
 21
-100.977615
  0
LINE
  8
0
 10
111.577141
 20
-100.477615
 11
112.077141
 21
-100.977615
  0
LINE
  8
0
 10
111.577148
 20
-100.477615
 11
97.077148
 21
-100.477615
  0
LINE
  8
0
 10
97.577148
 20
-113.977615
 11
96.577148
 21
-112.977615
  0
LINE
  8
0
 10
112.077148
 20
-112.977615
 11
111.077148
 21
-113.977615
  0
LINE
  8
0
 10
96.577148
 20
-100.977615
 11
96.577148
 21
-112.977615
  0
LINE
  8
0
 10
112.077148
 20
-100.977615
 11
112.077148
 21
-112.977615
  0
LINE
  8
0
 10
111.077148
 20
-113.977615
 11
97.577148
 21
-113.977615
  0
LINE
  8
0
 10
96.757149
 20
-99.187622
 11
96.257149
 21
-98.687622
  0
LINE
  8
0
 10
111.907150
 20
-99.187607
 11
112.407150
 21
-98.687607
  0
LINE
  8
0
 10
112.407150
 20
-98.687622
 11
112.407150
 21
-97.687622
  0
LINE
  8
0
 10
96.257149
 20
-98.687622
 11
96.257149
 21
-97.687622
  0
LINE
  8
0
 10
96.757149
 20
-99.187622
 11
111.907150
 21
-99.187622
  0
LINE
  8
0
 10
82.967163
 20
-20.197613
 11
89.677147
 21
-20.197613
  0
LINE
  8
0
 10
82.967163
 20
-81.187622
 11
89.677147
 21
-81.187622
  0
LINE
  8
0
 10
83.547150
 20
-20.697613
 11
89.677147
 21
-20.697613
  0
LINE
  8
0
 10
81.967163
 20
-21.197613
 11
81.967163
 21
-80.187622
  0
LINE
  8
0
 10
82.807159
 20
-22.197613
 11
82.807159
 21
-47.197613
  0
LINE
  8
0
 10
84.627151
 20
-22.697613
 11
84.627151
 21
-46.697613
  0
LINE
  8
0
 10
90.277145
 20
-22.197613
 11
90.277145
 21
-47.197613
  0
LINE
  8
0
 10
90.677147
 20
-21.197613
 11
90.677147
 21
-80.187622
  0
LINE
  8
0
 10
83.547150
 20
-80.687622
 11
89.677147
 21
-80.687622
  0
LINE
  8
0
 10
82.547150
 20
-21.697613
 11
82.547150
 21
-79.687622
  0
LINE
  8
0
 10
82.807159
 20
-53.197613
 11
82.807159
 21
-79.187622
  0
LINE
  8
0
 10
84.627151
 20
-53.697613
 11
84.627151
 21
-78.687622
  0
LINE
  8
0
 10
90.277145
 20
-53.197613
 11
90.277145
 21
-79.187622
  0
LINE
  8
0
 10
83.807159
 20
-80.187622
 11
89.277145
 21
-80.187622
  0
LINE
  8
0
 10
83.807159
 20
-52.197613
 11
89.277145
 21
-52.197613
  0
LINE
  8
0
 10
83.807159
 20
-48.197613
 11
89.277145
 21
-48.197613
  0
LINE
  8
0
 10
83.807159
 20
-21.197613
 11
89.277145
 21
-21.197613
  0
LINE
  8
0
 10
85.627151
 20
-79.687622
 11
89.277145
 21
-79.687622
  0
LINE
  8
0
 10
85.627151
 20
-21.697613
 11
89.277145
 21
-21.697613
  0
LINE
  8
0
 10
85.627151
 20
-47.697613
 11
89.277145
 21
-47.697613
  0
LINE
  8
0
 10
85.627151
 20
-52.697613
 11
89.277145
 21
-52.697613
  0
LINE
  8
0
 10
125.697144
 20
-20.197613
 11
118.977150
 21
-20.197613
  0
LINE
  8
0
 10
125.697144
 20
-81.187622
 11
118.977150
 21
-81.187622
  0
LINE
  8
0
 10
125.107147
 20
-20.697613
 11
118.977150
 21
-20.697613
  0
LINE
  8
0
 10
126.697144
 20
-21.197613
 11
126.697144
 21
-80.187622
  0
LINE
  8
0
 10
125.847137
 20
-22.197613
 11
125.847137
 21
-47.197613
  0
LINE
  8
0
 10
124.037140
 20
-22.697613
 11
124.037140
 21
-46.697613
  0
LINE
  8
0
 10
118.377151
 20
-22.197613
 11
118.377151
 21
-47.197613
  0
LINE
  8
0
 10
117.977150
 20
-21.197613
 11
117.977150
 21
-80.187622
  0
LINE
  8
0
 10
125.107147
 20
-80.687622
 11
118.977150
 21
-80.687622
  0
LINE
  8
0
 10
126.107147
 20
-21.697613
 11
126.107147
 21
-79.687622
  0
LINE
  8
0
 10
125.847137
 20
-53.197613
 11
125.847137
 21
-79.187622
  0
LINE
  8
0
 10
124.037140
 20
-53.697613
 11
124.037140
 21
-78.687622
  0
LINE
  8
0
 10
118.377151
 20
-53.197613
 11
118.377151
 21
-79.187622
  0
LINE
  8
0
 10
124.847137
 20
-80.187622
 11
119.377151
 21
-80.187622
  0
LINE
  8
0
 10
124.847137
 20
-52.197613
 11
119.377151
 21
-52.197613
  0
LINE
  8
0
 10
124.847137
 20
-48.197613
 11
119.377151
 21
-48.197613
  0
LINE
  8
0
 10
124.847137
 20
-21.197613
 11
119.377151
 21
-21.197613
  0
LINE
  8
0
 10
123.037140
 20
-79.687622
 11
119.377151
 21
-79.687622
  0
LINE
  8
0
 10
123.037140
 20
-21.697613
 11
119.377151
 21
-21.697613
  0
LINE
  8
0
 10
123.037140
 20
-47.697613
 11
119.377151
 21
-47.697613
  0
LINE
  8
0
 10
123.037140
 20
-52.697613
 11
119.377151
 21
-52.697613
  0
LINE
  8
0
 10
88.797150
 20
-97.687622
 11
119.857147
 21
-97.687622
  0
LINE
  8
0
  6
CENTER
 62
     2
 10
104.327148
 20
29.802374
 11
104.327148
 21
-125.507614
  0
LINE
  8
0
 10
110.827148
 20
-114.977615
 11
110.827148
 21
-113.977615
  0
LINE
  8
0
 10
97.827148
 20
-114.977615
 11
97.827148
 21
-113.977615
  0
LINE
  8
0
 10
-28.172943
 20
-115.477623
 11
-40.172943
 21
-115.477623
  0
LINE
  8
0
 10
-40.672943
 20
-114.977623
 11
-27.672943
 21
-114.977623
  0
LINE
  8
0
 10
-40.672943
 20
-114.977631
 11
-40.172947
 21
-115.477623
  0
LINE
  8
0
 10
-28.172947
 20
-115.477615
 11
-27.672945
 21
-114.977615
  0
LINE
  8
0
 10
-27.422943
 20
-113.977623
 11
-40.922943
 21
-113.977623
  0
LINE
  8
0
 10
-35.672939
 20
-112.977623
 11
-36.012943
 21
-113.477631
  0
LINE
  8
0
 10
-40.432953
 20
-113.477623
 11
-41.182953
 21
-113.477623
  0
LINE
  8
0
 10
-36.012955
 20
-113.477623
 11
-37.822952
 21
-113.477623
  0
LINE
  8
0
 10
-40.602947
 20
-112.977623
 11
-40.432945
 21
-113.477631
  0
LINE
  8
0
 10
-41.182949
 20
-113.477631
 11
-41.772957
 21
-112.977631
  0
LINE
  8
0
 10
-37.822941
 20
-113.477623
 11
-38.482933
 21
-112.977623
  0
LINE
  8
0
 10
-41.772949
 20
-112.977623
 11
-41.922943
 21
-112.977623
  0
LINE
  8
0
 10
-38.482956
 20
-112.977623
 11
-40.602951
 21
-112.977623
  0
LINE
  8
0
 10
-40.922939
 20
-113.977623
 11
-41.922939
 21
-112.977623
  0
LINE
  8
0
 10
-27.732956
 20
-112.977623
 11
-29.852951
 21
-112.977623
  0
LINE
  8
0
 10
-27.152954
 20
-113.477623
 11
-27.912949
 21
-113.477623
  0
LINE
  8
0
 10
-27.732944
 20
-112.977631
 11
-27.912947
 21
-113.477631
  0
LINE
  8
0
 10
-27.152950
 20
-113.477631
 11
-26.562939
 21
-112.977615
  0
LINE
  8
0
 10
-26.422943
 20
-112.977623
 11
-26.562958
 21
-112.977623
  0
LINE
  8
0
 10
-26.422941
 20
-112.977631
 11
-27.422937
 21
-113.977623
  0
LINE
  8
0
 10
-32.322937
 20
-113.477623
 11
-32.672935
 21
-112.977631
  0
LINE
  8
0
 10
-30.512943
 20
-113.477631
 11
-29.852945
 21
-112.977631
  0
LINE
  8
0
 10
-30.512955
 20
-113.477623
 11
-32.322952
 21
-113.477623
  0
LINE
  8
0
 10
-32.672943
 20
-112.977623
 11
-35.672943
 21
-112.977623
  0
LINE
  8
0
 10
-27.672943
 20
-114.977623
 11
-27.672943
 21
-113.977623
  0
LINE
  8
0
 10
-40.672943
 20
-114.977623
 11
-40.672943
 21
-113.977623
  0
LINE
  8
0
 10
-18.082951
 20
23.102364
 11
-17.612949
 21
3.102364
  0
LINE
  8
0
 10
-50.272945
 20
23.102364
 11
-50.742943
 21
3.102364
  0
LINE
  8
0
 10
-4.672943
 20
7.102364
 11
-4.672943
 21
21.102364
  0
LINE
  8
0
 10
-3.672951
 20
26.102365
 11
-2.672950
 21
25.102365
  0
LINE
  8
0
 10
-3.672943
 20
26.102364
 11
-3.672943
 21
2.102364
  0
LINE
  8
0
 10
-2.672943
 20
2.102364
 11
-2.672943
 21
25.102364
  0
LINE
  8
0
 10
-64.672943
 20
26.102364
 11
-64.672943
 21
2.102364
  0
LINE
  8
0
 10
-4.172963
 20
-15.897636
 11
-3.172962
 21
-14.897635
  0
LINE
  8
0
 10
-3.172943
 20
2.102364
 11
-3.172943
 21
-14.897636
  0
LINE
  8
0
 10
-49.272949
 20
24.102365
 11
-50.272949
 21
23.102364
  0
LINE
  8
0
 10
-18.082951
 20
23.102364
 11
-19.082951
 21
24.102365
  0
LINE
  8
0
 10
-50.272942
 20
23.102364
 11
-18.082947
 21
23.102364
  0
LINE
  8
0
 10
-49.272949
 20
24.102364
 11
-19.082947
 21
24.102364
  0
LINE
  8
0
 10
-3.672943
 20
26.102364
 11
-64.672943
 21
26.102364
  0
LINE
  8
0
 10
-61.302944
 20
2.102361
 11
-60.302940
 21
3.102362
  0
LINE
  8
0
 10
-65.672943
 20
25.102364
 11
-2.672943
 21
25.102364
  0
LINE
  8
0
 10
-65.672943
 20
2.102364
 11
-2.672943
 21
2.102364
  0
LINE
  8
0
 10
-65.172943
 20
-14.897636
 11
-3.172943
 21
-14.897636
  0
LINE
  8
0
 10
-64.172951
 20
-15.897627
 11
-65.172943
 21
-14.897638
  0
LINE
  8
0
 10
-65.172943
 20
2.102364
 11
-65.172943
 21
-14.897636
  0
LINE
  8
0
 10
-7.052954
 20
2.102372
 11
-8.052955
 21
3.102373
  0
LINE
  8
0
 10
-7.052954
 20
2.102372
 11
-8.052955
 21
3.102373
  0
LINE
  8
0
 10
-60.302944
 20
3.102364
 11
-8.052948
 21
3.102364
  0
LINE
  8
0
 10
-7.672943
 20
7.102364
 11
-4.672943
 21
7.102364
  0
LINE
  8
0
 10
-7.672943
 20
21.102364
 11
-4.672943
 21
21.102364
  0
LINE
  8
0
 10
-63.672943
 20
7.102364
 11
-60.672943
 21
7.102364
  0
LINE
  8
0
 10
-63.672943
 20
21.102364
 11
-60.972942
 21
21.102364
  0
LINE
  8
0
 10
-60.672943
 20
7.102364
 11
-60.672943
 21
21.102364
  0
LINE
  8
0
 10
-63.672943
 20
7.102364
 11
-63.672943
 21
21.102364
  0
LINE
  8
0
 10
-7.672943
 20
7.102364
 11
-7.672943
 21
21.102364
  0
LINE
  8
0
 10
-56.172943
 20
26.602364
 11
-63.172943
 21
26.602364
  0
LINE
  8
0
 10
-56.172943
 20
26.102364
 11
-56.172943
 21
26.602364
  0
LINE
  8
0
 10
-63.172943
 20
26.102364
 11
-63.172943
 21
26.602364
  0
LINE
  8
0
 10
-64.672943
 20
26.102364
 11
-65.672943
 21
25.102364
  0
LINE
  8
0
 10
-65.672943
 20
2.102364
 11
-65.672943
 21
25.102364
  0
LINE
  8
0
 10
-64.172943
 20
-15.897636
 11
-4.172943
 21
-15.897636
  0
LINE
  8
0
 10
-18.642944
 20
-97.687630
 11
-49.702942
 21
-97.687630
  0
LINE
  8
0
 10
-60.222946
 20
-27.867628
 11
-60.322948
 21
-15.897630
  0
LINE
  8
0
 10
-62.632938
 20
-15.897635
 11
-62.582939
 21
-17.787628
  0
LINE
  8
0
 10
-62.052944
 20
-15.897623
 11
-62.012943
 21
-17.767633
  0
LINE
  8
0
 10
-42.242950
 20
-98.687630
 11
-26.092957
 21
-98.687630
  0
LINE
  8
0
 10
-41.742950
 20
-99.187630
 11
-26.592957
 21
-99.187630
  0
LINE
  8
0
 10
-26.922943
 20
-100.477623
 11
-41.422943
 21
-100.477623
  0
LINE
  8
0
 10
-35.672943
 20
-103.477623
 11
-38.482956
 21
-103.477623
  0
LINE
  8
0
 10
-36.012943
 20
-103.767624
 11
-35.672951
 21
-103.477631
  0
LINE
  8
0
 10
-26.422943
 20
-100.977623
 11
-41.922943
 21
-100.977623
  0
LINE
  8
0
 10
-37.822948
 20
-103.767632
 11
-38.482948
 21
-103.477631
  0
LINE
  8
0
 10
-41.182945
 20
-103.767624
 11
-41.772949
 21
-103.477615
  0
LINE
  8
0
 10
-40.602951
 20
-103.767632
 11
-41.182953
 21
-103.767632
  0
LINE
  8
0
 10
-40.602951
 20
-103.477623
 11
-41.772949
 21
-103.477623
  0
LINE
  8
0
 10
-36.012955
 20
-103.767632
 11
-37.822952
 21
-103.767632
  0
LINE
  8
0
 62
     2
 10
-39.422943
 20
-99.187630
 11
-39.422943
 21
-100.477623
  0
LINE
  8
0
 10
-40.172943
 20
-99.187630
 11
-40.172943
 21
-100.477623
  0
LINE
  8
0
 10
-41.422947
 20
-100.477638
 11
-41.922939
 21
-100.977631
  0
LINE
  8
0
 10
-41.742943
 20
-99.187622
 11
-42.242939
 21
-98.687630
  0
LINE
  8
0
 10
-42.242950
 20
-98.687630
 11
-42.242950
 21
-97.687630
  0
LINE
  8
0
 10
-63.082943
 20
-17.797628
 11
-62.752945
 21
-31.837635
  0
LINE
  8
0
 10
-63.572941
 20
-18.307629
 11
-63.082943
 21
-17.797632
  0
LINE
  8
0
 10
-63.062939
 20
-40.307632
 11
-62.912949
 21
-40.447620
  0
LINE
  8
0
 10
-63.082943
 20
-17.797632
 11
-62.012943
 21
-17.767632
  0
LINE
  8
0
 10
-63.572945
 20
-18.307625
 11
-63.062943
 21
-40.307636
  0
LINE
  8
0
 10
-62.982948
 20
-32.197636
 11
-60.222946
 21
-27.867624
  0
LINE
  8
0
 10
-60.062935
 20
-45.697624
 11
-62.842934
 21
-41.717628
  0
LINE
  8
0
 10
-62.902943
 20
-41.577621
 11
-62.982944
 21
-32.197620
  0
LINE
  8
0
 10
-55.532944
 20
-20.197624
 11
-48.812958
 21
-20.197624
  0
LINE
  8
0
 10
-55.532944
 20
-81.187630
 11
-48.812958
 21
-81.187630
  0
LINE
  8
0
 10
-54.942944
 20
-20.697624
 11
-48.812958
 21
-20.697624
  0
LINE
  8
0
 10
-56.532944
 20
-21.197624
 11
-56.532944
 21
-80.187630
  0
LINE
  8
0
 10
-55.692944
 20
-22.197624
 11
-55.692944
 21
-47.197624
  0
LINE
  8
0
 10
-53.872944
 20
-22.697624
 11
-53.872944
 21
-46.697624
  0
LINE
  8
0
 10
-48.212952
 20
-22.197624
 11
-48.212952
 21
-47.197624
  0
LINE
  8
0
 10
-47.812958
 20
-21.197624
 11
-47.812958
 21
-80.187630
  0
LINE
  8
0
 10
-54.942944
 20
-80.687630
 11
-48.812958
 21
-80.687630
  0
LINE
  8
0
 10
-55.942944
 20
-21.697624
 11
-55.942944
 21
-79.687630
  0
LINE
  8
0
 10
-55.692944
 20
-53.197624
 11
-55.692944
 21
-79.187630
  0
LINE
  8
0
 10
-53.872944
 20
-53.697624
 11
-53.872944
 21
-78.687630
  0
LINE
  8
0
 10
-48.212952
 20
-53.197624
 11
-48.212952
 21
-79.187630
  0
LINE
  8
0
 10
-54.692944
 20
-80.187630
 11
-49.212952
 21
-80.187630
  0
LINE
  8
0
 10
-54.692944
 20
-52.197624
 11
-49.212952
 21
-52.197624
  0
LINE
  8
0
 10
-54.692944
 20
-48.197624
 11
-49.212952
 21
-48.197624
  0
LINE
  8
0
 10
-54.692944
 20
-21.197624
 11
-49.212952
 21
-21.197624
  0
LINE
  8
0
 10
-59.692944
 20
-87.767624
 11
-60.062943
 21
-45.697628
  0
LINE
  8
0
 10
-52.872944
 20
-79.687630
 11
-49.212952
 21
-79.687630
  0
LINE
  8
0
 10
-52.872944
 20
-21.697624
 11
-49.212952
 21
-21.697624
  0
LINE
  8
0
 10
-52.872944
 20
-47.697624
 11
-49.212952
 21
-47.697624
  0
LINE
  8
0
 10
-52.872944
 20
-52.697624
 11
-49.212952
 21
-52.697624
  0
LINE
  8
0
 10
-8.642946
 20
-87.767624
 11
-8.012947
 21
-15.897631
  0
LINE
  8
0
 10
-27.152929
 20
-103.767624
 11
-26.562944
 21
-103.477631
  0
LINE
  8
0
 10
-27.152954
 20
-103.767632
 11
-27.732956
 21
-103.767632
  0
LINE
  8
0
 10
-26.562958
 20
-103.477623
 11
-27.732956
 21
-103.477623
  0
LINE
  8
0
 10
-26.922951
 20
-100.477623
 11
-26.422949
 21
-100.977623
  0
LINE
  8
0
 10
-26.592937
 20
-99.187614
 11
-26.092941
 21
-98.687622
  0
LINE
  8
0
 10
-26.092957
 20
-98.687630
 11
-26.092957
 21
-97.687630
  0
LINE
  8
0
 10
-12.802948
 20
-20.197624
 11
-19.522949
 21
-20.197624
  0
LINE
  8
0
 10
-12.802948
 20
-81.187630
 11
-19.522949
 21
-81.187630
  0
LINE
  8
0
 10
-13.392944
 20
-20.697624
 11
-19.522949
 21
-20.697624
  0
LINE
  8
0
 10
-11.802948
 20
-21.197624
 11
-11.802948
 21
-80.187630
  0
LINE
  8
0
 10
-12.652954
 20
-22.197624
 11
-12.652954
 21
-47.197624
  0
LINE
  8
0
 10
-14.462952
 20
-22.697624
 11
-14.462952
 21
-46.697624
  0
LINE
  8
0
 10
-20.122955
 20
-22.197624
 11
-20.122955
 21
-47.197624
  0
LINE
  8
0
 10
-20.522949
 20
-21.197624
 11
-20.522949
 21
-80.187630
  0
LINE
  8
0
 10
-13.392944
 20
-80.687630
 11
-19.522949
 21
-80.687630
  0
LINE
  8
0
 10
-12.392944
 20
-21.697624
 11
-12.392944
 21
-79.687630
  0
LINE
  8
0
 10
-12.652954
 20
-53.197624
 11
-12.652954
 21
-79.187630
  0
LINE
  8
0
 10
-14.462952
 20
-53.697624
 11
-14.462952
 21
-78.687630
  0
LINE
  8
0
 10
-20.122955
 20
-53.197624
 11
-20.122955
 21
-79.187630
  0
LINE
  8
0
 10
-13.652954
 20
-80.187630
 11
-19.122955
 21
-80.187630
  0
LINE
  8
0
 10
-13.652954
 20
-52.197624
 11
-19.122955
 21
-52.197624
  0
LINE
  8
0
 10
-13.652954
 20
-48.197624
 11
-19.122955
 21
-48.197624
  0
LINE
  8
0
 10
-13.652954
 20
-21.197624
 11
-19.122955
 21
-21.197624
  0
LINE
  8
0
 10
-15.462952
 20
-79.687630
 11
-19.122955
 21
-79.687630
  0
LINE
  8
0
 10
-15.462952
 20
-21.697624
 11
-19.122955
 21
-21.697624
  0
LINE
  8
0
 10
-15.462952
 20
-47.697624
 11
-19.122955
 21
-47.697624
  0
LINE
  8
0
 10
-15.462952
 20
-52.697624
 11
-19.122955
 21
-52.697624
  0
LINE
  8
0
 62
     2
 10
-28.922943
 20
-99.187630
 11
-28.922943
 21
-100.477623
  0
LINE
  8
0
 10
-28.172943
 20
-99.187630
 11
-28.172943
 21
-100.477623
  0
LINE
  8
0
 10
-30.512949
 20
-103.767632
 11
-29.852951
 21
-103.477631
  0
LINE
  8
0
 10
-32.322945
 20
-103.767632
 11
-32.672943
 21
-103.477631
  0
LINE
  8
0
 10
-30.512955
 20
-103.767632
 11
-32.322952
 21
-103.767632
  0
LINE
  8
0
 10
-29.852951
 20
-103.477623
 11
-32.672943
 21
-103.477623
  0
LINE
  8
0
 10
-35.672943
 20
-103.477623
 11
-35.672943
 21
-112.977623
  0
LINE
  8
0
 10
-32.672943
 20
-103.477623
 11
-32.672943
 21
-112.977623
  0
LINE
  8
0
 10
-32.322952
 20
-103.767632
 11
-32.322952
 21
-113.477623
  0
LINE
  8
0
 10
-30.512955
 20
-103.767632
 11
-30.512955
 21
-113.477623
  0
LINE
  8
0
 10
-29.852951
 20
-103.477623
 11
-29.852951
 21
-112.977623
  0
LINE
  8
0
 10
-26.422943
 20
-100.977623
 11
-26.422943
 21
-112.977623
  0
LINE
  8
0
 10
-27.732956
 20
-103.477623
 11
-27.732956
 21
-112.977623
  0
LINE
  8
0
 10
-27.152954
 20
-103.767632
 11
-27.152954
 21
-113.477623
  0
LINE
  8
0
 10
-26.562958
 20
-103.477623
 11
-26.562958
 21
-112.977623
  0
LINE
  8
0
 10
-41.922943
 20
-100.977623
 11
-41.922943
 21
-112.977623
  0
LINE
  8
0
 10
-36.012955
 20
-103.767632
 11
-36.012955
 21
-113.477623
  0
LINE
  8
0
 10
-37.822952
 20
-103.767632
 11
-37.822952
 21
-113.477623
  0
LINE
  8
0
 10
-38.482956
 20
-103.477623
 11
-38.482956
 21
-112.977623
  0
LINE
  8
0
 10
-40.602951
 20
-103.477623
 11
-40.602951
 21
-112.977623
  0
LINE
  8
0
 10
-41.182953
 20
-103.767632
 11
-41.182953
 21
-113.477623
  0
LINE
  8
0
 10
-41.772949
 20
-103.477623
 11
-41.772949
 21
-112.977623
  0
LINE
  8
0
  6
CENTER
 62
     2
 10
-34.172943
 20
-124.517632
 11
-34.172943
 21
30.262352
  0
LINE
  8
0
  6
CENTER
 62
     2
 10
11.075684
 20
14.102364
 11
-79.863899
 21
14.102364
  0
LINE
  8
0
 10
-154.589996
 20
-87.289993
 11
-154.589996
 21
-60.409988
  0
LINE
  8
0
 10
-144.589996
 20
-97.289993
 11
-112.989990
 21
-97.289993
  0
LINE
  8
0
 10
-102.989990
 20
-87.289993
 11
-102.989990
 21
-74.229996
  0
LINE
  8
0
 62
     2
 10
-102.989998
 20
-74.229996
 11
-154.589996
 21
-60.410000
  0
LINE
  8
0
 10
-151.154373
 20
-61.330154
 11
-151.154373
 21
-79.797501
  0
LINE
  8
0
 10
-142.434387
 20
-63.665619
 11
-142.434387
 21
-79.797501
  0
LINE
  8
0
 10
-150.564377
 20
-79.297501
 11
-150.564377
 21
-61.488174
  0
LINE
  8
0
 10
-150.314377
 20
-61.555130
 11
-150.314377
 21
-78.797501
  0
LINE
  8
0
 10
-148.494385
 20
-62.042572
 11
-148.494385
 21
-78.297501
  0
LINE
  8
0
 10
-142.834381
 20
-63.558487
 11
-142.834381
 21
-78.797501
  0
LINE
  8
0
 10
-147.494385
 20
-79.297501
 11
-143.834381
 21
-79.297501
  0
LINE
  8
0
 10
-149.314377
 20
-79.797501
 11
-143.834381
 21
-79.797501
  0
LINE
  8
0
 10
-149.564377
 20
-80.297501
 11
-143.434387
 21
-80.297501
  0
LINE
  8
0
 10
-150.154373
 20
-80.797501
 11
-143.434387
 21
-80.797501
  0
LINE
  8
0
 10
-106.424377
 20
-73.310165
 11
-106.424377
 21
-79.797501
  0
LINE
  8
0
 10
-115.144379
 20
-79.802429
 11
-115.144379
 21
-70.974686
  0
LINE
  8
0
 10
-107.014374
 20
-73.152145
 11
-107.014374
 21
-79.297501
  0
LINE
  8
0
 10
-107.274384
 20
-73.082504
 11
-107.274384
 21
-78.797501
  0
LINE
  8
0
 10
-109.084381
 20
-72.597733
 11
-109.084381
 21
-78.297501
  0
LINE
  8
0
 10
-114.744385
 20
-71.081818
 11
-114.744385
 21
-78.797501
  0
LINE
  8
0
 10
-110.084381
 20
-79.297501
 11
-113.744385
 21
-79.297501
  0
LINE
  8
0
 10
-108.274384
 20
-79.797501
 11
-113.744385
 21
-79.797501
  0
LINE
  8
0
 10
-108.014374
 20
-80.297501
 11
-114.144379
 21
-80.297501
  0
LINE
  8
0
 10
-107.424377
 20
-80.797501
 11
-114.144379
 21
-80.797501
  0
LINE
  8
0
  6
CENTER
 62
     2
 10
-128.789993
 20
-57.282333
 11
-128.789993
 21
-125.142334
  0
LINE
  8
0
 10
-194.250000
 20
132.600006
 11
194.800003
 21
132.600006
  0
LINE
  8
0
 10
194.800003
 20
132.600006
 11
194.800003
 21
-133.500000
  0
LINE
  8
0
 10
-194.250000
 20
132.600006
 11
-194.250000
 21
-133.500000
  0
LINE
  8
0
 10
-194.250000
 20
-133.500000
 11
194.800003
 21
-133.500000
  0
LINE
  8
0
 10
109.800003
 20
-118.500000
 11
109.800003
 21
-133.500000
  0
LINE
  8
0
 10
109.800003
 20
-118.500000
 11
194.800003
 21
-118.500000
  0
LINE
  8
0
 10
109.800003
 20
132.600006
 11
109.800003
 21
117.600006
  0
LINE
  8
0
 10
109.800003
 20
117.600006
 11
194.800003
 21
117.600006
  0
LINE
  8
0
 10
-194.250000
 20
117.600006
 11
-109.250000
 21
117.600006
  0
LINE
  8
0
 10
-109.250000
 20
132.600006
 11
-109.250000
 21
117.600006
  0
ARC
  8
0
 10
-34.177811
 20
80.102356
 40
30.003662
 50
209.995987
 51
330.004028
  0
ARC
  8
0
 10
-34.177811
 20
80.102356
 40
20.998644
 50
225.588501
 51
314.411530
  0
ARC
  8
0
 10
-34.177811
 20
80.102356
 40
22.001114
 50
222.983231
 51
317.016815
  0
ARC
  8
0
 10
-34.177811
 20
80.102356
 40
20.998644
 50
45.588470
 51
134.411499
  0
ARC
  8
0
 10
-34.177811
 20
80.102356
 40
22.001116
 50
42.983181
 51
137.016769
  0
ARC
  8
0
 10
-34.177811
 20
80.102356
 40
30.003664
 50
29.995960
 51
150.004013
  0
ARC
  8
0
 10
-34.177811
 20
80.102356
 40
30.996218
 50
208.942444
 51
331.057617
  0
ARC
  8
0
 10
-34.177811
 20
80.102356
 40
30.996218
 50
28.942394
 51
151.057556
  0
CIRCLE
  8
0
 10
104.327148
 20
14.102374
 40
7.474999
  0
CIRCLE
  8
0
 62
     2
 10
104.327148
 20
14.102374
 40
8.331000
  0
ARC
  8
0
 10
119.827133
 20
24.602360
 40
0.499985
 50
179.998474
 51
270.001740
  0
ARC
  8
0
 10
127.658005
 20
4.103301
 40
1.000929
 50
180.625519
 51
269.950226
  0
ARC
  8
0
 10
80.996292
 20
4.103293
 40
1.000918
 50
270.049347
 51
359.374939
  0
CIRCLE
  8
0
 10
104.327118
 20
14.102435
 40
10.250000
  0
ARC
  8
0
 10
120.327164
 20
4.102392
 40
1.000015
 50
180.001007
 51
269.999115
  0
ARC
  8
0
 10
88.327103
 20
4.102421
 40
1.000046
 50
270.002625
 51
359.997375
  0
ARC
  8
0
 10
88.827164
 20
24.602360
 40
0.499985
 50
269.998260
 51
0.001749
  0
ARC
  8
0
 10
83.809494
 20
-47.195278
 40
1.002337
 50
180.133240
 51
269.866547
  0
ARC
  8
0
 10
85.627319
 20
-46.697445
 40
1.000168
 50
180.009827
 51
269.990387
  0
ARC
  8
0
 10
82.958008
 20
-21.188473
 40
0.990895
 50
89.471054
 51
180.528839
  0
ARC
  8
0
 10
83.541946
 20
-21.692410
 40
0.994805
 50
89.699875
 51
180.300018
  0
ARC
  8
0
 10
83.800522
 20
-22.190990
 40
0.993394
 50
89.617599
 51
180.382294
  0
ARC
  8
0
 10
85.618347
 20
-22.688808
 40
0.991229
 50
89.490639
 51
180.509140
  0
ARC
  8
0
 10
89.271744
 20
-47.192211
 40
1.005424
 50
270.308258
 51
359.691742
  0
ARC
  8
0
 10
89.271744
 20
-46.692211
 40
1.005424
 50
270.308258
 51
359.691742
  0
ARC
  8
0
 10
89.681717
 20
-21.193050
 40
0.995448
 50
359.737274
 51
90.262604
  0
ARC
  8
0
 10
89.681717
 20
-21.693050
 40
0.995448
 50
359.737274
 51
90.262604
  0
ARC
  8
0
 10
89.280670
 20
-22.194088
 40
0.996481
 50
359.797333
 51
90.202667
  0
ARC
  8
0
 10
89.280670
 20
-22.694088
 40
0.996481
 50
359.797333
 51
90.202667
  0
ARC
  8
0
 10
82.961945
 20
-80.192825
 40
0.994810
 50
179.700317
 51
270.299683
  0
ARC
  8
0
 10
83.545868
 20
-79.688904
 40
0.998719
 50
179.926468
 51
270.073547
  0
ARC
  8
0
 10
83.804459
 20
-79.190323
 40
0.997310
 50
179.844833
 51
270.154724
  0
ARC
  8
0
 10
83.800522
 20
-53.190975
 40
0.993385
 50
89.617157
 51
180.382614
  0
ARC
  8
0
 10
85.622284
 20
-78.692490
 40
0.995144
 50
179.719742
 51
270.280243
  0
ARC
  8
0
 10
85.618332
 20
-53.688793
 40
0.991223
 50
89.490196
 51
180.509583
  0
ARC
  8
0
 10
89.677788
 20
-80.188263
 40
0.999359
 50
269.963257
 51
0.036743
  0
ARC
  8
0
 10
89.677788
 20
-79.688263
 40
0.999359
 50
269.963257
 51
0.036743
  0
ARC
  8
0
 10
89.276756
 20
-79.187225
 40
1.000397
 50
270.022736
 51
359.977264
  0
ARC
  8
0
 10
89.276756
 20
-78.687225
 40
1.000397
 50
270.022736
 51
359.977264
  0
ARC
  8
0
 10
89.280678
 20
-53.194088
 40
0.996474
 50
359.796906
 51
90.203110
  0
ARC
  8
0
 10
89.280678
 20
-53.694088
 40
0.996474
 50
359.796906
 51
90.203110
  0
ARC
  8
0
 10
124.841156
 20
-47.191631
 40
1.006007
 50
270.341095
 51
359.658905
  0
ARC
  8
0
 10
123.028336
 20
-46.688824
 40
1.008839
 50
270.500031
 51
359.500183
  0
ARC
  8
0
 10
125.697571
 20
-21.197186
 40
0.999565
 50
359.975067
 51
90.024925
  0
ARC
  8
0
 10
125.108658
 20
-21.696102
 40
0.998483
 50
359.912659
 51
90.087120
  0
ARC
  8
0
 10
124.850082
 20
-22.194683
 40
0.997067
 50
359.831207
 51
90.168793
  0
ARC
  8
0
 10
123.037247
 20
-22.697521
 40
0.999901
 50
359.994110
 51
90.005684
  0
ARC
  8
0
 10
119.378899
 20
-47.195858
 40
1.001756
 50
180.100143
 51
269.899628
  0
ARC
  8
0
 10
119.378899
 20
-46.695858
 40
1.001756
 50
180.100143
 51
269.899628
  0
ARC
  8
0
 10
118.968887
 20
-21.189358
 40
0.991777
 50
89.523094
 51
180.477020
  0
ARC
  8
0
 10
118.968887
 20
-21.689358
 40
0.991777
 50
89.523094
 51
180.477020
  0
ARC
  8
0
 10
119.369934
 20
-22.190411
 40
0.992813
 50
89.583473
 51
180.416306
  0
ARC
  8
0
 10
119.369934
 20
-22.690411
 40
0.992813
 50
89.583473
 51
180.416306
  0
ARC
  8
0
 10
125.693665
 20
-80.184143
 40
1.003477
 50
270.198212
 51
359.801788
  0
ARC
  8
0
 10
125.104752
 20
-79.685226
 40
1.002391
 50
270.136505
 51
359.863495
  0
ARC
  8
0
 10
124.846161
 20
-79.186646
 40
1.000977
 50
270.056335
 51
359.944092
  0
ARC
  8
0
 10
124.850082
 20
-53.194668
 40
0.997059
 50
359.830780
 51
90.169228
  0
ARC
  8
0
 10
123.033340
 20
-78.683823
 40
1.003814
 50
270.217316
 51
359.782684
  0
ARC
  8
0
 10
123.037247
 20
-53.697506
 40
0.999893
 50
359.993652
 51
90.006119
  0
ARC
  8
0
 10
118.972832
 20
-80.191940
 40
0.995691
 50
179.751511
 51
270.248474
  0
ARC
  8
0
 10
118.972832
 20
-79.691940
 40
0.995691
 50
179.751511
 51
270.248474
  0
ARC
  8
0
 10
119.373871
 20
-79.190903
 40
0.996725
 50
179.811417
 51
270.188599
  0
ARC
  8
0
 10
119.373871
 20
-78.690903
 40
0.996725
 50
179.811417
 51
270.188599
  0
ARC
  8
0
 10
119.369926
 20
-53.190395
 40
0.992805
 50
89.583031
 51
180.416748
  0
ARC
  8
0
 10
119.369926
 20
-53.690395
 40
0.992805
 50
89.583031
 51
180.416748
  0
ARC
  8
0
 10
88.794945
 20
-87.689514
 40
9.998100
 50
180.447632
 51
270.012634
  0
ARC
  8
0
 10
119.855705
 20
-87.685837
 40
10.001778
 50
270.008301
 51
359.531525
  0
ARC
  8
0
 10
-62.605675
 20
-41.538292
 40
0.297418
 50
181.797806
 51
217.082565
  0
ARC
  8
0
 10
-54.688774
 20
-47.193459
 40
1.004178
 50
180.237900
 51
269.762115
  0
ARC
  8
0
 10
-52.870945
 20
-46.695625
 40
1.001997
 50
180.114304
 51
269.885925
  0
ARC
  8
0
 10
-55.540237
 20
-21.190331
 40
0.992731
 50
89.578819
 51
180.421066
  0
ARC
  8
0
 10
-54.951317
 20
-21.689247
 40
0.991660
 50
89.515984
 51
180.483902
  0
ARC
  8
0
 10
-54.697716
 20
-22.192863
 40
0.995239
 50
89.725266
 51
180.274734
  0
ARC
  8
0
 10
-52.879910
 20
-22.690666
 40
0.993059
 50
89.598106
 51
180.401901
  0
ARC
  8
0
 10
-49.221497
 20
-47.189079
 40
1.008589
 50
270.485870
 51
359.514130
  0
ARC
  8
0
 10
-49.221497
 20
-46.689079
 40
1.008589
 50
270.485870
 51
359.514130
  0
ARC
  8
0
 10
-48.811554
 20
-21.196236
 40
0.998605
 50
359.920013
 51
90.079887
  0
ARC
  8
0
 10
-48.811554
 20
-21.696236
 40
0.998605
 50
359.920013
 51
90.079887
  0
ARC
  8
0
 10
-49.212601
 20
-22.197273
 40
0.999649
 50
359.979889
 51
90.020119
  0
ARC
  8
0
 10
-49.212601
 20
-22.697273
 40
0.999649
 50
359.979889
 51
90.020119
  0
ARC
  8
0
 10
-55.536304
 20
-80.190987
 40
0.996645
 50
179.807007
 51
270.193207
  0
ARC
  8
0
 10
-54.947380
 20
-79.692070
 40
0.995577
 50
179.744904
 51
270.255096
  0
ARC
  8
0
 10
-54.693790
 20
-79.188469
 40
0.999153
 50
179.951431
 51
270.048553
  0
ARC
  8
0
 10
-54.697723
 20
-53.192848
 40
0.995232
 50
89.724823
 51
180.275177
  0
ARC
  8
0
 10
-52.875973
 20
-78.690666
 40
0.996976
 50
179.825928
 51
270.174072
  0
ARC
  8
0
 10
-52.879917
 20
-53.690651
 40
0.993051
 50
89.597664
 51
180.402344
  0
ARC
  8
0
 10
-48.815475
 20
-80.185112
 40
1.002521
 50
270.143890
 51
359.856110
  0
ARC
  8
0
 10
-48.815475
 20
-79.685112
 40
1.002521
 50
270.143890
 51
359.856110
  0
ARC
  8
0
 10
-49.216507
 20
-79.184074
 40
1.003562
 50
270.203186
 51
359.797028
  0
ARC
  8
0
 10
-49.216507
 20
-78.684074
 40
1.003562
 50
270.203186
 51
359.797028
  0
ARC
  8
0
 10
-49.212585
 20
-53.197273
 40
0.999641
 50
359.979462
 51
90.020554
  0
ARC
  8
0
 10
-49.212585
 20
-53.697273
 40
0.999641
 50
359.979462
 51
90.020554
  0
ARC
  8
0
 10
-49.698273
 20
-87.692680
 40
9.994952
 50
180.429703
 51
269.973236
  0
ARC
  8
0
 10
-13.657104
 20
-47.193474
 40
1.004155
 50
270.236694
 51
359.763397
  0
ARC
  8
0
 10
-15.469910
 20
-46.690666
 40
1.006982
 50
270.396057
 51
359.603882
  0
ARC
  8
0
 10
-12.800659
 20
-21.195335
 40
0.997704
 50
359.868011
 51
90.131935
  0
ARC
  8
0
 10
-13.389572
 20
-21.694252
 40
0.996631
 50
359.806030
 51
90.194031
  0
ARC
  8
0
 10
-13.648148
 20
-22.192833
 40
0.995216
 50
359.723938
 51
90.276062
  0
ARC
  8
0
 10
-15.460999
 20
-22.695671
 40
0.998043
 50
359.887543
 51
90.112457
  0
ARC
  8
0
 10
-19.119370
 20
-47.194054
 40
1.003588
 50
180.204498
 51
269.795502
  0
ARC
  8
0
 10
-19.119370
 20
-46.694054
 40
1.003588
 50
180.204498
 51
269.795502
  0
ARC
  8
0
 10
-19.529358
 20
-21.191231
 40
0.993616
 50
89.630669
 51
180.369339
  0
ARC
  8
0
 10
-19.529358
 20
-21.691231
 40
0.993616
 50
89.630669
 51
180.369339
  0
ARC
  8
0
 10
-19.128311
 20
-22.192268
 40
0.994647
 50
89.690819
 51
180.309174
  0
ARC
  8
0
 10
-19.128311
 20
-22.692268
 40
0.994647
 50
89.690819
 51
180.309174
  0
ARC
  8
0
 10
-12.804565
 20
-80.186012
 40
1.001619
 50
270.092590
 51
359.907471
  0
ARC
  8
0
 10
-13.393494
 20
-79.687080
 40
1.000542
 50
270.031281
 51
359.968536
  0
ARC
  8
0
 10
-13.652084
 20
-79.188499
 40
0.999131
 50
269.950165
 51
0.049876
  0
ARC
  8
0
 10
-13.648148
 20
-53.192833
 40
0.995208
 50
359.723511
 51
90.276497
  0
ARC
  8
0
 10
-15.464905
 20
-78.685677
 40
1.001955
 50
270.111908
 51
359.888306
  0
ARC
  8
0
 10
-15.460983
 20
-53.695656
 40
0.998035
 50
359.887207
 51
90.112892
  0
ARC
  8
0
 10
-19.525421
 20
-80.190102
 40
0.997531
 50
179.858017
 51
270.141876
  0
ARC
  8
0
 10
-19.525421
 20
-79.690102
 40
0.997531
 50
179.858017
 51
270.141876
  0
ARC
  8
0
 10
-19.124390
 20
-79.189064
 40
0.998563
 50
179.917267
 51
270.082397
  0
ARC
  8
0
 10
-19.124390
 20
-78.689064
 40
0.998563
 50
179.917267
 51
270.082397
  0
ARC
  8
0
 10
-19.128326
 20
-53.192253
 40
0.994640
 50
89.690376
 51
180.309616
  0
ARC
  8
0
 10
-19.128326
 20
-53.692253
 40
0.994640
 50
89.690376
 51
180.309616
  0
ARC
  8
0
 10
-18.642563
 20
-87.687706
 40
9.999931
 50
269.997772
 51
359.542053
  0
ARC
  8
0
 10
-144.596069
 20
-87.296066
 40
9.993929
 50
179.965134
 51
270.034821
  0
ARC
  8
0
 10
-112.988403
 20
-87.291580
 40
9.998413
 50
269.990936
 51
0.009094
  0
ARC
  8
0
 10
-143.837936
 20
-78.293930
 40
1.003562
 50
270.202972
 51
359.797028
  0
ARC
  8
0
 10
-143.837936
 20
-78.793930
 40
1.003562
 50
270.202972
 51
359.797028
  0
ARC
  8
0
 10
-143.436905
 20
-79.294968
 40
1.002521
 50
270.143890
 51
359.856110
  0
ARC
  8
0
 10
-143.436905
 20
-79.794968
 40
1.002521
 50
270.143890
 51
359.856110
  0
ARC
  8
0
 10
-147.497406
 20
-78.300522
 40
0.996968
 50
179.825928
 51
270.174500
  0
ARC
  8
0
 10
-149.315231
 20
-78.798340
 40
0.999161
 50
179.951431
 51
270.048126
  0
ARC
  8
0
 10
-149.568817
 20
-79.301926
 40
0.995570
 50
179.744888
 51
270.255554
  0
ARC
  8
0
 10
-150.157745
 20
-79.800858
 40
0.996649
 50
179.807022
 51
270.192993
  0
ARC
  8
0
 10
-113.745819
 20
-78.298935
 40
0.998567
 50
179.917267
 51
270.082306
  0
ARC
  8
0
 10
-113.745819
 20
-78.798935
 40
0.998567
 50
179.917267
 51
270.082306
  0
ARC
  8
0
 10
-114.146851
 20
-79.299957
 40
0.997531
 50
179.858017
 51
270.141968
  0
ARC
  8
0
 10
-114.146851
 20
-79.799957
 40
0.997531
 50
179.858017
 51
270.141968
  0
ARC
  8
0
 10
-110.086334
 20
-78.295532
 40
1.001955
 50
270.112122
 51
359.888306
  0
ARC
  8
0
 10
-108.273514
 20
-78.798355
 40
0.999131
 50
269.950134
 51
0.049876
  0
ARC
  8
0
 10
-108.014923
 20
-79.296951
 40
1.000542
 50
270.031464
 51
359.968536
  0
ARC
  8
0
 10
-107.425995
 20
-79.795868
 40
1.001619
 50
270.092529
 51
359.907471
  0
POLYLINE
  8
0
 66
     1
  0
VERTEX
  8
0
 10
-60.222942
 20
-27.867622
  0
VERTEX
  8
0
 10
-59.894302
 20
-28.687332
  0
VERTEX
  8
0
 10
-59.594749
 20
-29.502357
  0
VERTEX
  8
0
 10
-59.325130
 20
-30.320097
  0
VERTEX
  8
0
 10
-59.086281
 20
-31.147942
  0
VERTEX
  8
0
 10
-58.879040
 20
-31.993290
  0
VERTEX
  8
0
 10
-58.704247
 20
-32.863537
  0
VERTEX
  8
0
 10
-58.562740
 20
-33.766079
  0
VERTEX
  8
0
 10
-58.455357
 20
-34.708309
  0
VERTEX
  8
0
 10
-58.382942
 20
-35.697624
  0
VERTEX
  8
0
 10
-58.353291
 20
-36.625225
  0
VERTEX
  8
0
 10
-58.363358
 20
-37.553925
  0
VERTEX
  8
0
 10
-58.412064
 20
-38.482128
  0
VERTEX
  8
0
 10
-58.498325
 20
-39.408226
  0
VERTEX
  8
0
 10
-58.621063
 20
-40.330627
  0
VERTEX
  8
0
 10
-58.779198
 20
-41.247723
  0
VERTEX
  8
0
 10
-58.971645
 20
-42.157917
  0
VERTEX
  8
0
 10
-59.197323
 20
-43.059605
  0
VERTEX
  8
0
 10
-59.455154
 20
-43.951187
  0
VERTEX
  8
0
 10
-59.744053
 20
-44.831059
  0
VERTEX
  8
0
 10
-60.062943
 20
-45.697624
  0
SEQEND
  0
TEXT
  8
0
 10
136.157150
 20
122.050003
 40
4.500000
  1
Ｖｅｒ．２．０
 50
0.000000
 41
0.833333
 51
0.000000
  7
STANDARD
  0
TEXT
  8
0
 10
-165.642654
 20
122.050003
 40
4.500000
  1
FILTER
 50
0.000000
 41
1.052632
 51
0.000000
  7
STANDARD
  0
TEXT
  8
0
 10
-158.092957
 20
-50.199841
 40
4.500000
  1
OPTION:-F1,-A
 50
0.000000
 41
1.052632
 51
0.000000
  7
STANDARD
  0
TEXT
  8
0
 10
13.750046
 20
15.102337
 40
4.500000
  1
OUT
 50
0.000000
 41
1.052632
 51
0.000000
  7
STANDARD
  0
TEXT
  8
0
 10
-94.250000
 20
15.102385
 40
4.500000
  1
IN
 50
0.000000
 41
1.052632
 51
0.000000
  7
STANDARD
  0
TEXT
  8
0
 10
-179.000000
 20
105.900009
 40
4.500000
  1
MODEL:F300-03
 50
0.000000
 41
1.052632
 51
0.000000
  7
STANDARD
  0
TEXT
  8
0
 10
113.700287
 20
-130.669998
 40
6.300000
  1
KOGANEI CORP.
 50
0.000000
 41
1.052632
 51
0.000000
  7
STANDARD
  0
LINE
  8
0
 10
32.327194
 20
14.102337
 11
7.327194
 21
14.102337
  0
LINE
  8
0
 10
32.327194
 20
14.102337
 11
29.429417
 21
14.878794
  0
LINE
  8
0
 10
32.327194
 20
14.102337
 11
29.429417
 21
13.325880
  0
LINE
  8
0
 10
-75.672836
 20
14.102375
 11
-100.672836
 21
14.102375
  0
LINE
  8
0
 10
-75.672836
 20
14.102375
 11
-78.570618
 21
14.878832
  0
LINE
  8
0
 10
-75.672836
 20
14.102375
 11
-78.570610
 21
13.325918
  0
ENDSEC
  0
EOF
