  0
SECTION
  2
HEADER
  0
ENDSEC
  0
SECTION
  2
TABLES
  0
TABLE
  2
LTYPE
 70
     4
  0
LTYPE
  2
CONTINUOUS
 70
    64
  3
Solid line
 72
    65
 73
     0
 40
0.000000
  0
LTYPE
  2
DASHED
 70
    64
  3
__ __ __ __ __ __ __ __ __ __ __ __ __ __ __
 72
    65
 73
     2
 40
3.500000
 49
2.000000
 49
-1.500000
  0
LTYPE
  2
CENTER
 70
    64
  3
____ _ ____ _ ____ _ ____ _ ____ _ ____ _ ____
 72
    65
 73
     4
 40
17.500000
 49
13.000000
 49
-1.500000
 49
1.500000
 49
-1.500000
  0
LTYPE
  2
PHANTOM
 70
    64
  3
_____ _ _ _____ _ _ _____ _ _ _____ _ _ ____  
 72
    65
 73
     6
 40
15.500000
 49
8.000000
 49
-1.500000
 49
1.500000
 49
-1.500000
 49
1.500000
 49
-1.500000
  0
LTYPE
  2
DASHED1
 70
    64
  3
__ __ __ __ __ __ __ __ __ __ __ __ __ __ __
 72
    65
 73
     2
 40
1.500000
 49
1.000000
 49
-0.500000
  0
LTYPE
  2
DASHED2
 70
    64
  3
__ __ __ __ __ __ __ __ __ __ __ __ __ __ __
 72
    65
 73
     2
 40
3.500000
 49
2.500000
 49
-1.000000
  0
LTYPE
  2
DASHED3
 70
    64
  3
__ __ __ __ __ __ __ __ __ __ __ __ __ __ __
 72
    65
 73
     2
 40
6.000000
 49
4.000000
 49
-2.000000
  0
LTYPE
  2
DASHED4
 70
    64
  3
__ __ __ __ __ __ __ __ __ __ __ __ __ __ __
 72
    65
 73
     2
 40
12.000000
 49
10.000000
 49
-2.000000
  0
LTYPE
  2
DASHED5
 70
    64
  3
__ __ __ __ __ __ __ __ __ __ __ __ __ __ __
 72
    65
 73
     2
 40
17.000000
 49
15.000000
 49
-2.000000
  0
LTYPE
  2
DASHED6
 70
    64
  3
__ __ __ __ __ __ __ __ __ __ __ __ __ __ __
 72
    65
 73
     2
 40
29.000000
 49
27.000000
 49
-2.000000
  0
LTYPE
  2
PHANTOM1
 70
    64
  3
_____ _ _ _____ _ _ _____ _ _ _____ _ _ ____  
 72
    65
 73
     6
 40
31.000000
 49
25.000000
 49
-1.500000
 49
1.000000
 49
-1.000000
 49
1.000000
 49
-1.500000
  0
LTYPE
  2
PHANTOM2
 70
    64
  3
_____ _ _ _____ _ _ _____ _ _ _____ _ _ ____  
 72
    65
 73
     6
 40
36.000000
 49
27.000000
 49
-1.500000
 49
2.500000
 49
-1.000000
 49
2.500000
 49
-1.500000
  0
LTYPE
  2
PHANTOM3
 70
    64
  3
_____ _ _ _____ _ _ _____ _ _ _____ _ _ ____  
 72
    65
 73
     6
 40
78.000000
 49
64.000000
 49
-2.000000
 49
4.000000
 49
-2.000000
 49
4.000000
 49
-2.000000
  0
LTYPE
  2
CENTER1
 70
    64
  3
____ _ ____ _ ____ _ ____ _ ____ _ ____ _ ____
 72
    65
 73
     4
 40
19.000000
 49
14.000000
 49
-1.000000
 49
3.000000
 49
-1.000000
  0
LTYPE
  2
CENTER2
 70
    64
  3
____ _ ____ _ ____ _ ____ _ ____ _ ____ _ ____
 72
    65
 73
     4
 40
28.500000
 49
25.000000
 49
-1.000000
 49
1.500000
 49
-1.000000
  0
LTYPE
  2
CENTER3
 70
    64
  3
____ _ ____ _ ____ _ ____ _ ____ _ ____ _ ____
 72
    65
 73
     4
 40
31.500000
 49
27.000000
 49
-1.000000
 49
2.500000
 49
-1.000000
  0
LTYPE
  2
CENTER4
 70
    64
  3
____ _ ____ _ ____ _ ____ _ ____ _ ____ _ ____
 72
    65
 73
     4
 40
50.000000
 49
45.000000
 49
-1.000000
 49
3.000000
 49
-1.000000
  0
LTYPE
  2
CENTER5
 70
    64
  3
____ _ ____ _ ____ _ ____ _ ____ _ ____ _ ____
 72
    65
 73
     4
 40
100.000000
 49
92.000000
 49
-2.000000
 49
4.000000
 49
-2.000000
  0
LTYPE
  2
SBK1
 70
    64
  3
______ _ _ _ ______ _ _ _ ______ _ _ _ _____  
 72
    65
 73
     8
 40
60.500000
 49
45.000000
 49
-2.000000
 49
2.500000
 49
-2.000000
 49
2.500000
 49
-2.000000
 49
2.500000
 49
-2.000000
  0
LTYPE
  2
SBK2
 70
    64
  3
______ _ _ _ ______ _ _ _ ______ _ _ _ _____  
 72
    65
 73
     8
 40
84.000000
 49
64.000000
 49
-2.000000
 49
4.000000
 49
-2.000000
 49
4.000000
 49
-2.000000
 49
4.000000
 49
-2.000000
  0
LTYPE
  2
STCH
 70
    64
  3
__ __ __ __ __ __ __ __ __ __ __ __ __ __ __
 72
    65
 73
     2
 40
3.000000
 49
1.000000
 49
-2.000000
  0
LTYPE
  2
MTCH
 70
    64
  3
_____ _ _ _____ _ _ _____ _ _ _____ _ _ ____  
 72
    65
 73
     6
 40
80.000000
 49
66.000000
 49
-2.000000
 49
4.000000
 49
-2.000000
 49
4.000000
 49
-2.000000
  0
ENDTAB
  0
TABLE
  2
LAYER
 70
     1
  0
LAYER
  2
0
 70
     0
 62
     7
  6
CONTINUOUS
  0
ENDTAB
  0
TABLE
  2
STYLE
 70
     1
  0
STYLE
  2
STANDARD
 70
     0
 40
0.000000
 41
1.000000
 50
0.000000
 71
     0
 42
0.200000
  3
txt
  4
BIGFONT
  0
ENDTAB
  0
TABLE
  2
VIEW
 70
     0
  0
ENDTAB
  0
ENDSEC
  0
SECTION
  2
BLOCKS
  0
ENDSEC
  0
SECTION
  2
ENTITIES
  0
LINE
  8
0
 62
     4
 10
-169.375366
 20
-135.029984
 11
-169.375366
 21
-144.529984
  0
LINE
  8
0
 62
     4
 10
-167.625366
 20
-149.129974
 11
-168.055359
 21
-151.529984
  0
LINE
  8
0
 62
     4
 10
-167.625366
 20
-151.729980
 11
-168.055359
 21
-154.129974
  0
LINE
  8
0
 62
     4
 10
-167.625366
 20
-151.529984
 11
-167.625366
 21
-151.729980
  0
LINE
  8
0
 62
     4
 10
-167.625366
 20
-148.929977
 11
-167.625366
 21
-149.129974
  0
LINE
  8
0
 62
     4
 10
-163.275375
 20
-144.529999
 11
-163.865356
 21
-145.029968
  0
LINE
  8
0
 62
     4
 10
-164.445358
 20
-135.089981
 11
-163.865356
 21
-135.309982
  0
LINE
  8
0
 62
     4
 10
-166.565353
 20
-144.529984
 11
-167.225357
 21
-145.029984
  0
LINE
  8
0
 62
     4
 10
-167.225357
 20
-135.309982
 11
-166.565353
 21
-135.029984
  0
LINE
  8
0
 62
     4
 10
-163.275360
 20
-135.029984
 11
-163.275360
 21
-144.529984
  0
LINE
  8
0
 62
     4
 10
-163.865356
 20
-135.309982
 11
-163.865356
 21
-145.029984
  0
LINE
  8
0
 62
     4
 10
-164.445358
 20
-135.029984
 11
-164.445358
 21
-145.029984
  0
LINE
  8
0
 62
     4
 10
-163.865356
 20
-145.029984
 11
-163.625366
 21
-145.029984
  0
LINE
  8
0
 62
     4
 10
-163.275360
 20
-144.529984
 11
-163.125366
 21
-144.529984
  0
LINE
  8
0
 62
     4
 10
-163.865356
 20
-135.309982
 11
-163.275360
 21
-135.309982
  0
LINE
  8
0
 62
     4
 10
-164.445358
 20
-135.029984
 11
-163.275360
 21
-135.029984
  0
LINE
  8
0
 62
     4
 10
-166.565369
 20
-135.029984
 11
-166.565369
 21
-144.529984
  0
LINE
  8
0
 62
     4
 10
-167.225357
 20
-135.309982
 11
-167.225357
 21
-145.029984
  0
LINE
  8
0
 62
     4
 10
-167.225357
 20
-145.029984
 11
-164.445358
 21
-145.029984
  0
LINE
  8
0
 62
     4
 10
-169.035370
 20
-135.309982
 11
-169.035370
 21
-145.029984
  0
LINE
  8
0
 62
     4
 10
-166.565369
 20
-144.529984
 11
-164.445358
 21
-144.529984
  0
LINE
  8
0
 62
     4
 10
-169.035370
 20
-135.309982
 11
-167.225357
 21
-135.309982
  0
LINE
  8
0
 62
     4
 10
-168.025360
 20
-147.029984
 11
-168.025360
 21
-148.929977
  0
LINE
  8
0
 62
     4
 10
-164.375366
 20
-146.529984
 11
-164.875366
 21
-147.029984
  0
LINE
  8
0
 62
     4
 10
-164.375366
 20
-145.529984
 11
-164.375366
 21
-146.529984
  0
LINE
  8
0
 62
     4
 10
-162.805359
 20
-130.329987
 11
-163.305359
 21
-130.829987
  0
LINE
  8
0
 62
     4
 10
-164.875366
 20
-130.829987
 11
-164.875366
 21
-132.029984
  0
LINE
  8
0
 62
     4
 10
-163.625366
 20
-132.029984
 11
-163.125366
 21
-132.529984
  0
LINE
  8
0
 62
     4
 10
-164.125366
 20
-145.529984
 11
-163.125366
 21
-144.529984
  0
LINE
  8
0
 62
     4
 10
-163.125366
 20
-132.529984
 11
-163.125366
 21
-144.529984
  0
LINE
  8
0
 62
     4
 10
-162.805359
 20
-128.829987
 11
-162.805359
 21
-130.329987
  0
LINE
  8
0
 62
     4
 10
-173.695358
 20
-154.129974
 11
-168.055359
 21
-154.129974
  0
LINE
  8
0
 62
     4
 10
-169.375366
 20
-135.029984
 11
-166.565369
 21
-135.029984
  0
LINE
  8
0
 62
     4
 10
-169.375351
 20
-135.029984
 11
-169.035339
 21
-135.309982
  0
LINE
  8
0
 62
     4
 10
-169.375366
 20
-144.529984
 11
-169.035355
 21
-145.029984
  0
LINE
  8
0
 62
     4
 10
-174.125366
 20
-149.129974
 11
-173.695358
 21
-151.529984
  0
LINE
  8
0
 62
     4
 10
-174.125366
 20
-151.529984
 11
-174.125366
 21
-151.729980
  0
LINE
  8
0
 62
     4
 10
-174.125366
 20
-148.929977
 11
-174.125366
 21
-149.129974
  0
LINE
  8
0
 62
     4
 10
-178.475357
 20
-144.529984
 11
-177.885361
 21
-145.029984
  0
LINE
  8
0
 62
     4
 10
-177.885361
 20
-135.309982
 11
-177.305359
 21
-135.089981
  0
LINE
  8
0
 62
     4
 10
-175.185364
 20
-144.529984
 11
-174.525360
 21
-145.029984
  0
LINE
  8
0
 62
     4
 10
-175.185364
 20
-135.029999
 11
-174.525360
 21
-135.309998
  0
LINE
  8
0
 62
     4
 10
-172.375366
 20
-144.529984
 11
-172.715363
 21
-145.029999
  0
LINE
  8
0
 62
     4
 10
-172.715363
 20
-135.309998
 11
-172.375366
 21
-135.029984
  0
LINE
  8
0
 62
     4
 10
-178.475357
 20
-135.029984
 11
-178.475357
 21
-144.529984
  0
LINE
  8
0
 62
     4
 10
-177.885361
 20
-135.309982
 11
-177.885361
 21
-145.029984
  0
LINE
  8
0
 62
     4
 10
-177.305359
 20
-135.029984
 11
-177.305359
 21
-145.029984
  0
LINE
  8
0
 62
     4
 10
-177.305359
 20
-145.029984
 11
-174.525360
 21
-145.029984
  0
LINE
  8
0
 62
     4
 10
-177.305359
 20
-144.529984
 11
-175.185364
 21
-144.529984
  0
LINE
  8
0
 62
     4
 10
-174.525360
 20
-135.309982
 11
-172.715363
 21
-135.309982
  0
LINE
  8
0
 62
     4
 10
-175.185364
 20
-135.029984
 11
-172.375366
 21
-135.029984
  0
LINE
  8
0
 62
     4
 10
-175.185364
 20
-135.029984
 11
-175.185364
 21
-144.529984
  0
LINE
  8
0
 62
     4
 10
-174.525360
 20
-135.309982
 11
-174.525360
 21
-145.029984
  0
LINE
  8
0
 62
     4
 10
-172.715363
 20
-135.309982
 11
-172.715363
 21
-145.029984
  0
LINE
  8
0
 62
     4
 10
-178.125366
 20
-145.029984
 11
-177.885361
 21
-145.029984
  0
LINE
  8
0
 62
     4
 10
-172.375366
 20
-135.029984
 11
-172.375366
 21
-144.529984
  0
LINE
  8
0
 62
     4
 10
-178.625366
 20
-144.529984
 11
-178.475357
 21
-144.529984
  0
LINE
  8
0
 62
     4
 10
-178.475357
 20
-135.309982
 11
-177.885361
 21
-135.309982
  0
LINE
  8
0
 62
     4
 10
-173.725357
 20
-147.029984
 11
-173.725357
 21
-148.929977
  0
LINE
  8
0
 62
     4
 10
-177.375351
 20
-146.529984
 11
-176.875351
 21
-147.029984
  0
LINE
  8
0
 62
     4
 10
-177.375366
 20
-145.529984
 11
-177.375366
 21
-146.529984
  0
LINE
  8
0
 62
     4
 10
-178.945358
 20
-130.329987
 11
-178.445358
 21
-130.829987
  0
LINE
  8
0
 62
     4
 10
-176.875366
 20
-130.829987
 11
-176.875366
 21
-132.029984
  0
LINE
  8
0
 62
     4
 10
-178.625366
 20
-132.529984
 11
-178.125366
 21
-132.029984
  0
LINE
  8
0
 62
     4
 10
-178.475357
 20
-135.029984
 11
-177.305359
 21
-135.029984
  0
LINE
  8
0
 62
     4
 10
-178.625351
 20
-144.529984
 11
-177.625351
 21
-145.529984
  0
LINE
  8
0
 62
     4
 10
-178.625366
 20
-132.529984
 11
-178.625366
 21
-144.529984
  0
LINE
  8
0
 62
     4
 10
-178.945358
 20
-128.829987
 11
-178.945358
 21
-130.329987
  0
LINE
  8
0
 62
     4
 10
-178.445358
 20
-130.829987
 11
-163.305359
 21
-130.829987
  0
LINE
  8
0
 62
     4
 10
-177.625366
 20
-145.529984
 11
-164.125366
 21
-145.529984
  0
LINE
  8
0
 62
     4
 10
-178.125366
 20
-132.029984
 11
-163.625366
 21
-132.029984
  0
LINE
  8
0
 62
     4
 10
-178.945358
 20
-130.329987
 11
-162.805359
 21
-130.329987
  0
LINE
  8
0
 62
     4
 10
-178.625366
 20
-132.529984
 11
-163.125366
 21
-132.529984
  0
LINE
  8
0
 62
     4
 10
-176.875366
 20
-147.029984
 11
-164.875366
 21
-147.029984
  0
LINE
  8
0
 62
     4
 10
-177.375366
 20
-146.529984
 11
-164.375366
 21
-146.529984
  0
LINE
  8
0
 62
     4
 10
-174.125366
 20
-151.529984
 11
-167.625366
 21
-151.529984
  0
LINE
  8
0
 62
     4
 10
-174.125366
 20
-148.929977
 11
-167.625366
 21
-148.929977
  0
LINE
  8
0
 62
     4
 10
-172.375366
 20
-144.529984
 11
-169.375366
 21
-144.529984
  0
LINE
  8
0
 62
     4
 10
-172.715363
 20
-145.029984
 11
-169.035370
 21
-145.029984
  0
LINE
  8
0
 62
     4
 10
-174.125366
 20
-151.729980
 11
-167.625366
 21
-151.729980
  0
LINE
  8
0
 62
     4
 10
-174.125366
 20
-149.129974
 11
-167.625366
 21
-149.129974
  0
LINE
  8
0
 62
     4
 10
-174.125366
 20
-151.729980
 11
-173.695358
 21
-154.129974
  0
LINE
  8
0
 10
27.086121
 20
95.869370
 11
27.086121
 21
135.869370
  0
LINE
  8
0
 10
-50.913879
 20
135.869370
 11
-50.913879
 21
95.869370
  0
LINE
  8
0
 10
-51.913879
 20
96.869370
 11
28.086121
 21
96.869370
  0
LINE
  8
0
 10
-51.913879
 20
134.869370
 11
28.086121
 21
134.869370
  0
LINE
  8
0
 10
-46.913879
 20
112.869370
 11
-38.673882
 21
115.869370
  0
LINE
  8
0
 10
-46.913879
 20
118.869370
 11
-38.673882
 21
115.869370
  0
LINE
  8
0
 10
-46.913879
 20
118.869370
 11
-46.913879
 21
112.869370
  0
LINE
  8
0
 10
27.086119
 20
135.869370
 11
28.086105
 21
134.869385
  0
LINE
  8
0
 10
27.086117
 20
95.869370
 11
28.086111
 21
96.869370
  0
LINE
  8
0
 10
-51.913876
 20
96.869370
 11
-50.913876
 21
95.869370
  0
LINE
  8
0
 10
-51.913876
 20
134.869370
 11
-50.913879
 21
135.869370
  0
LINE
  8
0
 10
-50.913879
 20
95.869370
 11
27.086121
 21
95.869370
  0
LINE
  8
0
 10
-50.913879
 20
135.869370
 11
27.086121
 21
135.869370
  0
LINE
  8
0
 10
-51.913879
 20
134.869370
 11
-51.913879
 21
96.869370
  0
LINE
  8
0
 10
28.086121
 20
134.869370
 11
28.086121
 21
96.869370
  0
LINE
  8
0
  6
CENTER
 62
     2
 10
-11.913879
 20
159.869370
 11
-11.913879
 21
71.869370
  0
LINE
  8
0
  6
CENTER
 62
     2
 10
-56.913879
 20
115.869370
 11
34.416107
 21
115.869370
  0
LINE
  8
0
 10
168.086029
 20
22.569420
 11
168.086029
 21
21.869423
  0
LINE
  8
0
 10
165.086029
 20
22.569420
 11
165.086029
 21
21.869423
  0
LINE
  8
0
 10
171.086029
 20
22.569420
 11
171.086029
 21
21.869423
  0
LINE
  8
0
 10
165.086029
 20
22.569420
 11
171.086029
 21
22.569420
  0
LINE
  8
0
 10
188.086029
 20
20.869423
 11
188.086029
 21
-10.130578
  0
LINE
  8
0
 10
148.086029
 20
20.869423
 11
148.086029
 21
-10.130578
  0
LINE
  8
0
 10
195.586029
 20
18.869417
 11
196.586029
 21
17.869417
  0
LINE
  8
0
 10
139.586029
 20
17.869417
 11
140.586029
 21
18.869417
  0
LINE
  8
0
 10
189.086029
 20
17.869423
 11
196.586029
 21
17.869423
  0
LINE
  8
0
 10
139.586029
 20
17.869423
 11
147.086029
 21
17.869423
  0
LINE
  8
0
 10
190.086029
 20
18.869423
 11
195.586029
 21
18.869423
  0
LINE
  8
0
  6
CENTER
 62
     2
 10
136.176041
 20
5.869422
 11
200.716019
 21
5.869422
  0
LINE
  8
0
 10
187.086029
 20
21.869421
 11
188.086029
 21
20.869419
  0
LINE
  8
0
 10
149.086029
 20
21.869421
 11
148.086029
 21
20.869419
  0
LINE
  8
0
 10
148.086029
 20
20.869423
 11
188.086029
 21
20.869423
  0
LINE
  8
0
 10
149.086029
 20
21.869423
 11
149.086029
 21
-10.130578
  0
LINE
  8
0
 10
187.086029
 20
21.869423
 11
187.086029
 21
-10.130578
  0
LINE
  8
0
 10
149.086029
 20
21.869423
 11
187.086029
 21
21.869423
  0
LINE
  8
0
 10
140.586029
 20
18.869423
 11
146.086029
 21
18.869423
  0
LINE
  8
0
 10
196.586029
 20
17.869423
 11
196.586029
 21
-7.630578
  0
LINE
  8
0
 10
139.586029
 20
17.869423
 11
139.586029
 21
-7.630578
  0
LINE
  8
0
 10
129.586029
 20
-30.130577
 11
206.586029
 21
-30.130577
  0
LINE
  8
0
 10
190.086029
 20
-9.130578
 11
206.586029
 21
-9.130578
  0
LINE
  8
0
 10
128.586029
 20
-10.130578
 11
207.586029
 21
-10.130578
  0
LINE
  8
0
 10
207.586029
 20
-10.130565
 11
206.586029
 21
-9.130563
  0
LINE
  8
0
 10
128.586044
 20
-10.130575
 11
129.586044
 21
-9.130574
  0
LINE
  8
0
 10
128.586029
 20
-29.130577
 11
207.586029
 21
-29.130577
  0
LINE
  8
0
 10
207.586014
 20
-29.130564
 11
206.586014
 21
-30.130564
  0
LINE
  8
0
 10
128.586044
 20
-29.130569
 11
129.586044
 21
-30.130569
  0
LINE
  8
0
 10
129.586029
 20
-9.130578
 11
146.086029
 21
-9.130578
  0
LINE
  8
0
 10
207.586029
 20
-10.130578
 11
207.586029
 21
-29.130577
  0
LINE
  8
0
 10
128.586029
 20
-10.130578
 11
128.586029
 21
-29.130577
  0
LINE
  8
0
 10
134.676041
 20
-114.450562
 11
133.936035
 21
-30.130569
  0
LINE
  8
0
 10
201.506027
 20
-114.450577
 11
202.246033
 21
-30.130566
  0
LINE
  8
0
 10
139.376038
 20
-35.830574
 11
139.376038
 21
-111.820564
  0
LINE
  8
0
 10
139.966034
 20
-36.330574
 11
139.966034
 21
-111.320564
  0
LINE
  8
0
 10
140.226044
 20
-36.830574
 11
140.226044
 21
-68.830574
  0
LINE
  8
0
 10
142.066040
 20
-37.330574
 11
142.066040
 21
-68.330574
  0
LINE
  8
0
 10
149.136032
 20
-36.830574
 11
149.136032
 21
-68.830574
  0
LINE
  8
0
 10
149.516037
 20
-35.830574
 11
149.516037
 21
-111.820564
  0
LINE
  8
0
 10
140.376038
 20
-34.830574
 11
148.516037
 21
-34.830574
  0
LINE
  8
0
 10
140.966034
 20
-35.330574
 11
148.516037
 21
-35.330574
  0
LINE
  8
0
 10
148.516037
 20
-112.820564
 11
140.376038
 21
-112.820564
  0
LINE
  8
0
 10
148.516037
 20
-112.320564
 11
140.966034
 21
-112.320564
  0
LINE
  8
0
 10
149.136032
 20
-76.830574
 11
149.136032
 21
-110.820564
  0
LINE
  8
0
 10
142.066040
 20
-77.330574
 11
142.066040
 21
-110.320564
  0
LINE
  8
0
 10
140.226044
 20
-76.830574
 11
140.226044
 21
-110.820564
  0
LINE
  8
0
 10
148.136032
 20
-111.320564
 11
143.066040
 21
-111.320564
  0
LINE
  8
0
 10
148.136032
 20
-69.330574
 11
143.066040
 21
-69.330574
  0
LINE
  8
0
 10
148.136032
 20
-76.330574
 11
143.066040
 21
-76.330574
  0
LINE
  8
0
 10
143.066040
 20
-36.330574
 11
148.136032
 21
-36.330574
  0
LINE
  8
0
 10
141.226044
 20
-35.830574
 11
148.136032
 21
-35.830574
  0
LINE
  8
0
 10
148.136032
 20
-69.830574
 11
141.226044
 21
-69.830574
  0
LINE
  8
0
 10
148.136032
 20
-75.830574
 11
141.226044
 21
-75.830574
  0
LINE
  8
0
 10
148.136032
 20
-111.820564
 11
141.226044
 21
-111.820564
  0
LINE
  8
0
 10
196.806015
 20
-35.830574
 11
196.806015
 21
-111.820564
  0
LINE
  8
0
 10
196.206024
 20
-36.330574
 11
196.206024
 21
-111.320564
  0
LINE
  8
0
 10
195.956024
 20
-36.830574
 11
195.956024
 21
-68.830574
  0
LINE
  8
0
 10
194.116028
 20
-37.330574
 11
194.116028
 21
-68.330574
  0
LINE
  8
0
 10
187.046021
 20
-36.830574
 11
187.046021
 21
-68.830574
  0
LINE
  8
0
 10
186.666016
 20
-35.830574
 11
186.666016
 21
-111.820564
  0
LINE
  8
0
 10
195.806015
 20
-34.830574
 11
187.666016
 21
-34.830574
  0
LINE
  8
0
 10
195.206024
 20
-35.330574
 11
187.666016
 21
-35.330574
  0
LINE
  8
0
 10
187.666016
 20
-112.820564
 11
195.806015
 21
-112.820564
  0
LINE
  8
0
 10
187.666016
 20
-112.320564
 11
195.206024
 21
-112.320564
  0
LINE
  8
0
 10
187.046021
 20
-76.830574
 11
187.046021
 21
-110.820564
  0
LINE
  8
0
 10
194.116028
 20
-77.330574
 11
194.116028
 21
-110.320564
  0
LINE
  8
0
 10
195.956024
 20
-76.830574
 11
195.956024
 21
-110.820564
  0
LINE
  8
0
 10
188.046021
 20
-111.320564
 11
193.116028
 21
-111.320564
  0
LINE
  8
0
 10
188.046021
 20
-69.330574
 11
193.116028
 21
-69.330574
  0
LINE
  8
0
 10
188.046021
 20
-76.330574
 11
193.116028
 21
-76.330574
  0
LINE
  8
0
 10
193.116028
 20
-36.330574
 11
188.046021
 21
-36.330574
  0
LINE
  8
0
 10
194.956024
 20
-35.830574
 11
188.046021
 21
-35.830574
  0
LINE
  8
0
 10
188.046021
 20
-69.830574
 11
194.956024
 21
-69.830574
  0
LINE
  8
0
 10
188.046021
 20
-75.830574
 11
194.956024
 21
-75.830574
  0
LINE
  8
0
 10
188.046021
 20
-111.820564
 11
194.956024
 21
-111.820564
  0
LINE
  8
0
 10
186.506027
 20
-129.320572
 11
149.676041
 21
-129.320572
  0
LINE
  8
0
 62
     2
 10
173.336029
 20
-130.820572
 11
173.336029
 21
-132.110580
  0
LINE
  8
0
 62
     2
 10
162.836029
 20
-130.820572
 11
162.836029
 21
-132.110580
  0
LINE
  8
0
 10
162.086029
 20
-130.820572
 11
162.086029
 21
-132.110580
  0
LINE
  8
0
 10
174.086029
 20
-130.820572
 11
174.086029
 21
-132.110580
  0
LINE
  8
0
 10
174.836029
 20
-145.610580
 11
161.336029
 21
-145.610580
  0
LINE
  8
0
 10
175.836029
 20
-132.610580
 11
175.836029
 21
-144.610580
  0
LINE
  8
0
 10
160.336029
 20
-132.610580
 11
160.336029
 21
-144.610580
  0
LINE
  8
0
 10
175.836029
 20
-144.610565
 11
174.836029
 21
-145.610565
  0
LINE
  8
0
 10
161.336029
 20
-145.610565
 11
160.336029
 21
-144.610565
  0
LINE
  8
0
 10
175.336029
 20
-132.110580
 11
160.836029
 21
-132.110580
  0
LINE
  8
0
 10
175.336029
 20
-132.110565
 11
175.836029
 21
-132.610565
  0
LINE
  8
0
 10
160.836014
 20
-132.110565
 11
160.336029
 21
-132.610550
  0
LINE
  8
0
 10
166.586029
 20
-135.110580
 11
166.586029
 21
-144.610580
  0
LINE
  8
0
 10
169.586029
 20
-135.110580
 11
169.586029
 21
-144.610580
  0
LINE
  8
0
 10
169.926025
 20
-135.400574
 11
169.926025
 21
-145.110580
  0
LINE
  8
0
 10
166.246033
 20
-135.400574
 11
166.246033
 21
-145.110580
  0
LINE
  8
0
 10
164.426025
 20
-135.400574
 11
164.426025
 21
-145.110580
  0
LINE
  8
0
 10
163.776031
 20
-135.110580
 11
163.776031
 21
-144.610580
  0
LINE
  8
0
 10
161.646027
 20
-135.110580
 11
161.646027
 21
-144.610580
  0
LINE
  8
0
 10
161.076035
 20
-135.400574
 11
161.076035
 21
-145.110580
  0
LINE
  8
0
 10
160.486023
 20
-135.110580
 11
160.486023
 21
-144.610580
  0
LINE
  8
0
 10
171.746033
 20
-135.400574
 11
171.746033
 21
-145.110580
  0
LINE
  8
0
 10
172.406036
 20
-135.110580
 11
172.406036
 21
-144.610580
  0
LINE
  8
0
 10
174.526031
 20
-135.110580
 11
174.526031
 21
-144.610580
  0
LINE
  8
0
 10
175.096024
 20
-135.400574
 11
175.096024
 21
-145.110580
  0
LINE
  8
0
 10
175.686035
 20
-135.110580
 11
175.686035
 21
-144.610580
  0
LINE
  8
0
 10
175.686035
 20
-135.110580
 11
174.526031
 21
-135.110580
  0
LINE
  8
0
 10
175.096024
 20
-135.400574
 11
174.526031
 21
-135.400574
  0
LINE
  8
0
 10
175.836029
 20
-144.610580
 11
175.686035
 21
-144.610580
  0
LINE
  8
0
 10
166.586029
 20
-135.110580
 11
163.776031
 21
-135.110580
  0
LINE
  8
0
 10
166.246033
 20
-135.400574
 11
164.426025
 21
-135.400574
  0
LINE
  8
0
 10
172.406036
 20
-135.110580
 11
169.586029
 21
-135.110580
  0
LINE
  8
0
 10
171.746033
 20
-135.400574
 11
169.926025
 21
-135.400574
  0
LINE
  8
0
 10
161.646027
 20
-135.110580
 11
160.486023
 21
-135.110580
  0
LINE
  8
0
 10
161.646027
 20
-135.400574
 11
161.076035
 21
-135.400574
  0
LINE
  8
0
 10
169.586029
 20
-144.610580
 11
166.586029
 21
-144.610580
  0
LINE
  8
0
 10
163.776031
 20
-144.610580
 11
161.646027
 21
-144.610580
  0
LINE
  8
0
 10
160.486023
 20
-144.610580
 11
160.336029
 21
-144.610580
  0
LINE
  8
0
 10
174.526031
 20
-144.610580
 11
172.406036
 21
-144.610580
  0
LINE
  8
0
 10
171.746033
 20
-145.110580
 11
169.926025
 21
-145.110580
  0
LINE
  8
0
 10
175.096024
 20
-145.110565
 11
175.686020
 21
-144.610565
  0
LINE
  8
0
 10
171.746017
 20
-145.110565
 11
172.406021
 21
-144.610565
  0
LINE
  8
0
 10
169.926025
 20
-145.110565
 11
169.586029
 21
-144.610565
  0
LINE
  8
0
 10
166.586029
 20
-144.610565
 11
166.246033
 21
-145.110565
  0
LINE
  8
0
 10
164.426041
 20
-145.110565
 11
163.776031
 21
-144.610550
  0
LINE
  8
0
 10
161.076035
 20
-145.110550
 11
160.486038
 21
-144.610565
  0
LINE
  8
0
 10
161.076035
 20
-135.400574
 11
160.486038
 21
-135.110565
  0
LINE
  8
0
 10
164.426025
 20
-135.400558
 11
163.776016
 21
-135.110565
  0
LINE
  8
0
 10
166.246017
 20
-135.400543
 11
166.586029
 21
-135.110550
  0
LINE
  8
0
 10
169.926041
 20
-135.400574
 11
169.586029
 21
-135.110565
  0
LINE
  8
0
 10
171.746033
 20
-135.400574
 11
172.406036
 21
-135.110580
  0
LINE
  8
0
 10
175.096024
 20
-135.400574
 11
175.686035
 21
-135.110565
  0
LINE
  8
0
 10
174.526031
 20
-144.610580
 11
174.346039
 21
-145.110565
  0
LINE
  8
0
 10
161.646027
 20
-144.610580
 11
161.826019
 21
-145.110565
  0
LINE
  8
0
 10
166.246033
 20
-145.110580
 11
164.426025
 21
-145.110580
  0
LINE
  8
0
 10
175.096024
 20
-145.110580
 11
174.346024
 21
-145.110580
  0
LINE
  8
0
 10
161.826035
 20
-145.110580
 11
161.076035
 21
-145.110580
  0
LINE
  8
0
 10
175.836029
 20
-132.610580
 11
160.336029
 21
-132.610580
  0
LINE
  8
0
 10
174.086029
 20
-147.110580
 11
162.086029
 21
-147.110580
  0
LINE
  8
0
 10
174.586029
 20
-146.610580
 11
174.586029
 21
-145.610580
  0
LINE
  8
0
 10
161.586029
 20
-146.610580
 11
161.586029
 21
-145.610580
  0
LINE
  8
0
 10
161.586029
 20
-146.610565
 11
162.086029
 21
-147.110565
  0
LINE
  8
0
 10
174.086029
 20
-147.110565
 11
174.586029
 21
-146.610565
  0
LINE
  8
0
 10
161.586029
 20
-146.610580
 11
174.586029
 21
-146.610580
  0
LINE
  8
0
 10
160.516022
 20
-130.820572
 11
175.666031
 21
-130.820572
  0
LINE
  8
0
 10
160.016022
 20
-130.320572
 11
160.016022
 21
-129.320572
  0
LINE
  8
0
 10
176.166031
 20
-130.320572
 11
176.166031
 21
-129.320572
  0
LINE
  8
0
 10
175.666016
 20
-130.820572
 11
176.166016
 21
-130.320572
  0
LINE
  8
0
 10
160.516022
 20
-130.820572
 11
160.016022
 21
-130.320572
  0
LINE
  8
0
 10
160.016022
 20
-130.320572
 11
176.166031
 21
-130.320572
  0
LINE
  8
0
  6
CENTER
 62
     2
 10
168.086029
 20
31.029411
 11
168.086029
 21
-157.910583
  0
LINE
  8
0
  6
CENTER
 62
     2
 10
-11.914047
 20
26.869431
 11
-11.914047
 21
-156.680557
  0
LINE
  8
0
 10
-36.914055
 20
-4.130562
 11
-37.624054
 21
-3.420564
  0
LINE
  8
0
 10
-46.914043
 20
-4.130569
 11
-46.214046
 21
-3.420571
  0
LINE
  8
0
 10
-46.914047
 20
15.869430
 11
-46.214046
 21
15.159429
  0
LINE
  8
0
 10
-36.914055
 20
15.869422
 11
-37.624054
 21
15.159423
  0
LINE
  8
0
 10
-37.624046
 20
-3.420570
 11
-46.214046
 21
-3.420570
  0
LINE
  8
0
 10
-37.624046
 20
15.159430
 11
-37.624046
 21
-3.420570
  0
LINE
  8
0
 10
-37.624046
 20
15.159430
 11
-46.214046
 21
15.159430
  0
LINE
  8
0
 10
-46.214046
 20
15.159430
 11
-46.214046
 21
-3.420570
  0
LINE
  8
0
 10
-36.914047
 20
-4.130570
 11
-46.914047
 21
-4.130570
  0
LINE
  8
0
 10
-36.914047
 20
15.869430
 11
-46.914047
 21
15.869430
  0
LINE
  8
0
 10
-36.914047
 20
15.869430
 11
-36.914047
 21
-4.130570
  0
LINE
  8
0
 10
-46.914047
 20
15.869430
 11
-46.914047
 21
-4.130570
  0
LINE
  8
0
 10
13.085942
 20
-4.130568
 11
13.785938
 21
-3.420572
  0
LINE
  8
0
 10
23.085937
 20
-4.130570
 11
22.375938
 21
-3.420572
  0
LINE
  8
0
 10
23.085937
 20
15.869430
 11
22.375938
 21
15.159431
  0
LINE
  8
0
 10
13.085942
 20
15.869428
 11
13.785939
 21
15.159432
  0
LINE
  8
0
 10
13.785950
 20
-3.420570
 11
22.375946
 21
-3.420570
  0
LINE
  8
0
 10
13.785950
 20
15.159430
 11
13.785950
 21
-3.420570
  0
LINE
  8
0
 10
13.785950
 20
15.159430
 11
22.375946
 21
15.159430
  0
LINE
  8
0
 10
22.375946
 20
15.159430
 11
22.375946
 21
-3.420570
  0
LINE
  8
0
 10
13.085953
 20
-4.130570
 11
23.085953
 21
-4.130570
  0
LINE
  8
0
 10
13.085953
 20
15.869430
 11
23.085953
 21
15.869430
  0
LINE
  8
0
 10
13.085953
 20
15.869430
 11
13.085953
 21
-4.130570
  0
LINE
  8
0
 10
23.085953
 20
15.869430
 11
23.085953
 21
-4.130570
  0
LINE
  8
0
 10
-46.914047
 20
22.569427
 11
-38.914047
 21
22.569427
  0
LINE
  8
0
 10
-38.914047
 20
22.569427
 11
-38.914047
 21
21.869431
  0
LINE
  8
0
 10
-46.914047
 20
22.569427
 11
-46.914047
 21
21.869431
  0
LINE
  8
0
 10
-32.224056
 20
17.869423
 11
-31.224054
 21
18.869423
  0
LINE
  8
0
 10
7.385935
 20
18.869432
 11
8.385936
 21
17.869432
  0
LINE
  8
0
 10
-32.224060
 20
17.869431
 11
8.385941
 21
17.869431
  0
LINE
  8
0
 10
27.085943
 20
21.869436
 11
28.085943
 21
20.869434
  0
LINE
  8
0
 10
-50.914047
 20
21.869429
 11
-51.914047
 21
20.869429
  0
LINE
  8
0
 10
-51.914047
 20
20.869431
 11
28.085953
 21
20.869431
  0
LINE
  8
0
 10
27.085953
 20
21.869431
 11
27.085953
 21
-10.130570
  0
LINE
  8
0
 10
-50.914047
 20
21.869431
 11
-50.914047
 21
-10.130570
  0
LINE
  8
0
 10
-31.224060
 20
18.869431
 11
7.385941
 21
18.869431
  0
LINE
  8
0
 10
8.385941
 20
17.869431
 11
8.385941
 21
-9.130570
  0
LINE
  8
0
 10
-32.224060
 20
17.869431
 11
-32.224060
 21
-9.130570
  0
LINE
  8
0
 10
28.085953
 20
20.869431
 11
28.085953
 21
-10.130570
  0
LINE
  8
0
 10
-51.914047
 20
20.869431
 11
-51.914047
 21
-10.130570
  0
LINE
  8
0
 10
-50.914047
 20
21.869431
 11
27.085953
 21
21.869431
  0
LINE
  8
0
 10
-51.914047
 20
-10.130570
 11
28.085953
 21
-10.130570
  0
LINE
  8
0
 10
22.145937
 20
-10.130566
 11
21.145947
 21
-9.130577
  0
LINE
  8
0
 10
-45.984047
 20
-10.130570
 11
-44.984047
 21
-9.130569
  0
LINE
  8
0
 10
-44.984047
 20
-9.130570
 11
21.145950
 21
-9.130570
  0
LINE
  8
0
 10
-51.414047
 20
-29.130569
 11
27.585953
 21
-29.130569
  0
LINE
  8
0
 10
27.585943
 20
-29.130568
 11
26.585941
 21
-30.130568
  0
LINE
  8
0
 10
-51.414047
 20
-29.130552
 11
-50.414047
 21
-30.130556
  0
LINE
  8
0
 10
27.585953
 20
-10.130570
 11
27.585953
 21
-29.130569
  0
LINE
  8
0
 10
-51.414047
 20
-10.130570
 11
-51.414047
 21
-29.130569
  0
LINE
  8
0
 10
-50.414047
 20
-30.130569
 11
26.585953
 21
-30.130569
  0
LINE
  8
0
 10
21.505951
 20
-114.450562
 11
22.235950
 21
-30.130566
  0
LINE
  8
0
 10
-45.954044
 20
-42.200565
 11
-46.064045
 21
-30.130556
  0
LINE
  8
0
 10
-48.374046
 20
-30.130558
 11
-48.334049
 21
-32.120556
  0
LINE
  8
0
 10
-47.804043
 20
-30.130556
 11
-47.754044
 21
-32.110565
  0
LINE
  8
0
 10
-19.984055
 20
-130.320557
 11
-3.834061
 21
-130.320557
  0
LINE
  8
0
 10
-18.414047
 20
-146.610565
 11
-5.414047
 21
-146.610565
  0
LINE
  8
0
 10
-5.914039
 20
-147.110565
 11
-5.414038
 21
-146.610565
  0
LINE
  8
0
 10
-18.414057
 20
-146.610565
 11
-17.914055
 21
-147.110565
  0
LINE
  8
0
 10
-18.414047
 20
-146.610565
 11
-18.414047
 21
-145.610565
  0
LINE
  8
0
 10
-5.414047
 20
-146.610565
 11
-5.414047
 21
-145.610565
  0
LINE
  8
0
 10
-5.914047
 20
-147.110565
 11
-17.914047
 21
-147.110565
  0
LINE
  8
0
 10
-4.164047
 20
-132.610565
 11
-19.664047
 21
-132.610565
  0
LINE
  8
0
 10
-18.174057
 20
-145.110565
 11
-18.924057
 21
-145.110565
  0
LINE
  8
0
 10
-4.904053
 20
-145.110565
 11
-5.654053
 21
-145.110565
  0
LINE
  8
0
 10
-13.754059
 20
-145.110565
 11
-15.574051
 21
-145.110565
  0
LINE
  8
0
 10
-18.354057
 20
-144.610550
 11
-18.174055
 21
-145.110565
  0
LINE
  8
0
 10
-5.474040
 20
-144.610565
 11
-5.654043
 21
-145.110565
  0
LINE
  8
0
 10
-4.904050
 20
-135.400558
 11
-4.314047
 21
-135.110550
  0
LINE
  8
0
 10
-8.254048
 20
-135.400558
 11
-7.594050
 21
-135.110565
  0
LINE
  8
0
 10
-10.074043
 20
-135.400574
 11
-10.414045
 21
-135.110565
  0
LINE
  8
0
 10
-13.754045
 20
-135.400558
 11
-13.414052
 21
-135.110565
  0
LINE
  8
0
 10
-15.574058
 20
-135.400574
 11
-16.224058
 21
-135.110565
  0
LINE
  8
0
 10
-18.924044
 20
-135.400558
 11
-19.514048
 21
-135.110565
  0
LINE
  8
0
 10
-18.924040
 20
-145.110565
 11
-19.514048
 21
-144.610565
  0
LINE
  8
0
 10
-15.574053
 20
-145.110565
 11
-16.224045
 21
-144.610565
  0
LINE
  8
0
 10
-13.414038
 20
-144.610565
 11
-13.754036
 21
-145.110550
  0
LINE
  8
0
 10
-10.074056
 20
-145.110550
 11
-10.414054
 21
-144.610565
  0
LINE
  8
0
 10
-8.254059
 20
-145.110565
 11
-7.594049
 21
-144.610565
  0
LINE
  8
0
 10
-4.904051
 20
-145.110565
 11
-4.314051
 21
-144.610550
  0
LINE
  8
0
 10
-8.254059
 20
-145.110565
 11
-10.074051
 21
-145.110565
  0
LINE
  8
0
 10
-5.474060
 20
-144.610565
 11
-7.594055
 21
-144.610565
  0
LINE
  8
0
 10
-19.514053
 20
-144.610565
 11
-19.664047
 21
-144.610565
  0
LINE
  8
0
 10
-16.224060
 20
-144.610565
 11
-18.354050
 21
-144.610565
  0
LINE
  8
0
 10
-10.414047
 20
-144.610565
 11
-13.414047
 21
-144.610565
  0
LINE
  8
0
 10
-18.354050
 20
-135.400558
 11
-18.924057
 21
-135.400558
  0
LINE
  8
0
 10
-18.354050
 20
-135.110565
 11
-19.514053
 21
-135.110565
  0
LINE
  8
0
 10
-8.254059
 20
-135.400558
 11
-10.074051
 21
-135.400558
  0
LINE
  8
0
 10
-7.594055
 20
-135.110565
 11
-10.414047
 21
-135.110565
  0
LINE
  8
0
 10
-13.754059
 20
-135.400558
 11
-15.574051
 21
-135.400558
  0
LINE
  8
0
 10
-13.414047
 20
-135.110565
 11
-16.224060
 21
-135.110565
  0
LINE
  8
0
 10
-4.164047
 20
-144.610565
 11
-4.314056
 21
-144.610565
  0
LINE
  8
0
 10
-4.904053
 20
-135.400558
 11
-5.474060
 21
-135.400558
  0
LINE
  8
0
 10
-4.314056
 20
-135.110565
 11
-5.474060
 21
-135.110565
  0
LINE
  8
0
 10
-4.314056
 20
-135.110565
 11
-4.314056
 21
-144.610565
  0
LINE
  8
0
 10
-4.904053
 20
-135.400558
 11
-4.904053
 21
-145.110565
  0
LINE
  8
0
 10
-5.474060
 20
-135.110565
 11
-5.474060
 21
-144.610565
  0
LINE
  8
0
 10
-7.594055
 20
-135.110565
 11
-7.594055
 21
-144.610565
  0
LINE
  8
0
 10
-8.254059
 20
-135.400558
 11
-8.254059
 21
-145.110565
  0
LINE
  8
0
 10
-19.514053
 20
-135.110565
 11
-19.514053
 21
-144.610565
  0
LINE
  8
0
 10
-18.924057
 20
-135.400558
 11
-18.924057
 21
-145.110565
  0
LINE
  8
0
 10
-18.354050
 20
-135.110565
 11
-18.354050
 21
-144.610565
  0
LINE
  8
0
 10
-16.224060
 20
-135.110565
 11
-16.224060
 21
-144.610565
  0
LINE
  8
0
 10
-15.574051
 20
-135.400558
 11
-15.574051
 21
-145.110565
  0
LINE
  8
0
 10
-13.754059
 20
-135.400558
 11
-13.754059
 21
-145.110565
  0
LINE
  8
0
 10
-10.074051
 20
-135.400558
 11
-10.074051
 21
-145.110565
  0
LINE
  8
0
 10
-10.414047
 20
-135.110565
 11
-10.414047
 21
-144.610565
  0
LINE
  8
0
 10
-13.414047
 20
-135.110565
 11
-13.414047
 21
-144.610565
  0
LINE
  8
0
 62
     2
 10
-6.664047
 20
-130.820557
 11
-6.664047
 21
-132.110565
  0
LINE
  8
0
 62
     2
 10
-17.164047
 20
-130.820557
 11
-17.164047
 21
-132.110565
  0
LINE
  8
0
 10
-17.914047
 20
-130.820557
 11
-17.914047
 21
-132.110565
  0
LINE
  8
0
 10
-5.914047
 20
-130.820557
 11
-5.914047
 21
-132.110565
  0
LINE
  8
0
 10
-19.164053
 20
-132.110565
 11
-19.664053
 21
-132.610565
  0
LINE
  8
0
 10
-4.664042
 20
-132.110565
 11
-4.164042
 21
-132.610565
  0
LINE
  8
0
 10
-4.664047
 20
-132.110565
 11
-19.164047
 21
-132.110565
  0
LINE
  8
0
 10
-18.664049
 20
-145.610550
 11
-19.664051
 21
-144.610550
  0
LINE
  8
0
 10
-4.164041
 20
-144.610550
 11
-5.164042
 21
-145.610550
  0
LINE
  8
0
 10
-19.664047
 20
-132.610565
 11
-19.664047
 21
-144.610565
  0
LINE
  8
0
 10
-4.164047
 20
-132.610565
 11
-4.164047
 21
-144.610565
  0
LINE
  8
0
 10
-5.164047
 20
-145.610565
 11
-18.664047
 21
-145.610565
  0
LINE
  8
0
 10
-19.484047
 20
-130.820557
 11
-19.984049
 21
-130.320557
  0
LINE
  8
0
 10
-4.334057
 20
-130.820557
 11
-3.834056
 21
-130.320557
  0
LINE
  8
0
 10
-3.834061
 20
-130.320557
 11
-3.834061
 21
-129.320557
  0
LINE
  8
0
 10
-19.984055
 20
-130.320557
 11
-19.984055
 21
-129.320557
  0
LINE
  8
0
 10
-19.484055
 20
-130.820557
 11
-4.334061
 21
-130.820557
  0
LINE
  8
0
 10
-48.834049
 20
-32.130566
 11
-48.484047
 21
-46.160564
  0
LINE
  8
0
 10
-49.314049
 20
-32.650551
 11
-48.834049
 21
-32.130550
  0
LINE
  8
0
 10
-48.774048
 20
-54.640564
 11
-48.654049
 21
-54.760563
  0
LINE
  8
0
 10
-48.834049
 20
-32.130566
 11
-47.754047
 21
-32.110565
  0
LINE
  8
0
 10
-49.314053
 20
-32.650555
 11
-48.774052
 21
-54.640572
  0
LINE
  8
0
 10
-45.954044
 20
-42.200558
 11
-48.724049
 21
-46.530560
  0
LINE
  8
0
 10
-48.644047
 20
-55.880566
 11
-48.724049
 21
-46.530563
  0
LINE
  8
0
 10
-45.804047
 20
-60.030563
 11
-48.584042
 21
-56.050568
  0
LINE
  8
0
 10
16.805939
 20
-35.830566
 11
16.805939
 21
-111.820557
  0
LINE
  8
0
 10
16.205948
 20
-36.330566
 11
16.205948
 21
-111.320557
  0
LINE
  8
0
 10
15.945938
 20
-36.830566
 11
15.945938
 21
-68.830566
  0
LINE
  8
0
 10
14.115952
 20
-37.330566
 11
14.115952
 21
-68.330566
  0
LINE
  8
0
 10
7.045944
 20
-36.830566
 11
7.045944
 21
-68.830566
  0
LINE
  8
0
 10
6.655945
 20
-35.830566
 11
6.655945
 21
-111.820557
  0
LINE
  8
0
 10
15.805939
 20
-34.830566
 11
7.655945
 21
-34.830566
  0
LINE
  8
0
 10
15.205948
 20
-35.330566
 11
7.655945
 21
-35.330566
  0
LINE
  8
0
 10
7.655945
 20
-112.820557
 11
15.805939
 21
-112.820557
  0
LINE
  8
0
 10
7.655945
 20
-112.320557
 11
15.205948
 21
-112.320557
  0
LINE
  8
0
 10
7.045944
 20
-76.830566
 11
7.045944
 21
-110.820557
  0
LINE
  8
0
 10
14.115952
 20
-77.330566
 11
14.115952
 21
-110.320557
  0
LINE
  8
0
 10
15.945938
 20
-76.830566
 11
15.945938
 21
-110.820557
  0
LINE
  8
0
 10
8.045944
 20
-111.320557
 11
13.115952
 21
-111.320557
  0
LINE
  8
0
 10
8.045944
 20
-69.330566
 11
13.115952
 21
-69.330566
  0
LINE
  8
0
 10
8.045944
 20
-76.330566
 11
13.115952
 21
-76.330566
  0
LINE
  8
0
 10
13.115952
 20
-36.330566
 11
8.045944
 21
-36.330566
  0
LINE
  8
0
 10
14.945938
 20
-35.830566
 11
8.045944
 21
-35.830566
  0
LINE
  8
0
 10
8.045944
 20
-69.830566
 11
14.945938
 21
-69.830566
  0
LINE
  8
0
 10
8.045944
 20
-75.830566
 11
14.945938
 21
-75.830566
  0
LINE
  8
0
 10
8.045944
 20
-111.820557
 11
14.945938
 21
-111.820557
  0
LINE
  8
0
 10
-40.634048
 20
-35.830566
 11
-40.634048
 21
-111.820557
  0
LINE
  8
0
 10
-40.034050
 20
-36.330566
 11
-40.034050
 21
-111.320557
  0
LINE
  8
0
 10
-39.774048
 20
-36.830566
 11
-39.774048
 21
-68.830566
  0
LINE
  8
0
 10
-37.944046
 20
-37.330566
 11
-37.944046
 21
-68.330566
  0
LINE
  8
0
 10
-30.874054
 20
-36.830566
 11
-30.874054
 21
-68.830566
  0
LINE
  8
0
 10
-30.484055
 20
-35.830566
 11
-30.484055
 21
-111.820557
  0
LINE
  8
0
 10
-39.634048
 20
-34.830566
 11
-31.484055
 21
-34.830566
  0
LINE
  8
0
 10
-39.034050
 20
-35.330566
 11
-31.484055
 21
-35.330566
  0
LINE
  8
0
 10
-31.484055
 20
-112.820557
 11
-39.634048
 21
-112.820557
  0
LINE
  8
0
 10
-31.484055
 20
-112.320557
 11
-39.034050
 21
-112.320557
  0
LINE
  8
0
 10
-30.874054
 20
-76.830566
 11
-30.874054
 21
-110.820557
  0
LINE
  8
0
 10
-37.944046
 20
-77.330566
 11
-37.944046
 21
-110.320557
  0
LINE
  8
0
 10
-39.774048
 20
-76.830566
 11
-39.774048
 21
-110.820557
  0
LINE
  8
0
 10
-31.874054
 20
-111.320557
 11
-36.944046
 21
-111.320557
  0
LINE
  8
0
 10
-31.874054
 20
-69.330566
 11
-36.944046
 21
-69.330566
  0
LINE
  8
0
 10
-31.874054
 20
-76.330566
 11
-36.944046
 21
-76.330566
  0
LINE
  8
0
 10
-36.944046
 20
-36.330566
 11
-31.874054
 21
-36.330566
  0
LINE
  8
0
 10
-45.324043
 20
-114.450554
 11
-45.804043
 21
-60.030567
  0
LINE
  8
0
 10
-38.774048
 20
-35.830566
 11
-31.874054
 21
-35.830566
  0
LINE
  8
0
 10
-31.874054
 20
-69.830566
 11
-38.774048
 21
-69.830566
  0
LINE
  8
0
 10
-31.874054
 20
-75.830566
 11
-38.774048
 21
-75.830566
  0
LINE
  8
0
 10
-31.874054
 20
-111.820557
 11
-38.774048
 21
-111.820557
  0
LINE
  8
0
 10
-30.324051
 20
-129.320557
 11
6.505951
 21
-129.320557
  0
LINE
  8
0
  6
CENTER
 62
     2
 10
-62.233608
 20
5.869430
 11
39.121796
 21
5.869430
  0
LINE
  8
0
 10
-189.669998
 20
-128.829987
 11
-152.069992
 21
-128.829987
  0
LINE
  8
0
 10
-204.669998
 20
-89.769989
 11
-204.669998
 21
-113.829987
  0
LINE
  8
0
 10
-137.069992
 20
-107.879990
 11
-137.069992
 21
-113.829987
  0
LINE
  8
0
 62
     2
 10
-204.669998
 20
-89.769981
 11
-137.069977
 21
-107.879982
  0
LINE
  8
0
 10
-199.595657
 20
-91.129410
 11
-199.595657
 21
-111.329987
  0
LINE
  8
0
 10
-198.995651
 20
-91.290146
 11
-198.995651
 21
-110.829987
  0
LINE
  8
0
 10
-189.445648
 20
-93.848587
 11
-189.445648
 21
-111.329987
  0
LINE
  8
0
 10
-189.835663
 20
-93.744095
 11
-189.835663
 21
-110.329987
  0
LINE
  8
0
 10
-196.905655
 20
-91.850052
 11
-196.905655
 21
-109.829987
  0
LINE
  8
0
 10
-198.735657
 20
-91.359802
 11
-198.735657
 21
-110.329987
  0
LINE
  8
0
 10
-190.835663
 20
-111.329987
 11
-197.735657
 21
-111.329987
  0
LINE
  8
0
 10
-190.835663
 20
-110.829987
 11
-195.905655
 21
-110.829987
  0
LINE
  8
0
 10
-190.445648
 20
-111.829987
 11
-197.995651
 21
-111.829987
  0
LINE
  8
0
 10
-190.445648
 20
-112.329987
 11
-198.595657
 21
-112.329987
  0
LINE
  8
0
 10
-142.155655
 20
-106.517548
 11
-142.155655
 21
-111.329987
  0
LINE
  8
0
 10
-142.755661
 20
-106.356812
 11
-142.755661
 21
-110.829987
  0
LINE
  8
0
 10
-152.305649
 20
-103.798370
 11
-152.305649
 21
-111.329987
  0
LINE
  8
0
 10
-151.915649
 20
-103.902847
 11
-151.915649
 21
-110.329987
  0
LINE
  8
0
 10
-144.845657
 20
-105.796890
 11
-144.845657
 21
-109.829987
  0
LINE
  8
0
 10
-143.015656
 20
-106.287155
 11
-143.015656
 21
-110.329987
  0
LINE
  8
0
 10
-150.915649
 20
-111.329987
 11
-144.015656
 21
-111.329987
  0
LINE
  8
0
 10
-150.915649
 20
-110.829987
 11
-145.845657
 21
-110.829987
  0
LINE
  8
0
 10
-151.305649
 20
-111.829987
 11
-143.755661
 21
-111.829987
  0
LINE
  8
0
 10
-151.305649
 20
-112.329987
 11
-143.155655
 21
-112.329987
  0
LINE
  8
0
  6
CENTER
 62
     2
 10
-170.869995
 20
-88.829987
 11
-170.869995
 21
-158.329987
  0
LINE
  8
0
 10
-281.250000
 20
195.500000
 11
282.099854
 21
195.500000
  0
LINE
  8
0
 10
-281.250000
 20
195.500000
 11
-281.250000
 21
-195.000000
  0
LINE
  8
0
 10
282.099854
 20
195.500000
 11
282.099854
 21
-195.000000
  0
LINE
  8
0
 10
-281.250000
 20
-195.000000
 11
282.099854
 21
-195.000000
  0
LINE
  8
0
 10
162.099976
 20
-175.000000
 11
162.099976
 21
-195.000000
  0
LINE
  8
0
 10
162.099976
 20
-175.000000
 11
282.099854
 21
-175.000000
  0
LINE
  8
0
 10
162.099976
 20
175.500000
 11
282.099854
 21
175.500000
  0
LINE
  8
0
 10
-281.250000
 20
175.500000
 11
-161.250000
 21
175.500000
  0
LINE
  8
0
 10
162.099976
 20
195.500000
 11
162.099976
 21
175.500000
  0
LINE
  8
0
 10
-161.250000
 20
195.500000
 11
-161.250000
 21
175.500000
  0
ARC
  8
0
 10
-11.918884
 20
115.869370
 40
27.500275
 50
226.657654
 51
313.342377
  0
ARC
  8
0
 10
-11.918884
 20
115.869370
 40
28.500748
 50
224.566467
 51
315.433563
  0
ARC
  8
0
 10
-11.918884
 20
115.869370
 40
27.500269
 50
46.657604
 51
133.342331
  0
ARC
  8
0
 10
-11.918884
 20
115.869370
 40
28.500751
 50
44.566441
 51
135.433517
  0
ARC
  8
0
 10
-11.918884
 20
115.869370
 40
38.497807
 50
211.299408
 51
328.700592
  0
ARC
  8
0
 10
-11.918884
 20
115.869370
 40
38.497803
 50
31.299398
 51
148.700592
  0
ARC
  8
0
 10
-11.918884
 20
115.869370
 40
39.502197
 50
210.417755
 51
329.582275
  0
ARC
  8
0
 10
-11.918884
 20
115.869370
 40
39.502201
 50
30.417747
 51
149.582230
  0
CIRCLE
  8
0
 10
168.086029
 20
5.869636
 40
9.315500
  0
CIRCLE
  8
0
 62
     2
 10
168.086029
 20
5.869636
 40
10.477500
  0
ARC
  8
0
 10
146.085922
 20
20.869530
 40
2.000107
 50
270.003052
 51
359.996948
  0
CIRCLE
  8
0
 10
168.086029
 20
5.869636
 40
13.500000
  0
ARC
  8
0
 10
138.085922
 20
-7.630470
 40
1.500107
 50
270.004089
 51
359.995911
  0
ARC
  8
0
 10
189.073151
 20
19.873016
 40
2.003638
 50
240.483612
 51
270.367828
  0
ARC
  8
0
 10
146.085937
 20
-7.130486
 40
2.000092
 50
270.002625
 51
359.997375
  0
ARC
  8
0
 10
190.086121
 20
-7.130486
 40
2.000092
 50
180.002670
 51
269.997375
  0
ARC
  8
0
 10
198.086136
 20
-7.630470
 40
1.500107
 50
180.004135
 51
269.995911
  0
ARC
  8
0
 10
190.086136
 20
20.869530
 40
2.000107
 50
180.003113
 51
269.996948
  0
ARC
  8
0
 10
147.098907
 20
19.873024
 40
2.003642
 50
269.632172
 51
299.516296
  0
ARC
  8
0
 10
141.233353
 20
-68.823250
 40
1.007336
 50
180.416168
 51
269.584290
  0
ARC
  8
0
 10
143.070496
 20
-68.326118
 40
1.004465
 50
180.254150
 51
269.745850
  0
ARC
  8
0
 10
148.132080
 20
-68.826607
 40
1.003968
 50
270.226410
 51
359.774017
  0
ARC
  8
0
 10
148.132080
 20
-68.326607
 40
1.003968
 50
270.226410
 51
359.774017
  0
ARC
  8
0
 10
140.372223
 20
-35.826759
 40
0.996189
 50
89.780594
 51
180.219620
  0
ARC
  8
0
 10
140.965912
 20
-36.330437
 40
0.999866
 50
89.992134
 51
180.007645
  0
ARC
  8
0
 10
141.224442
 20
-36.828987
 40
0.998414
 50
89.908936
 51
180.091064
  0
ARC
  8
0
 10
143.061554
 20
-37.326088
 40
0.995535
 50
89.742691
 51
180.257523
  0
ARC
  8
0
 10
148.522766
 20
-35.823845
 40
0.993294
 50
359.612274
 51
90.388153
  0
ARC
  8
0
 10
148.522766
 20
-36.323845
 40
0.993294
 50
359.612274
 51
90.388153
  0
ARC
  8
0
 10
148.141006
 20
-36.825600
 40
0.995038
 50
359.714020
 51
90.286430
  0
ARC
  8
0
 10
148.141006
 20
-37.325600
 40
0.995038
 50
359.714020
 51
90.286430
  0
ARC
  8
0
 10
140.376144
 20
-111.820473
 40
1.000107
 50
180.005676
 51
269.993866
  0
ARC
  8
0
 10
140.969803
 20
-111.316795
 40
1.003776
 50
180.215561
 51
269.784882
  0
ARC
  8
0
 10
141.228363
 20
-110.818245
 40
1.002322
 50
180.132584
 51
269.867432
  0
ARC
  8
0
 10
141.224442
 20
-76.828972
 40
0.998407
 50
89.908928
 51
180.091064
  0
ARC
  8
0
 10
143.065475
 20
-110.321129
 40
0.999451
 50
179.968079
 51
270.031494
  0
ARC
  8
0
 10
148.518829
 20
-111.823357
 40
0.997212
 50
269.839569
 51
0.160438
  0
ARC
  8
0
 10
148.518829
 20
-111.323357
 40
0.997212
 50
269.839569
 51
0.160438
  0
ARC
  8
0
 10
148.137085
 20
-110.821617
 40
0.998955
 50
269.940491
 51
0.059949
  0
ARC
  8
0
 10
148.137085
 20
-110.321617
 40
0.998955
 50
269.940491
 51
0.059949
  0
ARC
  8
0
 10
148.141006
 20
-76.825600
 40
0.995038
 50
359.713562
 51
90.286430
  0
ARC
  8
0
 10
148.141006
 20
-77.325600
 40
0.995038
 50
359.713562
 51
90.286430
  0
ARC
  8
0
 10
143.061554
 20
-77.326088
 40
0.995532
 50
89.741814
 51
180.257751
  0
ARC
  8
0
 10
194.951874
 20
-68.826424
 40
1.004159
 50
270.236816
 51
359.763184
  0
ARC
  8
0
 10
193.114624
 20
-68.329170
 40
1.001405
 50
270.080322
 51
359.919678
  0
ARC
  8
0
 10
188.053055
 20
-68.823540
 40
1.007059
 50
180.400208
 51
269.599792
  0
ARC
  8
0
 10
188.053055
 20
-68.323540
 40
1.007059
 50
180.400208
 51
269.599792
  0
ARC
  8
0
 10
195.812927
 20
-35.823662
 40
0.993112
 50
359.601196
 51
90.398788
  0
ARC
  8
0
 10
195.214355
 20
-36.322243
 40
0.991704
 50
359.518860
 51
90.481346
  0
ARC
  8
0
 10
194.960800
 20
-36.825783
 40
0.995236
 50
359.724823
 51
90.274956
  0
ARC
  8
0
 10
193.123566
 20
-37.323021
 40
0.992476
 50
359.563965
 51
90.436043
  0
ARC
  8
0
 10
187.662369
 20
-35.826912
 40
0.996356
 50
89.790283
 51
180.209930
  0
ARC
  8
0
 10
187.662369
 20
-36.326912
 40
0.996356
 50
89.790283
 51
180.209930
  0
ARC
  8
0
 10
188.044159
 20
-36.828697
 40
0.998133
 50
89.892265
 51
180.107300
  0
ARC
  8
0
 10
188.044159
 20
-37.328697
 40
0.998133
 50
89.892265
 51
180.107300
  0
ARC
  8
0
 10
195.809006
 20
-111.823555
 40
0.997021
 50
269.829010
 51
0.171428
  0
ARC
  8
0
 10
195.210419
 20
-111.324959
 40
0.995615
 50
269.747101
 51
0.252898
  0
ARC
  8
0
 10
194.956879
 20
-110.821434
 40
0.999146
 50
269.950989
 51
0.049001
  0
ARC
  8
0
 10
194.960800
 20
-76.825783
 40
0.995236
 50
359.724609
 51
90.274956
  0
ARC
  8
0
 10
193.119644
 20
-110.324181
 40
0.996390
 50
269.792053
 51
0.207952
  0
ARC
  8
0
 10
187.666290
 20
-111.820305
 40
1.000259
 50
180.015289
 51
269.985138
  0
ARC
  8
0
 10
187.666290
 20
-111.320305
 40
1.000259
 50
180.015289
 51
269.985138
  0
ARC
  8
0
 10
188.048065
 20
-110.818520
 40
1.002047
 50
180.116913
 51
269.883087
  0
ARC
  8
0
 10
188.048065
 20
-110.318520
 40
1.002047
 50
180.116913
 51
269.883087
  0
ARC
  8
0
 10
188.044144
 20
-76.828697
 40
0.998133
 50
89.892265
 51
180.107300
  0
ARC
  8
0
 10
188.044144
 20
-77.328697
 40
0.998133
 50
89.892265
 51
180.107300
  0
ARC
  8
0
 10
193.123581
 20
-77.323021
 40
0.992476
 50
359.563965
 51
90.436043
  0
ARC
  8
0
 10
149.676437
 20
-114.319603
 40
15.000969
 50
180.500290
 51
269.998535
  0
ARC
  8
0
 10
186.508774
 20
-114.322777
 40
14.997795
 50
269.989502
 51
359.511780
  0
ARC
  8
0
 10
-48.336895
 20
-55.867737
 40
0.307419
 50
182.389557
 51
216.490662
  0
ARC
  8
0
 10
14.945175
 20
-68.829788
 40
1.000771
 50
270.044006
 51
359.955872
  0
ARC
  8
0
 10
13.113068
 20
-68.327682
 40
1.002888
 50
270.164703
 51
359.835236
  0
ARC
  8
0
 10
8.051483
 20
-68.825027
 40
1.005548
 50
180.315170
 51
269.684723
  0
ARC
  8
0
 10
8.051483
 20
-68.325027
 40
1.005548
 50
180.315170
 51
269.684723
  0
ARC
  8
0
 10
15.811340
 20
-35.825165
 40
0.994613
 50
359.688843
 51
90.311111
  0
ARC
  8
0
 10
15.212692
 20
-36.323822
 40
0.993279
 50
359.610962
 51
90.389046
  0
ARC
  8
0
 10
14.954132
 20
-36.822372
 40
0.991842
 50
359.526886
 51
90.473183
  0
ARC
  8
0
 10
13.122009
 20
-37.324509
 40
0.993960
 50
359.650818
 51
90.349197
  0
ARC
  8
0
 10
7.655838
 20
-35.830444
 40
0.999889
 50
89.993637
 51
180.006332
  0
ARC
  8
0
 10
7.655838
 20
-36.330444
 40
0.999889
 50
89.993637
 51
180.006332
  0
ARC
  8
0
 10
8.042557
 20
-36.827179
 40
0.996622
 50
89.805473
 51
180.194519
  0
ARC
  8
0
 10
8.042557
 20
-37.327179
 40
0.996622
 50
89.805473
 51
180.194519
  0
ARC
  8
0
 10
15.807419
 20
-111.822037
 40
0.998529
 50
269.915344
 51
0.084491
  0
ARC
  8
0
 10
15.208755
 20
-111.323380
 40
0.997189
 50
269.838348
 51
0.161757
  0
ARC
  8
0
 10
14.950195
 20
-110.824814
 40
0.995752
 50
269.755157
 51
0.244961
  0
ARC
  8
0
 10
14.954147
 20
-76.822372
 40
0.991839
 50
359.526642
 51
90.473404
  0
ARC
  8
0
 10
13.118073
 20
-110.322693
 40
0.997874
 50
269.877686
 51
0.122220
  0
ARC
  8
0
 10
7.659744
 20
-111.816772
 40
1.003801
 50
180.216431
 51
269.783417
  0
ARC
  8
0
 10
7.659744
 20
-111.316772
 40
1.003801
 50
180.216431
 51
269.783417
  0
ARC
  8
0
 10
8.046478
 20
-110.820023
 40
1.000533
 50
180.030579
 51
269.969482
  0
ARC
  8
0
 10
8.046478
 20
-110.320023
 40
1.000533
 50
180.030579
 51
269.969482
  0
ARC
  8
0
 10
8.042557
 20
-76.827179
 40
0.996618
 50
89.805252
 51
180.194748
  0
ARC
  8
0
 10
8.042557
 20
-77.327179
 40
0.996618
 50
89.805252
 51
180.194748
  0
ARC
  8
0
 10
13.122009
 20
-77.324493
 40
0.993957
 50
359.650360
 51
90.349419
  0
ARC
  8
0
 10
-38.768318
 20
-68.824829
 40
1.005742
 50
180.326416
 51
269.673798
  0
ARC
  8
0
 10
-36.936195
 20
-68.322708
 40
1.007881
 50
180.446289
 51
269.553711
  0
ARC
  8
0
 10
-31.874634
 20
-68.829987
 40
1.000572
 50
270.032990
 51
359.967224
  0
ARC
  8
0
 10
-31.874634
 20
-68.329987
 40
1.000572
 50
270.032990
 51
359.967224
  0
ARC
  8
0
 10
-39.634430
 20
-35.830185
 40
0.999615
 50
89.977913
 51
180.022079
  0
ARC
  8
0
 10
-39.035782
 20
-36.328827
 40
0.998266
 50
89.900383
 51
180.099625
  0
ARC
  8
0
 10
-38.777237
 20
-36.827377
 40
0.996816
 50
89.816696
 51
180.183304
  0
ARC
  8
0
 10
-36.945091
 20
-37.329514
 40
0.998955
 50
89.940048
 51
180.059952
  0
ARC
  8
0
 10
-31.478928
 20
-35.825439
 40
0.994884
 50
359.704529
 51
90.295372
  0
ARC
  8
0
 10
-31.478928
 20
-36.325439
 40
0.994884
 50
359.704529
 51
90.295372
  0
ARC
  8
0
 10
-31.865662
 20
-36.822174
 40
0.991649
 50
359.515320
 51
90.484573
  0
ARC
  8
0
 10
-31.865662
 20
-37.322174
 40
0.991649
 50
359.515320
 51
90.484573
  0
ARC
  8
0
 10
-39.630524
 20
-111.817047
 40
1.003527
 50
180.201248
 51
269.798981
  0
ARC
  8
0
 10
-39.031872
 20
-111.318390
 40
1.002181
 50
180.124313
 51
269.875458
  0
ARC
  8
0
 10
-38.773319
 20
-110.819839
 40
1.000729
 50
180.041931
 51
269.958282
  0
ARC
  8
0
 10
-38.777237
 20
-76.827377
 40
0.996816
 50
89.816475
 51
180.183304
  0
ARC
  8
0
 10
-36.941185
 20
-110.317703
 40
1.002869
 50
180.163895
 51
269.836334
  0
ARC
  8
0
 10
-31.482849
 20
-111.821762
 40
0.998795
 50
269.930847
 51
0.069150
  0
ARC
  8
0
 10
-31.482849
 20
-111.321762
 40
0.998795
 50
269.930847
 51
0.069150
  0
ARC
  8
0
 10
-31.869598
 20
-110.825012
 40
0.995562
 50
269.744019
 51
0.255985
  0
ARC
  8
0
 10
-31.869598
 20
-110.325012
 40
0.995562
 50
269.744019
 51
0.255985
  0
ARC
  8
0
 10
-31.865662
 20
-76.822174
 40
0.991645
 50
359.515106
 51
90.484795
  0
ARC
  8
0
 10
-31.865662
 20
-77.322174
 40
0.991645
 50
359.515106
 51
90.484795
  0
ARC
  8
0
 10
-36.945095
 20
-77.329514
 40
0.998955
 50
89.939835
 51
180.059952
  0
ARC
  8
0
 10
6.507111
 20
-114.321167
 40
14.999390
 50
269.995605
 51
359.505737
  0
ARC
  8
0
 10
-30.325241
 20
-114.321198
 40
14.999372
 50
180.494217
 51
270.004547
  0
ARC
  8
0
 10
-189.672821
 20
-113.832809
 40
14.997177
 50
179.989182
 51
270.010773
  0
ARC
  8
0
 10
-152.072479
 20
-113.827515
 40
15.002487
 50
270.009491
 51
359.990540
  0
ARC
  8
0
 10
-190.831207
 20
-109.834442
 40
0.995562
 50
269.743561
 51
0.255987
  0
ARC
  8
0
 10
-190.831207
 20
-110.334442
 40
0.995562
 50
269.743561
 51
0.255987
  0
ARC
  8
0
 10
-190.444458
 20
-110.831192
 40
0.998795
 50
269.930847
 51
0.069150
  0
ARC
  8
0
 10
-190.444458
 20
-111.331192
 40
0.998795
 50
269.930847
 51
0.069150
  0
ARC
  8
0
 10
-195.902786
 20
-109.827133
 40
1.002873
 50
180.163895
 51
269.836121
  0
ARC
  8
0
 10
-197.734924
 20
-110.329269
 40
1.000733
 50
180.041931
 51
269.958069
  0
ARC
  8
0
 10
-197.993484
 20
-110.827820
 40
1.002184
 50
180.124313
 51
269.875244
  0
ARC
  8
0
 10
-198.592133
 20
-111.326477
 40
1.003531
 50
180.201248
 51
269.798767
  0
ARC
  8
0
 10
-150.915115
 20
-109.829453
 40
1.000534
 50
180.030579
 51
269.969421
  0
ARC
  8
0
 10
-150.915115
 20
-110.329453
 40
1.000534
 50
180.030579
 51
269.969421
  0
ARC
  8
0
 10
-151.301865
 20
-110.826202
 40
1.003807
 50
180.216431
 51
269.783142
  0
ARC
  8
0
 10
-151.301865
 20
-111.326202
 40
1.003807
 50
180.216431
 51
269.783142
  0
ARC
  8
0
 10
-145.843521
 20
-109.832123
 40
0.997874
 50
269.877350
 51
0.122221
  0
ARC
  8
0
 10
-144.011398
 20
-110.334244
 40
0.995752
 50
269.755035
 51
0.244961
  0
ARC
  8
0
 10
-143.752838
 20
-110.832809
 40
0.997189
 50
269.838684
 51
0.161755
  0
ARC
  8
0
 10
-143.154175
 20
-111.331467
 40
0.998529
 50
269.915070
 51
0.084491
  0
POLYLINE
  8
0
 66
     1
  0
VERTEX
  8
0
 10
-45.954048
 20
-42.200562
  0
VERTEX
  8
0
 10
-45.683102
 20
-43.141068
  0
VERTEX
  8
0
 10
-45.441418
 20
-44.069557
  0
VERTEX
  8
0
 10
-45.229137
 20
-44.997505
  0
VERTEX
  8
0
 10
-45.046417
 20
-45.936378
  0
VERTEX
  8
0
 10
-44.893398
 20
-46.897652
  0
VERTEX
  8
0
 10
-44.770229
 20
-47.892796
  0
VERTEX
  8
0
 10
-44.677063
 20
-48.933273
  0
VERTEX
  8
0
 10
-44.614048
 20
-50.030563
  0
VERTEX
  8
0
 10
-44.589272
 20
-50.949638
  0
VERTEX
  8
0
 10
-44.592510
 20
-51.869377
  0
VERTEX
  8
0
 10
-44.623291
 20
-52.788891
  0
VERTEX
  8
0
 10
-44.681137
 20
-53.707298
  0
VERTEX
  8
0
 10
-44.765575
 20
-54.623707
  0
VERTEX
  8
0
 10
-44.876129
 20
-55.537231
  0
VERTEX
  8
0
 10
-45.012325
 20
-56.446987
  0
VERTEX
  8
0
 10
-45.173691
 20
-57.352085
  0
VERTEX
  8
0
 10
-45.359749
 20
-58.251637
  0
VERTEX
  8
0
 10
-45.570026
 20
-59.144760
  0
VERTEX
  8
0
 10
-45.804047
 20
-60.030563
  0
SEQEND
  0
TEXT
  8
0
 10
199.400253
 20
180.830002
 40
6.300000
  1
Ｖｅｒ．２．０
 50
0.000000
 41
0.833333
 51
0.000000
  7
STANDARD
  0
TEXT
  8
0
 10
-240.799713
 20
180.830002
 40
6.300000
  1
FILTER
 50
0.000000
 41
1.052632
 51
0.000000
  7
STANDARD
  0
TEXT
  8
0
 10
-266.000000
 20
162.899994
 40
6.000000
  1
MODEL:F600-04
 50
0.000000
 41
1.052632
 51
0.000000
  7
STANDARD
  0
TEXT
  8
0
 10
-219.384308
 20
-75.438576
 40
6.000000
  1
OPTION:-F1,-A
 50
0.000000
 41
1.052632
 51
0.000000
  7
STANDARD
  0
TEXT
  8
0
 10
-81.250000
 20
6.869446
 40
6.000000
  1
IN
 50
0.000000
 41
1.052632
 51
0.000000
  7
STANDARD
  0
TEXT
  8
0
 10
40.083328
 20
6.869436
 40
6.000000
  1
OUT
 50
0.000000
 41
1.052632
 51
0.000000
  7
STANDARD
  0
TEXT
  8
0
 10
167.564667
 20
-192.100006
 40
9.000000
  1
KOGANEI CORP.
 50
0.000000
 41
1.052632
 51
0.000000
  7
STANDARD
  0
LINE
  8
0
 10
-61.913940
 20
5.869435
 11
-86.913925
 21
5.869435
  0
LINE
  8
0
 10
-61.913940
 20
5.869435
 11
-64.811722
 21
6.645892
  0
LINE
  8
0
 10
-61.913940
 20
5.869435
 11
-64.811714
 21
5.092978
  0
LINE
  8
0
 10
63.086044
 20
5.869436
 11
38.086044
 21
5.869436
  0
LINE
  8
0
 10
63.086044
 20
5.869436
 11
60.188267
 21
6.645893
  0
LINE
  8
0
 10
63.086044
 20
5.869436
 11
60.188267
 21
5.092979
  0
ENDSEC
  0
EOF
