  0
SECTION
  2
HEADER
  9
$ACADVER
  1
AC1015
  9
$ACADMAINTVER
 70
    20
  9
$DWGCODEPAGE
  3
ANSI_932
  9
$INSBASE
 10
0.0
 20
0.0
 30
0.0
  9
$EXTMIN
 10
-281.25
 20
-195.0
 30
0.0
  9
$EXTMAX
 10
282.09985352
 20
427.4079276340335
 30
0.0
  9
$LIMMIN
 10
-297.0
 20
-210.0
  9
$LIMMAX
 10
297.0
 20
210.0
  9
$ORTHOMODE
 70
     1
  9
$REGENMODE
 70
     1
  9
$FILLMODE
 70
     1
  9
$QTEXTMODE
 70
     0
  9
$MIRRTEXT
 70
     1
  9
$LTSCALE
 40
1.0
  9
$ATTMODE
 70
     1
  9
$TEXTSIZE
 40
3.200000049999999
  9
$TRACEWID
 40
0.05
  9
$TEXTSTYLE
  7
MX_NOTE_STANDARD
  9
$CLAYER
  8
0
  9
$CELTYPE
  6
CONTINUOUS
  9
$CECOLOR
 62
   256
  9
$CELTSCALE
 40
1.0
  9
$DISPSILH
 70
     0
  9
$DIMSCALE
 40
1.0
  9
$DIMASZ
 40
2.5
  9
$DIMEXO
 40
1.5
  9
$DIMDLI
 40
3.75
  9
$DIMRND
 40
0.0
  9
$DIMDLE
 40
0.0
  9
$DIMEXE
 40
1.5
  9
$DIMTP
 40
0.0
  9
$DIMTM
 40
0.0
  9
$DIMTXT
 40
3.200000049999999
  9
$DIMCEN
 40
2.5
  9
$DIMTSZ
 40
0.0
  9
$DIMTOL
 70
     0
  9
$DIMLIM
 70
     0
  9
$DIMTIH
 70
     0
  9
$DIMTOH
 70
     0
  9
$DIMSE1
 70
     0
  9
$DIMSE2
 70
     0
  9
$DIMTAD
 70
     1
  9
$DIMZIN
 70
     8
  9
$DIMBLK
  1

  9
$DIMASO
 70
     1
  9
$DIMSHO
 70
     1
  9
$DIMPOST
  1

  9
$DIMAPOST
  1

  9
$DIMALT
 70
     0
  9
$DIMALTD
 70
     4
  9
$DIMALTF
 40
0.03937008
  9
$DIMLFAC
 40
1.0
  9
$DIMTOFL
 70
     1
  9
$DIMTVP
 40
0.0
  9
$DIMTIX
 70
     0
  9
$DIMSOXD
 70
     0
  9
$DIMSAH
 70
     1
  9
$DIMBLK1
  1
OPEN30
  9
$DIMBLK2
  1
OPEN30
  9
$DIMSTYLE
  2
MXDIMSTYLE
  9
$DIMCLRD
 70
     0
  9
$DIMCLRE
 70
     0
  9
$DIMCLRT
 70
     0
  9
$DIMTFAC
 40
1.0
  9
$DIMGAP
 40
1.0
  9
$DIMJUST
 70
     0
  9
$DIMSD1
 70
     0
  9
$DIMSD2
 70
     0
  9
$DIMTOLJ
 70
     1
  9
$DIMTZIN
 70
     0
  9
$DIMALTZ
 70
     0
  9
$DIMALTTZ
 70
     0
  9
$DIMUPT
 70
     0
  9
$DIMDEC
 70
     4
  9
$DIMTDEC
 70
     4
  9
$DIMALTU
 70
     2
  9
$DIMALTTD
 70
     2
  9
$DIMTXSTY
  7
Standard
  9
$DIMAUNIT
 70
     0
  9
$DIMADEC
 70
     0
  9
$DIMALTRND
 40
0.0
  9
$DIMAZIN
 70
     0
  9
$DIMDSEP
 70
    46
  9
$DIMATFIT
 70
     3
  9
$DIMFRAC
 70
     0
  9
$DIMLDRBLK
  1
OPEN30
  9
$DIMLUNIT
 70
     2
  9
$DIMLWD
 70
    -2
  9
$DIMLWE
 70
    -2
  9
$DIMTMOVE
 70
     0
  9
$LUNITS
 70
     2
  9
$LUPREC
 70
     4
  9
$SKETCHINC
 40
0.1
  9
$FILLETRAD
 40
0.0
  9
$AUNITS
 70
     0
  9
$AUPREC
 70
     0
  9
$MENU
  1
acad
  9
$ELEVATION
 40
0.0
  9
$PELEVATION
 40
0.0
  9
$THICKNESS
 40
0.0
  9
$LIMCHECK
 70
     0
  9
$CHAMFERA
 40
0.0
  9
$CHAMFERB
 40
0.0
  9
$CHAMFERC
 40
0.0
  9
$CHAMFERD
 40
0.0
  9
$SKPOLY
 70
     0
  9
$TDCREATE
 40
2454110.753993056
  9
$TDUCREATE
 40
2454110.378993056
  9
$TDUPDATE
 40
2454336.417298183
  9
$TDUUPDATE
 40
2454336.042298183
  9
$TDINDWG
 40
0.0057796296
  9
$TDUSRTIMER
 40
0.0057796296
  9
$USRTIMER
 70
     1
  9
$ANGBASE
 50
0.0
  9
$ANGDIR
 70
     0
  9
$PDMODE
 70
     0
  9
$PDSIZE
 40
0.0
  9
$PLINEWID
 40
0.0
  9
$SPLFRAME
 70
     0
  9
$SPLINETYPE
 70
     6
  9
$SPLINESEGS
 70
     8
  9
$HANDSEED
  5
8D8
  9
$SURFTAB1
 70
     6
  9
$SURFTAB2
 70
     6
  9
$SURFTYPE
 70
     6
  9
$SURFU
 70
     6
  9
$SURFV
 70
     6
  9
$UCSBASE
  2

  9
$UCSNAME
  2

  9
$UCSORG
 10
0.0
 20
0.0
 30
0.0
  9
$UCSXDIR
 10
1.0
 20
0.0
 30
0.0
  9
$UCSYDIR
 10
0.0
 20
1.0
 30
0.0
  9
$UCSORTHOREF
  2

  9
$UCSORTHOVIEW
 70
     0
  9
$UCSORGTOP
 10
0.0
 20
0.0
 30
0.0
  9
$UCSORGBOTTOM
 10
0.0
 20
0.0
 30
0.0
  9
$UCSORGLEFT
 10
0.0
 20
0.0
 30
0.0
  9
$UCSORGRIGHT
 10
0.0
 20
0.0
 30
0.0
  9
$UCSORGFRONT
 10
0.0
 20
0.0
 30
0.0
  9
$UCSORGBACK
 10
0.0
 20
0.0
 30
0.0
  9
$PUCSBASE
  2

  9
$PUCSNAME
  2

  9
$PUCSORG
 10
0.0
 20
0.0
 30
0.0
  9
$PUCSXDIR
 10
1.0
 20
0.0
 30
0.0
  9
$PUCSYDIR
 10
0.0
 20
1.0
 30
0.0
  9
$PUCSORTHOREF
  2

  9
$PUCSORTHOVIEW
 70
     0
  9
$PUCSORGTOP
 10
0.0
 20
0.0
 30
0.0
  9
$PUCSORGBOTTOM
 10
0.0
 20
0.0
 30
0.0
  9
$PUCSORGLEFT
 10
0.0
 20
0.0
 30
0.0
  9
$PUCSORGRIGHT
 10
0.0
 20
0.0
 30
0.0
  9
$PUCSORGFRONT
 10
0.0
 20
0.0
 30
0.0
  9
$PUCSORGBACK
 10
0.0
 20
0.0
 30
0.0
  9
$USERI1
 70
     0
  9
$USERI2
 70
     0
  9
$USERI3
 70
     0
  9
$USERI4
 70
     0
  9
$USERI5
 70
     0
  9
$USERR1
 40
0.0
  9
$USERR2
 40
0.0
  9
$USERR3
 40
0.0
  9
$USERR4
 40
0.0
  9
$USERR5
 40
0.0
  9
$WORLDVIEW
 70
     1
  9
$SHADEDGE
 70
     3
  9
$SHADEDIF
 70
    70
  9
$TILEMODE
 70
     1
  9
$MAXACTVP
 70
    16
  9
$PINSBASE
 10
0.0
 20
0.0
 30
0.0
  9
$PLIMCHECK
 70
     0
  9
$PEXTMIN
 10
1.000000000000000E+20
 20
1.000000000000000E+20
 30
1.000000000000000E+20
  9
$PEXTMAX
 10
-1.000000000000000E+20
 20
-1.000000000000000E+20
 30
-1.000000000000000E+20
  9
$PLIMMIN
 10
0.0
 20
0.0
  9
$PLIMMAX
 10
12.0
 20
9.0
  9
$UNITMODE
 70
     0
  9
$VISRETAIN
 70
     0
  9
$PLINEGEN
 70
     1
  9
$PSLTSCALE
 70
     0
  9
$TREEDEPTH
 70
  3020
  9
$CMLSTYLE
  2
Standard
  9
$CMLJUST
 70
     0
  9
$CMLSCALE
 40
1.0
  9
$PROXYGRAPHICS
 70
     1
  9
$MEASUREMENT
 70
     0
  9
$CELWEIGHT
370
    -1
  9
$ENDCAPS
280
     0
  9
$JOINSTYLE
280
     0
  9
$LWDISPLAY
290
     0
  9
$INSUNITS
 70
     0
  9
$HYPERLINKBASE
  1

  9
$STYLESHEET
  1

  9
$XEDIT
290
     1
  9
$CEPSNTYPE
380
     0
  9
$PSTYLEMODE
290
     1
  9
$FINGERPRINTGUID
  2
{7C1105D9-67BC-4CFB-9C3C-3593955CA826}
  9
$VERSIONGUID
  2
{F57D90D3-4835-41F4-846C-9D7D35AE9FF3}
  9
$EXTNAMES
290
     1
  9
$PSVPSCALE
 40
0.0
  9
$OLESTARTUP
290
     0
  0
ENDSEC
  0
SECTION
  2
CLASSES
  0
CLASS
  1
ACDBDICTIONARYWDFLT
  2
AcDbDictionaryWithDefault
  3
ObjectDBX Classes
 90
        0
280
     0
281
     0
  0
CLASS
  1
TABLESTYLE
  2
AcDbTableStyle
  3
ObjectDBX Classes
 90
     2047
280
     0
281
     0
  0
CLASS
  1
SORTENTSTABLE
  2
AcDbSortentsTable
  3
ObjectDBX Classes
 90
        0
280
     0
281
     0
  0
CLASS
  1
DICTIONARYVAR
  2
AcDbDictionaryVar
  3
ObjectDBX Classes
 90
        0
280
     0
281
     0
  0
CLASS
  1
ACDBPLACEHOLDER
  2
AcDbPlaceHolder
  3
ObjectDBX Classes
 90
        0
280
     0
281
     0
  0
CLASS
  1
LAYOUT
  2
AcDbLayout
  3
ObjectDBX Classes
 90
        0
280
     0
281
     0
  0
ENDSEC
  0
SECTION
  2
TABLES
  0
TABLE
  2
VPORT
  5
2C4
330
0
100
AcDbSymbolTable
 70
     3
  0
VPORT
  5
8D1
330
2C4
100
AcDbSymbolTableRecord
100
AcDbViewportTableRecord
  2
*Active
 70
     0
 10
0.0
 20
0.0
 11
1.0
 21
1.0
 12
74.90022323306573
 22
128.5594773059571
 13
0.0
 23
0.0
 14
1.0
 24
1.0
 15
0.0
 25
0.0
 16
0.0
 26
0.0
 36
1.0
 17
0.0
 27
0.0
 37
0.0
 40
689.1987251563753
 41
1.637450199203187
 42
50.0
 43
0.0
 44
0.0
 50
0.0
 51
0.0
 71
     0
 72
   100
 73
     1
 74
     1
 75
     0
 76
     0
 77
     0
 78
     0
281
     0
 65
     1
110
0.0
120
0.0
130
0.0
111
1.0
121
0.0
131
0.0
112
0.0
122
1.0
132
0.0
 79
     0
146
0.0
  0
ENDTAB
  0
TABLE
  2
LTYPE
  5
2C1
330
0
100
AcDbSymbolTable
 70
     3
  0
LTYPE
  5
2CF
330
2C1
100
AcDbSymbolTableRecord
100
AcDbLinetypeTableRecord
  2
ByBlock
 70
     0
  3

 72
    65
 73
     0
 40
0.0
  0
LTYPE
  5
2D0
330
2C1
100
AcDbSymbolTableRecord
100
AcDbLinetypeTableRecord
  2
ByLayer
 70
     0
  3

 72
    65
 73
     0
 40
0.0
  0
LTYPE
  5
2D1
330
2C1
100
AcDbSymbolTableRecord
100
AcDbLinetypeTableRecord
  2
CONTINUOUS
 70
     0
  3
Solid line
 72
    65
 73
     0
 40
0.0
  0
LTYPE
  5
2E4
330
2C1
100
AcDbSymbolTableRecord
100
AcDbLinetypeTableRecord
  2
CENTER
 70
     0
  3
Center ____ _ ____ _ ____ _ ____ _ ____ _ ____
 72
    65
 73
     4
 40
50.8
 49
31.75
 74
     0
 49
-6.349999999999999
 74
     0
 49
6.349999999999999
 74
     0
 49
-6.349999999999999
 74
     0
  0
ENDTAB
  0
TABLE
  2
LAYER
  5
2BE
102
{ACAD_XDICTIONARY
360
5B9
102
}
330
0
100
AcDbSymbolTable
 70
     2
  0
LAYER
  5
2CC
330
2BE
100
AcDbSymbolTableRecord
100
AcDbLayerTableRecord
  2
0
 70
     0
 62
     7
  6
CONTINUOUS
370
    -3
390
2CB
  0
LAYER
  5
2E5
330
2BE
100
AcDbSymbolTableRecord
100
AcDbLayerTableRecord
  2
DEFPOINTS
 70
     0
 62
     7
  6
CONTINUOUS
290
     0
370
    -3
390
2CB
  0
ENDTAB
  0
TABLE
  2
STYLE
  5
2BF
330
0
100
AcDbSymbolTable
 70
     2
  0
STYLE
  5
2CD
330
2BF
100
AcDbSymbolTableRecord
100
AcDbTextStyleTableRecord
  2
Standard
 70
     0
 40
0.0
 41
1.0
 50
0.0
 71
     0
 42
0.2
  3
txt
  4

  0
STYLE
  5
2E2
330
2BF
100
AcDbSymbolTableRecord
100
AcDbTextStyleTableRecord
  2
MX_NOTE_STANDARD
 70
     0
 40
0.0
 41
1.0
 50
0.0
 71
     0
 42
3.200000049999999
  3
txt.shx
  4
extfont.shx
  0
ENDTAB
  0
TABLE
  2
VIEW
  5
2C2
330
0
100
AcDbSymbolTable
 70
     0
  0
ENDTAB
  0
TABLE
  2
UCS
  5
2C3
330
0
100
AcDbSymbolTable
 70
     0
  0
ENDTAB
  0
TABLE
  2
APPID
  5
2C5
330
0
100
AcDbSymbolTable
 70
     3
  0
APPID
  5
2CE
330
2C5
100
AcDbSymbolTableRecord
100
AcDbRegAppTableRecord
  2
ACAD
 70
     0
  0
APPID
  5
5B8
330
2C5
100
AcDbSymbolTableRecord
100
AcDbRegAppTableRecord
  2
ACAD_PSEXT
 70
     0
  0
APPID
  5
8C4
330
2C5
100
AcDbSymbolTableRecord
100
AcDbRegAppTableRecord
  2
ACAD_EXEMPT_FROM_CAD_STANDARDS
 70
     0
  0
ENDTAB
  0
TABLE
  2
DIMSTYLE
  5
2C6
330
0
100
AcDbSymbolTable
 70
     2
100
AcDbDimStyleTable
 71
     1
340
2E6
  0
DIMSTYLE
105
2E6
330
2C6
100
AcDbSymbolTableRecord
100
AcDbDimStyleTableRecord
  2
MXDIMSTYLE
 70
     0
 41
2.5
 42
1.5
 43
3.75
 44
1.5
 73
     0
 74
     0
 77
     1
 78
     8
140
3.200000049999999
141
2.5
143
0.03937008
147
1.0
171
     4
172
     1
173
     1
274
     4
279
     2
284
     8
285
     8
286
     8
340
2E2
  0
ENDTAB
  0
TABLE
  2
BLOCK_RECORD
  5
2BD
330
0
100
AcDbSymbolTable
 70
     3
  0
BLOCK_RECORD
  5
2DE
330
2BD
100
AcDbSymbolTableRecord
100
AcDbBlockTableRecord
  2
*Model_Space
340
2E1
  0
BLOCK_RECORD
  5
2DA
330
2BD
100
AcDbSymbolTableRecord
100
AcDbBlockTableRecord
  2
*Paper_Space
340
2DD
  0
BLOCK_RECORD
  5
2E9
330
2BD
100
AcDbSymbolTableRecord
100
AcDbBlockTableRecord
  2
_OPEN30
340
0
  0
ENDTAB
  0
ENDSEC
  0
SECTION
  2
BLOCKS
  0
BLOCK
  5
2DF
330
2DE
100
AcDbEntity
  8
0
100
AcDbBlockBegin
  2
*Model_Space
 70
     0
 10
0.0
 20
0.0
 30
0.0
  3
*Model_Space
  1

  0
ENDBLK
  5
2E0
330
2DE
100
AcDbEntity
  8
0
100
AcDbBlockEnd
  0
BLOCK
  5
2DB
330
2DA
100
AcDbEntity
 67
     1
  8
0
100
AcDbBlockBegin
  2
*Paper_Space
 70
     0
 10
0.0
 20
0.0
 30
0.0
  3
*Paper_Space
  1

  0
ENDBLK
  5
2DC
330
2DA
100
AcDbEntity
 67
     1
  8
0
100
AcDbBlockEnd
  0
BLOCK
  5
1F
330
2E9
100
AcDbEntity
  8
0
  6
ByBlock
 62
     0
100
AcDbBlockBegin
  2
_OPEN30
 70
     2
 10
0.0
 20
0.0
 30
0.0
  3
_OPEN30
  1

  0
LINE
  5
20
330
2E9
100
AcDbEntity
  8
0
  6
ByBlock
 62
     0
100
AcDbLine
 10
-1.0
 20
0.267949
 30
0.0
 11
0.0
 21
0.0
 31
0.0
  0
LINE
  5
21
330
2E9
100
AcDbEntity
  8
0
  6
ByBlock
 62
     0
100
AcDbLine
 10
0.0
 20
0.0
 30
0.0
 11
-1.0
 21
-0.267949
 31
0.0
  0
LINE
  5
22
330
2E9
100
AcDbEntity
  8
0
  6
ByBlock
 62
     0
100
AcDbLine
 10
0.0
 20
0.0
 30
0.0
 11
-1.0
 21
0.0
 31
0.0
  0
ENDBLK
  5
23
330
2E9
100
AcDbEntity
  8
0
  6
ByBlock
 62
     0
100
AcDbBlockEnd
  0
ENDSEC
  0
SECTION
  2
ENTITIES
  0
TEXT
  5
24
330
2DE
100
AcDbEntity
  8
0
  6
Continuous
 62
     7
100
AcDbText
 10
-273.79840061
 20
138.54289212
 30
0.0
 40
6.400000099999999
  1
搭載バルブ形式
 41
0.7812499600000001
  7
MX_NOTE_STANDARD
 11
-273.79840061
 21
141.74289217
 31
0.0
100
AcDbText
 73
     2
  0
TEXT
  5
26
330
2DE
100
AcDbEntity
  8
0
  6
Continuous
 62
     7
100
AcDbText
 10
-273.32146336
 20
126.68347936
 30
0.0
 40
6.400000099999999
  1
Stn.1～4:300-4E1
 41
1.048136629999999
  7
MX_NOTE_STANDARD
 11
-273.32146336
 21
129.88347941
 31
0.0
100
AcDbText
 73
     2
  0
LINE
  5
27
330
2DE
100
AcDbEntity
  8
0
  6
Continuous
 62
     7
100
AcDbLine
 10
-72.13234794999999
 20
49.47466793
 30
0.0
 11
-69.30392083
 21
52.30309505000001
 31
0.0
  0
LINE
  5
28
330
2DE
100
AcDbEntity
  8
0
  6
Continuous
 62
     7
100
AcDbLine
 10
-69.30392083
 20
49.47466793
 30
0.0
 11
-72.13234794999999
 21
52.30309505000001
 31
0.0
  0
ARC
  5
29
330
2DE
100
AcDbEntity
  8
0
  6
Continuous
 62
     7
100
AcDbCircle
 10
-70.72352841
 20
50.88886575
 30
0.0
 40
4.005394019999999
100
AcDbArc
 50
221.61335684
 51
0.00022519
  0
ARC
  5
2A
330
2DE
100
AcDbEntity
  8
0
  6
Continuous
 62
     7
100
AcDbCircle
 10
-49.72351239
 20
40.87888149
 30
0.0
 40
4.006843759999999
100
AcDbArc
 50
41.40432134
 51
318.59567866
  0
ARC
  5
2B
330
2DE
100
AcDbEntity
  8
0
  6
Continuous
 62
     7
100
AcDbCircle
 10
-70.71690467999999
 20
50.88638451
 30
0.0
 40
3.99877107
100
AcDbArc
 50
0.03577758
 51
138.63700415
  0
LINE
  5
2C
330
2DE
100
AcDbEntity
  8
0
  6
Continuous
 62
     2
100
AcDbLine
 10
-75.71813439
 20
50.88888149
 30
0.0
 11
-65.71813439
 21
50.88888149
 31
0.0
  0
LINE
  5
2D
330
2DE
100
AcDbEntity
  8
0
  6
Continuous
 62
     2
100
AcDbLine
 10
-54.71813439
 20
40.88888149
 30
0.0
 11
-44.71813439
 21
40.88888149
 31
0.0
  0
LINE
  5
2E
330
2DE
100
AcDbEntity
  8
0
  6
Continuous
 62
     2
100
AcDbLine
 10
-68.21813439
 20
59.38888149
 30
0.0
 11
-52.21813439
 21
59.38888149
 31
0.0
  0
LINE
  5
2F
330
2DE
100
AcDbEntity
  8
0
  6
Continuous
 62
     2
100
AcDbLine
 10
-52.21813439
 20
32.38887539
 30
0.0
 11
-68.21813439
 21
32.38887539
 31
0.0
  0
LINE
  5
30
330
2DE
100
AcDbEntity
  8
0
  6
Continuous
 62
     7
100
AcDbLine
 10
-73.71813439
 20
77.88888149
 30
0.0
 11
-46.71813439
 21
77.88888149
 31
0.0
  0
LINE
  5
31
330
2DE
100
AcDbEntity
  8
0
  6
Continuous
 62
     2
100
AcDbLine
 10
-70.71813439
 20
55.88888149
 30
0.0
 11
-70.71813439
 21
45.88888149
 31
0.0
  0
LINE
  5
32
330
2DE
100
AcDbEntity
  8
0
  6
Continuous
 62
     7
100
AcDbLine
 10
-48.30392083
 20
39.47466793
 30
0.0
 11
-51.13234795
 21
42.30309505
 31
0.0
  0
LINE
  5
33
330
2DE
100
AcDbEntity
  8
0
  6
Continuous
 62
     7
100
AcDbLine
 10
-51.13234795
 20
39.47466793
 30
0.0
 11
-48.30392083
 21
42.30309505
 31
0.0
  0
LINE
  5
34
330
2DE
100
AcDbEntity
  8
0
  6
Continuous
 62
     2
100
AcDbLine
 10
-49.71813439
 20
45.88888149
 30
0.0
 11
-49.71813439
 21
35.88888149000001
 31
0.0
  0
ARC
  5
35
330
2DE
100
AcDbEntity
  8
0
  6
Continuous
 62
     7
100
AcDbCircle
 10
-77.72351238999999
 20
40.87888149
 30
0.0
 40
4.006843759999999
100
AcDbArc
 50
41.40432134
 51
318.59567866
  0
LINE
  5
36
330
2DE
100
AcDbEntity
  8
0
  6
Continuous
 62
     2
100
AcDbLine
 10
-82.71813439
 20
40.88888149
 30
0.0
 11
-72.71813439
 21
40.88888149
 31
0.0
  0
LINE
  5
37
330
2DE
100
AcDbEntity
  8
0
  6
Continuous
 62
     7
100
AcDbLine
 10
-101.71813439
 20
13.88888149
 30
0.0
 11
-74.71813439
 21
13.88888149
 31
0.0
  0
LINE
  5
38
330
2DE
100
AcDbEntity
  8
0
  6
Continuous
 62
     2
100
AcDbLine
 10
-77.71813439
 20
45.88888149
 30
0.0
 11
-77.71813439
 21
35.88888149000001
 31
0.0
  0
LINE
  5
39
330
2DE
100
AcDbEntity
  8
0
  6
Continuous
 62
     7
100
AcDbLine
 10
-79.13234795
 20
39.47466793
 30
0.0
 11
-76.30392083
 21
42.30309505
 31
0.0
  0
LINE
  5
3A
330
2DE
100
AcDbEntity
  8
0
  6
Continuous
 62
     7
100
AcDbLine
 10
-76.30392083
 20
39.47466793
 30
0.0
 11
-79.13234795
 21
42.30309505
 31
0.0
  0
LINE
  5
3B
330
2DE
100
AcDbEntity
  8
0
  6
Continuous
 62
     2
100
AcDbLine
 10
-98.71813439
 20
55.88888149
 30
0.0
 11
-98.71813439
 21
45.88888149
 31
0.0
  0
LINE
  5
3C
330
2DE
100
AcDbEntity
  8
0
  6
Continuous
 62
     2
100
AcDbLine
 10
-96.21813439
 20
32.38887539
 30
0.0
 11
-80.21813439
 21
32.38887539
 31
0.0
  0
LINE
  5
3D
330
2DE
100
AcDbEntity
  8
0
  6
Continuous
 62
     2
100
AcDbLine
 10
-103.71813439
 20
50.88888149
 30
0.0
 11
-93.71813439
 21
50.88888149
 31
0.0
  0
ARC
  5
3E
330
2DE
100
AcDbEntity
  8
0
  6
Continuous
 62
     7
100
AcDbCircle
 10
-98.71690468
 20
50.88638451
 30
0.0
 40
3.99877107
100
AcDbArc
 50
0.03577758
 51
138.63700415
  0
ARC
  5
3F
330
2DE
100
AcDbEntity
  8
0
  6
Continuous
 62
     7
100
AcDbCircle
 10
-98.72352841000001
 20
50.88886575
 30
0.0
 40
4.005394019999999
100
AcDbArc
 50
221.61335684
 51
0.00022519
  0
LINE
  5
40
330
2DE
100
AcDbEntity
  8
0
  6
Continuous
 62
     7
100
AcDbLine
 10
-97.30392082999999
 20
49.47466793
 30
0.0
 11
-100.13234795
 21
52.30309505000001
 31
0.0
  0
LINE
  5
41
330
2DE
100
AcDbEntity
  8
0
  6
Continuous
 62
     7
100
AcDbLine
 10
-100.13234795
 20
49.47466793
 30
0.0
 11
-97.30392082999999
 21
52.30309505000001
 31
0.0
  0
LINE
  5
42
330
2DE
100
AcDbEntity
  8
0
  6
Continuous
 62
     2
100
AcDbLine
 10
-124.41667326
 20
45.88888149
 30
0.0
 11
39.67952988
 21
45.88888149
 31
0.0
  0
LINE
  5
45
330
2DE
100
AcDbEntity
  8
0
  6
Continuous
 62
     7
100
AcDbLine
 10
-78.77813439
 20
-63.37111851
 30
0.0
 11
-81.69813439
 21
-66.29111851000001
 31
0.0
  0
LINE
  5
46
330
2DE
100
AcDbEntity
  8
0
  6
Continuous
 62
     7
100
AcDbLine
 10
-81.63813439
 20
-63.39111851
 30
0.0
 11
-78.85813439
 21
-66.17111851
 31
0.0
  0
LINE
  5
47
330
2DE
100
AcDbEntity
  8
0
  6
Continuous
 62
     2
100
AcDbLine
 10
-80.21813439
 20
-60.81111851
 30
0.0
 11
-80.21813439
 21
-68.81111851
 31
0.0
  0
LINE
  5
48
330
2DE
100
AcDbEntity
  8
0
  6
Continuous
 62
     2
100
AcDbLine
 10
-76.21813439
 20
-64.81111851
 30
0.0
 11
-84.21813439000001
 21
-64.81111851
 31
0.0
  0
LINE
  5
49
330
2DE
100
AcDbEntity
  8
0
  6
Continuous
 62
     2
100
AcDbLine
 10
-98.71813439
 20
-65.04307179
 30
0.0
 11
-98.71813439
 21
-70.63477040000001
 31
0.0
  0
LINE
  5
4A
330
2DE
100
AcDbEntity
  8
0
  6
Continuous
 62
     2
100
AcDbLine
 10
-95.89461190999999
 20
-67.81111851
 30
0.0
 11
-101.4296379
 21
-67.81111851
 31
0.0
  0
LINE
  5
4B
330
2DE
100
AcDbEntity
  8
0
  6
Continuous
 62
     7
100
AcDbLine
 10
-74.71813439
 20
-58.31111851
 30
0.0
 11
-101.71813439
 21
-58.31111851
 31
0.0
  0
ARC
  5
4C
330
2DE
100
AcDbEntity
  8
0
  6
Continuous
 62
     7
100
AcDbCircle
 10
-80.21813439
 20
-64.81111851
 30
0.0
 40
3.5
100
AcDbArc
 50
90.0
 51
270.0
  0
CIRCLE
  5
4D
330
2DE
100
AcDbEntity
  8
0
  6
Continuous
 62
     7
100
AcDbCircle
 10
-80.21813439
 20
-64.81111851
 30
0.0
 40
3.149999999999999
  0
LINE
  5
4E
330
2DE
100
AcDbEntity
  8
0
  6
Continuous
 62
     7
100
AcDbLine
 10
-80.21813439
 20
-61.31111851
 30
0.0
 11
-74.71813439
 21
-61.31111851
 31
0.0
  0
LINE
  5
4F
330
2DE
100
AcDbEntity
  8
0
  6
Continuous
 62
     7
100
AcDbLine
 10
-80.21813439
 20
-68.31111851
 30
0.0
 11
-74.71813439
 21
-68.31111851
 31
0.0
  0
LINE
  5
50
330
2DE
100
AcDbEntity
  8
0
  6
Continuous
 62
     2
100
AcDbLine
 10
-100.21813439
 20
-91.81111851
 30
0.0
 11
-92.21813438999999
 21
-91.81111851
 31
0.0
  0
LINE
  5
51
330
2DE
100
AcDbEntity
  8
0
  6
Continuous
 62
     7
100
AcDbLine
 10
-96.21813439
 20
-95.31111851
 30
0.0
 11
-101.71813439
 21
-95.31111851
 31
0.0
  0
LINE
  5
52
330
2DE
100
AcDbEntity
  8
0
  6
Continuous
 62
     7
100
AcDbLine
 10
-96.21813439
 20
-88.31111851000001
 30
0.0
 11
-101.71813439
 21
-88.31111851000001
 31
0.0
  0
CIRCLE
  5
53
330
2DE
100
AcDbEntity
  8
0
  6
Continuous
 62
     7
100
AcDbCircle
 10
-96.21813439
 20
-91.81111851
 30
0.0
 40
3.149999999999999
  0
ARC
  5
54
330
2DE
100
AcDbEntity
  8
0
  6
Continuous
 62
     7
100
AcDbCircle
 10
-96.21813439
 20
-91.81111851
 30
0.0
 40
3.5
100
AcDbArc
 50
270.0
 51
90.0
  0
LINE
  5
55
330
2DE
100
AcDbEntity
  8
0
  6
Continuous
 62
     2
100
AcDbLine
 10
-96.21813439
 20
-95.81111851000001
 30
0.0
 11
-96.21813439
 21
-87.81111851
 31
0.0
  0
LINE
  5
56
330
2DE
100
AcDbEntity
  8
0
  6
Continuous
 62
     7
100
AcDbLine
 10
-94.79813439
 20
-93.23111851
 30
0.0
 11
-97.57813439000001
 21
-90.45111850999999
 31
0.0
  0
LINE
  5
57
330
2DE
100
AcDbEntity
  8
0
  6
Continuous
 62
     7
100
AcDbLine
 10
-97.65813439
 20
-93.25111851
 30
0.0
 11
-94.73813439
 21
-90.33111850999999
 31
0.0
  0
CIRCLE
  5
58
330
2DE
100
AcDbEntity
  8
0
  6
Continuous
 62
     7
100
AcDbCircle
 10
-98.71813439
 20
-67.81111851
 30
0.0
 40
1.0
  0
CIRCLE
  5
59
330
2DE
100
AcDbEntity
  8
0
  6
Continuous
 62
     2
100
AcDbCircle
 10
-98.71813439
 20
-67.81111851
 30
0.0
 40
1.5
  0
LINE
  5
5A
330
2DE
100
AcDbEntity
  8
0
  6
Continuous
 62
     2
100
AcDbLine
 10
-77.71813439
 20
-86.09695051
 30
0.0
 11
-77.71813439
 21
-91.82088523999999
 31
0.0
  0
CIRCLE
  5
5B
330
2DE
100
AcDbEntity
  8
0
  6
Continuous
 62
     2
100
AcDbCircle
 10
-77.71813439
 20
-88.81111851
 30
0.0
 40
1.5
  0
CIRCLE
  5
5C
330
2DE
100
AcDbEntity
  8
0
  6
Continuous
 62
     7
100
AcDbCircle
 10
-77.71813439
 20
-88.81111851
 30
0.0
 40
1.0
  0
LINE
  5
5D
330
2DE
100
AcDbEntity
  8
0
  6
Continuous
 62
     2
100
AcDbLine
 10
-75.00130561999999
 20
-88.81111851
 30
0.0
 11
-80.70634947
 21
-88.81111851
 31
0.0
  0
LINE
  5
5E
330
2DE
100
AcDbEntity
  8
0
  6
Continuous
 62
     2
100
AcDbLine
 10
126.68275307
 20
45.88888149
 30
0.0
 11
212.73206175
 21
45.88888149
 31
0.0
  0
LINE
  5
5F
330
2DE
100
AcDbEntity
  8
0
  6
Continuous
 62
     2
100
AcDbLine
 10
-128.63101141
 20
-117.01111851
 30
0.0
 11
-107.70516973
 21
-117.01111851
 31
0.0
  0
LINE
  5
60
330
2DE
100
AcDbEntity
  8
0
  6
Continuous
 62
     2
100
AcDbLine
 10
-88.21813439000001
 20
3.342531469999999
 30
0.0
 11
-88.21813439000001
 21
130.3199039263036
 31
0.0
  0
LINE
  5
61
330
2DE
100
AcDbEntity
  8
0
  6
Continuous
 62
     7
100
AcDbLine
 10
32.78186561
 20
-106.51111851
 30
0.0
 11
30.78186561
 21
-106.57318747
 31
0.0
  0
LINE
  5
62
330
2DE
100
AcDbEntity
  8
0
  6
Continuous
 62
     2
100
AcDbLine
 10
33.78186561
 20
-107.67180816
 30
0.0
 11
30.78186561
 21
-107.67180816
 31
0.0
  0
LINE
  5
63
330
2DE
100
AcDbEntity
  8
0
  6
Continuous
 62
     7
100
AcDbLine
 10
33.78186561
 20
-107.67180816
 30
0.0
 11
32.78186561
 21
-106.51111851
 31
0.0
  0
LINE
  5
64
330
2DE
100
AcDbEntity
  8
0
  6
Continuous
 62
     7
100
AcDbLine
 10
32.78186561
 20
-127.51111851
 30
0.0
 11
30.78186561
 21
-127.44904954
 31
0.0
  0
LINE
  5
65
330
2DE
100
AcDbEntity
  8
0
  6
Continuous
 62
     2
100
AcDbLine
 10
33.78186561
 20
-126.35042885
 30
0.0
 11
30.78186561
 21
-126.35042885
 31
0.0
  0
LINE
  5
66
330
2DE
100
AcDbEntity
  8
0
  6
Continuous
 62
     7
100
AcDbLine
 10
33.78186561
 20
-126.35042885
 30
0.0
 11
32.78186561
 21
-127.51111851
 31
0.0
  0
LINE
  5
67
330
2DE
100
AcDbEntity
  8
0
  6
Continuous
 62
     7
100
AcDbLine
 10
-74.71813439
 20
8.388881489999999
 30
0.0
 11
-74.71813439
 21
39.08610585
 31
0.0
  0
LINE
  5
68
330
2DE
100
AcDbEntity
  8
0
  6
Continuous
 62
     7
100
AcDbLine
 10
-101.71813439
 20
8.388881489999999
 30
0.0
 11
-101.71813439
 21
49.08610585
 31
0.0
  0
LINE
  5
69
330
2DE
100
AcDbEntity
  8
0
  6
Continuous
 62
     7
100
AcDbLine
 10
33.78186561
 20
-107.67180816
 30
0.0
 11
33.78186561
 21
-126.35042885
 31
0.0
  0
LINE
  5
6A
330
2DE
100
AcDbEntity
  8
0
  6
Continuous
 62
     7
100
AcDbLine
 10
32.78186561
 20
-127.51111851
 30
0.0
 11
32.78186561
 21
-106.51111851
 31
0.0
  0
CIRCLE
  5
6B
330
2DE
100
AcDbEntity
  8
0
  6
Continuous
 62
     7
100
AcDbCircle
 10
-98.71813439
 20
-67.81111851
 30
0.0
 40
2.0
  0
CIRCLE
  5
6C
330
2DE
100
AcDbEntity
  8
0
  6
Continuous
 62
     7
100
AcDbCircle
 10
-77.71813439
 20
-88.81111851
 30
0.0
 40
2.0
  0
LINE
  5
6D
330
2DE
100
AcDbEntity
  8
0
  6
Continuous
 62
     7
100
AcDbLine
 10
-123.21813439
 20
63.58888149
 30
0.0
 11
-103.21813439
 21
63.58888149
 31
0.0
  0
LINE
  5
6E
330
2DE
100
AcDbEntity
  8
0
  6
Continuous
 62
     7
100
AcDbLine
 10
-121.21813439
 20
80.88888149
 30
0.0
 11
-105.21813439
 21
80.88888149
 31
0.0
  0
LINE
  5
6F
330
2DE
100
AcDbEntity
  8
0
  6
Continuous
 62
     7
100
AcDbLine
 10
-121.21813439
 20
80.88888149
 30
0.0
 11
-123.21813439
 21
78.88888149
 31
0.0
  0
LINE
  5
70
330
2DE
100
AcDbEntity
  8
0
  6
Continuous
 62
     7
100
AcDbLine
 10
-105.21813439
 20
80.88888149
 30
0.0
 11
-103.21813439
 21
78.88888149
 31
0.0
  0
LINE
  5
71
330
2DE
100
AcDbEntity
  8
0
  6
Continuous
 62
     2
100
AcDbLine
 10
-118.39034237
 20
71.88888149
 30
0.0
 11
-108.04592641
 21
71.88888149
 31
0.0
  0
CIRCLE
  5
72
330
2DE
100
AcDbEntity
  8
0
  6
Continuous
 62
     7
100
AcDbCircle
 10
-113.21813439
 20
71.88888149
 30
0.0
 40
2.75
  0
LINE
  5
73
330
2DE
100
AcDbEntity
  8
0
  6
Continuous
 62
     7
100
AcDbLine
 10
-121.21813439
 20
10.88888149
 30
0.0
 11
-105.21813439
 21
10.88888149
 31
0.0
  0
LINE
  5
74
330
2DE
100
AcDbEntity
  8
0
  6
Continuous
 62
     7
100
AcDbLine
 10
-121.21813439
 20
10.88888149
 30
0.0
 11
-123.21813439
 21
12.88888149
 31
0.0
  0
LINE
  5
75
330
2DE
100
AcDbEntity
  8
0
  6
Continuous
 62
     7
100
AcDbLine
 10
-105.21813439
 20
10.88888149
 30
0.0
 11
-103.21813439
 21
12.88888149
 31
0.0
  0
LINE
  5
76
330
2DE
100
AcDbEntity
  8
0
  6
Continuous
 62
     2
100
AcDbLine
 10
-118.39034237
 20
19.88888149
 30
0.0
 11
-108.04592641
 21
19.88888149
 31
0.0
  0
CIRCLE
  5
77
330
2DE
100
AcDbEntity
  8
0
  6
Continuous
 62
     7
100
AcDbCircle
 10
-113.21813439
 20
19.88888149
 30
0.0
 40
2.75
  0
LINE
  5
78
330
2DE
100
AcDbEntity
  8
0
  6
Continuous
 62
     7
100
AcDbLine
 10
-123.21813439
 20
28.18888149
 30
0.0
 11
-103.21813439
 21
28.18888149
 31
0.0
  0
LINE
  5
79
330
2DE
100
AcDbEntity
  8
0
  6
Continuous
 62
     2
100
AcDbLine
 10
-113.21813439
 20
14.71667351
 30
0.0
 11
-113.21813439
 21
77.06108947
 31
0.0
  0
LINE
  5
7A
330
2DE
100
AcDbEntity
  8
0
  6
Continuous
 62
     7
100
AcDbLine
 10
-103.21813439
 20
12.88888149
 30
0.0
 11
-103.21813439
 21
78.88888149
 31
0.0
  0
LINE
  5
7B
330
2DE
100
AcDbEntity
  8
0
  6
Continuous
 62
     7
100
AcDbLine
 10
-123.21813439
 20
12.88888149
 30
0.0
 11
-123.21813439
 21
78.88888149
 31
0.0
  0
LINE
  5
7C
330
2DE
100
AcDbEntity
  8
0
  6
Continuous
 62
     2
100
AcDbLine
 10
-123.26074912
 20
51.88888149
 30
0.0
 11
-103.39909977
 21
51.88888149
 31
0.0
  0
LINE
  5
7D
330
2DE
100
AcDbEntity
  8
0
  6
Continuous
 62
     2
100
AcDbLine
 10
-107.17551966
 20
35.77506567
 30
0.0
 11
-107.17551966
 21
56.03040872
 31
0.0
  0
CIRCLE
  5
7E
330
2DE
100
AcDbEntity
  8
0
  6
Continuous
 62
     7
100
AcDbCircle
 10
-107.17551966
 20
51.88888149
 30
0.0
 40
2.25
  0
LINE
  5
7F
330
2DE
100
AcDbEntity
  8
0
  6
Continuous
 62
     2
100
AcDbLine
 10
-119.26074912
 20
35.77506567
 30
0.0
 11
-119.26074912
 21
56.03040872
 31
0.0
  0
LINE
  5
80
330
2DE
100
AcDbEntity
  8
0
  6
Continuous
 62
     2
100
AcDbLine
 10
-122.62451012
 20
39.88888149
 30
0.0
 11
-103.39909977
 21
39.88888149
 31
0.0
  0
CIRCLE
  5
81
330
2DE
100
AcDbEntity
  8
0
  6
Continuous
 62
     7
100
AcDbCircle
 10
-119.26074912
 20
39.88888149
 30
0.0
 40
2.25
  0
CIRCLE
  5
82
330
2DE
100
AcDbEntity
  8
0
  6
Continuous
 62
     7
100
AcDbCircle
 10
-119.26074912
 20
51.88888149
 30
0.0
 40
3.5
  0
CIRCLE
  5
83
330
2DE
100
AcDbEntity
  8
0
  6
Continuous
 62
     7
100
AcDbCircle
 10
-107.17551966
 20
39.88888149
 30
0.0
 40
3.5
  0
LINE
  5
84
330
2DE
100
AcDbEntity
  8
0
  6
Continuous
 62
     7
100
AcDbLine
 10
-108.76650992
 20
38.29789123
 30
0.0
 11
-105.5845294
 21
41.47987174999999
 31
0.0
  0
LINE
  5
85
330
2DE
100
AcDbEntity
  8
0
  6
Continuous
 62
     7
100
AcDbLine
 10
-105.5845294
 20
38.29789123
 30
0.0
 11
-108.76650992
 21
41.47987174999999
 31
0.0
  0
LINE
  5
86
330
2DE
100
AcDbEntity
  8
0
  6
Continuous
 62
     7
100
AcDbLine
 10
-120.85173938
 20
50.29789123
 30
0.0
 11
-117.66975886
 21
53.47987175
 31
0.0
  0
LINE
  5
87
330
2DE
100
AcDbEntity
  8
0
  6
Continuous
 62
     7
100
AcDbLine
 10
-117.66975886
 20
50.29789123
 30
0.0
 11
-120.85173938
 21
53.47987175
 31
0.0
  0
LINE
  5
88
330
2DE
100
AcDbEntity
  8
0
  6
Continuous
 62
     7
100
AcDbLine
 10
171.78186561
 20
33.38888149000001
 30
0.0
 11
206.78186561
 21
33.38888149000001
 31
0.0
  0
LINE
  5
89
330
2DE
100
AcDbEntity
  8
0
  6
Continuous
 62
     7
100
AcDbLine
 10
171.78186561
 20
32.38888149
 30
0.0
 11
171.78186561
 21
59.38888149
 31
0.0
  0
LINE
  5
8A
330
2DE
100
AcDbEntity
  8
0
  6
Continuous
 62
     7
100
AcDbLine
 10
206.78186561
 20
33.38888149000001
 30
0.0
 11
206.78186561
 21
58.38888149
 31
0.0
  0
LINE
  5
8B
330
2DE
100
AcDbEntity
  8
0
  6
Continuous
 62
     7
100
AcDbLine
 10
172.78186561
 20
63.58888149
 30
0.0
 11
205.58186561
 21
63.58888149
 31
0.0
  0
LINE
  5
8C
330
2DE
100
AcDbEntity
  8
0
  6
Continuous
 62
     7
100
AcDbLine
 10
209.78186561
 20
64.58888149
 30
0.0
 11
209.78186561
 21
80.88888149
 31
0.0
  0
LINE
  5
8D
330
2DE
100
AcDbEntity
  8
0
  6
Continuous
 62
     7
100
AcDbLine
 10
206.58186561
 20
64.58888149
 30
0.0
 11
206.58186561
 21
80.88888149
 31
0.0
  0
ARC
  5
8E
330
2DE
100
AcDbEntity
  8
0
  6
Continuous
 62
     7
100
AcDbCircle
 10
205.58186561
 20
64.58888149
 30
0.0
 40
1.0
100
AcDbArc
 50
270.0
 51
0.0
  0
ARC
  5
8F
330
2DE
100
AcDbEntity
  8
0
  6
Continuous
 62
     7
100
AcDbCircle
 10
205.58186561
 20
64.58888149
 30
0.0
 40
4.2
100
AcDbArc
 50
270.0
 51
0.0
  0
LINE
  5
90
330
2DE
100
AcDbEntity
  8
0
  6
Continuous
 62
     7
100
AcDbLine
 10
206.58186561
 20
80.88888149
 30
0.0
 11
209.78186561
 21
80.88888149
 31
0.0
  0
ARC
  5
91
330
2DE
100
AcDbEntity
  8
0
  6
Continuous
 62
     7
100
AcDbCircle
 10
172.78186561
 20
59.38888149
 30
0.0
 40
1.0
100
AcDbArc
 50
90.0
 51
180.0
  0
ARC
  5
92
330
2DE
100
AcDbEntity
  8
0
  6
Continuous
 62
     7
100
AcDbCircle
 10
172.78186561
 20
59.38888149
 30
0.0
 40
4.2
100
AcDbArc
 50
90.0
 51
180.0
  0
LINE
  5
93
330
2DE
100
AcDbEntity
  8
0
  6
Continuous
 62
     7
100
AcDbLine
 10
172.78186561
 20
31.38888149
 30
0.0
 11
205.58186561
 21
31.38888149
 31
0.0
  0
LINE
  5
94
330
2DE
100
AcDbEntity
  8
0
  6
Continuous
 62
     7
100
AcDbLine
 10
172.78186561
 20
28.18888149
 30
0.0
 11
205.58186561
 21
28.18888149
 31
0.0
  0
LINE
  5
95
330
2DE
100
AcDbEntity
  8
0
  6
Continuous
 62
     7
100
AcDbLine
 10
206.58186561
 20
10.88888149
 30
0.0
 11
209.78186561
 21
10.88888149
 31
0.0
  0
ARC
  5
96
330
2DE
100
AcDbEntity
  8
0
  6
Continuous
 62
     7
100
AcDbCircle
 10
205.58186561
 20
27.18888149
 30
0.0
 40
4.2
100
AcDbArc
 50
0.0
 51
90.0
  0
ARC
  5
97
330
2DE
100
AcDbEntity
  8
0
  6
Continuous
 62
     7
100
AcDbCircle
 10
205.58186561
 20
27.18888149
 30
0.0
 40
1.0
100
AcDbArc
 50
0.0
 51
90.0
  0
LINE
  5
98
330
2DE
100
AcDbEntity
  8
0
  6
Continuous
 62
     7
100
AcDbLine
 10
206.58186561
 20
27.18888149
 30
0.0
 11
206.58186561
 21
10.88888149
 31
0.0
  0
LINE
  5
99
330
2DE
100
AcDbEntity
  8
0
  6
Continuous
 62
     7
100
AcDbLine
 10
209.78186561
 20
27.18888149
 30
0.0
 11
209.78186561
 21
10.88888149
 31
0.0
  0
ARC
  5
9A
330
2DE
100
AcDbEntity
  8
0
  6
Continuous
 62
     7
100
AcDbCircle
 10
172.78186561
 20
32.38888149
 30
0.0
 40
4.2
100
AcDbArc
 50
180.0
 51
270.0
  0
ARC
  5
9B
330
2DE
100
AcDbEntity
  8
0
  6
Continuous
 62
     7
100
AcDbCircle
 10
172.78186561
 20
32.38888149
 30
0.0
 40
1.0
100
AcDbArc
 50
180.0
 51
270.0
  0
LINE
  5
9C
330
2DE
100
AcDbEntity
  8
0
  6
Continuous
 62
     7
100
AcDbLine
 10
166.76053154
 20
36.38888149
 30
0.0
 11
168.58186561
 21
36.38888149
 31
0.0
  0
ARC
  5
9D
330
2DE
100
AcDbEntity
  8
0
  6
Continuous
 62
     7
100
AcDbCircle
 10
166.76053154
 20
37.14721494
 30
0.0
 40
0.75833334
100
AcDbArc
 50
213.79428202
 51
270.00001799
  0
ARC
  5
9E
330
2DE
100
AcDbEntity
  8
0
  6
Continuous
 62
     7
100
AcDbCircle
 10
170.85686528
 20
39.88888149
 30
0.0
 40
5.6875
100
AcDbArc
 50
146.20571798
 51
213.79428202
  0
LINE
  5
9F
330
2DE
100
AcDbEntity
  8
0
  6
Continuous
 62
     7
100
AcDbLine
 10
-123.21813439
 20
-96.11111851
 30
0.0
 11
-123.21813439
 21
-137.31111851
 31
0.0
  0
ARC
  5
A0
330
2DE
100
AcDbEntity
  8
0
  6
Continuous
 62
     7
100
AcDbCircle
 10
-119.26074912
 20
-98.38611817
 30
0.0
 40
5.6875
100
AcDbArc
 50
56.20573528
 51
123.79428202
  0
ARC
  5
A1
330
2DE
100
AcDbEntity
  8
0
  6
Continuous
 62
     7
100
AcDbCircle
 10
-122.00241567
 20
-94.28978443
 30
0.0
 40
0.75833334
100
AcDbArc
 50
123.79428202
 51
180.00001799
  0
ARC
  5
A2
330
2DE
100
AcDbEntity
  8
0
  6
Continuous
 62
     7
100
AcDbCircle
 10
-116.51908256
 20
-94.28978443
 30
0.0
 40
0.75833334
100
AcDbArc
 50
359.99998201
 51
56.20571798
  0
LINE
  5
A3
330
2DE
100
AcDbEntity
  8
0
  6
Continuous
 62
     7
100
AcDbLine
 10
-122.76074912
 20
-95.41111851
 30
0.0
 11
-115.76074912
 21
-95.41111851
 31
0.0
  0
LINE
  5
A4
330
2DE
100
AcDbEntity
  8
0
  6
Continuous
 62
     7
100
AcDbLine
 10
-115.76074912
 20
-94.28978443
 30
0.0
 11
-115.76074912
 21
-96.11111851
 31
0.0
  0
LINE
  5
A5
330
2DE
100
AcDbEntity
  8
0
  6
Continuous
 62
     7
100
AcDbLine
 10
-122.76074912
 20
-94.28978443
 30
0.0
 11
-122.76074912
 21
-96.11111851
 31
0.0
  0
LINE
  5
A6
330
2DE
100
AcDbEntity
  8
0
  6
Continuous
 62
     2
100
AcDbLine
 10
-119.26074912
 20
-91.42237190999999
 30
0.0
 11
-119.26074912
 21
-97.41733594999999
 31
0.0
  0
LINE
  5
A7
330
2DE
100
AcDbEntity
  8
0
  6
Continuous
 62
     7
100
AcDbLine
 10
-103.67551966
 20
-95.41111851
 30
0.0
 11
-110.67551966
 21
-95.41111851
 31
0.0
  0
ARC
  5
A8
330
2DE
100
AcDbEntity
  8
0
  6
Continuous
 62
     7
100
AcDbCircle
 10
-109.91718621
 20
-94.28978443
 30
0.0
 40
0.75833334
100
AcDbArc
 50
123.79428202
 51
180.00001799
  0
ARC
  5
A9
330
2DE
100
AcDbEntity
  8
0
  6
Continuous
 62
     7
100
AcDbCircle
 10
-104.4338531
 20
-94.28978443
 30
0.0
 40
0.75833334
100
AcDbArc
 50
359.99998201
 51
56.20571798
  0
ARC
  5
AA
330
2DE
100
AcDbEntity
  8
0
  6
Continuous
 62
     7
100
AcDbCircle
 10
-107.17551966
 20
-98.38611817
 30
0.0
 40
5.6875
100
AcDbArc
 50
56.20571798
 51
123.79426472
  0
LINE
  5
AB
330
2DE
100
AcDbEntity
  8
0
  6
Continuous
 62
     7
100
AcDbLine
 10
-110.67551966
 20
-94.28978443
 30
0.0
 11
-110.67551966
 21
-96.11111851
 31
0.0
  0
LINE
  5
AC
330
2DE
100
AcDbEntity
  8
0
  6
Continuous
 62
     7
100
AcDbLine
 10
-103.67551966
 20
-94.28978443
 30
0.0
 11
-103.67551966
 21
-96.11111851
 31
0.0
  0
LINE
  5
AD
330
2DE
100
AcDbEntity
  8
0
  6
Continuous
 62
     2
100
AcDbLine
 10
-107.17551966
 20
-91.42237190999999
 30
0.0
 11
-107.17551966
 21
-97.41733594999999
 31
0.0
  0
LINE
  5
AE
330
2DE
100
AcDbEntity
  8
0
  6
Continuous
 62
     7
100
AcDbLine
 10
-103.21813439
 20
-96.11111851
 30
0.0
 11
-103.21813439
 21
-137.31111851
 31
0.0
  0
LINE
  5
AF
330
2DE
100
AcDbEntity
  8
0
  6
Continuous
 62
     7
100
AcDbLine
 10
-123.21813439
 20
-96.11111851
 30
0.0
 11
-103.21813439
 21
-96.11111851
 31
0.0
  0
LINE
  5
B0
330
2DE
100
AcDbEntity
  8
0
  6
Continuous
 62
     7
100
AcDbLine
 10
-123.21813439
 20
-137.31111851
 30
0.0
 11
-103.21813439
 21
-137.31111851
 31
0.0
  0
LINE
  5
B1
330
2DE
100
AcDbEntity
  8
0
  6
Continuous
 62
     7
100
AcDbLine
 10
-123.21813439
 20
-134.11111851
 30
0.0
 11
-103.21813439
 21
-134.11111851
 31
0.0
  0
LINE
  5
B2
330
2DE
100
AcDbEntity
  8
0
  6
Continuous
 62
     7
100
AcDbLine
 10
-101.71813439
 20
-98.31111851000001
 30
0.0
 11
-74.71813439
 21
-98.31111851000001
 31
0.0
  0
LINE
  5
B3
330
2DE
100
AcDbEntity
  8
0
  6
Continuous
 62
     7
100
AcDbLine
 10
-46.71813439000001
 20
123.88888149
 30
0.0
 11
-46.71813439
 21
42.69165713
 31
0.0
  0
LINE
  5
B4
330
2DE
100
AcDbEntity
  8
0
  6
Continuous
 62
     7
100
AcDbLine
 10
-73.71813438999999
 20
123.88888149
 30
0.0
 11
-73.71813439
 21
52.69165713
 31
0.0
  0
LINE
  5
B5
330
2DE
100
AcDbEntity
  8
0
  6
Continuous
 62
     7
100
AcDbLine
 10
168.58186561
 20
32.38888149
 30
0.0
 11
168.58186561
 21
59.38888149
 31
0.0
  0
LINE
  5
B6
330
2DE
100
AcDbEntity
  8
0
  6
Continuous
 62
     7
100
AcDbLine
 10
33.78186561
 20
36.54957115
 30
0.0
 11
32.78186561
 21
35.38888149
 31
0.0
  0
LINE
  5
B7
330
2DE
100
AcDbEntity
  8
0
  6
Continuous
 62
     7
100
AcDbLine
 10
32.78186561
 20
35.38888149
 30
0.0
 11
32.78186561
 21
45.88888149
 31
0.0
  0
LINE
  5
B8
330
2DE
100
AcDbEntity
  8
0
  6
Continuous
 62
     2
100
AcDbLine
 10
33.78186561
 20
36.54957115
 30
0.0
 11
30.78186561
 21
36.54957115
 31
0.0
  0
LINE
  5
B9
330
2DE
100
AcDbEntity
  8
0
  6
Continuous
 62
     7
100
AcDbLine
 10
32.78186561
 20
35.38888149
 30
0.0
 11
30.78186561
 21
35.45095046
 31
0.0
  0
LINE
  5
BA
330
2DE
100
AcDbEntity
  8
0
  6
Continuous
 62
     7
100
AcDbLine
 10
33.78186561
 20
45.88888149
 30
0.0
 11
33.78186561
 21
36.54957115
 31
0.0
  0
LINE
  5
BB
330
2DE
100
AcDbEntity
  8
0
  6
Continuous
 62
     7
100
AcDbLine
 10
33.78186561
 20
55.22819184
 30
0.0
 11
32.78186561
 21
56.38888149
 31
0.0
  0
LINE
  5
BC
330
2DE
100
AcDbEntity
  8
0
  6
Continuous
 62
     7
100
AcDbLine
 10
32.78186561
 20
56.38888149
 30
0.0
 11
32.78186561
 21
45.88888149
 31
0.0
  0
LINE
  5
BD
330
2DE
100
AcDbEntity
  8
0
  6
Continuous
 62
     2
100
AcDbLine
 10
33.78186561
 20
55.22819184
 30
0.0
 11
30.78186561
 21
55.22819184
 31
0.0
  0
LINE
  5
BE
330
2DE
100
AcDbEntity
  8
0
  6
Continuous
 62
     7
100
AcDbLine
 10
32.78186561
 20
56.38888149
 30
0.0
 11
30.78186561
 21
56.32681253
 31
0.0
  0
LINE
  5
BF
330
2DE
100
AcDbEntity
  8
0
  6
Continuous
 62
     7
100
AcDbLine
 10
33.78186561
 20
45.88888149
 30
0.0
 11
33.78186561
 21
55.22819184
 31
0.0
  0
LINE
  5
C0
330
2DE
100
AcDbEntity
  8
0
  6
Continuous
 62
     7
100
AcDbLine
 10
-101.71813439
 20
58.38888149
 30
0.0
 11
-103.21813439
 21
58.38888149
 31
0.0
  0
LINE
  5
C1
330
2DE
100
AcDbEntity
  8
0
  6
Continuous
 62
     7
100
AcDbLine
 10
-101.71813439
 20
33.38888149000001
 30
0.0
 11
-103.21813439
 21
33.38888149000001
 31
0.0
  0
LINE
  5
C2
330
2DE
100
AcDbEntity
  8
0
  6
Continuous
 62
     7
100
AcDbLine
 10
-74.71813439
 20
58.38888149
 30
0.0
 11
-73.71813439
 21
58.38888149
 31
0.0
  0
LINE
  5
C3
330
2DE
100
AcDbEntity
  8
0
  6
Continuous
 62
     7
100
AcDbLine
 10
-74.71813439
 20
33.38888149000001
 30
0.0
 11
-73.71813439
 21
33.38888149000001
 31
0.0
  0
LINE
  5
C4
330
2DE
100
AcDbEntity
  8
0
  6
Continuous
 62
     7
100
AcDbLine
 10
9.28186561
 20
58.38888149
 30
0.0
 11
10.78186561
 21
58.38888149
 31
0.0
  0
LINE
  5
C5
330
2DE
100
AcDbEntity
  8
0
  6
Continuous
 62
     7
100
AcDbLine
 10
9.28186561
 20
33.38888149000001
 30
0.0
 11
10.78186561
 21
33.38888149000001
 31
0.0
  0
LINE
  5
C6
330
2DE
100
AcDbEntity
  8
0
  6
Continuous
 62
     7
100
AcDbLine
 10
28.78186561
 20
80.88888149
 30
0.0
 11
30.78186561
 21
78.88888149
 31
0.0
  0
LINE
  5
C7
330
2DE
100
AcDbEntity
  8
0
  6
Continuous
 62
     2
100
AcDbLine
 10
20.78186561
 20
14.71667351
 30
0.0
 11
20.78186561
 21
77.06108947
 31
0.0
  0
LINE
  5
C8
330
2DE
100
AcDbEntity
  8
0
  6
Continuous
 62
     7
100
AcDbLine
 10
10.78186561
 20
12.88888149
 30
0.0
 11
10.78186561
 21
78.88888149
 31
0.0
  0
CIRCLE
  5
C9
330
2DE
100
AcDbEntity
  8
0
  6
Continuous
 62
     7
100
AcDbCircle
 10
20.78186561
 20
71.88888149
 30
0.0
 40
2.75
  0
LINE
  5
CA
330
2DE
100
AcDbEntity
  8
0
  6
Continuous
 62
     2
100
AcDbLine
 10
15.60965763
 20
71.88888149
 30
0.0
 11
25.95407359
 21
71.88888149
 31
0.0
  0
LINE
  5
CB
330
2DE
100
AcDbEntity
  8
0
  6
Continuous
 62
     7
100
AcDbLine
 10
12.78186561
 20
80.88888149
 30
0.0
 11
10.78186561
 21
78.88888149
 31
0.0
  0
LINE
  5
CC
330
2DE
100
AcDbEntity
  8
0
  6
Continuous
 62
     7
100
AcDbLine
 10
12.78186561
 20
80.88888149
 30
0.0
 11
28.78186561
 21
80.88888149
 31
0.0
  0
LINE
  5
CD
330
2DE
100
AcDbEntity
  8
0
  6
Continuous
 62
     7
100
AcDbLine
 10
10.78186561
 20
63.58888149
 30
0.0
 11
30.78186561
 21
63.58888149
 31
0.0
  0
LINE
  5
CE
330
2DE
100
AcDbEntity
  8
0
  6
Continuous
 62
     7
100
AcDbLine
 10
30.78186561
 20
12.88888149
 30
0.0
 11
30.78186561
 21
78.88888149
 31
0.0
  0
LINE
  5
CF
330
2DE
100
AcDbEntity
  8
0
  6
Continuous
 62
     2
100
AcDbLine
 10
11.37548988
 20
51.88888149
 30
0.0
 11
30.60090023
 21
51.88888149
 31
0.0
  0
LINE
  5
D0
330
2DE
100
AcDbEntity
  8
0
  6
Continuous
 62
     2
100
AcDbLine
 10
14.73925088
 20
35.77506567
 30
0.0
 11
14.73925088
 21
56.03040872
 31
0.0
  0
CIRCLE
  5
D1
330
2DE
100
AcDbEntity
  8
0
  6
Continuous
 62
     7
100
AcDbCircle
 10
14.73925088
 20
51.88888149
 30
0.0
 40
3.5
  0
LINE
  5
D2
330
2DE
100
AcDbEntity
  8
0
  6
Continuous
 62
     7
100
AcDbLine
 10
16.33024114
 20
50.29789123
 30
0.0
 11
13.14826062
 21
53.47987175
 31
0.0
  0
LINE
  5
D3
330
2DE
100
AcDbEntity
  8
0
  6
Continuous
 62
     7
100
AcDbLine
 10
13.14826062
 20
50.29789123
 30
0.0
 11
16.33024114
 21
53.47987175
 31
0.0
  0
LINE
  5
D4
330
2DE
100
AcDbEntity
  8
0
  6
Continuous
 62
     2
100
AcDbLine
 10
26.82448034
 20
35.77506567
 30
0.0
 11
26.82448034
 21
56.03040872
 31
0.0
  0
CIRCLE
  5
D5
330
2DE
100
AcDbEntity
  8
0
  6
Continuous
 62
     7
100
AcDbCircle
 10
26.82448034
 20
51.88888149
 30
0.0
 40
2.25
  0
LINE
  5
D6
330
2DE
100
AcDbEntity
  8
0
  6
Continuous
 62
     2
100
AcDbLine
 10
11.37548988
 20
39.88888149
 30
0.0
 11
30.60090023
 21
39.88888149
 31
0.0
  0
CIRCLE
  5
D7
330
2DE
100
AcDbEntity
  8
0
  6
Continuous
 62
     7
100
AcDbCircle
 10
26.82448034
 20
39.88888149
 30
0.0
 40
3.5
  0
LINE
  5
D8
330
2DE
100
AcDbEntity
  8
0
  6
Continuous
 62
     7
100
AcDbLine
 10
25.23349008
 20
38.29789123
 30
0.0
 11
28.4154706
 21
41.47987174999999
 31
0.0
  0
LINE
  5
D9
330
2DE
100
AcDbEntity
  8
0
  6
Continuous
 62
     7
100
AcDbLine
 10
28.4154706
 20
38.29789123
 30
0.0
 11
25.23349008
 21
41.47987174999999
 31
0.0
  0
CIRCLE
  5
DA
330
2DE
100
AcDbEntity
  8
0
  6
Continuous
 62
     7
100
AcDbCircle
 10
14.73925088
 20
39.88888149
 30
0.0
 40
2.25
  0
LINE
  5
DB
330
2DE
100
AcDbEntity
  8
0
  6
Continuous
 62
     7
100
AcDbLine
 10
10.78186561
 20
28.18888149
 30
0.0
 11
30.78186561
 21
28.18888149
 31
0.0
  0
LINE
  5
DC
330
2DE
100
AcDbEntity
  8
0
  6
Continuous
 62
     2
100
AcDbLine
 10
15.60965763
 20
19.88888149
 30
0.0
 11
25.95407359
 21
19.88888149
 31
0.0
  0
CIRCLE
  5
DD
330
2DE
100
AcDbEntity
  8
0
  6
Continuous
 62
     7
100
AcDbCircle
 10
20.78186561
 20
19.88888149
 30
0.0
 40
2.75
  0
LINE
  5
DE
330
2DE
100
AcDbEntity
  8
0
  6
Continuous
 62
     7
100
AcDbLine
 10
28.78186561
 20
10.88888149
 30
0.0
 11
30.78186561
 21
12.88888149
 31
0.0
  0
LINE
  5
DF
330
2DE
100
AcDbEntity
  8
0
  6
Continuous
 62
     7
100
AcDbLine
 10
12.78186561
 20
10.88888149
 30
0.0
 11
10.78186561
 21
12.88888149
 31
0.0
  0
LINE
  5
E0
330
2DE
100
AcDbEntity
  8
0
  6
Continuous
 62
     7
100
AcDbLine
 10
12.78186561
 20
10.88888149
 30
0.0
 11
28.78186561
 21
10.88888149
 31
0.0
  0
CIRCLE
  5
E1
330
2DE
100
AcDbEntity
  8
0
  6
Continuous
 62
     7
100
AcDbCircle
 10
-98.71813439
 20
50.88888149
 30
0.0
 40
3.5
  0
CIRCLE
  5
E2
330
2DE
100
AcDbEntity
  8
0
  6
Continuous
 62
     7
100
AcDbCircle
 10
-77.71813439
 20
40.88888149
 30
0.0
 40
3.5
  0
LINE
  5
E3
330
2DE
100
AcDbEntity
  8
0
  6
Continuous
 62
     7
100
AcDbLine
 10
-101.71813439
 20
52.69165713
 30
0.0
 11
-101.71813439
 21
123.88888149
 31
0.0
  0
LINE
  5
E4
330
2DE
100
AcDbEntity
  8
0
  6
Continuous
 62
     7
100
AcDbLine
 10
-74.71813439
 20
42.69165713
 30
0.0
 11
-74.71813439
 21
123.88888149
 31
0.0
  0
CIRCLE
  5
E5
330
2DE
100
AcDbEntity
  8
0
  6
Continuous
 62
     7
100
AcDbCircle
 10
-70.71813439
 20
50.88888149
 30
0.0
 40
3.5
  0
CIRCLE
  5
E6
330
2DE
100
AcDbEntity
  8
0
  6
Continuous
 62
     7
100
AcDbCircle
 10
-49.71813439
 20
40.88888149
 30
0.0
 40
3.5
  0
LINE
  5
E7
330
2DE
100
AcDbEntity
  8
0
  6
Continuous
 62
     7
100
AcDbLine
 10
30.78186561
 20
-96.31111851
 30
0.0
 11
30.78186561
 21
-137.51111851
 31
0.0
  0
LINE
  5
E8
330
2DE
100
AcDbEntity
  8
0
  6
Continuous
 62
     7
100
AcDbLine
 10
11.23925088
 20
-95.61111850999999
 30
0.0
 11
18.23925088
 21
-95.61111850999999
 31
0.0
  0
ARC
  5
E9
330
2DE
100
AcDbEntity
  8
0
  6
Continuous
 62
     7
100
AcDbCircle
 10
14.73925088
 20
-98.58611817000001
 30
0.0
 40
5.6875
100
AcDbArc
 50
56.20573528
 51
123.79428202
  0
LINE
  5
EA
330
2DE
100
AcDbEntity
  8
0
  6
Continuous
 62
     7
100
AcDbLine
 10
30.78186561
 20
-96.31111851
 30
0.0
 11
10.78186561
 21
-96.31111851
 31
0.0
  0
LINE
  5
EB
330
2DE
100
AcDbEntity
  8
0
  6
Continuous
 62
     2
100
AcDbLine
 10
14.73925088
 20
-91.62237191
 30
0.0
 11
14.73925088
 21
-97.61733595
 31
0.0
  0
LINE
  5
EC
330
2DE
100
AcDbEntity
  8
0
  6
Continuous
 62
     7
100
AcDbLine
 10
18.23925088
 20
-94.48978442999999
 30
0.0
 11
18.23925088
 21
-96.31111851
 31
0.0
  0
ARC
  5
ED
330
2DE
100
AcDbEntity
  8
0
  6
Continuous
 62
     7
100
AcDbCircle
 10
17.48091744
 20
-94.48978442999999
 30
0.0
 40
0.75833334
100
AcDbArc
 50
359.99998201
 51
56.20571798
  0
LINE
  5
EE
330
2DE
100
AcDbEntity
  8
0
  6
Continuous
 62
     2
100
AcDbLine
 10
26.82448034
 20
-91.62237191
 30
0.0
 11
26.82448034
 21
-97.61733595
 31
0.0
  0
LINE
  5
EF
330
2DE
100
AcDbEntity
  8
0
  6
Continuous
 62
     7
100
AcDbLine
 10
30.32448034
 20
-94.48978442999999
 30
0.0
 11
30.32448034
 21
-96.31111851
 31
0.0
  0
LINE
  5
F0
330
2DE
100
AcDbEntity
  8
0
  6
Continuous
 62
     7
100
AcDbLine
 10
23.32448034
 20
-94.48978442999999
 30
0.0
 11
23.32448034
 21
-96.31111851
 31
0.0
  0
LINE
  5
F1
330
2DE
100
AcDbEntity
  8
0
  6
Continuous
 62
     7
100
AcDbLine
 10
30.32448034
 20
-95.61111850999999
 30
0.0
 11
23.32448034
 21
-95.61111850999999
 31
0.0
  0
ARC
  5
F2
330
2DE
100
AcDbEntity
  8
0
  6
Continuous
 62
     7
100
AcDbCircle
 10
24.08281379
 20
-94.48978442999999
 30
0.0
 40
0.75833334
100
AcDbArc
 50
123.79428202
 51
180.00001799
  0
ARC
  5
F3
330
2DE
100
AcDbEntity
  8
0
  6
Continuous
 62
     7
100
AcDbCircle
 10
29.5661469
 20
-94.48978442999999
 30
0.0
 40
0.75833334
100
AcDbArc
 50
359.99998201
 51
56.20571798
  0
ARC
  5
F4
330
2DE
100
AcDbEntity
  8
0
  6
Continuous
 62
     7
100
AcDbCircle
 10
26.82448034
 20
-98.58611817000001
 30
0.0
 40
5.6875
100
AcDbArc
 50
56.20571798
 51
123.79426472
  0
LINE
  5
F5
330
2DE
100
AcDbEntity
  8
0
  6
Continuous
 62
     7
100
AcDbLine
 10
10.78186561
 20
-96.31111851
 30
0.0
 11
10.78186561
 21
-137.51111851
 31
0.0
  0
LINE
  5
F6
330
2DE
100
AcDbEntity
  8
0
  6
Continuous
 62
     7
100
AcDbLine
 10
11.23925088
 20
-94.48978442999999
 30
0.0
 11
11.23925088
 21
-96.31111851
 31
0.0
  0
ARC
  5
F7
330
2DE
100
AcDbEntity
  8
0
  6
Continuous
 62
     7
100
AcDbCircle
 10
11.99758433
 20
-94.48978442999999
 30
0.0
 40
0.75833334
100
AcDbArc
 50
123.79428202
 51
180.00001799
  0
LINE
  5
F8
330
2DE
100
AcDbEntity
  8
0
  6
Continuous
 62
     7
100
AcDbLine
 10
30.78186561
 20
-137.51111851
 30
0.0
 11
10.78186561
 21
-137.51111851
 31
0.0
  0
LINE
  5
F9
330
2DE
100
AcDbEntity
  8
0
  6
Continuous
 62
     7
100
AcDbLine
 10
30.78186561
 20
-134.31111851
 30
0.0
 11
10.78186561
 21
-134.31111851
 31
0.0
  0
LINE
  5
FA
330
2DE
100
AcDbEntity
  8
0
  6
Continuous
 62
     2
100
AcDbLine
 10
12.83749172
 20
-78.31111851
 30
0.0
 11
-106.67757353
 21
-78.31111851
 31
0.0
  0
LINE
  5
FB
330
2DE
100
AcDbEntity
  8
0
  6
Continuous
 62
     2
100
AcDbLine
 10
-60.21813439
 20
3.342531469999999
 30
0.0
 11
-60.21813439000002
 21
130.3199039263036
 31
0.0
  0
LINE
  5
FC
330
2DE
100
AcDbEntity
  8
0
  6
Continuous
 62
     7
100
AcDbLine
 10
-73.71813439
 20
8.388881489999999
 30
0.0
 11
-73.71813439
 21
49.08610585
 31
0.0
  0
LINE
  5
FD
330
2DE
100
AcDbEntity
  8
0
  6
Continuous
 62
     7
100
AcDbLine
 10
-46.71813439
 20
8.388881489999999
 30
0.0
 11
-46.71813439
 21
39.08610585
 31
0.0
  0
LINE
  5
FE
330
2DE
100
AcDbEntity
  8
0
  6
Continuous
 62
     7
100
AcDbLine
 10
-73.71813439
 20
13.88888149
 30
0.0
 11
-46.71813439
 21
13.88888149
 31
0.0
  0
ARC
  5
FF
330
2DE
100
AcDbEntity
  8
0
  6
Continuous
 62
     7
100
AcDbCircle
 10
-47.21813439
 20
8.388881489999999
 30
0.0
 40
0.5
100
AcDbArc
 50
270.0
 51
0.0
  0
ARC
  5
100
330
2DE
100
AcDbEntity
  8
0
  6
Continuous
 62
     7
100
AcDbCircle
 10
-73.21813439
 20
8.388881489999999
 30
0.0
 40
0.5
100
AcDbArc
 50
180.0
 51
270.0
  0
ARC
  5
101
330
2DE
100
AcDbEntity
  8
0
  6
Continuous
 62
     7
100
AcDbCircle
 10
-75.21813439
 20
8.388881489999999
 30
0.0
 40
0.5
100
AcDbArc
 50
270.0
 51
0.0
  0
ARC
  5
102
330
2DE
100
AcDbEntity
  8
0
  6
Continuous
 62
     7
100
AcDbCircle
 10
-101.21813439
 20
8.388881489999999
 30
0.0
 40
0.5
100
AcDbArc
 50
180.0
 51
270.0
  0
LINE
  5
103
330
2DE
100
AcDbEntity
  8
0
  6
Continuous
 62
     7
100
AcDbLine
 10
-73.71813439
 20
-58.31111851
 30
0.0
 11
-73.71813439
 21
-99.31111851
 31
0.0
  0
LINE
  5
104
330
2DE
100
AcDbEntity
  8
0
  6
Continuous
 62
     7
100
AcDbLine
 10
-46.71813439
 20
-58.31111851
 30
0.0
 11
-46.71813439
 21
-99.31111851
 31
0.0
  0
CIRCLE
  5
105
330
2DE
100
AcDbEntity
  8
0
  6
Continuous
 62
     7
100
AcDbCircle
 10
-70.71813439
 20
-67.81111851
 30
0.0
 40
2.0
  0
CIRCLE
  5
106
330
2DE
100
AcDbEntity
  8
0
  6
Continuous
 62
     2
100
AcDbCircle
 10
-70.71813439
 20
-67.81111851
 30
0.0
 40
1.5
  0
CIRCLE
  5
107
330
2DE
100
AcDbEntity
  8
0
  6
Continuous
 62
     7
100
AcDbCircle
 10
-70.71813439
 20
-67.81111851
 30
0.0
 40
1.0
  0
LINE
  5
108
330
2DE
100
AcDbEntity
  8
0
  6
Continuous
 62
     7
100
AcDbLine
 10
-52.21813439
 20
-68.31111851
 30
0.0
 11
-46.71813439
 21
-68.31111851
 31
0.0
  0
LINE
  5
109
330
2DE
100
AcDbEntity
  8
0
  6
Continuous
 62
     7
100
AcDbLine
 10
-52.21813439
 20
-61.31111851
 30
0.0
 11
-46.71813439
 21
-61.31111851
 31
0.0
  0
CIRCLE
  5
10A
330
2DE
100
AcDbEntity
  8
0
  6
Continuous
 62
     7
100
AcDbCircle
 10
-52.21813439
 20
-64.81111851
 30
0.0
 40
3.149999999999999
  0
ARC
  5
10B
330
2DE
100
AcDbEntity
  8
0
  6
Continuous
 62
     7
100
AcDbCircle
 10
-52.21813439
 20
-64.81111851
 30
0.0
 40
3.5
100
AcDbArc
 50
90.0
 51
270.0
  0
LINE
  5
10C
330
2DE
100
AcDbEntity
  8
0
  6
Continuous
 62
     7
100
AcDbLine
 10
-46.71813439
 20
-58.31111851
 30
0.0
 11
-73.71813439
 21
-58.31111851
 31
0.0
  0
LINE
  5
10D
330
2DE
100
AcDbEntity
  8
0
  6
Continuous
 62
     2
100
AcDbLine
 10
-67.89461191
 20
-67.81111851
 30
0.0
 11
-73.4296379
 21
-67.81111851
 31
0.0
  0
LINE
  5
10E
330
2DE
100
AcDbEntity
  8
0
  6
Continuous
 62
     2
100
AcDbLine
 10
-70.71813439
 20
-65.04307179
 30
0.0
 11
-70.71813439
 21
-70.63477040000001
 31
0.0
  0
LINE
  5
10F
330
2DE
100
AcDbEntity
  8
0
  6
Continuous
 62
     2
100
AcDbLine
 10
-48.21813439
 20
-64.81111851
 30
0.0
 11
-56.21813439
 21
-64.81111851
 31
0.0
  0
LINE
  5
110
330
2DE
100
AcDbEntity
  8
0
  6
Continuous
 62
     2
100
AcDbLine
 10
-52.21813439
 20
-60.81111851
 30
0.0
 11
-52.21813439
 21
-68.81111851
 31
0.0
  0
LINE
  5
111
330
2DE
100
AcDbEntity
  8
0
  6
Continuous
 62
     7
100
AcDbLine
 10
-53.63813439
 20
-63.39111851
 30
0.0
 11
-50.85813438999999
 21
-66.17111851
 31
0.0
  0
LINE
  5
112
330
2DE
100
AcDbEntity
  8
0
  6
Continuous
 62
     7
100
AcDbLine
 10
-50.77813438999999
 20
-63.37111851
 30
0.0
 11
-53.69813439
 21
-66.29111851000001
 31
0.0
  0
CIRCLE
  5
113
330
2DE
100
AcDbEntity
  8
0
  6
Continuous
 62
     7
100
AcDbCircle
 10
-68.21813439
 20
-91.81111851
 30
0.0
 40
3.149999999999999
  0
ARC
  5
114
330
2DE
100
AcDbEntity
  8
0
  6
Continuous
 62
     7
100
AcDbCircle
 10
-68.21813439
 20
-91.81111851
 30
0.0
 40
3.5
100
AcDbArc
 50
270.0
 51
90.0
  0
LINE
  5
115
330
2DE
100
AcDbEntity
  8
0
  6
Continuous
 62
     2
100
AcDbLine
 10
-68.21813439
 20
-95.81111851000001
 30
0.0
 11
-68.21813439
 21
-87.81111851
 31
0.0
  0
LINE
  5
116
330
2DE
100
AcDbEntity
  8
0
  6
Continuous
 62
     7
100
AcDbLine
 10
-66.79813439
 20
-93.23111851
 30
0.0
 11
-69.57813439
 21
-90.45111850999999
 31
0.0
  0
LINE
  5
117
330
2DE
100
AcDbEntity
  8
0
  6
Continuous
 62
     7
100
AcDbLine
 10
-69.65813439
 20
-93.25111851
 30
0.0
 11
-66.73813438999999
 21
-90.33111850999999
 31
0.0
  0
CIRCLE
  5
118
330
2DE
100
AcDbEntity
  8
0
  6
Continuous
 62
     7
100
AcDbCircle
 10
-49.71813439
 20
-88.81111851
 30
0.0
 40
2.0
  0
LINE
  5
119
330
2DE
100
AcDbEntity
  8
0
  6
Continuous
 62
     2
100
AcDbLine
 10
-47.00130562
 20
-88.81111851
 30
0.0
 11
-52.70634947
 21
-88.81111851
 31
0.0
  0
CIRCLE
  5
11A
330
2DE
100
AcDbEntity
  8
0
  6
Continuous
 62
     7
100
AcDbCircle
 10
-49.71813439
 20
-88.81111851
 30
0.0
 40
1.0
  0
CIRCLE
  5
11B
330
2DE
100
AcDbEntity
  8
0
  6
Continuous
 62
     2
100
AcDbCircle
 10
-49.71813439
 20
-88.81111851
 30
0.0
 40
1.5
  0
LINE
  5
11C
330
2DE
100
AcDbEntity
  8
0
  6
Continuous
 62
     2
100
AcDbLine
 10
-49.71813439
 20
-86.09695051
 30
0.0
 11
-49.71813439
 21
-91.82088523999999
 31
0.0
  0
LINE
  5
11D
330
2DE
100
AcDbEntity
  8
0
  6
Continuous
 62
     7
100
AcDbLine
 10
-68.21813439
 20
-88.31111851000001
 30
0.0
 11
-73.71813439
 21
-88.31111851000001
 31
0.0
  0
LINE
  5
11E
330
2DE
100
AcDbEntity
  8
0
  6
Continuous
 62
     2
100
AcDbLine
 10
-72.21813439
 20
-91.81111851
 30
0.0
 11
-64.21813439000001
 21
-91.81111851
 31
0.0
  0
LINE
  5
11F
330
2DE
100
AcDbEntity
  8
0
  6
Continuous
 62
     7
100
AcDbLine
 10
-73.71813439
 20
-98.31111851000001
 30
0.0
 11
-46.71813439
 21
-98.31111851000001
 31
0.0
  0
LINE
  5
120
330
2DE
100
AcDbEntity
  8
0
  6
Continuous
 62
     7
100
AcDbLine
 10
-68.21813439
 20
-95.31111851
 30
0.0
 11
-73.71813439
 21
-95.31111851
 31
0.0
  0
LINE
  5
121
330
2DE
100
AcDbEntity
  8
0
  6
Continuous
 62
     2
100
AcDbLine
 10
20.78186561
 20
-89.90841342999999
 30
0.0
 11
20.78186561
 21
-143.44446812
 31
0.0
  0
LINE
  5
122
330
2DE
100
AcDbEntity
  8
0
  6
Continuous
 62
     7
100
AcDbLine
 10
-101.71813439
 20
77.88888149
 30
0.0
 11
-74.71813439
 21
77.88888149
 31
0.0
  0
LINE
  5
123
330
2DE
100
AcDbEntity
  8
0
  6
Continuous
 62
     7
100
AcDbLine
 10
-73.21813439
 20
7.88888149
 30
0.0
 11
-47.21813439
 21
7.88888149
 31
0.0
  0
LINE
  5
124
330
2DE
100
AcDbEntity
  8
0
  6
Continuous
 62
     7
100
AcDbLine
 10
-101.21813439
 20
7.88888149
 30
0.0
 11
-75.21813439
 21
7.88888149
 31
0.0
  0
LINE
  5
125
330
2DE
100
AcDbEntity
  8
0
  6
Continuous
 62
     2
100
AcDbLine
 10
-113.21813439
 20
-89.90841342999999
 30
0.0
 11
-113.21813439
 21
-143.44446812
 31
0.0
  0
LINE
  5
126
330
2DE
100
AcDbEntity
  8
0
  6
Continuous
 62
     7
100
AcDbLine
 10
-103.21813439
 20
-99.31111851
 30
0.0
 11
10.78186561
 21
-99.31111851
 31
0.0
  0
LINE
  5
127
330
2DE
100
AcDbEntity
  8
0
  6
Continuous
 62
     2
100
AcDbLine
 10
-60.21813439000001
 20
-53.08346295279785
 30
0.0
 11
-60.21813439
 21
-103.82070569
 31
0.0
  0
LINE
  5
129
330
2DE
100
AcDbEntity
  8
0
  6
CENTER
 62
     2
100
AcDbLine
 10
189.28231479
 20
57.66692409
 30
0.0
 11
189.28231479
 21
33.82692409
 31
0.0
  0
LINE
  5
12A
330
2DE
100
AcDbEntity
  8
0
  6
Continuous
 62
     7
100
AcDbLine
 10
171.78186561
 20
58.38888149
 30
0.0
 11
206.78186561
 21
58.38888149
 31
0.0
  0
LINE
  5
12B
330
2DE
100
AcDbEntity
  8
0
  6
Continuous
 62
     7
100
AcDbLine
 10
172.78186561
 20
60.38888149
 30
0.0
 11
205.58186561
 21
60.38888149
 31
0.0
  0
LINE
  5
12C
330
2DE
100
AcDbEntity
  8
0
  6
Continuous
 62
     2
100
AcDbLine
 10
35.91612269
 20
-117.01111851
 30
0.0
 11
26.18839914
 21
-117.01111851
 31
0.0
  0
LINE
  5
12D
330
2DE
100
AcDbEntity
  8
0
  6
Continuous
 62
     2
100
AcDbLine
 10
-80.21813439
 20
59.38888149
 30
0.0
 11
-96.21813439
 21
59.38888149
 31
0.0
  0
LINE
  5
12E
330
2DE
100
AcDbEntity
  8
0
  6
Continuous
 62
     2
100
AcDbLine
 10
162.72123094
 20
39.88888149
 30
0.0
 11
174.23284258
 21
39.88888149
 31
0.0
  0
LINE
  5
12F
330
2DE
100
AcDbEntity
  8
0
  6
Continuous
 62
     7
100
AcDbLine
 10
166.76053154
 20
43.38888149
 30
0.0
 11
168.58186561
 21
43.38888149
 31
0.0
  0
LINE
  5
130
330
2DE
100
AcDbEntity
  8
0
  6
Continuous
 62
     7
100
AcDbLine
 10
167.88186561
 20
36.38888149
 30
0.0
 11
167.88186561
 21
43.38888149
 31
0.0
  0
ARC
  5
131
330
2DE
100
AcDbEntity
  8
0
  6
Continuous
 62
     7
100
AcDbCircle
 10
166.76053154
 20
42.63054805
 30
0.0
 40
0.75833334
100
AcDbArc
 50
89.99998201
 51
146.20571798
  0
ARC
  5
132
330
2DE
100
AcDbEntity
  8
0
  6
Continuous
 62
     7
100
AcDbCircle
 10
170.85686528
 20
51.88888149
 30
0.0
 40
5.6875
100
AcDbArc
 50
146.20571798
 51
213.79428202
  0
LINE
  5
133
330
2DE
100
AcDbEntity
  8
0
  6
Continuous
 62
     2
100
AcDbLine
 10
162.72123094
 20
51.88888149
 30
0.0
 11
174.23284258
 21
51.88888149
 31
0.0
  0
LINE
  5
134
330
2DE
100
AcDbEntity
  8
0
  6
Continuous
 62
     7
100
AcDbLine
 10
166.76053154
 20
48.38888149
 30
0.0
 11
168.58186561
 21
48.38888149
 31
0.0
  0
LINE
  5
135
330
2DE
100
AcDbEntity
  8
0
  6
Continuous
 62
     7
100
AcDbLine
 10
167.88186561
 20
55.38888149
 30
0.0
 11
167.88186561
 21
48.38888149
 31
0.0
  0
ARC
  5
136
330
2DE
100
AcDbEntity
  8
0
  6
Continuous
 62
     7
100
AcDbCircle
 10
166.76053154
 20
49.14721494
 30
0.0
 40
0.75833334
100
AcDbArc
 50
213.79428202
 51
270.00001799
  0
LINE
  5
137
330
2DE
100
AcDbEntity
  8
0
  6
Continuous
 62
     7
100
AcDbLine
 10
166.76053154
 20
55.38888149
 30
0.0
 11
168.58186561
 21
55.38888149
 31
0.0
  0
ARC
  5
138
330
2DE
100
AcDbEntity
  8
0
  6
Continuous
 62
     7
100
AcDbCircle
 10
166.76053154
 20
54.63054805
 30
0.0
 40
0.75833334
100
AcDbArc
 50
89.99998201
 51
146.20571798
  0
LINE
  5
139
330
2DE
100
AcDbEntity
  8
0
  6
Continuous
 62
     2
100
AcDbLine
 10
150.78186561
 20
130.3199039263036
 30
0.0
 11
150.78186561
 21
3.22438034
 31
0.0
  0
CIRCLE
  5
13A
330
2DE
100
AcDbEntity
  8
0
  6
Continuous
 62
     2
100
AcDbCircle
 10
189.28231479
 20
45.88889674999999
 30
0.0
 40
9.31550026
  0
CIRCLE
  5
13B
330
2DE
100
AcDbEntity
  8
0
  6
Continuous
 62
     7
100
AcDbCircle
 10
189.28231479
 20
45.88889674999999
 30
0.0
 40
10.47749996
  0
CIRCLE
  5
13C
330
2DE
100
AcDbEntity
  8
0
  6
Continuous
 62
     7
100
AcDbCircle
 10
-88.21813439000001
 20
59.38888149
 30
0.0
 40
5.72249985
  0
CIRCLE
  5
13D
330
2DE
100
AcDbEntity
  8
0
  6
Continuous
 62
     2
100
AcDbCircle
 10
-88.21813439000001
 20
59.38888149
 30
0.0
 40
6.57849979
  0
CIRCLE
  5
13E
330
2DE
100
AcDbEntity
  8
0
  6
Continuous
 62
     7
100
AcDbCircle
 10
-88.21813439000001
 20
32.38887539
 30
0.0
 40
5.72249985
  0
CIRCLE
  5
13F
330
2DE
100
AcDbEntity
  8
0
  6
Continuous
 62
     2
100
AcDbCircle
 10
-88.21813439000001
 20
32.38887539
 30
0.0
 40
6.57849979
  0
CIRCLE
  5
140
330
2DE
100
AcDbEntity
  8
0
  6
Continuous
 62
     7
100
AcDbCircle
 10
-60.21813439
 20
32.38887539
 30
0.0
 40
5.72249985
  0
CIRCLE
  5
141
330
2DE
100
AcDbEntity
  8
0
  6
Continuous
 62
     2
100
AcDbCircle
 10
-60.21813439
 20
32.38887539
 30
0.0
 40
6.57849979
  0
CIRCLE
  5
142
330
2DE
100
AcDbEntity
  8
0
  6
Continuous
 62
     7
100
AcDbCircle
 10
-60.21813439
 20
59.38888149
 30
0.0
 40
5.72249985
  0
CIRCLE
  5
143
330
2DE
100
AcDbEntity
  8
0
  6
Continuous
 62
     2
100
AcDbCircle
 10
-60.21813439
 20
59.38888149
 30
0.0
 40
6.57849979
  0
LINE
  5
144
330
2DE
100
AcDbEntity
  8
0
  6
Continuous
 62
     7
100
AcDbLine
 10
189.28186561
 20
51.66239944
 30
0.0
 11
184.28186561
 21
48.7756481
 31
0.0
  0
LINE
  5
145
330
2DE
100
AcDbEntity
  8
0
  6
Continuous
 62
     7
100
AcDbLine
 10
184.28186561
 20
48.7756481
 30
0.0
 11
184.28186561
 21
43.00214539999999
 31
0.0
  0
LINE
  5
146
330
2DE
100
AcDbEntity
  8
0
  6
Continuous
 62
     7
100
AcDbLine
 10
184.28186561
 20
43.00214539999999
 30
0.0
 11
189.28186561
 21
40.11539405999999
 31
0.0
  0
LINE
  5
147
330
2DE
100
AcDbEntity
  8
0
  6
Continuous
 62
     7
100
AcDbLine
 10
189.28186561
 20
40.11539405999999
 30
0.0
 11
194.28186561
 21
43.00214539999999
 31
0.0
  0
LINE
  5
148
330
2DE
100
AcDbEntity
  8
0
  6
Continuous
 62
     7
100
AcDbLine
 10
194.28186561
 20
43.00214539999999
 30
0.0
 11
194.28186561
 21
48.7756481
 31
0.0
  0
LINE
  5
149
330
2DE
100
AcDbEntity
  8
0
  6
Continuous
 62
     7
100
AcDbLine
 10
194.28186561
 20
48.7756481
 30
0.0
 11
189.28186561
 21
51.66239944
 31
0.0
  0
LINE
  5
14A
330
2DE
100
AcDbEntity
  8
0
  6
Continuous
 62
     7
100
AcDbLine
 10
-18.71813439
 20
123.88888149
 30
0.0
 11
-18.71813439
 21
42.69165713
 31
0.0
  0
LINE
  5
14B
330
2DE
100
AcDbEntity
  8
0
  6
Continuous
 62
     7
100
AcDbLine
 10
-45.71813439
 20
123.88888149
 30
0.0
 11
-45.71813439
 21
52.69165713
 31
0.0
  0
LINE
  5
14C
330
2DE
100
AcDbEntity
  8
0
  6
Continuous
 62
     2
100
AcDbLine
 10
-32.21813439
 20
3.342531469999999
 30
0.0
 11
-32.21813439
 21
130.3199039263036
 31
0.0
  0
LINE
  5
14D
330
2DE
100
AcDbEntity
  8
0
  6
Continuous
 62
     7
100
AcDbLine
 10
-45.71813439
 20
77.88888149
 30
0.0
 11
-18.71813439
 21
77.88888149
 31
0.0
  0
LINE
  5
14E
330
2DE
100
AcDbEntity
  8
0
  6
Continuous
 62
     2
100
AcDbLine
 10
-40.21813439
 20
59.38888149
 30
0.0
 11
-24.21813439
 21
59.38888149
 31
0.0
  0
CIRCLE
  5
14F
330
2DE
100
AcDbEntity
  8
0
  6
Continuous
 62
     7
100
AcDbCircle
 10
-32.21813439
 20
59.38888149
 30
0.0
 40
5.72249985
  0
CIRCLE
  5
150
330
2DE
100
AcDbEntity
  8
0
  6
Continuous
 62
     2
100
AcDbCircle
 10
-32.21813439
 20
59.38888149
 30
0.0
 40
6.57849979
  0
ARC
  5
151
330
2DE
100
AcDbEntity
  8
0
  6
Continuous
 62
     7
100
AcDbCircle
 10
-42.72352841
 20
50.88886575
 30
0.0
 40
4.005394019999999
100
AcDbArc
 50
221.61335684
 51
0.00022519
  0
ARC
  5
152
330
2DE
100
AcDbEntity
  8
0
  6
Continuous
 62
     7
100
AcDbCircle
 10
-42.71690468
 20
50.88638451
 30
0.0
 40
3.99877107
100
AcDbArc
 50
0.03577758
 51
138.63700415
  0
LINE
  5
153
330
2DE
100
AcDbEntity
  8
0
  6
Continuous
 62
     2
100
AcDbLine
 10
-47.71813439
 20
50.88888149
 30
0.0
 11
-37.71813439000001
 21
50.88888149
 31
0.0
  0
LINE
  5
154
330
2DE
100
AcDbEntity
  8
0
  6
Continuous
 62
     2
100
AcDbLine
 10
-42.71813439
 20
55.88888149
 30
0.0
 11
-42.71813439
 21
45.88888149
 31
0.0
  0
CIRCLE
  5
155
330
2DE
100
AcDbEntity
  8
0
  6
Continuous
 62
     7
100
AcDbCircle
 10
-42.71813439
 20
50.88888149
 30
0.0
 40
3.5
  0
LINE
  5
156
330
2DE
100
AcDbEntity
  8
0
  6
Continuous
 62
     7
100
AcDbLine
 10
-41.30392083
 20
49.47466793
 30
0.0
 11
-44.13234795
 21
52.30309505000001
 31
0.0
  0
LINE
  5
157
330
2DE
100
AcDbEntity
  8
0
  6
Continuous
 62
     7
100
AcDbLine
 10
-44.13234795
 20
49.47466793
 30
0.0
 11
-41.30392083
 21
52.30309505000001
 31
0.0
  0
ARC
  5
158
330
2DE
100
AcDbEntity
  8
0
  6
Continuous
 62
     7
100
AcDbCircle
 10
-21.72351239
 20
40.87888149
 30
0.0
 40
4.006843759999999
100
AcDbArc
 50
41.40432134
 51
318.59567866
  0
LINE
  5
159
330
2DE
100
AcDbEntity
  8
0
  6
Continuous
 62
     2
100
AcDbLine
 10
-26.71813439
 20
40.88888149
 30
0.0
 11
-16.71813439
 21
40.88888149
 31
0.0
  0
LINE
  5
15A
330
2DE
100
AcDbEntity
  8
0
  6
Continuous
 62
     2
100
AcDbLine
 10
-24.21813439
 20
32.38887539
 30
0.0
 11
-40.21813439
 21
32.38887539
 31
0.0
  0
LINE
  5
15B
330
2DE
100
AcDbEntity
  8
0
  6
Continuous
 62
     7
100
AcDbLine
 10
-20.30392083
 20
39.47466793
 30
0.0
 11
-23.13234795
 21
42.30309505
 31
0.0
  0
LINE
  5
15C
330
2DE
100
AcDbEntity
  8
0
  6
Continuous
 62
     7
100
AcDbLine
 10
-23.13234795
 20
39.47466793
 30
0.0
 11
-20.30392083
 21
42.30309505
 31
0.0
  0
LINE
  5
15D
330
2DE
100
AcDbEntity
  8
0
  6
Continuous
 62
     2
100
AcDbLine
 10
-21.71813439
 20
45.88888149
 30
0.0
 11
-21.71813439
 21
35.88888149000001
 31
0.0
  0
CIRCLE
  5
15E
330
2DE
100
AcDbEntity
  8
0
  6
Continuous
 62
     7
100
AcDbCircle
 10
-21.71813439
 20
40.88888149
 30
0.0
 40
3.5
  0
CIRCLE
  5
15F
330
2DE
100
AcDbEntity
  8
0
  6
Continuous
 62
     2
100
AcDbCircle
 10
-32.21813439
 20
32.38887539
 30
0.0
 40
6.57849979
  0
CIRCLE
  5
160
330
2DE
100
AcDbEntity
  8
0
  6
Continuous
 62
     7
100
AcDbCircle
 10
-32.21813439
 20
32.38887539
 30
0.0
 40
5.72249985
  0
LINE
  5
161
330
2DE
100
AcDbEntity
  8
0
  6
Continuous
 62
     7
100
AcDbLine
 10
-18.71813439
 20
8.388881489999999
 30
0.0
 11
-18.71813439
 21
39.08610585
 31
0.0
  0
LINE
  5
162
330
2DE
100
AcDbEntity
  8
0
  6
Continuous
 62
     7
100
AcDbLine
 10
-45.71813439
 20
13.88888149
 30
0.0
 11
-18.71813439
 21
13.88888149
 31
0.0
  0
LINE
  5
163
330
2DE
100
AcDbEntity
  8
0
  6
Continuous
 62
     7
100
AcDbLine
 10
-45.21813439
 20
7.88888149
 30
0.0
 11
-19.21813439
 21
7.88888149
 31
0.0
  0
ARC
  5
164
330
2DE
100
AcDbEntity
  8
0
  6
Continuous
 62
     7
100
AcDbCircle
 10
-19.21813439
 20
8.388881489999999
 30
0.0
 40
0.5
100
AcDbArc
 50
270.0
 51
0.0
  0
LINE
  5
165
330
2DE
100
AcDbEntity
  8
0
  6
Continuous
 62
     7
100
AcDbLine
 10
-45.71813439
 20
8.388881489999999
 30
0.0
 11
-45.71813439
 21
49.08610585
 31
0.0
  0
ARC
  5
166
330
2DE
100
AcDbEntity
  8
0
  6
Continuous
 62
     7
100
AcDbCircle
 10
-45.21813439
 20
8.388881489999999
 30
0.0
 40
0.5
100
AcDbArc
 50
180.0
 51
270.0
  0
LINE
  5
167
330
2DE
100
AcDbEntity
  8
0
  6
Continuous
 62
     7
100
AcDbLine
 10
9.281865609999998
 20
123.88888149
 30
0.0
 11
9.28186561
 21
42.79371936999999
 31
0.0
  0
LINE
  5
168
330
2DE
100
AcDbEntity
  8
0
  6
Continuous
 62
     7
100
AcDbLine
 10
-17.71813439
 20
123.88888149
 30
0.0
 11
-17.71813439
 21
52.69165713
 31
0.0
  0
LINE
  5
169
330
2DE
100
AcDbEntity
  8
0
  6
Continuous
 62
     2
100
AcDbLine
 10
-4.21813439
 20
3.342531469999999
 30
0.0
 11
-4.21813439
 21
130.3199039263036
 31
0.0
  0
LINE
  5
16A
330
2DE
100
AcDbEntity
  8
0
  6
Continuous
 62
     7
100
AcDbLine
 10
-17.71813439
 20
77.88888149
 30
0.0
 11
9.28186561
 21
77.88888149
 31
0.0
  0
LINE
  5
16B
330
2DE
100
AcDbEntity
  8
0
  6
Continuous
 62
     2
100
AcDbLine
 10
-12.21813439
 20
59.38888149
 30
0.0
 11
3.78186561
 21
59.38888149
 31
0.0
  0
CIRCLE
  5
16C
330
2DE
100
AcDbEntity
  8
0
  6
Continuous
 62
     7
100
AcDbCircle
 10
-4.21813439
 20
59.38888149
 30
0.0
 40
5.72249985
  0
CIRCLE
  5
16D
330
2DE
100
AcDbEntity
  8
0
  6
Continuous
 62
     2
100
AcDbCircle
 10
-4.21813439
 20
59.38888149
 30
0.0
 40
6.57849979
  0
ARC
  5
16E
330
2DE
100
AcDbEntity
  8
0
  6
Continuous
 62
     7
100
AcDbCircle
 10
-14.72352841
 20
50.88886575
 30
0.0
 40
4.005394019999999
100
AcDbArc
 50
221.61335684
 51
0.00022519
  0
ARC
  5
16F
330
2DE
100
AcDbEntity
  8
0
  6
Continuous
 62
     7
100
AcDbCircle
 10
-14.71690468
 20
50.88638451
 30
0.0
 40
3.99877107
100
AcDbArc
 50
0.03577758
 51
138.63700415
  0
LINE
  5
170
330
2DE
100
AcDbEntity
  8
0
  6
Continuous
 62
     2
100
AcDbLine
 10
-19.71813439
 20
50.88888149
 30
0.0
 11
-9.718134389999999
 21
50.88888149
 31
0.0
  0
LINE
  5
171
330
2DE
100
AcDbEntity
  8
0
  6
Continuous
 62
     2
100
AcDbLine
 10
-14.71813439
 20
55.88888149
 30
0.0
 11
-14.71813439
 21
45.88888149
 31
0.0
  0
CIRCLE
  5
172
330
2DE
100
AcDbEntity
  8
0
  6
Continuous
 62
     7
100
AcDbCircle
 10
-14.71813439
 20
50.88888149
 30
0.0
 40
3.5
  0
LINE
  5
173
330
2DE
100
AcDbEntity
  8
0
  6
Continuous
 62
     7
100
AcDbLine
 10
-13.30392083
 20
49.47466793
 30
0.0
 11
-16.13234795
 21
52.30309505000001
 31
0.0
  0
LINE
  5
174
330
2DE
100
AcDbEntity
  8
0
  6
Continuous
 62
     7
100
AcDbLine
 10
-16.13234795
 20
49.47466793
 30
0.0
 11
-13.30392083
 21
52.30309505000001
 31
0.0
  0
ARC
  5
175
330
2DE
100
AcDbEntity
  8
0
  6
Continuous
 62
     7
100
AcDbCircle
 10
6.27648761
 20
40.87888149
 30
0.0
 40
4.006843759999999
100
AcDbArc
 50
41.40432134
 51
318.59567866
  0
LINE
  5
176
330
2DE
100
AcDbEntity
  8
0
  6
Continuous
 62
     2
100
AcDbLine
 10
1.28186561
 20
40.88888149
 30
0.0
 11
11.28186561
 21
40.88888149
 31
0.0
  0
LINE
  5
177
330
2DE
100
AcDbEntity
  8
0
  6
Continuous
 62
     2
100
AcDbLine
 10
3.78186561
 20
32.38887539
 30
0.0
 11
-12.21813439
 21
32.38887539
 31
0.0
  0
LINE
  5
178
330
2DE
100
AcDbEntity
  8
0
  6
Continuous
 62
     7
100
AcDbLine
 10
7.696079169999999
 20
39.47466793
 30
0.0
 11
4.86765205
 21
42.30309505
 31
0.0
  0
LINE
  5
179
330
2DE
100
AcDbEntity
  8
0
  6
Continuous
 62
     7
100
AcDbLine
 10
4.86765205
 20
39.47466793
 30
0.0
 11
7.696079169999999
 21
42.30309505
 31
0.0
  0
LINE
  5
17A
330
2DE
100
AcDbEntity
  8
0
  6
Continuous
 62
     2
100
AcDbLine
 10
6.281865609999999
 20
45.88888149
 30
0.0
 11
6.281865609999999
 21
35.88888149000001
 31
0.0
  0
CIRCLE
  5
17B
330
2DE
100
AcDbEntity
  8
0
  6
Continuous
 62
     7
100
AcDbCircle
 10
6.281865609999999
 20
40.88888149
 30
0.0
 40
3.5
  0
CIRCLE
  5
17C
330
2DE
100
AcDbEntity
  8
0
  6
Continuous
 62
     2
100
AcDbCircle
 10
-4.21813439
 20
32.38887539
 30
0.0
 40
6.57849979
  0
CIRCLE
  5
17D
330
2DE
100
AcDbEntity
  8
0
  6
Continuous
 62
     7
100
AcDbCircle
 10
-4.21813439
 20
32.38887539
 30
0.0
 40
5.72249985
  0
LINE
  5
17E
330
2DE
100
AcDbEntity
  8
0
  6
Continuous
 62
     7
100
AcDbLine
 10
9.28186561
 20
8.388881489999999
 30
0.0
 11
9.28186561
 21
39.08610585
 31
0.0
  0
LINE
  5
17F
330
2DE
100
AcDbEntity
  8
0
  6
Continuous
 62
     7
100
AcDbLine
 10
-17.71813439
 20
13.88888149
 30
0.0
 11
9.28186561
 21
13.88888149
 31
0.0
  0
LINE
  5
180
330
2DE
100
AcDbEntity
  8
0
  6
Continuous
 62
     7
100
AcDbLine
 10
-17.21813439
 20
7.88888149
 30
0.0
 11
8.78186561
 21
7.88888149
 31
0.0
  0
ARC
  5
181
330
2DE
100
AcDbEntity
  8
0
  6
Continuous
 62
     7
100
AcDbCircle
 10
8.78186561
 20
8.388881489999999
 30
0.0
 40
0.5
100
AcDbArc
 50
270.0
 51
0.0
  0
LINE
  5
182
330
2DE
100
AcDbEntity
  8
0
  6
Continuous
 62
     7
100
AcDbLine
 10
-17.71813439
 20
8.388881489999999
 30
0.0
 11
-17.71813439
 21
49.08610585
 31
0.0
  0
ARC
  5
183
330
2DE
100
AcDbEntity
  8
0
  6
Continuous
 62
     7
100
AcDbCircle
 10
-17.21813439
 20
8.388881489999999
 30
0.0
 40
0.5
100
AcDbArc
 50
180.0
 51
270.0
  0
LINE
  5
184
330
2DE
100
AcDbEntity
  8
0
  6
Continuous
 62
     2
100
AcDbLine
 10
-88.21813439000001
 20
-103.82070569
 30
0.0
 11
-88.21813439000001
 21
-53.08346295279785
 31
0.0
  0
LINE
  5
186
330
2DE
100
AcDbEntity
  8
0
  6
Continuous
 62
     7
100
AcDbLine
 10
-74.71813439
 20
-58.31111851
 30
0.0
 11
-74.71813439
 21
-99.31111851
 31
0.0
  0
LINE
  5
187
330
2DE
100
AcDbEntity
  8
0
  6
Continuous
 62
     7
100
AcDbLine
 10
-101.71813439
 20
-58.31111851
 30
0.0
 11
-101.71813439
 21
-99.31111851
 31
0.0
  0
LINE
  5
18C
330
2DE
100
AcDbEntity
  8
0
  6
Continuous
 62
     2
100
AcDbLine
 10
-32.21813439
 20
-53.08346295279785
 30
0.0
 11
-32.21813439
 21
-103.82070569
 31
0.0
  0
LINE
  5
18D
330
2DE
100
AcDbEntity
  8
0
  6
Continuous
 62
     7
100
AcDbLine
 10
-18.71813439
 20
-58.31111851
 30
0.0
 11
-18.71813439
 21
-99.31111851
 31
0.0
  0
CIRCLE
  5
18E
330
2DE
100
AcDbEntity
  8
0
  6
Continuous
 62
     7
100
AcDbCircle
 10
-42.71813439
 20
-67.81111851
 30
0.0
 40
2.0
  0
CIRCLE
  5
18F
330
2DE
100
AcDbEntity
  8
0
  6
Continuous
 62
     2
100
AcDbCircle
 10
-42.71813439
 20
-67.81111851
 30
0.0
 40
1.5
  0
CIRCLE
  5
190
330
2DE
100
AcDbEntity
  8
0
  6
Continuous
 62
     7
100
AcDbCircle
 10
-42.71813439
 20
-67.81111851
 30
0.0
 40
1.0
  0
LINE
  5
191
330
2DE
100
AcDbEntity
  8
0
  6
Continuous
 62
     7
100
AcDbLine
 10
-18.71813439
 20
-58.31111851
 30
0.0
 11
-45.71813439
 21
-58.31111851
 31
0.0
  0
LINE
  5
192
330
2DE
100
AcDbEntity
  8
0
  6
Continuous
 62
     2
100
AcDbLine
 10
-39.89461191
 20
-67.81111851
 30
0.0
 11
-45.42963789999999
 21
-67.81111851
 31
0.0
  0
LINE
  5
194
330
2DE
100
AcDbEntity
  8
0
  6
Continuous
 62
     7
100
AcDbLine
 10
-22.77813439
 20
-63.37111851
 30
0.0
 11
-25.69813439
 21
-66.29111851000001
 31
0.0
  0
LINE
  5
195
330
2DE
100
AcDbEntity
  8
0
  6
Continuous
 62
     7
100
AcDbLine
 10
-25.63813439
 20
-63.39111851
 30
0.0
 11
-22.85813439
 21
-66.17111851
 31
0.0
  0
LINE
  5
196
330
2DE
100
AcDbEntity
  8
0
  6
Continuous
 62
     2
100
AcDbLine
 10
-24.21813439
 20
-60.81111851
 30
0.0
 11
-24.21813439
 21
-68.81111851
 31
0.0
  0
LINE
  5
197
330
2DE
100
AcDbEntity
  8
0
  6
Continuous
 62
     2
100
AcDbLine
 10
-20.21813439
 20
-64.81111851
 30
0.0
 11
-28.21813439
 21
-64.81111851
 31
0.0
  0
LINE
  5
198
330
2DE
100
AcDbEntity
  8
0
  6
Continuous
 62
     2
100
AcDbLine
 10
-42.71813439
 20
-65.04307179
 30
0.0
 11
-42.71813439
 21
-70.63477040000001
 31
0.0
  0
ARC
  5
199
330
2DE
100
AcDbEntity
  8
0
  6
Continuous
 62
     7
100
AcDbCircle
 10
-24.21813439
 20
-64.81111851
 30
0.0
 40
3.5
100
AcDbArc
 50
90.0
 51
270.0
  0
CIRCLE
  5
19A
330
2DE
100
AcDbEntity
  8
0
  6
Continuous
 62
     7
100
AcDbCircle
 10
-24.21813439
 20
-64.81111851
 30
0.0
 40
3.149999999999999
  0
LINE
  5
19B
330
2DE
100
AcDbEntity
  8
0
  6
Continuous
 62
     7
100
AcDbLine
 10
-24.21813439
 20
-61.31111851
 30
0.0
 11
-18.71813439
 21
-61.31111851
 31
0.0
  0
LINE
  5
19C
330
2DE
100
AcDbEntity
  8
0
  6
Continuous
 62
     7
100
AcDbLine
 10
-24.21813439
 20
-68.31111851
 30
0.0
 11
-18.71813439
 21
-68.31111851
 31
0.0
  0
LINE
  5
19E
330
2DE
100
AcDbEntity
  8
0
  6
Continuous
 62
     7
100
AcDbLine
 10
-40.21813439
 20
-88.31111851000001
 30
0.0
 11
-45.71813439
 21
-88.31111851000001
 31
0.0
  0
LINE
  5
19F
330
2DE
100
AcDbEntity
  8
0
  6
Continuous
 62
     2
100
AcDbLine
 10
-44.21813439
 20
-91.81111851
 30
0.0
 11
-36.21813439
 21
-91.81111851
 31
0.0
  0
LINE
  5
1A0
330
2DE
100
AcDbEntity
  8
0
  6
Continuous
 62
     7
100
AcDbLine
 10
-45.71813439
 20
-98.31111851000001
 30
0.0
 11
-18.71813439
 21
-98.31111851000001
 31
0.0
  0
LINE
  5
1A1
330
2DE
100
AcDbEntity
  8
0
  6
Continuous
 62
     7
100
AcDbLine
 10
-40.21813439
 20
-95.31111851
 30
0.0
 11
-45.71813439
 21
-95.31111851
 31
0.0
  0
LINE
  5
1A2
330
2DE
100
AcDbEntity
  8
0
  6
Continuous
 62
     2
100
AcDbLine
 10
-21.71813439
 20
-86.09695051
 30
0.0
 11
-21.71813439
 21
-91.82088523999999
 31
0.0
  0
CIRCLE
  5
1A3
330
2DE
100
AcDbEntity
  8
0
  6
Continuous
 62
     2
100
AcDbCircle
 10
-21.71813439
 20
-88.81111851
 30
0.0
 40
1.5
  0
CIRCLE
  5
1A4
330
2DE
100
AcDbEntity
  8
0
  6
Continuous
 62
     7
100
AcDbCircle
 10
-21.71813439
 20
-88.81111851
 30
0.0
 40
1.0
  0
LINE
  5
1A5
330
2DE
100
AcDbEntity
  8
0
  6
Continuous
 62
     2
100
AcDbLine
 10
-19.00130562
 20
-88.81111851
 30
0.0
 11
-24.70634947
 21
-88.81111851
 31
0.0
  0
CIRCLE
  5
1A6
330
2DE
100
AcDbEntity
  8
0
  6
Continuous
 62
     7
100
AcDbCircle
 10
-21.71813439
 20
-88.81111851
 30
0.0
 40
2.0
  0
LINE
  5
1A7
330
2DE
100
AcDbEntity
  8
0
  6
Continuous
 62
     7
100
AcDbLine
 10
-41.65813438999999
 20
-93.25111851
 30
0.0
 11
-38.73813439
 21
-90.33111850999999
 31
0.0
  0
LINE
  5
1A8
330
2DE
100
AcDbEntity
  8
0
  6
Continuous
 62
     7
100
AcDbLine
 10
-38.79813439
 20
-93.23111851
 30
0.0
 11
-41.57813439
 21
-90.45111850999999
 31
0.0
  0
LINE
  5
1A9
330
2DE
100
AcDbEntity
  8
0
  6
Continuous
 62
     2
100
AcDbLine
 10
-40.21813439
 20
-95.81111851000001
 30
0.0
 11
-40.21813439
 21
-87.81111851
 31
0.0
  0
ARC
  5
1AA
330
2DE
100
AcDbEntity
  8
0
  6
Continuous
 62
     7
100
AcDbCircle
 10
-40.21813439
 20
-91.81111851
 30
0.0
 40
3.5
100
AcDbArc
 50
270.0
 51
90.0
  0
CIRCLE
  5
1AB
330
2DE
100
AcDbEntity
  8
0
  6
Continuous
 62
     7
100
AcDbCircle
 10
-40.21813439
 20
-91.81111851
 30
0.0
 40
3.149999999999999
  0
LINE
  5
1AC
330
2DE
100
AcDbEntity
  8
0
  6
Continuous
 62
     7
100
AcDbLine
 10
-45.71813439
 20
-58.31111851
 30
0.0
 11
-45.71813439
 21
-99.31111851
 31
0.0
  0
LINE
  5
1AE
330
2DE
100
AcDbEntity
  8
0
  6
Continuous
 62
     2
100
AcDbLine
 10
-4.218134390000001
 20
-53.08346295279785
 30
0.0
 11
-4.21813439
 21
-103.82070569
 31
0.0
  0
LINE
  5
1AF
330
2DE
100
AcDbEntity
  8
0
  6
Continuous
 62
     7
100
AcDbLine
 10
9.28186561
 20
-58.31111851
 30
0.0
 11
9.28186561
 21
-99.31111851
 31
0.0
  0
CIRCLE
  5
1B0
330
2DE
100
AcDbEntity
  8
0
  6
Continuous
 62
     7
100
AcDbCircle
 10
-14.71813439
 20
-67.81111851
 30
0.0
 40
2.0
  0
CIRCLE
  5
1B1
330
2DE
100
AcDbEntity
  8
0
  6
Continuous
 62
     2
100
AcDbCircle
 10
-14.71813439
 20
-67.81111851
 30
0.0
 40
1.5
  0
CIRCLE
  5
1B2
330
2DE
100
AcDbEntity
  8
0
  6
Continuous
 62
     7
100
AcDbCircle
 10
-14.71813439
 20
-67.81111851
 30
0.0
 40
1.0
  0
LINE
  5
1B3
330
2DE
100
AcDbEntity
  8
0
  6
Continuous
 62
     7
100
AcDbLine
 10
9.28186561
 20
-58.31111851
 30
0.0
 11
-17.71813439
 21
-58.31111851
 31
0.0
  0
LINE
  5
1B4
330
2DE
100
AcDbEntity
  8
0
  6
Continuous
 62
     2
100
AcDbLine
 10
-11.89461191
 20
-67.81111851
 30
0.0
 11
-17.4296379
 21
-67.81111851
 31
0.0
  0
LINE
  5
1B6
330
2DE
100
AcDbEntity
  8
0
  6
Continuous
 62
     7
100
AcDbLine
 10
5.22186561
 20
-63.37111851
 30
0.0
 11
2.30186561
 21
-66.29111851000001
 31
0.0
  0
LINE
  5
1B7
330
2DE
100
AcDbEntity
  8
0
  6
Continuous
 62
     7
100
AcDbLine
 10
2.36186561
 20
-63.39111851
 30
0.0
 11
5.141865609999999
 21
-66.17111851
 31
0.0
  0
LINE
  5
1B8
330
2DE
100
AcDbEntity
  8
0
  6
Continuous
 62
     2
100
AcDbLine
 10
3.78186561
 20
-60.81111851
 30
0.0
 11
3.78186561
 21
-68.81111851
 31
0.0
  0
LINE
  5
1B9
330
2DE
100
AcDbEntity
  8
0
  6
Continuous
 62
     2
100
AcDbLine
 10
7.781865609999999
 20
-64.81111851
 30
0.0
 11
-0.21813439
 21
-64.81111851
 31
0.0
  0
LINE
  5
1BA
330
2DE
100
AcDbEntity
  8
0
  6
Continuous
 62
     2
100
AcDbLine
 10
-14.71813439
 20
-65.04307179
 30
0.0
 11
-14.71813439
 21
-70.63477040000001
 31
0.0
  0
ARC
  5
1BB
330
2DE
100
AcDbEntity
  8
0
  6
Continuous
 62
     7
100
AcDbCircle
 10
3.78186561
 20
-64.81111851
 30
0.0
 40
3.5
100
AcDbArc
 50
90.0
 51
270.0
  0
CIRCLE
  5
1BC
330
2DE
100
AcDbEntity
  8
0
  6
Continuous
 62
     7
100
AcDbCircle
 10
3.78186561
 20
-64.81111851
 30
0.0
 40
3.149999999999999
  0
LINE
  5
1BD
330
2DE
100
AcDbEntity
  8
0
  6
Continuous
 62
     7
100
AcDbLine
 10
3.78186561
 20
-61.31111851
 30
0.0
 11
9.28186561
 21
-61.31111851
 31
0.0
  0
LINE
  5
1BE
330
2DE
100
AcDbEntity
  8
0
  6
Continuous
 62
     7
100
AcDbLine
 10
3.78186561
 20
-68.31111851
 30
0.0
 11
9.28186561
 21
-68.31111851
 31
0.0
  0
LINE
  5
1C0
330
2DE
100
AcDbEntity
  8
0
  6
Continuous
 62
     7
100
AcDbLine
 10
-12.21813439
 20
-88.31111851000001
 30
0.0
 11
-17.71813439
 21
-88.31111851000001
 31
0.0
  0
LINE
  5
1C1
330
2DE
100
AcDbEntity
  8
0
  6
Continuous
 62
     2
100
AcDbLine
 10
-16.21813439
 20
-91.81111851
 30
0.0
 11
-8.218134389999999
 21
-91.81111851
 31
0.0
  0
LINE
  5
1C2
330
2DE
100
AcDbEntity
  8
0
  6
Continuous
 62
     7
100
AcDbLine
 10
-17.71813439
 20
-98.31111851000001
 30
0.0
 11
9.28186561
 21
-98.31111851000001
 31
0.0
  0
LINE
  5
1C3
330
2DE
100
AcDbEntity
  8
0
  6
Continuous
 62
     7
100
AcDbLine
 10
-12.21813439
 20
-95.31111851
 30
0.0
 11
-17.71813439
 21
-95.31111851
 31
0.0
  0
LINE
  5
1C4
330
2DE
100
AcDbEntity
  8
0
  6
Continuous
 62
     2
100
AcDbLine
 10
6.281865609999999
 20
-86.09695051
 30
0.0
 11
6.281865609999999
 21
-91.82088523999999
 31
0.0
  0
CIRCLE
  5
1C5
330
2DE
100
AcDbEntity
  8
0
  6
Continuous
 62
     2
100
AcDbCircle
 10
6.281865609999999
 20
-88.81111851
 30
0.0
 40
1.5
  0
CIRCLE
  5
1C6
330
2DE
100
AcDbEntity
  8
0
  6
Continuous
 62
     7
100
AcDbCircle
 10
6.281865609999999
 20
-88.81111851
 30
0.0
 40
1.0
  0
LINE
  5
1C7
330
2DE
100
AcDbEntity
  8
0
  6
Continuous
 62
     2
100
AcDbLine
 10
8.998694379999999
 20
-88.81111851
 30
0.0
 11
3.293650529999999
 21
-88.81111851
 31
0.0
  0
CIRCLE
  5
1C8
330
2DE
100
AcDbEntity
  8
0
  6
Continuous
 62
     7
100
AcDbCircle
 10
6.281865609999999
 20
-88.81111851
 30
0.0
 40
2.0
  0
LINE
  5
1C9
330
2DE
100
AcDbEntity
  8
0
  6
Continuous
 62
     7
100
AcDbLine
 10
-13.65813439
 20
-93.25111851
 30
0.0
 11
-10.73813439
 21
-90.33111850999999
 31
0.0
  0
LINE
  5
1CA
330
2DE
100
AcDbEntity
  8
0
  6
Continuous
 62
     7
100
AcDbLine
 10
-10.79813439
 20
-93.23111851
 30
0.0
 11
-13.57813439
 21
-90.45111850999999
 31
0.0
  0
LINE
  5
1CB
330
2DE
100
AcDbEntity
  8
0
  6
Continuous
 62
     2
100
AcDbLine
 10
-12.21813439
 20
-95.81111851000001
 30
0.0
 11
-12.21813439
 21
-87.81111851
 31
0.0
  0
ARC
  5
1CC
330
2DE
100
AcDbEntity
  8
0
  6
Continuous
 62
     7
100
AcDbCircle
 10
-12.21813439
 20
-91.81111851
 30
0.0
 40
3.5
100
AcDbArc
 50
270.0
 51
90.0
  0
CIRCLE
  5
1CD
330
2DE
100
AcDbEntity
  8
0
  6
Continuous
 62
     7
100
AcDbCircle
 10
-12.21813439
 20
-91.81111851
 30
0.0
 40
3.149999999999999
  0
LINE
  5
1CE
330
2DE
100
AcDbEntity
  8
0
  6
Continuous
 62
     7
100
AcDbLine
 10
-17.71813439
 20
-58.31111851
 30
0.0
 11
-17.71813439
 21
-99.31111851
 31
0.0
  0
LINE
  5
1D0
330
2DE
100
AcDbEntity
  8
0
  6
Continuous
 62
     7
100
AcDbLine
 10
170.78186561
 20
123.88888113
 30
0.0
 11
170.78186561
 21
63.08211854999999
 31
0.0
  0
LINE
  5
1D1
330
2DE
100
AcDbEntity
  8
0
  6
Continuous
 62
     7
100
AcDbLine
 10
130.78186561
 20
123.88888113
 30
0.0
 11
130.78186561
 21
7.88888149
 31
0.0
  0
LINE
  5
1EE
330
2DE
100
AcDbEntity
  8
0
  6
Continuous
 62
     2
100
AcDbLine
 10
127.56476772
 20
32.38888149
 30
0.0
 11
135.10882473
 21
32.38888149
 31
0.0
  0
LINE
  5
1EF
330
2DE
100
AcDbEntity
  8
0
  6
Continuous
 62
     2
100
AcDbLine
 10
162.78186561
 20
38.05011134
 30
0.0
 11
162.78186561
 21
29.12622682
 31
0.0
  0
LINE
  5
1F0
330
2DE
100
AcDbEntity
  8
0
  6
Continuous
 62
     2
100
AcDbLine
 10
158.56739242
 20
33.88888149
 30
0.0
 11
167.49127693
 21
33.88888149
 31
0.0
  0
CIRCLE
  5
203
330
2DE
100
AcDbEntity
  8
0
  6
Continuous
 62
     7
100
AcDbCircle
 10
162.79577439
 20
33.89916707
 30
0.0
 40
2.19972437
  0
CIRCLE
  5
204
330
2DE
100
AcDbEntity
  8
0
  6
Continuous
 62
     7
100
AcDbCircle
 10
138.79578584
 20
45.89916706999999
 30
0.0
 40
2.19972437
  0
LINE
  5
205
330
2DE
100
AcDbEntity
  8
0
  6
Continuous
 62
     2
100
AcDbLine
 10
173.58854686
 20
22.6920311
 30
0.0
 11
164.67012958
 21
22.6920311
 31
0.0
  0
LINE
  5
206
330
2DE
100
AcDbEntity
  8
0
  6
Continuous
 62
     2
100
AcDbLine
 10
173.58854686
 20
68.69128118999999
 30
0.0
 11
164.67012958
 21
68.69128118999999
 31
0.0
  0
LINE
  5
207
330
2DE
100
AcDbEntity
  8
0
  6
Continuous
 62
     2
100
AcDbLine
 10
127.24980712
 20
59.38888149
 30
0.0
 11
134.47890348
 21
59.38888149
 31
0.0
  0
LINE
  5
208
330
2DE
100
AcDbEntity
  8
0
  6
Continuous
 62
     7
100
AcDbLine
 10
133.78898972
 20
43.32945141999999
 30
0.0
 11
133.78898972
 21
38.05011134
 31
0.0
  0
LINE
  5
209
330
2DE
100
AcDbEntity
  8
0
  6
Continuous
 62
     7
100
AcDbLine
 10
130.78936467
 20
38.05011134
 30
0.0
 11
133.78898972
 21
38.05011134
 31
0.0
  0
LINE
  5
20A
330
2DE
100
AcDbEntity
  8
0
  6
Continuous
 62
     7
100
AcDbLine
 10
130.78936467
 20
43.32945141999999
 30
0.0
 11
133.78898972
 21
43.32945141999999
 31
0.0
  0
LINE
  5
20E
330
2DE
100
AcDbEntity
  8
0
  6
Continuous
 62
     2
100
AcDbLine
 10
162.7803658
 20
37.54017508
 30
0.0
 11
162.7803658
 21
29.15622307
 31
0.0
  0
LINE
  5
20F
330
2DE
100
AcDbEntity
  8
0
  6
Continuous
 62
     2
100
AcDbLine
 10
138.78186561
 20
50.25333593
 30
0.0
 11
138.78186561
 21
41.32945141999999
 31
0.0
  0
LINE
  5
210
330
2DE
100
AcDbEntity
  8
0
  6
Continuous
 62
     7
100
AcDbLine
 10
130.78936467
 20
13.69315596
 30
0.0
 11
170.78186561
 21
13.69315596
 31
0.0
  0
LINE
  5
211
330
2DE
100
AcDbEntity
  8
0
  6
Continuous
 62
     7
100
AcDbLine
 10
130.78936467
 20
77.69015632999999
 30
0.0
 11
170.78186561
 21
77.69015632999999
 31
0.0
  0
LINE
  5
212
330
2DE
100
AcDbEntity
  8
0
  6
Continuous
 62
     7
100
AcDbLine
 10
130.78936467
 20
7.88888149
 30
0.0
 11
170.78936467
 21
7.88888149
 31
0.0
  0
ARC
  5
213
330
2DE
100
AcDbEntity
  8
0
  6
Continuous
 62
     7
100
AcDbCircle
 10
136.76398939
 20
40.68978138
 30
0.0
 40
5.6875
100
AcDbArc
 50
152.34685688
 51
207.65314312
  0
LINE
  5
2B4
330
2DE
100
AcDbEntity
  8
0
  6
Continuous
 62
     7
100
AcDbLine
 10
170.78186561
 20
28.69564443
 30
0.0
 11
170.78186561
 21
7.88888149
 31
0.0
  0
LINE
  5
2B5
330
2DE
100
AcDbEntity
  8
0
  6
Continuous
 62
     7
100
AcDbLine
 10
-103.21813439
 20
-134.31111851
 30
0.0
 11
10.78186561
 21
-134.31111851
 31
0.0
  0
TEXT
  5
2B6
330
2DE
100
AcDbEntity
  8
0
  6
Continuous
 62
     7
100
AcDbText
 10
-268.27500006
 20
173.934050255
 30
0.0
 40
6.30000019
  1
MODEL:FM4U
 41
1.071428569999999
  7
MX_NOTE_STANDARD
 11
-268.27500006
 21
177.08405035
 31
0.0
100
AcDbText
 73
     2
  0
LINE
  5
2B7
330
2DE
100
AcDbEntity
  8
0
  6
Continuous
 62
     7
100
AcDbLine
 10
282.09985352
 20
195.5
 30
0.0
 11
282.09985352
 21
-195.0
 31
0.0
  0
LINE
  5
2B8
330
2DE
100
AcDbEntity
  8
0
  6
Continuous
 62
     7
100
AcDbLine
 10
-281.25
 20
195.5
 30
0.0
 11
282.09985352
 21
195.5
 31
0.0
  0
LINE
  5
2B9
330
2DE
100
AcDbEntity
  8
0
  6
Continuous
 62
     7
100
AcDbLine
 10
-281.25
 20
195.5
 30
0.0
 11
-281.25
 21
-195.0
 31
0.0
  0
LINE
  5
2BA
330
2DE
100
AcDbEntity
  8
0
  6
Continuous
 62
     7
100
AcDbLine
 10
-281.25
 20
-195.0
 30
0.0
 11
282.09985352
 21
-195.0
 31
0.0
  0
LINE
  5
885
330
2DE
100
AcDbEntity
  8
0
  6
Continuous
 62
     7
100
AcDbLine
 10
-78.21813439
 20
123.88888149
 30
0.0
 11
-78.21813439
 21
124.08888149
 31
0.0
  0
LINE
  5
886
330
2DE
100
AcDbEntity
  8
0
  6
Continuous
 62
     7
100
AcDbLine
 10
-78.21813439
 20
124.08888149
 30
0.0
 11
-79.01813439000001
 21
124.88888149
 31
0.0
  0
LINE
  5
887
330
2DE
100
AcDbEntity
  8
0
  6
Continuous
 62
     7
100
AcDbLine
 10
-101.71813439
 20
123.88888149
 30
0.0
 11
-74.71813439
 21
123.88888149
 31
0.0
  0
LINE
  5
888
330
2DE
100
AcDbEntity
  8
0
  6
Continuous
 62
     7
100
AcDbLine
 10
-97.41813438999999
 20
124.88888149
 30
0.0
 11
-79.01813439000001
 21
124.88888149
 31
0.0
  0
LINE
  5
889
330
2DE
100
AcDbEntity
  8
0
  6
Continuous
 62
     7
100
AcDbLine
 10
-98.21813439000001
 20
124.08888149
 30
0.0
 11
-97.41813438999999
 21
124.88888149
 31
0.0
  0
LINE
  5
88A
330
2DE
100
AcDbEntity
  8
0
  6
Continuous
 62
     7
100
AcDbLine
 10
-98.21813439000001
 20
123.88888149
 30
0.0
 11
-98.21813439000001
 21
124.08888149
 31
0.0
  0
LINE
  5
88B
330
2DE
100
AcDbEntity
  8
0
  6
Continuous
 62
     7
100
AcDbLine
 10
-74.71813439
 20
94.38888149000002
 30
0.0
 11
-101.71813439
 21
94.38888149000002
 31
0.0
  0
LINE
  5
88C
330
2DE
100
AcDbEntity
  8
0
  6
Continuous
 62
     7
100
AcDbLine
 10
-50.21813439
 20
123.88888149
 30
0.0
 11
-50.21813439
 21
124.08888149
 31
0.0
  0
LINE
  5
88D
330
2DE
100
AcDbEntity
  8
0
  6
Continuous
 62
     7
100
AcDbLine
 10
-50.21813439
 20
124.08888149
 30
0.0
 11
-51.01813439
 21
124.88888149
 31
0.0
  0
LINE
  5
88E
330
2DE
100
AcDbEntity
  8
0
  6
Continuous
 62
     7
100
AcDbLine
 10
-73.71813438999999
 20
123.88888149
 30
0.0
 11
-46.71813439000001
 21
123.88888149
 31
0.0
  0
LINE
  5
88F
330
2DE
100
AcDbEntity
  8
0
  6
Continuous
 62
     7
100
AcDbLine
 10
-69.41813439
 20
124.88888149
 30
0.0
 11
-51.01813439
 21
124.88888149
 31
0.0
  0
LINE
  5
890
330
2DE
100
AcDbEntity
  8
0
  6
Continuous
 62
     7
100
AcDbLine
 10
-70.21813439
 20
124.08888149
 30
0.0
 11
-69.41813439
 21
124.88888149
 31
0.0
  0
LINE
  5
891
330
2DE
100
AcDbEntity
  8
0
  6
Continuous
 62
     7
100
AcDbLine
 10
-70.21813439
 20
123.88888149
 30
0.0
 11
-70.21813439
 21
124.08888149
 31
0.0
  0
LINE
  5
892
330
2DE
100
AcDbEntity
  8
0
  6
Continuous
 62
     7
100
AcDbLine
 10
-46.71813439
 20
94.38888149000002
 30
0.0
 11
-73.71813439
 21
94.38888149000002
 31
0.0
  0
LINE
  5
893
330
2DE
100
AcDbEntity
  8
0
  6
Continuous
 62
     7
100
AcDbLine
 10
-22.21813439
 20
123.88888149
 30
0.0
 11
-22.21813439
 21
124.08888149
 31
0.0
  0
LINE
  5
894
330
2DE
100
AcDbEntity
  8
0
  6
Continuous
 62
     7
100
AcDbLine
 10
-22.21813439
 20
124.08888149
 30
0.0
 11
-23.01813439
 21
124.88888149
 31
0.0
  0
LINE
  5
895
330
2DE
100
AcDbEntity
  8
0
  6
Continuous
 62
     7
100
AcDbLine
 10
-45.71813439
 20
123.88888149
 30
0.0
 11
-18.71813439
 21
123.88888149
 31
0.0
  0
LINE
  5
896
330
2DE
100
AcDbEntity
  8
0
  6
Continuous
 62
     7
100
AcDbLine
 10
-41.41813439
 20
124.88888149
 30
0.0
 11
-23.01813439
 21
124.88888149
 31
0.0
  0
LINE
  5
897
330
2DE
100
AcDbEntity
  8
0
  6
Continuous
 62
     7
100
AcDbLine
 10
-42.21813439
 20
124.08888149
 30
0.0
 11
-41.41813439
 21
124.88888149
 31
0.0
  0
LINE
  5
898
330
2DE
100
AcDbEntity
  8
0
  6
Continuous
 62
     7
100
AcDbLine
 10
-42.21813439
 20
123.88888149
 30
0.0
 11
-42.21813439
 21
124.08888149
 31
0.0
  0
LINE
  5
899
330
2DE
100
AcDbEntity
  8
0
  6
Continuous
 62
     7
100
AcDbLine
 10
-18.71813439
 20
94.38888149000002
 30
0.0
 11
-45.71813439
 21
94.38888149000002
 31
0.0
  0
LINE
  5
89A
330
2DE
100
AcDbEntity
  8
0
  6
Continuous
 62
     7
100
AcDbLine
 10
5.781865609999996
 20
123.88888149
 30
0.0
 11
5.781865609999996
 21
124.08888149
 31
0.0
  0
LINE
  5
89B
330
2DE
100
AcDbEntity
  8
0
  6
Continuous
 62
     7
100
AcDbLine
 10
5.781865609999996
 20
124.08888149
 30
0.0
 11
4.981865610000006
 21
124.88888149
 31
0.0
  0
LINE
  5
89C
330
2DE
100
AcDbEntity
  8
0
  6
Continuous
 62
     7
100
AcDbLine
 10
-17.71813439
 20
123.88888149
 30
0.0
 11
9.281865609999998
 21
123.88888149
 31
0.0
  0
LINE
  5
89D
330
2DE
100
AcDbEntity
  8
0
  6
Continuous
 62
     7
100
AcDbLine
 10
-13.41813439
 20
124.88888149
 30
0.0
 11
4.981865610000006
 21
124.88888149
 31
0.0
  0
LINE
  5
89E
330
2DE
100
AcDbEntity
  8
0
  6
Continuous
 62
     7
100
AcDbLine
 10
-14.21813439
 20
124.08888149
 30
0.0
 11
-13.41813439
 21
124.88888149
 31
0.0
  0
LINE
  5
89F
330
2DE
100
AcDbEntity
  8
0
  6
Continuous
 62
     7
100
AcDbLine
 10
-14.21813439
 20
123.88888149
 30
0.0
 11
-14.21813439
 21
124.08888149
 31
0.0
  0
LINE
  5
8A0
330
2DE
100
AcDbEntity
  8
0
  6
Continuous
 62
     7
100
AcDbLine
 10
9.281865610000004
 20
94.38888149000002
 30
0.0
 11
-17.71813439
 21
94.38888149000002
 31
0.0
  0
LINE
  5
8A2
330
2DE
100
AcDbEntity
  8
0
  6
Continuous
 62
     7
100
AcDbLine
 10
170.78186561
 20
94.38888149000002
 30
0.0
 11
130.78186561
 21
94.38888149000002
 31
0.0
  0
LINE
  5
8A3
330
2DE
100
AcDbEntity
  8
0
  6
Continuous
 62
     7
100
AcDbLine
 10
170.78186561
 20
123.88888113
 30
0.0
 11
130.78186561
 21
123.88888113
 31
0.0
  0
LINE
  5
8A4
330
2DE
100
AcDbEntity
  8
0
  6
Continuous
 62
     7
100
AcDbLine
 10
173.28186561
 20
109.88888149
 30
0.0
 11
170.78186561
 21
109.88888149
 31
0.0
  0
LINE
  5
8A5
330
2DE
100
AcDbEntity
  8
0
  6
Continuous
 62
     7
100
AcDbLine
 10
173.78186561
 20
110.38888149
 30
0.0
 11
173.78186561
 21
113.63888149
 31
0.0
  0
LINE
  5
8A7
330
2DE
100
AcDbEntity
  8
0
  6
Continuous
 62
     7
100
AcDbLine
 10
173.28186561
 20
114.88888149
 30
0.0
 11
170.78186561
 21
114.88888149
 31
0.0
  0
LINE
  5
8A8
330
2DE
100
AcDbEntity
  8
0
  6
Continuous
 62
     7
100
AcDbLine
 10
173.78186561
 20
114.3888814900001
 30
0.0
 11
173.78186561
 21
113.63888149
 31
0.0
  0
LINE
  5
8A9
330
2DE
100
AcDbEntity
  8
0
  6
CENTER
 62
     2
100
AcDbLine
 10
198.27616023
 20
112.3888814900001
 30
0.0
 11
168.40686561
 21
112.3888814900001
 31
0.0
  0
LINE
  5
8AA
330
2DE
100
AcDbEntity
  8
0
  6
Continuous
 62
     7
100
AcDbLine
 10
190.20686561
 20
111.1388814900001
 30
0.0
 11
187.80686561
 21
111.1388814900001
 31
0.0
  0
LINE
  5
8AB
330
2DE
100
AcDbEntity
  8
0
  6
Continuous
 62
     7
100
AcDbLine
 10
190.11936561
 20
113.63888149
 30
0.0
 11
187.3193656099999
 21
113.63888149
 31
0.0
  0
LINE
  5
8AC
330
2DE
100
AcDbEntity
  8
0
  6
Continuous
 62
     7
100
AcDbLine
 10
185.80686561
 20
111.1388814900001
 30
0.0
 11
173.78186561
 21
111.1388814900001
 31
0.0
  0
LINE
  5
8AD
330
2DE
100
AcDbEntity
  8
0
  6
Continuous
 62
     7
100
AcDbLine
 10
185.31936561
 20
113.63888149
 30
0.0
 11
173.78186561
 21
113.63888149
 31
0.0
  0
LINE
  5
8AE
330
2DE
100
AcDbEntity
  8
0
  6
Continuous
 62
     7
100
AcDbLine
 10
190.11936561
 20
111.1388814900001
 30
0.0
 11
190.11936561
 21
113.63888149
 31
0.0
  0
LINE
  5
8AF
330
2DE
100
AcDbEntity
  8
0
  6
Continuous
 62
     7
100
AcDbLine
 10
195.11936561
 20
112.88888149
 30
0.0
 11
190.11936561
 21
112.88888149
 31
0.0
  0
LINE
  5
8B0
330
2DE
100
AcDbEntity
  8
0
  6
Continuous
 62
     7
100
AcDbLine
 10
195.11936561
 20
111.88888149
 30
0.0
 11
190.11936561
 21
111.88888149
 31
0.0
  0
LINE
  5
8B1
330
2DE
100
AcDbEntity
  8
0
  6
Continuous
 62
     7
100
AcDbLine
 10
195.11936561
 20
111.88888149
 30
0.0
 11
195.11936561
 21
112.88888149
 31
0.0
  0
LINE
  5
8B2
330
2DE
100
AcDbEntity
  8
0
  6
Continuous
 62
     7
100
AcDbLine
 10
141.58186561
 20
124.88888113
 30
0.0
 11
159.98186561
 21
124.88888113
 31
0.0
  0
LINE
  5
8B3
330
2DE
100
AcDbEntity
  8
0
  6
Continuous
 62
     7
100
AcDbLine
 10
140.78186561
 20
124.08888113
 30
0.0
 11
141.58186561
 21
124.88888113
 31
0.0
  0
LINE
  5
8B4
330
2DE
100
AcDbEntity
  8
0
  6
Continuous
 62
     7
100
AcDbLine
 10
160.78186561
 20
124.08888113
 30
0.0
 11
159.98186561
 21
124.88888113
 31
0.0
  0
LINE
  5
8B5
330
2DE
100
AcDbEntity
  8
0
  6
Continuous
 62
     7
100
AcDbLine
 10
140.78186561
 20
123.88888113
 30
0.0
 11
140.78186561
 21
124.08888113
 31
0.0
  0
LINE
  5
8B6
330
2DE
100
AcDbEntity
  8
0
  6
Continuous
 62
     7
100
AcDbLine
 10
160.78186561
 20
123.88888113
 30
0.0
 11
160.78186561
 21
124.08888113
 31
0.0
  0
LINE
  5
8B7
330
2DE
100
AcDbEntity
  8
0
  6
Continuous
 62
     7
100
AcDbLine
 10
143.78186561
 20
119.38888113
 30
0.0
 11
136.78186561
 21
119.38888113
 31
0.0
  0
LINE
  5
8B8
330
2DE
100
AcDbEntity
  8
0
  6
Continuous
 62
     7
100
AcDbLine
 10
143.78186561
 20
119.38888113
 30
0.0
 11
143.78186561
 21
123.88888113
 31
0.0
  0
LINE
  5
8B9
330
2DE
100
AcDbEntity
  8
0
  6
Continuous
 62
     7
100
AcDbLine
 10
136.78186561
 20
119.38888113
 30
0.0
 11
136.78186561
 21
123.88888113
 31
0.0
  0
LINE
  5
8BA
330
2DE
100
AcDbEntity
  8
0
  6
Continuous
 62
     7
100
AcDbLine
 10
143.78186561
 20
120.38888113
 30
0.0
 11
136.78186561
 21
120.38888113
 31
0.0
  0
LINE
  5
8BB
330
2DE
100
AcDbEntity
  8
0
  6
Continuous
 62
     7
100
AcDbLine
 10
141.28186561
 20
123.08888113
 30
0.0
 11
139.28186561
 21
123.08888113
 31
0.0
  0
LINE
  5
8BC
330
2DE
100
AcDbEntity
  8
0
  6
CENTER
 62
     2
100
AcDbLine
 10
140.28186561
 20
117.95138113
 30
0.0
 11
140.28186561
 21
124.58888113
 31
0.0
  0
ARC
  5
8BD
330
2DE
100
AcDbEntity
  8
0
  6
Continuous
 62
     7
100
AcDbCircle
 10
173.28228308
 20
110.38846402
 30
0.0
 40
0.4995827000000002
100
AcDbArc
 50
269.9521214499992
 51
0.0478785499991437
  0
ARC
  5
8BE
330
2DE
100
AcDbEntity
  8
0
  6
Continuous
 62
     7
100
AcDbCircle
 10
173.2866326399999
 20
114.39364852
 30
0.0
 40
0.4952559100000001
100
AcDbArc
 50
359.4484972099994
 51
90.55150279000056
  0
ARC
  5
8BF
330
2DE
100
AcDbEntity
  8
0
  6
Continuous
 62
     7
100
AcDbCircle
 10
139.28229968
 20
120.58844705
 30
0.0
 40
2.50043411
100
AcDbArc
 50
90.00994654000045
 51
179.9900534600012
  0
ARC
  5
8C0
330
2DE
100
AcDbEntity
  8
0
  6
Continuous
 62
     7
100
AcDbCircle
 10
141.28662441
 20
120.59363992
 30
0.0
 40
2.49524574
100
AcDbArc
 50
359.8907284900018
 51
90.10927150999988
  0
LWPOLYLINE
  5
8C1
330
2DE
100
AcDbEntity
  8
0
  6
Continuous
 62
     7
100
AcDbPolyline
 90
       49
 70
     0
 43
0.0
 10
187.03186561
 20
110.55138149
 10
187.12445843
 20
110.60596074
 10
187.22083958
 20
110.66610898
 10
187.31949372
 20
110.73132792
 10
187.41890554
 20
110.80111926
 10
187.5175596899999
 20
110.87498469
 10
187.61394086
 20
110.95242593
 10
187.7065337
 20
111.03294466
 10
187.7938229
 20
111.1160426
 10
187.87429311
 20
111.20122144
 10
187.9464290199999
 20
111.28798288
 10
188.0087153
 20
111.37582863
 10
188.05963661
 20
111.46426038
 10
188.09767762
 20
111.55277985
 10
188.12132301
 20
111.64088872
 10
188.12905745
 20
111.7280887
 10
188.11936561
 20
111.81388149
 10
188.09185394
 20
111.89660053
 10
188.04812987
 20
111.97768265
 10
187.99055621
 20
112.05734736
 10
187.9214957599999
 20
112.13581417
 10
187.84331134
 20
112.21330258
 10
187.75836577
 20
112.29003212
 10
187.66902186
 20
112.36622229
 10
187.57764243
 20
112.4420926
 10
187.4865902799999
 20
112.51786257
 10
187.3982282299999
 20
112.59375169
 10
187.3149191
 20
112.66997949
 10
187.23902569
 20
112.74676548
 10
187.1729108199999
 20
112.82432916
 10
187.11893731
 20
112.90289005
 10
187.07946797
 20
112.98266766
 10
187.05686561
 20
113.06388149
 10
187.05253841
 20
113.14285785
 10
187.0641662599999
 20
113.22296346
 10
187.0903511799999
 20
113.30375343
 10
187.1296951799999
 20
113.3847829
 10
187.1808002799999
 20
113.46560698
 10
187.2422685
 20
113.5457808
 10
187.31270184
 20
113.62485948
 10
187.39070234
 20
113.70239813
 10
187.474872
 20
113.7779519
 10
187.56381284
 20
113.85107589
 10
187.6561268699999
 20
113.92132523
 10
187.75041613
 20
113.98825505
 10
187.84528261
 20
114.05142046
 10
187.9393283399999
 20
114.11037659
 10
188.03115533
 20
114.16467855
 10
188.11936561
 20
114.21388149
  0
LWPOLYLINE
  5
8C2
330
2DE
100
AcDbEntity
  8
0
  6
Continuous
 62
     7
100
AcDbPolyline
 90
       49
 70
     0
 43
0.0
 10
185.03186561
 20
110.55138149
 10
185.12445844
 20
110.60596074
 10
185.22083961
 20
110.66610899
 10
185.31949376
 20
110.73132793
 10
185.41890558
 20
110.80111927
 10
185.51755974
 20
110.8749846999999
 10
185.61394091
 20
110.95242593
 10
185.70653375
 20
111.03294466
 10
185.79382294
 20
111.11604259
 10
185.87429316
 20
111.20122143
 10
185.94642906
 20
111.28798287
 10
186.0087153299999
 20
111.37582861
 10
186.05963664
 20
111.46426037
 10
186.09767764
 20
111.55277983
 10
186.1213230299999
 20
111.6408887
 10
186.12905746
 20
111.72808869
 10
186.11936561
 20
111.81388149
 10
186.09185394
 20
111.89660054
 10
186.04812986
 20
111.97768267
 10
185.99055619
 20
112.05734738
 10
185.92149574
 20
112.13581419
 10
185.84331133
 20
112.21330261
 10
185.75836576
 20
112.29003215
 10
185.66902185
 20
112.36622233
 10
185.57764241
 20
112.44209264
 10
185.48659026
 20
112.5178626
 10
185.39822822
 20
112.59375172
 10
185.3149190799999
 20
112.66997952
 10
185.23902568
 20
112.74676551
 10
185.17291081
 20
112.82432918
 10
185.11893731
 20
112.90289006
 10
185.07946797
 20
112.98266766
 10
185.05686561
 20
113.06388149
 10
185.05253841
 20
113.1428578399999
 10
185.06416626
 20
113.22296344
 10
185.09035117
 20
113.30375341
 10
185.12969517
 20
113.38478287
 10
185.18080026
 20
113.46560695
 10
185.24226846
 20
113.54578076
 10
185.3127018
 20
113.62485943
 10
185.39070229
 20
113.70239809
 10
185.47487194
 20
113.77795185
 10
185.56381278
 20
113.85107585
 10
185.65612681
 20
113.92132519
 10
185.75041607
 20
113.98825501
 10
185.8452825599999
 20
114.05142042
 10
185.9393283
 20
114.11037656
 10
186.03115531
 20
114.16467854
 10
186.11936561
 20
114.21388149
  0
ENDSEC
  0
SECTION
  2
OBJECTS
  0
DICTIONARY
  5
2C8
330
0
100
AcDbDictionary
281
     1
  3
ACAD_COLOR
350
2D7
  3
ACAD_GROUP
350
2C9
  3
ACAD_LAYOUT
350
2D5
  3
ACAD_MATERIAL
350
2D6
  3
ACAD_MLINESTYLE
350
2D2
  3
ACAD_PLOTSETTINGS
350
2D4
  3
ACAD_PLOTSTYLENAME
350
2CA
  3
ACAD_TABLESTYLE
350
2D8
  3
ACDBHEADERROUNDTRIPXREC
350
8D3
  3
AcDbVariableDictionary
350
8CD
  3
DWGPROPS
350
8D2
  0
DICTIONARY
  5
5B9
330
2BE
100
AcDbDictionary
280
     1
281
     1
  3
ACAD_LAYERSTATES
360
5BA
  0
DICTIONARY
  5
2D7
102
{ACAD_REACTORS
330
2C8
102
}
330
2C8
100
AcDbDictionary
281
     1
  0
DICTIONARY
  5
2C9
102
{ACAD_REACTORS
330
2C8
102
}
330
2C8
100
AcDbDictionary
281
     1
  0
DICTIONARY
  5
2D5
102
{ACAD_REACTORS
330
2C8
102
}
330
2C8
100
AcDbDictionary
281
     1
  3
Model
350
2E1
  3
レイアウト1
350
2DD
  0
DICTIONARY
  5
2D6
102
{ACAD_REACTORS
330
2C8
102
}
330
2C8
100
AcDbDictionary
281
     1
  0
DICTIONARY
  5
2D2
102
{ACAD_REACTORS
330
2C8
102
}
330
2C8
100
AcDbDictionary
281
     1
  3
Standard
350
2D3
  0
DICTIONARY
  5
2D4
102
{ACAD_REACTORS
330
2C8
102
}
330
2C8
100
AcDbDictionary
281
     1
  0
ACDBDICTIONARYWDFLT
  5
2CA
102
{ACAD_REACTORS
330
2C8
102
}
330
2C8
100
AcDbDictionary
281
     1
  3
Normal
350
2CB
100
AcDbDictionaryWithDefault
340
2CB
  0
DICTIONARY
  5
2D8
102
{ACAD_REACTORS
330
2C8
102
}
330
2C8
100
AcDbDictionary
281
     1
  3
Standard
350
2D9
  0
DICTIONARY
  5
8D3
102
{ACAD_REACTORS
330
2C8
102
}
330
2C8
100
AcDbDictionary
281
     1
  0
DICTIONARY
  5
8CD
102
{ACAD_REACTORS
330
2C8
102
}
330
2C8
100
AcDbDictionary
281
     1
  3
CTABLESTYLE
350
8CE
  3
DIMASSOC
350
8CF
  3
PROJECTNAME
350
8D0
  0
XRECORD
  5
8D2
102
{ACAD_REACTORS
330
2C8
102
}
330
2C8
100
AcDbXrecord
280
     1
  1
DWGPROPS COOKIE
  2

  3

  4

  6

  7

  8

  9

300
=
301
=
302
=
303
=
304
=
305
=
306
=
307
=
308
=
309
=
 40
0.0057790856481481
 41
2454110.753993056
 42
2454336.417298183
  1

 90
        0
  0
DICTIONARY
  5
5BA
102
{ACAD_REACTORS
330
5B9
102
}
330
5B9
100
AcDbDictionary
281
     1
  0
LAYOUT
  5
2E1
102
{ACAD_XDICTIONARY
360
8D6
102
}
102
{ACAD_REACTORS
330
2D5
102
}
330
2D5
100
AcDbPlotSettings
  1

  2
DocuCentre Color f450
  4

  6

 40
0.0
 41
0.0
 42
0.0
 43
0.0
 44
0.0
 45
0.0
 46
0.0
 47
0.0
 48
0.0
 49
0.0
140
0.0
141
0.0
142
1.0
143
1.0
 70
  1712
 72
     0
 73
     0
 74
     0
  7

 75
     0
147
1.0
148
0.0
149
0.0
100
AcDbLayout
  1
Model
 70
     1
 71
     0
 10
0.0
 20
0.0
 11
12.0
 21
9.0
 12
0.0
 22
0.0
 32
0.0
 14
0.0
 24
0.0
 34
0.0
 15
0.0
 25
0.0
 35
0.0
146
0.0
 13
0.0
 23
0.0
 33
0.0
 16
1.0
 26
0.0
 36
0.0
 17
0.0
 27
1.0
 37
0.0
 76
     0
330
2DE
  0
LAYOUT
  5
2DD
102
{ACAD_XDICTIONARY
360
8D4
102
}
102
{ACAD_REACTORS
330
2D5
102
}
330
2D5
100
AcDbPlotSettings
  1

  2
DocuCentre Color f450
  4

  6

 40
0.0
 41
0.0
 42
0.0
 43
0.0
 44
0.0
 45
0.0
 46
0.0
 47
0.0
 48
0.0
 49
0.0
140
0.0
141
0.0
142
1.0
143
1.0
 70
   688
 72
     0
 73
     0
 74
     5
  7

 75
    16
147
1.0
148
0.0
149
0.0
100
AcDbLayout
  1
レイアウト1
 70
     0
 71
     1
 10
0.0
 20
0.0
 11
12.0
 21
9.0
 12
0.0
 22
0.0
 32
0.0
 14
1.000000000000000E+20
 24
1.000000000000000E+20
 34
1.000000000000000E+20
 15
-1.000000000000000E+20
 25
-1.000000000000000E+20
 35
-1.000000000000000E+20
146
0.0
 13
0.0
 23
0.0
 33
0.0
 16
1.0
 26
0.0
 36
0.0
 17
0.0
 27
1.0
 37
0.0
 76
     0
330
2DA
  0
MLINESTYLE
  5
2D3
102
{ACAD_REACTORS
330
2D2
102
}
330
2D2
100
AcDbMlineStyle
  2
STANDARD
 70
     0
  3

 62
   256
 51
90.0
 52
90.0
 71
     2
 49
0.5
 62
   256
  6
BYLAYER
 49
-0.5
 62
   256
  6
BYLAYER
  0
ACDBPLACEHOLDER
  5
2CB
102
{ACAD_REACTORS
330
2CA
102
}
330
2CA
  0
TABLESTYLE
  5
2D9
102
{ACAD_REACTORS
330
2D8
102
}
330
2D8
100
AcDbTableStyle
  3
Standard
 70
     0
 71
     0
 40
0.06
 41
0.06
280
     0
281
     0
  7
Standard
140
0.18
170
     2
 62
     0
 63
     7
283
     0
274
    -2
284
     1
 64
     0
275
    -2
285
     1
 65
     0
276
    -2
286
     1
 66
     0
277
    -2
287
     1
 67
     0
278
    -2
288
     1
 68
     0
279
    -2
289
     1
 69
     0
  7
Standard
140
0.25
170
     5
 62
     0
 63
     7
283
     0
274
    -2
284
     1
 64
     0
275
    -2
285
     1
 65
     0
276
    -2
286
     1
 66
     0
277
    -2
287
     1
 67
     0
278
    -2
288
     1
 68
     0
279
    -2
289
     1
 69
     0
  7
Standard
140
0.18
170
     5
 62
     0
 63
     7
283
     0
274
    -2
284
     1
 64
     0
275
    -2
285
     1
 65
     0
276
    -2
286
     1
 66
     0
277
    -2
287
     1
 67
     0
278
    -2
288
     1
 68
     0
279
    -2
289
     1
 69
     0
  0
DICTIONARYVAR
  5
8CE
102
{ACAD_REACTORS
330
8CD
102
}
330
8CD
100
DictionaryVariables
280
     0
  1
STANDARD
  0
DICTIONARYVAR
  5
8CF
102
{ACAD_REACTORS
330
8CD
102
}
330
8CD
100
DictionaryVariables
280
     0
  1
1
  0
DICTIONARYVAR
  5
8D0
102
{ACAD_REACTORS
330
8CD
102
}
330
8CD
100
DictionaryVariables
280
     0
  1

  0
DICTIONARY
  5
8D6
330
2E1
100
AcDbDictionary
280
     1
281
     1
  3
ACAD_XREC_ROUNDTRIP
360
8D7
  0
DICTIONARY
  5
8D4
330
2DD
100
AcDbDictionary
280
     1
281
     1
  3
ACAD_XREC_ROUNDTRIP
360
8D5
  0
XRECORD
  5
8D7
102
{ACAD_REACTORS
330
8D6
102
}
330
8D6
100
AcDbXrecord
280
     1
102
SHADEPLOT
 70
     0
102
SHADEPLOTRESLEVEL
 70
     2
102
SHADEPLOTCUSTOMDPI
 70
   300
  0
XRECORD
  5
8D5
102
{ACAD_REACTORS
330
8D4
102
}
330
8D4
100
AcDbXrecord
280
     1
102
SHADEPLOT
 70
     0
102
SHADEPLOTRESLEVEL
 70
     2
102
SHADEPLOTCUSTOMDPI
 70
   300
  0
ENDSEC
  0
EOF
