  0
SECTION
  2
HEADER
  9
$ACADVER
  1
AC1012
  9
$DWGCODEPAGE
  3
dos932
  9
$INSBASE
 10
0.0
 20
0.0
 30
0.0
  9
$EXTMIN
 10
-138.3999939
 20
-94.80000305
 30
0.0
  9
$EXTMAX
 10
138.3500061
 20
94.5
 30
0.0
  9
$LIMMIN
 10
-148.5
 20
-105.0
  9
$LIMMAX
 10
148.5
 20
105.0
  9
$ORTHOMODE
 70
       0
  9
$REGENMODE
 70
       1
  9
$FILLMODE
 70
       1
  9
$QTEXTMODE
 70
       0
  9
$MIRRTEXT
 70
       1
  9
$DRAGMODE
 70
       2
  9
$LTSCALE
 40
1.0
  9
$OSMODE
 70
       0
  9
$ATTMODE
 70
       1
  9
$TEXTSIZE
 40
3.20000005
  9
$TRACEWID
 40
0.05
  9
$TEXTSTYLE
  7
MX_NOTE_STANDARD
  9
$CLAYER
  8
0
  9
$CELTYPE
  6
CONTINUOUS
  9
$CECOLOR
 62
     256
  9
$CELTSCALE
 40
1.0
  9
$DELOBJ
 70
       1
  9
$DISPSILH
 70
       0
  9
$DIMSCALE
 40
1.0
  9
$DIMASZ
 40
2.5
  9
$DIMEXO
 40
1.5
  9
$DIMDLI
 40
3.75
  9
$DIMRND
 40
0.0
  9
$DIMDLE
 40
0.0
  9
$DIMEXE
 40
1.5
  9
$DIMTP
 40
0.0
  9
$DIMTM
 40
0.0
  9
$DIMTXT
 40
3.20000005
  9
$DIMCEN
 40
2.5
  9
$DIMTSZ
 40
0.0
  9
$DIMTOL
 70
       0
  9
$DIMLIM
 70
       0
  9
$DIMTIH
 70
       0
  9
$DIMTOH
 70
       0
  9
$DIMSE1
 70
       0
  9
$DIMSE2
 70
       0
  9
$DIMTAD
 70
       1
  9
$DIMZIN
 70
       8
  9
$DIMBLK
  1

  9
$DIMASO
 70
       1
  9
$DIMSHO
 70
       1
  9
$DIMPOST
  1

  9
$DIMAPOST
  1

  9
$DIMALT
 70
       0
  9
$DIMALTD
 70
       4
  9
$DIMALTF
 40
0.03937008
  9
$DIMLFAC
 40
1.0
  9
$DIMTOFL
 70
       1
  9
$DIMTVP
 40
0.0
  9
$DIMTIX
 70
       0
  9
$DIMSOXD
 70
       0
  9
$DIMSAH
 70
       1
  9
$DIMBLK1
  1
_OPEN30
  9
$DIMBLK2
  1
_OPEN30
  9
$DIMSTYLE
  2
MXDIMSTYLE
  9
$DIMCLRD
 70
       0
  9
$DIMCLRE
 70
       0
  9
$DIMCLRT
 70
       0
  9
$DIMTFAC
 40
1.0
  9
$DIMGAP
 40
1.0
  9
$DIMJUST
 70
       0
  9
$DIMSD1
 70
       0
  9
$DIMSD2
 70
       0
  9
$DIMTOLJ
 70
       0
  9
$DIMTZIN
 70
       0
  9
$DIMALTZ
 70
       0
  9
$DIMALTTZ
 70
       0
  9
$DIMFIT
 70
       3
  9
$DIMUPT
 70
       1
  9
$DIMUNIT
 70
       2
  9
$DIMDEC
 70
       2
  9
$DIMTDEC
 70
       2
  9
$DIMALTU
 70
       2
  9
$DIMALTTD
 70
       4
  9
$DIMTXSTY
  7
MX_NOTE_STANDARD
  9
$DIMAUNIT
 70
       0
  9
$LUNITS
 70
       2
  9
$LUPREC
 70
       4
  9
$SKETCHINC
 40
0.1
  9
$FILLETRAD
 40
0.0
  9
$AUNITS
 70
       0
  9
$AUPREC
 70
       0
  9
$MENU
  1
acad
  9
$ELEVATION
 40
0.0
  9
$PELEVATION
 40
0.0
  9
$THICKNESS
 40
0.0
  9
$LIMCHECK
 70
       0
  9
$BLIPMODE
 70
       1
  9
$CHAMFERA
 40
0.0
  9
$CHAMFERB
 40
0.0
  9
$CHAMFERC
 40
0.0
  9
$CHAMFERD
 40
0.0
  9
$SKPOLY
 70
       0
  9
$TDCREATE
 40
2454397.561180556
  9
$TDUPDATE
 40
2454397.561180556
  9
$TDINDWG
 40
0.0000000000
  9
$TDUSRTIMER
 40
0.0000000000
  9
$USRTIMER
 70
       1
  9
$ANGBASE
 50
0.0
  9
$ANGDIR
 70
       0
  9
$PDMODE
 70
       0
  9
$PDSIZE
 40
0.0
  9
$PLINEWID
 40
0.0
  9
$COORDS
 70
       1
  9
$SPLFRAME
 70
       0
  9
$SPLINETYPE
 70
       6
  9
$SPLINESEGS
 70
       8
  9
$ATTDIA
 70
       0
  9
$ATTREQ
 70
       1
  9
$HANDLING
 70
       1
  9
$HANDSEED
  5
49A
  9
$SURFTAB1
 70
       6
  9
$SURFTAB2
 70
       6
  9
$SURFTYPE
 70
       6
  9
$SURFU
 70
       6
  9
$SURFV
 70
       6
  9
$UCSNAME
  2

  9
$UCSORG
 10
0.0
 20
0.0
 30
0.0
  9
$UCSXDIR
 10
1.0
 20
0.0
 30
0.0
  9
$UCSYDIR
 10
0.0
 20
1.0
 30
0.0
  9
$PUCSNAME
  2

  9
$PUCSORG
 10
0.0
 20
0.0
 30
0.0
  9
$PUCSXDIR
 10
1.0
 20
0.0
 30
0.0
  9
$PUCSYDIR
 10
0.0
 20
1.0
 30
0.0
  9
$USERI1
 70
       0
  9
$USERI2
 70
       0
  9
$USERI3
 70
       0
  9
$USERI4
 70
       0
  9
$USERI5
 70
       0
  9
$USERR1
 40
0.0
  9
$USERR2
 40
0.0
  9
$USERR3
 40
0.0
  9
$USERR4
 40
0.0
  9
$USERR5
 40
0.0
  9
$WORLDVIEW
 70
       1
  9
$SHADEDGE
 70
       3
  9
$SHADEDIF
 70
      70
  9
$TILEMODE
 70
       1
  9
$MAXACTVP
 70
      16
  9
$PINSBASE
 10
0.0
 20
0.0
 30
0.0
  9
$PLIMCHECK
 70
       0
  9
$PEXTMIN
 10
1.00000000E+20
 20
1.00000000E+20
 30
1.00000000E+20
  9
$PEXTMAX
 10
-1.00000000E+20
 20
-1.00000000E+20
 30
-1.00000000E+20
  9
$PLIMMIN
 10
0.0
 20
0.0
  9
$PLIMMAX
 10
12.0
 20
9.0
  9
$UNITMODE
 70
       0
  9
$VISRETAIN
 70
       0
  9
$PLINEGEN
 70
       1
  9
$PSLTSCALE
 70
       0
  9
$TREEDEPTH
 70
    3020
  9
$PICKSTYLE
 70
       1
  9
$CMLSTYLE
  2
Standard
  9
$CMLJUST
 70
       0
  9
$CMLSCALE
 40
1.0
  9
$SAVEIMAGES
 70
       0
  0
ENDSEC
  0
SECTION
  2
CLASSES
  0
CLASS
  1
LWPOLYLINE
  2
AcDbPolyline
  3
"AutoCAD"
 90
    32768
280
       0
281
       1
  0
CLASS
  1
IMAGE
  2
AcDbRasterImage
  3
ISM
 90
    32895
280
       0
281
       1
  0
CLASS
  1
OLE2FRAME
  2
AcDbOle2Frame
  3
""
 90
    32768
280
       0
281
       1
  0
CLASS
  1
HATCH
  2
AcDbHatch
  3
"ACAD_SEDONA"
 90
    32768
280
       0
281
       1
  0
CLASS
  1
DICTIONARYVAR
  2
AcDbDictionaryVar
  3
"AutoCAD"
 90
    32768
280
       0
281
       0
  0
CLASS
  1
RASTERVARIABLES
  2
AcDbRasterVariables
  3
ISM
 90
    32768
280
       0
281
       0
  0
CLASS
  1
IMAGEDEF
  2
AcDbRasterImageDef
  3
ISM
 90
    32768
280
       0
281
       0
  0
CLASS
  1
IMAGEDEF_REACTOR
  2
AcDbRasterImageDefReactor
  3
ISM
 90
    32769
280
       0
281
       0
  0
CLASS
  1
IDBUFFER
  2
AcDbIdBuffer
  3
"Acad"
 90
    32768
280
       0
281
       0
  0
CLASS
  1
SPATIAL_FILTER
  2
AcDbSpatialFilter
  3
"Acad"
 90
    32768
280
       0
281
       0
  0
CLASS
  1
XRECORD
  2
AcDbXrecord
  3
"<Built In>"
 90
    32768
280
       0
281
       0
  0
CLASS
  1
SORTENTSTABLE
  2
AcDbSortentsTable
  3
"AutoCAD"
 90
    32768
280
       0
281
       0
  0
CLASS
  1
LAYER_INDEX
  2
AcDbLayerIndex
  3
"Acad"
 90
    32768
280
       0
281
       0
  0
CLASS
  1
SPATIAL_INDEX
  2
AcDbSpatialIndex
  3
"Acad"
 90
    32768
280
       0
281
       0
  0
CLASS
  1
OBJECT_PTR
  2
CAseDLPNTableRecord
  3
"ASE-LPNTableRecord"
 90
    32769
280
       0
281
       0
  0
CLASS
  1
LAYOUT
  2
AcDbLayout
  3
"AutoCAD 2000"
 90
    32768
280
       0
281
       0
  0
CLASS
  1
PLOTSETTINGS
  2
AcDbPlotSettings
  3
"AutoCAD 2000"
 90
    32768
280
       0
281
       0
  0
CLASS
  1
ACDBDICTIONARYWDFLT
  2
AcDbDictionaryWithDefault
  3
"AutoCAD 2000"
 90
    32768
280
       0
281
       0
  0
CLASS
  1
ACDBPLACEHOLDER
  2
AcDbPlaceHolder
  3
"AutoCAD 2000"
 90
    32768
280
       0
281
       0
  0
ENDSEC
  0
SECTION
  2
TABLES
  0
TABLE
  2
VPORT
  5
7
100
AcDbSymbolTable
 70
       1
  0
VPORT
  5
15
100
AcDbSymbolTableRecord
100
AcDbViewportTableRecord
  2
*ACTIVE
 70
       0
 10
0.0
 20
0.0
 11
1.0
 21
1.0
 12
0.0
 22
0.0
 13
0.0
 23
0.0
 14
1.0
 24
1.0
 15
0.0
 25
0.0
 16
0.0
 26
0.0
 36
1.0
 17
0.0
 27
0.0
 37
0.0
 40
212.1
 41
1.73205081
 42
50.0
 43
0.0
 44
0.0
 50
0.0
 51
0.0
 71
       0
 72
     100
 73
       1
 74
       1
 75
       0
 76
       0
 77
       0
 78
       0
  0
ENDTAB
  0
TABLE
  2
LTYPE
  5
4
100
AcDbSymbolTable
 70
       4
  0
LTYPE
  5
11
100
AcDbSymbolTableRecord
100
AcDbLinetypeTableRecord
  2
BYBLOCK
 70
      64
  3

 72
      65
 73
       0
 40
0.0
  0
LTYPE
  5
12
100
AcDbSymbolTableRecord
100
AcDbLinetypeTableRecord
  2
BYLAYER
 70
      64
  3

 72
      65
 73
       0
 40
0.0
  0
LTYPE
  5
13
100
AcDbSymbolTableRecord
100
AcDbLinetypeTableRecord
  2
CONTINUOUS
 70
      64
  3
Solid line
 72
      65
 73
       0
 40
0.0
  0
LTYPE
  5
159
100
AcDbSymbolTableRecord
100
AcDbLinetypeTableRecord
  2
DASHED
 70
      64
  3
Dashed __ __ __ __ __ __ __ __ __ __ __ __ __ _
 72
      65
 73
       2
 40
19.05
 49
12.7
 74
       0
 49
-6.35
 74
       0
  0
ENDTAB
  0
TABLE
  2
LAYER
  5
2
100
AcDbSymbolTable
 70
       2
  0
LAYER
  5
14
100
AcDbSymbolTableRecord
100
AcDbLayerTableRecord
  2
0
 70
       0
 62
       7
  6
CONTINUOUS
  0
LAYER
  5
1D
100
AcDbSymbolTableRecord
100
AcDbLayerTableRecord
  2
DEFPOINTS
 70
       0
 62
       7
  6
CONTINUOUS
  0
ENDTAB
  0
TABLE
  2
STYLE
  5
3
100
AcDbSymbolTable
 70
       1
  0
STYLE
  5
17
100
AcDbSymbolTableRecord
100
AcDbTextStyleTableRecord
  2
MX_NOTE_STANDARD
 70
       0
 40
0.0
 41
1.0
 50
0.0
 71
       0
 42
3.20000005
  3
txt.shx
  4
extfont.shx
  0
ENDTAB
  0
TABLE
  2
VIEW
  5
5
100
AcDbSymbolTable
 70
       0
  0
ENDTAB
  0
TABLE
  2
UCS
  5
6
100
AcDbSymbolTable
 70
       0
  0
ENDTAB
  0
TABLE
  2
APPID
  5
8
100
AcDbSymbolTable
 70
       1
  0
APPID
  5
16
100
AcDbSymbolTableRecord
100
AcDbRegAppTableRecord
  2
ACAD
 70
       0
  0
ENDTAB
  0
TABLE
  2
DIMSTYLE
  5
9
100
AcDbSymbolTable
 70
       1
  0
DIMSTYLE
105
18
100
AcDbSymbolTableRecord
100
AcDbDimStyleTableRecord
  2
MXDIMSTYLE
 70
       0
  3

  4

  5

  6
_OPEN30
  7
_OPEN30
 40
1.0
 41
2.5
 42
1.5
 43
3.75
 44
1.5
 45
0.0
 46
0.0
 47
0.0
 48
0.0
 71
       0
 72
       0
 73
       0
 74
       0
 75
       0
 76
       0
 77
       1
 78
       8
140
3.20000005
141
2.5
142
0.0
143
0.03937008
144
1.0
145
0.0
146
1.0
147
1.0
170
       0
171
       4
172
       1
173
       1
174
       0
175
       0
176
       0
177
       0
178
       0
270
       2
271
       2
272
       2
273
       2
274
       4
275
       0
280
       0
281
       0
282
       0
283
       0
284
       0
285
       0
286
       0
287
       3
288
       1
340
17
  0
ENDTAB
  0
TABLE
  2
BLOCK_RECORD
  5
1
100
AcDbSymbolTable
 70
       1
  0
BLOCK_RECORD
  5
A
100
AcDbSymbolTableRecord
100
AcDbBlockTableRecord
  2
*MODEL_SPACE
  0
BLOCK_RECORD
  5
B
100
AcDbSymbolTableRecord
100
AcDbBlockTableRecord
  2
*PAPER_SPACE
  0
BLOCK_RECORD
  5
1E
100
AcDbSymbolTableRecord
100
AcDbBlockTableRecord
  2
_OPEN30
  0
ENDTAB
  0
ENDSEC
  0
SECTION
  2
BLOCKS
  0
BLOCK
  5
D
100
AcDbEntity
  8
0
100
AcDbBlockBegin
  2
*MODEL_SPACE
 70
       0
 10
0.0
 20
0.0
 30
0.0
  3
*MODEL_SPACE
  1

  0
ENDBLK
  5
E
100
AcDbEntity
  8
0
100
AcDbBlockEnd
  0
BLOCK
  5
F
100
AcDbEntity
 67
       1
  8
0
100
AcDbBlockBegin
  2
*PAPER_SPACE
 70
       0
 10
0.0
 20
0.0
 30
0.0
  3
*PAPER_SPACE
  1

  0
ENDBLK
  5
10
100
AcDbEntity
 67
       1
  8
0
100
AcDbBlockEnd
  0
BLOCK
  5
1F
100
AcDbEntity
  8
0
  6
ByBlock
 62
       0
100
AcDbBlockBegin
  2
_OPEN30
 70
       2
 10
0.0
 20
0.0
 30
0.0
  3
_OPEN30
  1

  0
LINE
  5
20
100
AcDbEntity
  8
0
  6
ByBlock
 62
       0
100
AcDbLine
 10
-1.0
 20
0.267949
 30
0.0
 11
0.0
 21
0.0
 31
0.0
  0
LINE
  5
21
100
AcDbEntity
  8
0
  6
ByBlock
 62
       0
100
AcDbLine
 10
0.0
 20
0.0
 30
0.0
 11
-1.0
 21
-0.267949
 31
0.0
  0
LINE
  5
22
100
AcDbEntity
  8
0
  6
ByBlock
 62
       0
100
AcDbLine
 10
0.0
 20
0.0
 30
0.0
 11
-1.0
 21
0.0
 31
0.0
  0
ENDBLK
  5
23
100
AcDbEntity
  8
0
  6
ByBlock
 62
       0
100
AcDbBlockEnd
  0
ENDSEC
  0
SECTION
  2
ENTITIES
  0
MTEXT
  5
24
100
AcDbEntity
  8
0
  6
CONTINUOUS
 62
       7
100
AcDbMText
 10
-88.78719796
 20
25.89317815
 30
0.0
 40
3.20000005
 41
0.0
 71
       4
 72
       1
  1
\W0.937;\A1;-
  0
MTEXT
  5
25
100
AcDbEntity
  8
0
  6
CONTINUOUS
 62
       7
100
AcDbMText
 10
-88.54162612
 20
31.05018689
 30
0.0
 40
3.20000005
 41
0.0
 71
       4
 72
       1
  1
\W0.937;\A1;+
  0
MTEXT
  5
26
100
AcDbEntity
  8
0
  6
CONTINUOUS
 62
       7
100
AcDbMText
 10
-13.39664164
 20
25.89317815
 30
0.0
 40
3.20000005
 41
0.0
 71
       4
 72
       1
  1
\W0.937;\A1;-
  0
MTEXT
  5
27
100
AcDbEntity
  8
0
  6
CONTINUOUS
 62
       7
100
AcDbMText
 10
-13.1510698
 20
30.80461505
 30
0.0
 40
3.20000005
 41
0.0
 71
       4
 72
       1
  1
\W0.937;\A1;+
  0
LINE
  5
28
100
AcDbEntity
  8
0
  6
CONTINUOUS
 62
       7
100
AcDbLine
 10
-10.64102519
 20
-34.49258945
 30
0.0
 11
-10.64102519
 21
-37.73258945
 31
0.0
  0
LINE
  5
29
100
AcDbEntity
  8
0
  6
CONTINUOUS
 62
       7
100
AcDbLine
 10
-8.14102519
 20
-33.04258945
 30
0.0
 11
-10.64102519
 21
-34.49258945
 31
0.0
  0
LINE
  5
2A
100
AcDbEntity
  8
0
  6
CONTINUOUS
 62
       7
100
AcDbLine
 10
-5.64102519
 20
-34.49258945
 30
0.0
 11
-8.14102519
 21
-33.04258945
 31
0.0
  0
LINE
  5
2B
100
AcDbEntity
  8
0
  6
CONTINUOUS
 62
       7
100
AcDbLine
 10
-5.64102519
 20
-37.73258945
 30
0.0
 11
-5.64102519
 21
-34.49258945
 31
0.0
  0
LINE
  5
2C
100
AcDbEntity
  8
0
  6
CONTINUOUS
 62
       7
100
AcDbLine
 10
-45.13102519
 20
-34.49258945
 30
0.0
 11
-45.13102519
 21
-37.73258945
 31
0.0
  0
LINE
  5
2D
100
AcDbEntity
  8
0
  6
CONTINUOUS
 62
       7
100
AcDbLine
 10
-42.63102519
 20
-33.04258945
 30
0.0
 11
-45.13102519
 21
-34.49258945
 31
0.0
  0
LINE
  5
2E
100
AcDbEntity
  8
0
  6
CONTINUOUS
 62
       7
100
AcDbLine
 10
-40.13102519
 20
-34.49258945
 30
0.0
 11
-42.63102519
 21
-33.04258945
 31
0.0
  0
LINE
  5
2F
100
AcDbEntity
  8
0
  6
CONTINUOUS
 62
       7
100
AcDbLine
 10
-40.13102519
 20
-37.73258945
 30
0.0
 11
-40.13102519
 21
-34.49258945
 31
0.0
  0
LINE
  5
30
100
AcDbEntity
  8
0
  6
CONTINUOUS
 62
       7
100
AcDbLine
 10
-2.94102519
 20
-31.63258945
 30
0.0
 11
-2.94102519
 21
-37.73258945
 31
0.0
  0
LINE
  5
31
100
AcDbEntity
  8
0
  6
CONTINUOUS
 62
       7
100
AcDbLine
 10
-18.22102519
 20
-19.67258945
 30
0.0
 11
-15.81102519
 21
-25.93258945
 31
0.0
  0
LINE
  5
32
100
AcDbEntity
  8
0
  6
CONTINUOUS
 62
       7
100
AcDbLine
 10
-20.32102519
 20
-21.53258945
 30
0.0
 11
-17.85102519
 21
-21.53258945
 31
0.0
  0
LINE
  5
33
100
AcDbEntity
  8
0
  6
CONTINUOUS
 62
       7
100
AcDbLine
 10
-21.65102519
 20
-25.43258945
 30
0.0
 11
-20.81102519
 21
-21.91258945
 31
0.0
  0
LINE
  5
34
100
AcDbEntity
  8
0
  6
CONTINUOUS
 62
       7
100
AcDbLine
 10
-38.89102519
 20
-25.93258945
 30
0.0
 11
-11.87102519
 21
-25.93258945
 31
0.0
  0
LINE
  5
35
100
AcDbEntity
  8
0
  6
CONTINUOUS
 62
       7
100
AcDbLine
 10
-40.63102519
 20
-21.91258945
 30
0.0
 11
-39.86102519
 21
-25.16258945
 31
0.0
  0
LINE
  5
36
100
AcDbEntity
  8
0
  6
CONTINUOUS
 62
       7
100
AcDbLine
 10
-43.60102519
 20
-21.53258945
 30
0.0
 11
-41.12102519
 21
-21.53258945
 31
0.0
  0
LINE
  5
37
100
AcDbEntity
  8
0
  6
CONTINUOUS
 62
       7
100
AcDbLine
 10
-47.83102519
 20
-31.63258945
 30
0.0
 11
-43.23102519
 21
-19.67258945
 31
0.0
  0
LINE
  5
38
100
AcDbEntity
  8
0
  6
CONTINUOUS
 62
       7
100
AcDbLine
 10
-47.83102519
 20
-37.73258945
 30
0.0
 11
-47.83102519
 21
-31.63258945
 31
0.0
  0
LINE
  5
39
100
AcDbEntity
  8
0
  6
CONTINUOUS
 62
       7
100
AcDbLine
 10
-94.02102519
 20
-34.49258945
 30
0.0
 11
-94.02102519
 21
-37.73258945
 31
0.0
  0
LINE
  5
3A
100
AcDbEntity
  8
0
  6
CONTINUOUS
 62
       7
100
AcDbLine
 10
-91.52102519
 20
-33.04258945
 30
0.0
 11
-94.02102519
 21
-34.49258945
 31
0.0
  0
LINE
  5
3B
100
AcDbEntity
  8
0
  6
CONTINUOUS
 62
       7
100
AcDbLine
 10
-89.02102519
 20
-34.49258945
 30
0.0
 11
-91.52102519
 21
-33.04258945
 31
0.0
  0
LINE
  5
3C
100
AcDbEntity
  8
0
  6
CONTINUOUS
 62
       7
100
AcDbLine
 10
-89.02102519
 20
-37.73258945
 30
0.0
 11
-89.02102519
 21
-34.49258945
 31
0.0
  0
LINE
  5
3D
100
AcDbEntity
  8
0
  6
CONTINUOUS
 62
       7
100
AcDbLine
 10
-59.52102519
 20
-34.49258945
 30
0.0
 11
-59.52102519
 21
-37.73258945
 31
0.0
  0
LINE
  5
3E
100
AcDbEntity
  8
0
  6
CONTINUOUS
 62
       7
100
AcDbLine
 10
-57.02102519
 20
-33.04258945
 30
0.0
 11
-59.52102519
 21
-34.49258945
 31
0.0
  0
LINE
  5
3F
100
AcDbEntity
  8
0
  6
CONTINUOUS
 62
       7
100
AcDbLine
 10
-54.52102519
 20
-34.49258945
 30
0.0
 11
-57.02102519
 21
-33.04258945
 31
0.0
  0
LINE
  5
40
100
AcDbEntity
  8
0
  6
CONTINUOUS
 62
       7
100
AcDbLine
 10
-54.52102519
 20
-37.73258945
 30
0.0
 11
-54.52102519
 21
-34.49258945
 31
0.0
  0
LINE
  5
41
100
AcDbEntity
  8
0
  6
CONTINUOUS
 62
       7
100
AcDbLine
 10
-51.82102519
 20
-31.63258945
 30
0.0
 11
-51.82102519
 21
-37.73258945
 31
0.0
  0
LINE
  5
42
100
AcDbEntity
  8
0
  6
CONTINUOUS
 62
       7
100
AcDbLine
 10
-56.42102519
 20
-19.67258945
 30
0.0
 11
-51.82102519
 21
-31.63258945
 31
0.0
  0
LINE
  5
43
100
AcDbEntity
  8
0
  6
CONTINUOUS
 62
       7
100
AcDbLine
 10
-58.53102519
 20
-21.53258945
 30
0.0
 11
-56.05102519
 21
-21.53258945
 31
0.0
  0
LINE
  5
44
100
AcDbEntity
  8
0
  6
CONTINUOUS
 62
       7
100
AcDbLine
 10
-59.79102519
 20
-25.16258945
 30
0.0
 11
-59.01102519
 21
-21.91258945
 31
0.0
  0
LINE
  5
45
100
AcDbEntity
  8
0
  6
CONTINUOUS
 62
       7
100
AcDbLine
 10
-87.78102519
 20
-25.93258945
 30
0.0
 11
-60.76102519
 21
-25.93258945
 31
0.0
  0
LINE
  5
46
100
AcDbEntity
  8
0
  6
CONTINUOUS
 62
       7
100
AcDbLine
 10
-76.72102519
 20
-21.91258945
 30
0.0
 11
-75.89102519
 21
-25.43258945
 31
0.0
  0
LINE
  5
47
100
AcDbEntity
  8
0
  6
CONTINUOUS
 62
       7
100
AcDbLine
 10
-79.69102519
 20
-21.53258945
 30
0.0
 11
-77.21102519
 21
-21.53258945
 31
0.0
  0
LINE
  5
48
100
AcDbEntity
  8
0
  6
CONTINUOUS
 62
       7
100
AcDbLine
 10
-81.53102519
 20
-25.43258945
 30
0.0
 11
-79.32102519
 21
-19.67258945
 31
0.0
  0
LINE
  5
49
100
AcDbEntity
  8
0
  6
CONTINUOUS
 62
       7
100
AcDbLine
 10
-96.72102519
 20
-37.73258945
 30
0.0
 11
-96.72102519
 21
-31.63258945
 31
0.0
  0
LINE
  5
4A
100
AcDbEntity
  8
0
  6
CONTINUOUS
 62
       7
100
AcDbLine
 10
-2.02102519
 20
-37.73258945
 30
0.0
 11
-2.02102519
 21
-53.03258945
 31
0.0
  0
LINE
  5
4B
100
AcDbEntity
  8
0
  6
CONTINUOUS
 62
       7
100
AcDbLine
 10
0.97897481
 20
-37.73258945
 30
0.0
 11
-2.02102519
 21
-37.73258945
 31
0.0
  0
LINE
  5
4C
100
AcDbEntity
  8
0
  6
CONTINUOUS
 62
       7
100
AcDbLine
 10
1.97897481
 20
-55.13258945
 30
0.0
 11
1.97897481
 21
-38.73258945
 31
0.0
  0
LINE
  5
4D
100
AcDbEntity
  8
0
  6
CONTINUOUS
 62
       7
100
AcDbLine
 10
12.47897481
 20
-56.13258945
 30
0.0
 11
2.97897481
 21
-56.13258945
 31
0.0
  0
LINE
  5
4E
100
AcDbEntity
  8
0
  6
CONTINUOUS
 62
       7
100
AcDbLine
 10
12.47897481
 20
-60.63258945
 30
0.0
 11
12.47897481
 21
-56.13258945
 31
0.0
  0
LINE
  5
4F
100
AcDbEntity
  8
0
  6
CONTINUOUS
 62
       7
100
AcDbLine
 10
-6.02102519
 20
-60.63258945
 30
0.0
 11
12.47897481
 21
-60.63258945
 31
0.0
  0
LINE
  5
50
100
AcDbEntity
  8
0
  6
CONTINUOUS
 62
       7
100
AcDbLine
 10
-6.02102519
 20
-53.03258945
 30
0.0
 11
-6.02102519
 21
-60.63258945
 31
0.0
  0
LINE
  5
51
100
AcDbEntity
  8
0
  6
CONTINUOUS
 62
       7
100
AcDbLine
 10
-2.02102519
 20
-53.03258945
 30
0.0
 11
-6.02102519
 21
-53.03258945
 31
0.0
  0
LINE
  5
52
100
AcDbEntity
  8
0
  6
CONTINUOUS
 62
       7
100
AcDbLine
 10
-97.01102519
 20
-37.73258945
 30
0.0
 11
-97.01102519
 21
-53.03258945
 31
0.0
  0
LINE
  5
53
100
AcDbEntity
  8
0
  6
CONTINUOUS
 62
       7
100
AcDbLine
 10
-100.01102519
 20
-37.73258945
 30
0.0
 11
-97.01102519
 21
-37.73258945
 31
0.0
  0
LINE
  5
54
100
AcDbEntity
  8
0
  6
CONTINUOUS
 62
       7
100
AcDbLine
 10
-101.01102519
 20
-55.13258945
 30
0.0
 11
-101.01102519
 21
-38.73258945
 31
0.0
  0
LINE
  5
55
100
AcDbEntity
  8
0
  6
CONTINUOUS
 62
       7
100
AcDbLine
 10
-111.51102519
 20
-56.13258945
 30
0.0
 11
-102.01102519
 21
-56.13258945
 31
0.0
  0
LINE
  5
56
100
AcDbEntity
  8
0
  6
CONTINUOUS
 62
       7
100
AcDbLine
 10
-111.51102519
 20
-60.63258945
 30
0.0
 11
-111.51102519
 21
-56.13258945
 31
0.0
  0
LINE
  5
57
100
AcDbEntity
  8
0
  6
CONTINUOUS
 62
       7
100
AcDbLine
 10
-93.01102519
 20
-60.63258945
 30
0.0
 11
-111.51102519
 21
-60.63258945
 31
0.0
  0
LINE
  5
58
100
AcDbEntity
  8
0
  6
CONTINUOUS
 62
       7
100
AcDbLine
 10
-93.01102519
 20
-53.03258945
 30
0.0
 11
-93.01102519
 21
-60.63258945
 31
0.0
  0
LINE
  5
59
100
AcDbEntity
  8
0
  6
CONTINUOUS
 62
       7
100
AcDbLine
 10
-97.01102519
 20
-53.03258945
 30
0.0
 11
-93.01102519
 21
-53.03258945
 31
0.0
  0
LINE
  5
5A
100
AcDbEntity
  8
0
  6
CONTINUOUS
 62
       7
100
AcDbLine
 10
-110.10102519
 20
-57.33258945
 30
0.0
 11
-102.01102519
 21
-57.33258945
 31
0.0
  0
LINE
  5
5B
100
AcDbEntity
  8
0
  6
CONTINUOUS
 62
       7
100
AcDbLine
 10
-82.69102519
 20
-25.43258945
 30
0.0
 11
-82.86102519
 21
-25.93258945
 31
0.0
  0
LINE
  5
5C
100
AcDbEntity
  8
0
  6
CONTINUOUS
 62
       7
100
AcDbLine
 10
-74.47102519
 20
-25.43258945
 30
0.0
 11
-82.69102519
 21
-25.43258945
 31
0.0
  0
LINE
  5
5D
100
AcDbEntity
  8
0
  6
CONTINUOUS
 62
       7
100
AcDbLine
 10
-73.87102519
 20
-25.93258945
 30
0.0
 11
-74.47102519
 21
-25.43258945
 31
0.0
  0
LINE
  5
5E
100
AcDbEntity
  8
0
  6
CONTINUOUS
 62
       7
100
AcDbLine
 10
-16.96102519
 20
-25.43258945
 30
0.0
 11
-16.78102519
 21
-25.93258945
 31
0.0
  0
LINE
  5
5F
100
AcDbEntity
  8
0
  6
CONTINUOUS
 62
       7
100
AcDbLine
 10
-25.18102519
 20
-25.43258945
 30
0.0
 11
-16.96102519
 21
-25.43258945
 31
0.0
  0
LINE
  5
60
100
AcDbEntity
  8
0
  6
CONTINUOUS
 62
       7
100
AcDbLine
 10
-25.77102519
 20
-25.93258945
 30
0.0
 11
-25.18102519
 21
-25.43258945
 31
0.0
  0
LINE
  5
61
100
AcDbEntity
  8
0
  6
CONTINUOUS
 62
       7
100
AcDbLine
 10
-60.87102519
 20
-36.53258945
 30
0.0
 11
-60.87102519
 21
-34.53258945
 31
0.0
  0
LINE
  5
62
100
AcDbEntity
  8
0
  6
CONTINUOUS
 62
       7
100
AcDbLine
 10
-87.17102519
 20
-37.03258945
 30
0.0
 11
-61.37102519
 21
-37.03258945
 31
0.0
  0
LINE
  5
63
100
AcDbEntity
  8
0
  6
CONTINUOUS
 62
       7
100
AcDbLine
 10
-87.67102519
 20
-34.53258945
 30
0.0
 11
-87.67102519
 21
-36.53258945
 31
0.0
  0
LINE
  5
64
100
AcDbEntity
  8
0
  6
CONTINUOUS
 62
       7
100
AcDbLine
 10
-61.37102519
 20
-34.03258945
 30
0.0
 11
-87.17102519
 21
-34.03258945
 31
0.0
  0
LINE
  5
65
100
AcDbEntity
  8
0
  6
CONTINUOUS
 62
       7
100
AcDbLine
 10
-75.22102519
 20
-26.43258945
 30
0.0
 11
-75.22102519
 21
-31.73258945
 31
0.0
  0
LINE
  5
66
100
AcDbEntity
  8
0
  6
CONTINUOUS
 62
       7
100
AcDbLine
 10
-75.38102519
 20
-25.93258945
 30
0.0
 11
-75.22102519
 21
-26.43258945
 31
0.0
  0
LINE
  5
67
100
AcDbEntity
  8
0
  6
CONTINUOUS
 62
       7
100
AcDbLine
 10
-75.86102519
 20
-26.43258945
 30
0.0
 11
-75.70102519
 21
-25.93258945
 31
0.0
  0
LINE
  5
68
100
AcDbEntity
  8
0
  6
CONTINUOUS
 62
       7
100
AcDbLine
 10
-75.86102519
 20
-31.73258945
 30
0.0
 11
-75.86102519
 21
-26.43258945
 31
0.0
  0
LINE
  5
69
100
AcDbEntity
  8
0
  6
CONTINUOUS
 62
       7
100
AcDbLine
 10
-72.27102519
 20
-32.43258945
 30
0.0
 11
-72.27102519
 21
-25.93258945
 31
0.0
  0
LINE
  5
6A
100
AcDbEntity
  8
0
  6
CONTINUOUS
 62
       7
100
AcDbLine
 10
-75.77102519
 20
-32.93258945
 30
0.0
 11
-72.77102519
 21
-32.93258945
 31
0.0
  0
LINE
  5
6B
100
AcDbEntity
  8
0
  6
CONTINUOUS
 62
       7
100
AcDbLine
 10
-76.27102519
 20
-25.93258945
 30
0.0
 11
-76.27102519
 21
-32.43258945
 31
0.0
  0
LINE
  5
6C
100
AcDbEntity
  8
0
  6
CONTINUOUS
 62
       7
100
AcDbLine
 10
-72.68102519
 20
-26.43258945
 30
0.0
 11
-72.68102519
 21
-31.73258945
 31
0.0
  0
LINE
  5
6D
100
AcDbEntity
  8
0
  6
CONTINUOUS
 62
       7
100
AcDbLine
 10
-72.84102519
 20
-25.93258945
 30
0.0
 11
-72.68102519
 21
-26.43258945
 31
0.0
  0
LINE
  5
6E
100
AcDbEntity
  8
0
  6
CONTINUOUS
 62
       7
100
AcDbLine
 10
-73.32102519
 20
-26.43258945
 30
0.0
 11
-73.16102519
 21
-25.93258945
 31
0.0
  0
LINE
  5
6F
100
AcDbEntity
  8
0
  6
CONTINUOUS
 62
       7
100
AcDbLine
 10
-73.32102519
 20
-31.73258945
 30
0.0
 11
-73.32102519
 21
-26.43258945
 31
0.0
  0
LINE
  5
70
100
AcDbEntity
  8
0
  6
CONTINUOUS
 62
       7
100
AcDbLine
 10
-85.70102519
 20
-28.93258945
 30
0.0
 11
-84.20102519
 21
-25.93258945
 31
0.0
  0
LINE
  5
71
100
AcDbEntity
  8
0
  6
CONTINUOUS
 62
       7
100
AcDbLine
 10
-87.20102519
 20
-25.93258945
 30
0.0
 11
-85.70102519
 21
-28.93258945
 31
0.0
  0
LINE
  5
72
100
AcDbEntity
  8
0
  6
CONTINUOUS
 62
       7
100
AcDbLine
 10
-75.89102519
 20
-15.49258945
 30
0.0
 11
-76.82102519
 21
-15.34258945
 31
0.0
  0
LINE
  5
73
100
AcDbEntity
  8
0
  6
CONTINUOUS
 62
       7
100
AcDbLine
 10
-75.22102519
 20
-17.11258945
 30
0.0
 11
-75.22102519
 21
-16.28258945
 31
0.0
  0
LINE
  5
74
100
AcDbEntity
  8
0
  6
CONTINUOUS
 62
       7
100
AcDbLine
 10
-75.84102519
 20
-17.26258945
 30
0.0
 11
-75.44102519
 21
-17.31258945
 31
0.0
  0
LINE
  5
75
100
AcDbEntity
  8
0
  6
CONTINUOUS
 62
       7
100
AcDbLine
 10
-76.02102519
 20
-16.84258945
 30
0.0
 11
-76.02102519
 21
-17.06258945
 31
0.0
  0
LINE
  5
76
100
AcDbEntity
  8
0
  6
CONTINUOUS
 62
       7
100
AcDbLine
 10
-76.72102519
 20
-16.74258945
 30
0.0
 11
-76.12102519
 21
-16.74258945
 31
0.0
  0
LINE
  5
77
100
AcDbEntity
  8
0
  6
CONTINUOUS
 62
       7
100
AcDbLine
 10
-76.82102519
 20
-21.72258945
 30
0.0
 11
-76.82102519
 21
-16.84258945
 31
0.0
  0
LINE
  5
78
100
AcDbEntity
  8
0
  6
CONTINUOUS
 62
       7
100
AcDbLine
 10
-59.85102519
 20
-15.49258945
 30
0.0
 11
-58.92102519
 21
-15.34258945
 31
0.0
  0
LINE
  5
79
100
AcDbEntity
  8
0
  6
CONTINUOUS
 62
       7
100
AcDbLine
 10
-60.52102519
 20
-17.11258945
 30
0.0
 11
-60.52102519
 21
-16.28258945
 31
0.0
  0
LINE
  5
7A
100
AcDbEntity
  8
0
  6
CONTINUOUS
 62
       7
100
AcDbLine
 10
-59.90102519
 20
-17.26258945
 30
0.0
 11
-60.30102519
 21
-17.31258945
 31
0.0
  0
LINE
  5
7B
100
AcDbEntity
  8
0
  6
CONTINUOUS
 62
       7
100
AcDbLine
 10
-59.72102519
 20
-16.84258945
 30
0.0
 11
-59.72102519
 21
-17.06258945
 31
0.0
  0
LINE
  5
7C
100
AcDbEntity
  8
0
  6
CONTINUOUS
 62
       7
100
AcDbLine
 10
-59.02102519
 20
-16.74258945
 30
0.0
 11
-59.62102519
 21
-16.74258945
 31
0.0
  0
LINE
  5
7D
100
AcDbEntity
  8
0
  6
CONTINUOUS
 62
       7
100
AcDbLine
 10
-58.92102519
 20
-21.72258945
 30
0.0
 11
-58.92102519
 21
-16.84258945
 31
0.0
  0
LINE
  5
7E
100
AcDbEntity
  8
0
  6
CONTINUOUS
 62
       7
100
AcDbLine
 10
-21.64102519
 20
-15.49258945
 30
0.0
 11
-20.72102519
 21
-15.34258945
 31
0.0
  0
LINE
  5
7F
100
AcDbEntity
  8
0
  6
CONTINUOUS
 62
       7
100
AcDbLine
 10
-22.32102519
 20
-17.11258945
 30
0.0
 11
-22.32102519
 21
-16.28258945
 31
0.0
  0
LINE
  5
80
100
AcDbEntity
  8
0
  6
CONTINUOUS
 62
       7
100
AcDbLine
 10
-21.69102519
 20
-17.26258945
 30
0.0
 11
-22.09102519
 21
-17.31258945
 31
0.0
  0
LINE
  5
81
100
AcDbEntity
  8
0
  6
CONTINUOUS
 62
       7
100
AcDbLine
 10
-21.52102519
 20
-16.84258945
 30
0.0
 11
-21.52102519
 21
-17.06258945
 31
0.0
  0
LINE
  5
82
100
AcDbEntity
  8
0
  6
CONTINUOUS
 62
       7
100
AcDbLine
 10
-20.82102519
 20
-16.74258945
 30
0.0
 11
-21.42102519
 21
-16.74258945
 31
0.0
  0
LINE
  5
83
100
AcDbEntity
  8
0
  6
CONTINUOUS
 62
       7
100
AcDbLine
 10
-20.72102519
 20
-21.72258945
 30
0.0
 11
-20.72102519
 21
-16.84258945
 31
0.0
  0
LINE
  5
84
100
AcDbEntity
  8
0
  6
CONTINUOUS
 62
       7
100
AcDbLine
 10
-39.80102519
 20
-15.49258945
 30
0.0
 11
-40.73102519
 21
-15.34258945
 31
0.0
  0
LINE
  5
85
100
AcDbEntity
  8
0
  6
CONTINUOUS
 62
       7
100
AcDbLine
 10
-39.13102519
 20
-17.11258945
 30
0.0
 11
-39.13102519
 21
-16.28258945
 31
0.0
  0
LINE
  5
86
100
AcDbEntity
  8
0
  6
CONTINUOUS
 62
       7
100
AcDbLine
 10
-39.75102519
 20
-17.26258945
 30
0.0
 11
-39.35102519
 21
-17.31258945
 31
0.0
  0
LINE
  5
87
100
AcDbEntity
  8
0
  6
CONTINUOUS
 62
       7
100
AcDbLine
 10
-39.93102519
 20
-16.84258945
 30
0.0
 11
-39.93102519
 21
-17.06258945
 31
0.0
  0
LINE
  5
88
100
AcDbEntity
  8
0
  6
CONTINUOUS
 62
       7
100
AcDbLine
 10
-40.63102519
 20
-16.74258945
 30
0.0
 11
-40.03102519
 21
-16.74258945
 31
0.0
  0
LINE
  5
89
100
AcDbEntity
  8
0
  6
CONTINUOUS
 62
       7
100
AcDbLine
 10
-40.73102519
 20
-21.72258945
 30
0.0
 11
-40.73102519
 21
-16.84258945
 31
0.0
  0
LINE
  5
8A
100
AcDbEntity
  8
0
  6
CONTINUOUS
 62
       7
100
AcDbLine
 10
-36.81102519
 20
-28.93258945
 30
0.0
 11
-35.31102519
 21
-25.93258945
 31
0.0
  0
LINE
  5
8B
100
AcDbEntity
  8
0
  6
CONTINUOUS
 62
       7
100
AcDbLine
 10
-38.31102519
 20
-25.93258945
 30
0.0
 11
-36.81102519
 21
-28.93258945
 31
0.0
  0
LINE
  5
8C
100
AcDbEntity
  8
0
  6
CONTINUOUS
 62
       7
100
AcDbLine
 10
-23.79102519
 20
-26.43258945
 30
0.0
 11
-23.79102519
 21
-31.73258945
 31
0.0
  0
LINE
  5
8D
100
AcDbEntity
  8
0
  6
CONTINUOUS
 62
       7
100
AcDbLine
 10
-23.95102519
 20
-25.93258945
 30
0.0
 11
-23.79102519
 21
-26.43258945
 31
0.0
  0
LINE
  5
8E
100
AcDbEntity
  8
0
  6
CONTINUOUS
 62
       7
100
AcDbLine
 10
-24.43102519
 20
-26.43258945
 30
0.0
 11
-24.27102519
 21
-25.93258945
 31
0.0
  0
LINE
  5
8F
100
AcDbEntity
  8
0
  6
CONTINUOUS
 62
       7
100
AcDbLine
 10
-24.43102519
 20
-31.73258945
 30
0.0
 11
-24.43102519
 21
-26.43258945
 31
0.0
  0
LINE
  5
90
100
AcDbEntity
  8
0
  6
CONTINUOUS
 62
       7
100
AcDbLine
 10
-23.38102519
 20
-32.43258945
 30
0.0
 11
-23.38102519
 21
-25.93258945
 31
0.0
  0
LINE
  5
91
100
AcDbEntity
  8
0
  6
CONTINUOUS
 62
       7
100
AcDbLine
 10
-26.88102519
 20
-32.93258945
 30
0.0
 11
-23.88102519
 21
-32.93258945
 31
0.0
  0
LINE
  5
92
100
AcDbEntity
  8
0
  6
CONTINUOUS
 62
       7
100
AcDbLine
 10
-27.38102519
 20
-25.93258945
 30
0.0
 11
-27.38102519
 21
-32.43258945
 31
0.0
  0
LINE
  5
93
100
AcDbEntity
  8
0
  6
CONTINUOUS
 62
       7
100
AcDbLine
 10
-26.33102519
 20
-26.43258945
 30
0.0
 11
-26.33102519
 21
-31.73258945
 31
0.0
  0
LINE
  5
94
100
AcDbEntity
  8
0
  6
CONTINUOUS
 62
       7
100
AcDbLine
 10
-26.49102519
 20
-25.93258945
 30
0.0
 11
-26.33102519
 21
-26.43258945
 31
0.0
  0
LINE
  5
95
100
AcDbEntity
  8
0
  6
CONTINUOUS
 62
       7
100
AcDbLine
 10
-26.97102519
 20
-26.43258945
 30
0.0
 11
-26.81102519
 21
-25.93258945
 31
0.0
  0
LINE
  5
96
100
AcDbEntity
  8
0
  6
CONTINUOUS
 62
       7
100
AcDbLine
 10
-26.97102519
 20
-31.73258945
 30
0.0
 11
-26.97102519
 21
-26.43258945
 31
0.0
  0
LINE
  5
97
100
AcDbEntity
  8
0
  6
CONTINUOUS
 62
       7
100
AcDbLine
 10
-11.98102519
 20
-36.53258945
 30
0.0
 11
-11.98102519
 21
-34.53258945
 31
0.0
  0
LINE
  5
98
100
AcDbEntity
  8
0
  6
CONTINUOUS
 62
       7
100
AcDbLine
 10
-38.28102519
 20
-37.03258945
 30
0.0
 11
-12.48102519
 21
-37.03258945
 31
0.0
  0
LINE
  5
99
100
AcDbEntity
  8
0
  6
CONTINUOUS
 62
       7
100
AcDbLine
 10
-38.78102519
 20
-34.53258945
 30
0.0
 11
-38.78102519
 21
-36.53258945
 31
0.0
  0
LINE
  5
9A
100
AcDbEntity
  8
0
  6
CONTINUOUS
 62
       7
100
AcDbLine
 10
-12.48102519
 20
-34.03258945
 30
0.0
 11
-38.28102519
 21
-34.03258945
 31
0.0
  0
LINE
  5
9B
100
AcDbEntity
  8
0
  6
CONTINUOUS
 62
       7
100
AcDbLine
 10
-101.01102519
 20
-44.58258945
 30
0.0
 11
-97.01102519
 21
-44.58258945
 31
0.0
  0
LINE
  5
9C
100
AcDbEntity
  8
0
  6
CONTINUOUS
 62
       7
100
AcDbLine
 10
-2.02102519
 20
-44.58258945
 30
0.0
 11
1.97897481
 21
-44.58258945
 31
0.0
  0
LINE
  5
9D
100
AcDbEntity
  8
0
  6
CONTINUOUS
 62
       7
100
AcDbLine
 10
-27.38102519
 20
-31.73258945
 30
0.0
 11
-23.38102519
 21
-31.73258945
 31
0.0
  0
LINE
  5
9E
100
AcDbEntity
  8
0
  6
CONTINUOUS
 62
       7
100
AcDbLine
 10
-76.27102519
 20
-31.73258945
 30
0.0
 11
-72.27102519
 21
-31.73258945
 31
0.0
  0
LINE
  5
9F
100
AcDbEntity
  8
0
  6
CONTINUOUS
 62
       7
100
AcDbLine
 10
-108.56102519
 20
-60.63258945
 30
0.0
 11
-108.56102519
 21
-56.13258945
 31
0.0
  0
LINE
  5
A0
100
AcDbEntity
  8
0
  6
CONTINUOUS
 62
       7
100
AcDbLine
 10
-103.46102519
 20
-60.63258945
 30
0.0
 11
-103.46102519
 21
-56.13258945
 31
0.0
  0
LINE
  5
A1
100
AcDbEntity
  8
0
  6
CONTINUOUS
 62
       7
100
AcDbLine
 10
-101.01102519
 20
-55.13258945
 30
0.0
 11
-101.01102519
 21
-60.63258945
 31
0.0
  0
LINE
  5
A2
100
AcDbEntity
  8
0
  6
CONTINUOUS
 62
       7
100
AcDbLine
 10
-101.01102519
 20
-55.13258945
 30
0.0
 11
-93.01102519
 21
-55.13258945
 31
0.0
  0
LINE
  5
A3
100
AcDbEntity
  8
0
  6
CONTINUOUS
 62
       7
100
AcDbLine
 10
1.97897481
 20
-55.13258945
 30
0.0
 11
-6.02102519
 21
-55.13258945
 31
0.0
  0
LINE
  5
A4
100
AcDbEntity
  8
0
  6
CONTINUOUS
 62
       7
100
AcDbLine
 10
1.97897481
 20
-55.13258945
 30
0.0
 11
1.97897481
 21
-60.63258945
 31
0.0
  0
LINE
  5
A5
100
AcDbEntity
  8
0
  6
CONTINUOUS
 62
       7
100
AcDbLine
 10
4.42897481
 20
-60.63258945
 30
0.0
 11
4.42897481
 21
-56.13258945
 31
0.0
  0
LINE
  5
A6
100
AcDbEntity
  8
0
  6
CONTINUOUS
 62
       7
100
AcDbLine
 10
9.52897481
 20
-60.63258945
 30
0.0
 11
9.52897481
 21
-56.13258945
 31
0.0
  0
LINE
  5
A7
100
AcDbEntity
  8
0
  6
CONTINUOUS
 62
       2
100
AcDbLine
 10
6.97897481
 20
-55.13258945
 30
0.0
 11
6.97897481
 21
-61.63258945
 31
0.0
  0
LINE
  5
A8
100
AcDbEntity
  8
0
  6
CONTINUOUS
 62
       2
100
AcDbLine
 10
-106.01102519
 20
-55.13258945
 30
0.0
 11
-106.01102519
 21
-61.63258945
 31
0.0
  0
LINE
  5
A9
100
AcDbEntity
  8
0
  6
CONTINUOUS
 62
       7
100
AcDbLine
 10
-97.01102519
 20
-44.53258945
 30
0.0
 11
-2.02102519
 21
-44.53258945
 31
0.0
  0
LINE
  5
AA
100
AcDbEntity
  8
0
  6
CONTINUOUS
 62
       7
100
AcDbLine
 10
-97.01102519
 20
-52.93258945
 30
0.0
 11
-2.02102519
 21
-52.93258945
 31
0.0
  0
LINE
  5
AB
100
AcDbEntity
  8
0
  6
CONTINUOUS
 62
       7
100
AcDbLine
 10
-97.01102519
 20
-37.73258945
 30
0.0
 11
-2.02102519
 21
-37.73258945
 31
0.0
  0
LINE
  5
AC
100
AcDbEntity
  8
0
  6
CONTINUOUS
 62
       7
100
AcDbLine
 10
-89.53102519
 20
-21.91258945
 30
0.0
 11
-88.75102519
 21
-25.16258945
 31
0.0
  0
LINE
  5
AD
100
AcDbEntity
  8
0
  6
CONTINUOUS
 62
       7
100
AcDbLine
 10
-92.49102519
 20
-21.53258945
 30
0.0
 11
-90.02102519
 21
-21.53258945
 31
0.0
  0
LINE
  5
AE
100
AcDbEntity
  8
0
  6
CONTINUOUS
 62
       7
100
AcDbLine
 10
-96.72102519
 20
-31.63258945
 30
0.0
 11
-92.12102519
 21
-19.67258945
 31
0.0
  0
LINE
  5
AF
100
AcDbEntity
  8
0
  6
CONTINUOUS
 62
       7
100
AcDbLine
 10
-88.69102519
 20
-15.49258945
 30
0.0
 11
-89.62102519
 21
-15.34258945
 31
0.0
  0
LINE
  5
B0
100
AcDbEntity
  8
0
  6
CONTINUOUS
 62
       7
100
AcDbLine
 10
-88.02102519
 20
-17.11258945
 30
0.0
 11
-88.02102519
 21
-16.28258945
 31
0.0
  0
LINE
  5
B1
100
AcDbEntity
  8
0
  6
CONTINUOUS
 62
       7
100
AcDbLine
 10
-88.65102519
 20
-17.26258945
 30
0.0
 11
-88.25102519
 21
-17.31258945
 31
0.0
  0
LINE
  5
B2
100
AcDbEntity
  8
0
  6
CONTINUOUS
 62
       7
100
AcDbLine
 10
-88.82102519
 20
-16.84258945
 30
0.0
 11
-88.82102519
 21
-17.06258945
 31
0.0
  0
LINE
  5
B3
100
AcDbEntity
  8
0
  6
CONTINUOUS
 62
       7
100
AcDbLine
 10
-89.52102519
 20
-16.74258945
 30
0.0
 11
-88.92102519
 21
-16.74258945
 31
0.0
  0
LINE
  5
B4
100
AcDbEntity
  8
0
  6
CONTINUOUS
 62
       7
100
AcDbLine
 10
-89.62102519
 20
-21.72258945
 30
0.0
 11
-89.62102519
 21
-16.84258945
 31
0.0
  0
LINE
  5
B5
100
AcDbEntity
  8
0
  6
CONTINUOUS
 62
       7
100
AcDbLine
 10
-7.54102519
 20
-19.67258945
 30
0.0
 11
-2.94102519
 21
-31.63258945
 31
0.0
  0
LINE
  5
B6
100
AcDbEntity
  8
0
  6
CONTINUOUS
 62
       7
100
AcDbLine
 10
-9.64102519
 20
-21.53258945
 30
0.0
 11
-7.16102519
 21
-21.53258945
 31
0.0
  0
LINE
  5
B7
100
AcDbEntity
  8
0
  6
CONTINUOUS
 62
       7
100
AcDbLine
 10
-10.89102519
 20
-25.16258945
 30
0.0
 11
-10.13102519
 21
-21.91258945
 31
0.0
  0
LINE
  5
B8
100
AcDbEntity
  8
0
  6
CONTINUOUS
 62
       7
100
AcDbLine
 10
-10.95102519
 20
-15.49258945
 30
0.0
 11
-10.04102519
 21
-15.34258945
 31
0.0
  0
LINE
  5
B9
100
AcDbEntity
  8
0
  6
CONTINUOUS
 62
       7
100
AcDbLine
 10
-11.63102519
 20
-17.11258945
 30
0.0
 11
-11.63102519
 21
-16.28258945
 31
0.0
  0
LINE
  5
BA
100
AcDbEntity
  8
0
  6
CONTINUOUS
 62
       7
100
AcDbLine
 10
-11.00102519
 20
-17.26258945
 30
0.0
 11
-11.40102519
 21
-17.31258945
 31
0.0
  0
LINE
  5
BB
100
AcDbEntity
  8
0
  6
CONTINUOUS
 62
       7
100
AcDbLine
 10
-10.83102519
 20
-16.84258945
 30
0.0
 11
-10.83102519
 21
-17.06258945
 31
0.0
  0
LINE
  5
BC
100
AcDbEntity
  8
0
  6
CONTINUOUS
 62
       7
100
AcDbLine
 10
-10.14102519
 20
-16.74258945
 30
0.0
 11
-10.74102519
 21
-16.74258945
 31
0.0
  0
LINE
  5
BD
100
AcDbEntity
  8
0
  6
CONTINUOUS
 62
       7
100
AcDbLine
 10
-10.04102519
 20
-21.72258945
 30
0.0
 11
-10.04102519
 21
-16.84258945
 31
0.0
  0
ARC
  5
BE
100
AcDbEntity
  8
0
  6
CONTINUOUS
 62
       7
100
AcDbCircle
 10
-17.85092511
 20
-22.03759872
 30
0.0
 40
0.50500928
100
AcDbArc
 50
21.49058025
 51
90.01135374
  0
ARC
  5
BF
100
AcDbEntity
  8
0
  6
CONTINUOUS
 62
       7
100
AcDbCircle
 10
-20.3237539
 20
-22.0349919
 30
0.0
 40
0.50240985
100
AcDbArc
 50
89.68881029
 51
165.89907571
  0
ARC
  5
C0
100
AcDbEntity
  8
0
  6
CONTINUOUS
 62
       7
100
AcDbCircle
 10
-38.89203824
 20
-24.93789162
 30
0.0
 40
0.99469835
100
AcDbArc
 50
193.05553963
 51
270.05835337
  0
ARC
  5
C1
100
AcDbEntity
  8
0
  6
CONTINUOUS
 62
       7
100
AcDbCircle
 10
-41.12268009
 20
-22.04064446
 30
0.0
 40
0.5080577
100
AcDbArc
 50
14.59874488
 51
89.81336913
  0
ARC
  5
C2
100
AcDbEntity
  8
0
  6
CONTINUOUS
 62
       7
100
AcDbCircle
 10
-43.59481813
 20
-22.0321371
 30
0.0
 40
0.4995862
100
AcDbArc
 50
90.71188368
 51
158.93709464
  0
ARC
  5
C3
100
AcDbEntity
  8
0
  6
CONTINUOUS
 62
       7
100
AcDbCircle
 10
-56.05251726
 20
-22.03993718
 30
0.0
 40
0.50734992
100
AcDbArc
 50
21.67043596
 51
89.83149802
  0
ARC
  5
C4
100
AcDbEntity
  8
0
  6
CONTINUOUS
 62
       7
100
AcDbCircle
 10
-58.52566559
 20
-22.03251737
 30
0.0
 40
0.49995664
100
AcDbArc
 50
90.61422974
 51
166.12074103
  0
ARC
  5
C5
100
AcDbEntity
  8
0
  6
CONTINUOUS
 62
       7
100
AcDbCircle
 10
-60.76260627
 20
-24.93462367
 30
0.0
 40
0.99796703
100
AcDbArc
 50
270.09077405
 51
346.79533295
  0
ARC
  5
C6
100
AcDbEntity
  8
0
  6
CONTINUOUS
 62
       7
100
AcDbCircle
 10
-77.21261505
 20
-22.04056059
 30
0.0
 40
0.50797363
100
AcDbArc
 50
14.59143936
 51
89.82067464
  0
ARC
  5
C7
100
AcDbEntity
  8
0
  6
CONTINUOUS
 62
       7
100
AcDbCircle
 10
-79.68476348
 20
-22.03221566
 30
0.0
 40
0.49966544
100
AcDbArc
 50
90.71803781
 51
158.9309405
  0
ARC
  5
C8
100
AcDbEntity
  8
0
  6
CONTINUOUS
 62
       7
100
AcDbCircle
 10
0.98102801
 20
-38.73053626
 30
0.0
 40
0.99794892
100
AcDbArc
 50
359.88211868
 51
90.11788132
  0
ARC
  5
C9
100
AcDbEntity
  8
0
  6
CONTINUOUS
 62
       7
100
AcDbCircle
 10
2.98108114
 20
-55.13048313
 30
0.0
 40
1.00210854
100
AcDbArc
 50
180.12042989
 51
269.87957011
  0
ARC
  5
CA
100
AcDbEntity
  8
0
  6
CONTINUOUS
 62
       7
100
AcDbCircle
 10
-100.00894267
 20
-38.73467197
 30
0.0
 40
1.00208468
100
AcDbArc
 50
90.1190712
 51
179.8809288
  0
ARC
  5
CB
100
AcDbEntity
  8
0
  6
CONTINUOUS
 62
       7
100
AcDbCircle
 10
-102.00895425
 20
-55.13466039
 30
0.0
 40
0.99793121
100
AcDbArc
 50
269.88109804
 51
0.11890196
  0
ARC
  5
CC
100
AcDbEntity
  8
0
  6
CONTINUOUS
 62
       7
100
AcDbCircle
 10
-102.00895577
 20
-56.33465887
 30
0.0
 40
0.99793273
100
AcDbArc
 50
269.88118558
 51
0.11881442
  0
ARC
  5
CD
100
AcDbEntity
  8
0
  6
CONTINUOUS
 62
       7
100
AcDbCircle
 10
-61.37645139
 20
-34.53801566
 30
0.0
 40
0.50545533
100
AcDbArc
 50
0.61509802
 51
89.38490198
  0
ARC
  5
CE
100
AcDbEntity
  8
0
  6
CONTINUOUS
 62
       7
100
AcDbCircle
 10
-61.3714776
 20
-36.53213704
 30
0.0
 40
0.50045262
100
AcDbArc
 50
270.0517963
 51
359.9482037
  0
ARC
  5
CF
100
AcDbEntity
  8
0
  6
CONTINUOUS
 62
       7
100
AcDbCircle
 10
-87.17644493
 20
-36.5380092
 30
0.0
 40
0.49460995
100
AcDbArc
 50
179.37216202
 51
270.62783798
  0
ARC
  5
D0
100
AcDbEntity
  8
0
  6
CONTINUOUS
 62
       7
100
AcDbCircle
 10
-87.17141268
 20
-34.53220196
 30
0.0
 40
0.49961266
100
AcDbArc
 50
89.95556216
 51
180.04443784
  0
ARC
  5
D1
100
AcDbEntity
  8
0
  6
CONTINUOUS
 62
       7
100
AcDbCircle
 10
-72.77147754
 20
-32.4321371
 30
0.0
 40
0.50045256
100
AcDbArc
 50
270.05178872
 51
359.94821128
  0
ARC
  5
D2
100
AcDbEntity
  8
0
  6
CONTINUOUS
 62
       7
100
AcDbCircle
 10
-75.77644493
 20
-32.4380092
 30
0.0
 40
0.49460995
100
AcDbArc
 50
179.37216262
 51
270.62783738
  0
ARC
  5
D3
100
AcDbEntity
  8
0
  6
CONTINUOUS
 62
       7
100
AcDbCircle
 10
-76.01926634
 20
-16.28046486
 30
0.0
 40
0.79824398
100
AcDbArc
 50
359.84750253
 51
80.75513644
  0
ARC
  5
D4
100
AcDbEntity
  8
0
  6
CONTINUOUS
 62
       7
100
AcDbCircle
 10
-75.42259978
 20
-17.1118574
 30
0.0
 40
0.20157592
100
AcDbArc
 50
264.75545715
 51
359.79192086
  0
ARC
  5
D5
100
AcDbEntity
  8
0
  6
CONTINUOUS
 62
       7
100
AcDbCircle
 10
-75.82011687
 20
-17.06277197
 30
0.0
 40
0.2009084
100
AcDbArc
 50
179.94794943
 51
264.02647556
  0
ARC
  5
D6
100
AcDbEntity
  8
0
  6
CONTINUOUS
 62
       7
100
AcDbCircle
 10
-76.11890283
 20
-16.8404671
 30
0.0
 40
0.09790066
100
AcDbArc
 50
358.75780849
 51
91.24219151
  0
ARC
  5
D7
100
AcDbEntity
  8
0
  6
CONTINUOUS
 62
       7
100
AcDbCircle
 10
-76.72383605
 20
-16.83977858
 30
0.0
 40
0.09722977
100
AcDbArc
 50
88.34337357
 51
181.65662643
  0
ARC
  5
D8
100
AcDbEntity
  8
0
  6
CONTINUOUS
 62
       7
100
AcDbCircle
 10
-59.72657559
 20
-16.27724924
 30
0.0
 40
0.79446754
100
AcDbArc
 50
99.01222994
 51
180.3851311
  0
ARC
  5
D9
100
AcDbEntity
  8
0
  6
CONTINUOUS
 62
       7
100
AcDbCircle
 10
-60.32235694
 20
-17.11505439
 30
0.0
 40
0.19868353
100
AcDbArc
 50
179.28915153
 51
276.16347046
  0
ARC
  5
DA
100
AcDbEntity
  8
0
  6
CONTINUOUS
 62
       7
100
AcDbCircle
 10
-59.92553656
 20
-17.05952922
 30
0.0
 40
0.20453427
100
AcDbArc
 50
276.88286495
 51
359.14271006
  0
ARC
  5
DB
100
AcDbEntity
  8
0
  6
CONTINUOUS
 62
       7
100
AcDbCircle
 10
-59.62644956
 20
-16.83716508
 30
0.0
 40
0.09473106
100
AcDbArc
 50
86.71740575
 51
183.28259425
  0
ARC
  5
DC
100
AcDbEntity
  8
0
  6
CONTINUOUS
 62
       7
100
AcDbCircle
 10
-59.02160112
 20
-16.84316539
 30
0.0
 40
0.10057758
100
AcDbArc
 50
0.32809369
 51
89.67190631
  0
ARC
  5
DD
100
AcDbEntity
  8
0
  6
CONTINUOUS
 62
       7
100
AcDbCircle
 10
-21.52444201
 20
-16.28059776
 30
0.0
 40
0.79658567
100
AcDbArc
 50
98.41567087
 51
180.14325619
  0
ARC
  5
DE
100
AcDbEntity
  8
0
  6
CONTINUOUS
 62
       7
100
AcDbCircle
 10
-22.11948692
 20
-17.11307044
 30
0.0
 40
0.20153884
100
AcDbArc
 50
179.86325867
 51
278.11856752
  0
ARC
  5
DF
100
AcDbEntity
  8
0
  6
CONTINUOUS
 62
       7
100
AcDbCircle
 10
-21.72339776
 20
-17.06282276
 30
0.0
 40
0.20237271
100
AcDbArc
 50
279.20487178
 51
0.06605508
  0
ARC
  5
E0
100
AcDbEntity
  8
0
  6
CONTINUOUS
 62
       7
100
AcDbCircle
 10
-21.4239202
 20
-16.83969443
 30
0.0
 40
0.09714813
100
AcDbArc
 50
88.29233011
 51
181.70766989
  0
ARC
  5
E1
100
AcDbEntity
  8
0
  6
CONTINUOUS
 62
       7
100
AcDbCircle
 10
-20.81897975
 20
-16.84054402
 30
0.0
 40
0.09797592
100
AcDbArc
 50
358.80375626
 51
91.19624374
  0
ARC
  5
E2
100
AcDbEntity
  8
0
  6
CONTINUOUS
 62
       7
100
AcDbCircle
 10
-39.9293664
 20
-16.28054973
 30
0.0
 40
0.79834382
100
AcDbArc
 50
359.85361221
 51
80.74902676
  0
ARC
  5
E3
100
AcDbEntity
  8
0
  6
CONTINUOUS
 62
       7
100
AcDbCircle
 10
-39.33268393
 20
-17.11176483
 30
0.0
 40
0.20166043
100
AcDbArc
 50
264.7816695
 51
359.76570851
  0
ARC
  5
E4
100
AcDbEntity
  8
0
  6
CONTINUOUS
 62
       7
100
AcDbCircle
 10
-39.73021087
 20
-17.06285657
 30
0.0
 40
0.2008145
100
AcDbArc
 50
179.92378838
 51
264.05063661
  0
ARC
  5
E5
100
AcDbEntity
  8
0
  6
CONTINUOUS
 62
       7
100
AcDbCircle
 10
-40.02899106
 20
-16.84055533
 30
0.0
 40
0.09798699
100
AcDbArc
 50
358.81050464
 51
91.18949536
  0
ARC
  5
E6
100
AcDbEntity
  8
0
  6
CONTINUOUS
 62
       7
100
AcDbCircle
 10
-40.63392363
 20
-16.83969101
 30
0.0
 40
0.0971448
100
AcDbArc
 50
88.29024962
 51
181.70975038
  0
ARC
  5
E7
100
AcDbEntity
  8
0
  6
CONTINUOUS
 62
       7
100
AcDbCircle
 10
-23.87895454
 20
-32.4346601
 30
0.0
 40
0.49793366
100
AcDbArc
 50
269.76173572
 51
0.23826428
  0
ARC
  5
E8
100
AcDbEntity
  8
0
  6
CONTINUOUS
 62
       7
100
AcDbCircle
 10
-26.88393865
 20
-32.43550292
 30
0.0
 40
0.49709507
100
AcDbArc
 50
179.66418881
 51
270.33581119
  0
ARC
  5
E9
100
AcDbEntity
  8
0
  6
CONTINUOUS
 62
       7
100
AcDbCircle
 10
-12.4839534
 20
-34.53551767
 30
0.0
 40
0.50293674
100
AcDbArc
 50
0.33359092
 51
89.66640908
  0
ARC
  5
EA
100
AcDbEntity
  8
0
  6
CONTINUOUS
 62
       7
100
AcDbCircle
 10
-12.47895457
 20
-36.53466007
 30
0.0
 40
0.49793369
100
AcDbArc
 50
269.76173984
 51
0.23826016
  0
ARC
  5
EB
100
AcDbEntity
  8
0
  6
CONTINUOUS
 62
       7
100
AcDbCircle
 10
-38.28394628
 20
-36.53551055
 30
0.0
 40
0.49708748
100
AcDbArc
 50
179.66330355
 51
270.33669645
  0
ARC
  5
EC
100
AcDbEntity
  8
0
  6
CONTINUOUS
 62
       7
100
AcDbCircle
 10
-38.27893899
 20
-34.53467565
 30
0.0
 40
0.50209053
100
AcDbArc
 50
90.23806562
 51
179.76193438
  0
CIRCLE
  5
ED
100
AcDbEntity
  8
0
  6
CONTINUOUS
 62
       7
100
AcDbCircle
 10
-8.13186381
 20
-35.9375864
 30
0.0
 40
1.25
  0
CIRCLE
  5
EE
100
AcDbEntity
  8
0
  6
CONTINUOUS
 62
       7
100
AcDbCircle
 10
-42.63186381
 20
-35.9375864
 30
0.0
 40
1.25
  0
CIRCLE
  5
EF
100
AcDbEntity
  8
0
  6
CONTINUOUS
 62
       7
100
AcDbCircle
 10
-91.52686808
 20
-35.9375864
 30
0.0
 40
1.25
  0
CIRCLE
  5
F0
100
AcDbEntity
  8
0
  6
CONTINUOUS
 62
       7
100
AcDbCircle
 10
-57.02688334
 20
-35.9375864
 30
0.0
 40
1.25
  0
ARC
  5
F1
100
AcDbEntity
  8
0
  6
CONTINUOUS
 62
       7
100
AcDbCircle
 10
-87.78396797
 20
-24.94032258
 30
0.0
 40
0.99227124
100
AcDbArc
 50
192.94397009
 51
270.16992291
  0
ARC
  5
F2
100
AcDbEntity
  8
0
  6
CONTINUOUS
 62
       7
100
AcDbCircle
 10
-90.02079268
 20
-22.0382107
 30
0.0
 40
0.5056213
100
AcDbArc
 50
14.38576761
 51
90.02634639
  0
ARC
  5
F3
100
AcDbEntity
  8
0
  6
CONTINUOUS
 62
       7
100
AcDbCircle
 10
-92.49322825
 20
-22.03450996
 30
0.0
 40
0.50192534
100
AcDbArc
 50
89.74851545
 51
158.74955057
  0
ARC
  5
F4
100
AcDbEntity
  8
0
  6
CONTINUOUS
 62
       7
100
AcDbCircle
 10
-88.82229
 20
-16.28302923
 30
0.0
 40
0.80126493
100
AcDbArc
 50
0.031447
 51
80.57119197
  0
ARC
  5
F5
100
AcDbEntity
  8
0
  6
CONTINUOUS
 62
       7
100
AcDbCircle
 10
-88.22542831
 20
-17.10977586
 30
0.0
 40
0.20442249
100
AcDbArc
 50
262.8067957
 51
359.2113781
  0
ARC
  5
F6
100
AcDbEntity
  8
0
  6
CONTINUOUS
 62
       7
100
AcDbCircle
 10
-88.62246785
 20
-17.06606572
 30
0.0
 40
0.19858776
100
AcDbArc
 50
178.9969899
 51
261.73208325
  0
ARC
  5
F7
100
AcDbEntity
  8
0
  6
CONTINUOUS
 62
       7
100
AcDbCircle
 10
-88.92158986
 20
-16.84315413
 30
0.0
 40
0.10056626
100
AcDbArc
 50
0.32171434
 51
89.67828566
  0
ARC
  5
F8
100
AcDbEntity
  8
0
  6
CONTINUOUS
 62
       7
100
AcDbCircle
 10
-89.52644652
 20
-16.83716812
 30
0.0
 40
0.09473392
100
AcDbArc
 50
86.71934596
 51
183.28065404
  0
ARC
  5
F9
100
AcDbEntity
  8
0
  6
CONTINUOUS
 62
       7
100
AcDbCircle
 10
-7.16777237
 20
-22.03291353
 30
0.0
 40
0.50036957
100
AcDbArc
 50
21.12364427
 51
89.22737742
  0
ARC
  5
FA
100
AcDbEntity
  8
0
  6
CONTINUOUS
 62
       7
100
AcDbCircle
 10
-9.64000561
 20
-22.03982523
 30
0.0
 40
0.5072368
100
AcDbArc
 50
90.11516822
 51
165.47271777
  0
ARC
  5
FB
100
AcDbEntity
  8
0
  6
CONTINUOUS
 62
       7
100
AcDbCircle
 10
-11.86452681
 20
-24.93222375
 30
0.0
 40
1.00038681
100
AcDbArc
 50
269.62781178
 51
346.68664139
  0
ARC
  5
FC
100
AcDbEntity
  8
0
  6
CONTINUOUS
 62
       7
100
AcDbCircle
 10
-10.83444939
 20
-16.2805914
 30
0.0
 40
0.7965783
100
AcDbArc
 50
98.41521225
 51
180.14371481
  0
ARC
  5
FD
100
AcDbEntity
  8
0
  6
CONTINUOUS
 62
       7
100
AcDbCircle
 10
-11.42949237
 20
-17.11307672
 30
0.0
 40
0.2015334
100
AcDbArc
 50
179.86147169
 51
278.12035451
  0
ARC
  5
FE
100
AcDbEntity
  8
0
  6
CONTINUOUS
 62
       7
100
AcDbCircle
 10
-11.03340515
 20
-17.06281649
 30
0.0
 40
0.20238009
100
AcDbArc
 50
279.20665133
 51
0.06427552
  0
ARC
  5
FF
100
AcDbEntity
  8
0
  6
CONTINUOUS
 62
       7
100
AcDbCircle
 10
-10.73370887
 20
-16.83967414
 30
0.0
 40
0.09735997
100
AcDbArc
 50
94.30967297
 51
181.71590204
  0
ARC
  5
100
100
AcDbEntity
  8
0
  6
CONTINUOUS
 62
       7
100
AcDbCircle
 10
-10.13396512
 20
-16.83552939
 30
0.0
 40
0.0932077
100
AcDbArc
 50
355.65594206
 51
94.34405794
  0
LINE
  5
101
100
AcDbEntity
  8
0
  6
CONTINUOUS
 62
       2
100
AcDbLine
 10
-91.52102519
 20
-33.93258945
 30
0.0
 11
-91.52102519
 21
-37.93258945
 31
0.0
  0
LINE
  5
102
100
AcDbEntity
  8
0
  6
CONTINUOUS
 62
       2
100
AcDbLine
 10
-93.52102519
 20
-35.93258945
 30
0.0
 11
-89.52102519
 21
-35.93258945
 31
0.0
  0
LINE
  5
103
100
AcDbEntity
  8
0
  6
CONTINUOUS
 62
       2
100
AcDbLine
 10
-57.02102519
 20
-33.93258945
 30
0.0
 11
-57.02102519
 21
-37.93258945
 31
0.0
  0
LINE
  5
104
100
AcDbEntity
  8
0
  6
CONTINUOUS
 62
       2
100
AcDbLine
 10
-59.02102519
 20
-35.93258945
 30
0.0
 11
-55.02102519
 21
-35.93258945
 31
0.0
  0
LINE
  5
105
100
AcDbEntity
  8
0
  6
CONTINUOUS
 62
       2
100
AcDbLine
 10
-42.63102519
 20
-33.93258945
 30
0.0
 11
-42.63102519
 21
-37.93258945
 31
0.0
  0
LINE
  5
106
100
AcDbEntity
  8
0
  6
CONTINUOUS
 62
       2
100
AcDbLine
 10
-44.63102519
 20
-35.93258945
 30
0.0
 11
-40.63102519
 21
-35.93258945
 31
0.0
  0
LINE
  5
107
100
AcDbEntity
  8
0
  6
CONTINUOUS
 62
       2
100
AcDbLine
 10
-8.14102519
 20
-33.93258945
 30
0.0
 11
-8.14102519
 21
-37.93258945
 31
0.0
  0
LINE
  5
108
100
AcDbEntity
  8
0
  6
CONTINUOUS
 62
       2
100
AcDbLine
 10
-10.14102519
 20
-35.93258945
 30
0.0
 11
-6.14102519
 21
-35.93258945
 31
0.0
  0
LINE
  5
109
100
AcDbEntity
  8
0
  6
CONTINUOUS
 62
       7
100
AcDbLine
 10
-45.63102519
 20
-25.93258945
 30
0.0
 11
-54.01102519
 21
-25.93258945
 31
0.0
  0
LINE
  5
10A
100
AcDbEntity
  8
0
  6
CONTINUOUS
 62
       7
100
AcDbLine
 10
-47.18102519
 20
-26.43258945
 30
0.0
 11
-47.18102519
 21
-29.94258945
 31
0.0
  0
LINE
  5
10B
100
AcDbEntity
  8
0
  6
CONTINUOUS
 62
       7
100
AcDbLine
 10
-47.34102519
 20
-25.93258945
 30
0.0
 11
-47.18102519
 21
-26.43258945
 31
0.0
  0
LINE
  5
10C
100
AcDbEntity
  8
0
  6
CONTINUOUS
 62
       7
100
AcDbLine
 10
-47.82102519
 20
-26.43258945
 30
0.0
 11
-47.66102519
 21
-25.93258945
 31
0.0
  0
LINE
  5
10D
100
AcDbEntity
  8
0
  6
CONTINUOUS
 62
       7
100
AcDbLine
 10
-47.82102519
 20
-31.73258945
 30
0.0
 11
-47.82102519
 21
-26.43258945
 31
0.0
  0
LINE
  5
10E
100
AcDbEntity
  8
0
  6
CONTINUOUS
 62
       7
100
AcDbLine
 10
-46.77102519
 20
-28.88258945
 30
0.0
 11
-46.77102519
 21
-25.93258945
 31
0.0
  0
LINE
  5
10F
100
AcDbEntity
  8
0
  6
CONTINUOUS
 62
       7
100
AcDbLine
 10
-50.27102519
 20
-32.93258945
 30
0.0
 11
-47.83102519
 21
-32.93258945
 31
0.0
  0
LINE
  5
110
100
AcDbEntity
  8
0
  6
CONTINUOUS
 62
       7
100
AcDbLine
 10
-50.77102519
 20
-25.93258945
 30
0.0
 11
-50.77102519
 21
-32.43258945
 31
0.0
  0
LINE
  5
111
100
AcDbEntity
  8
0
  6
CONTINUOUS
 62
       7
100
AcDbLine
 10
-49.72102519
 20
-26.43258945
 30
0.0
 11
-49.72102519
 21
-31.73258945
 31
0.0
  0
LINE
  5
112
100
AcDbEntity
  8
0
  6
CONTINUOUS
 62
       7
100
AcDbLine
 10
-49.88102519
 20
-25.93258945
 30
0.0
 11
-49.72102519
 21
-26.43258945
 31
0.0
  0
LINE
  5
113
100
AcDbEntity
  8
0
  6
CONTINUOUS
 62
       7
100
AcDbLine
 10
-50.36102519
 20
-26.43258945
 30
0.0
 11
-50.20102519
 21
-25.93258945
 31
0.0
  0
LINE
  5
114
100
AcDbEntity
  8
0
  6
CONTINUOUS
 62
       7
100
AcDbLine
 10
-50.36102519
 20
-31.73258945
 30
0.0
 11
-50.36102519
 21
-26.43258945
 31
0.0
  0
LINE
  5
115
100
AcDbEntity
  8
0
  6
CONTINUOUS
 62
       7
100
AcDbLine
 10
-50.77102519
 20
-31.73258945
 30
0.0
 11
-47.83102519
 21
-31.73258945
 31
0.0
  0
ARC
  5
116
100
AcDbEntity
  8
0
  6
CONTINUOUS
 62
       7
100
AcDbCircle
 10
-50.27390003
 20
-32.4354643
 30
0.0
 40
0.49713346
100
AcDbArc
 50
179.66866511
 51
270.33133489
  0
LINE
  5
117
100
AcDbEntity
  8
0
  6
CONTINUOUS
 62
       7
100
AcDbLine
 10
73.67897481
 20
34.07741055
 30
0.0
 11
73.67897481
 21
33.47741055
 31
0.0
  0
LINE
  5
118
100
AcDbEntity
  8
0
  6
CONTINUOUS
 62
       7
100
AcDbLine
 10
82.47897481
 20
34.07741055
 30
0.0
 11
73.67897481
 21
34.07741055
 31
0.0
  0
LINE
  5
119
100
AcDbEntity
  8
0
  6
CONTINUOUS
 62
       7
100
AcDbLine
 10
66.27897481
 20
40.36741055
 30
0.0
 11
66.27897481
 21
38.06741055
 31
0.0
  0
LINE
  5
11A
100
AcDbEntity
  8
0
  6
CONTINUOUS
 62
       7
100
AcDbLine
 10
56.41897481
 20
40.36741055
 30
0.0
 11
66.27897481
 21
40.36741055
 31
0.0
  0
LINE
  5
11B
100
AcDbEntity
  8
0
  6
CONTINUOUS
 62
       7
100
AcDbLine
 10
56.41897481
 20
44.36741055
 30
0.0
 11
56.41897481
 21
40.36741055
 31
0.0
  0
LINE
  5
11C
100
AcDbEntity
  8
0
  6
CONTINUOUS
 62
       7
100
AcDbLine
 10
66.27897481
 20
44.36741055
 30
0.0
 11
56.41897481
 21
44.36741055
 31
0.0
  0
LINE
  5
11D
100
AcDbEntity
  8
0
  6
CONTINUOUS
 62
       7
100
AcDbLine
 10
66.27897481
 20
46.66741055
 30
0.0
 11
66.27897481
 21
44.36741055
 31
0.0
  0
LINE
  5
11E
100
AcDbEntity
  8
0
  6
CONTINUOUS
 62
       7
100
AcDbLine
 10
82.47897481
 20
46.66741055
 30
0.0
 11
66.27897481
 21
46.66741055
 31
0.0
  0
LINE
  5
11F
100
AcDbEntity
  8
0
  6
CONTINUOUS
 62
       7
100
AcDbLine
 10
66.27897481
 20
38.06741055
 30
0.0
 11
82.47897481
 21
38.06741055
 31
0.0
  0
LINE
  5
120
100
AcDbEntity
  8
0
  6
CONTINUOUS
 62
       7
100
AcDbLine
 10
81.37897481
 20
30.03741055
 30
0.0
 11
82.47897481
 21
30.03741055
 31
0.0
  0
LINE
  5
121
100
AcDbEntity
  8
0
  6
CONTINUOUS
 62
       7
100
AcDbLine
 10
81.37897481
 20
31.83741055
 30
0.0
 11
81.37897481
 21
30.03741055
 31
0.0
  0
LINE
  5
122
100
AcDbEntity
  8
0
  6
CONTINUOUS
 62
       7
100
AcDbLine
 10
82.47897481
 20
31.83741055
 30
0.0
 11
81.37897481
 21
31.83741055
 31
0.0
  0
LINE
  5
123
100
AcDbEntity
  8
0
  6
CONTINUOUS
 62
       7
100
AcDbLine
 10
81.37897481
 20
24.95741055
 30
0.0
 11
82.47897481
 21
24.95741055
 31
0.0
  0
LINE
  5
124
100
AcDbEntity
  8
0
  6
CONTINUOUS
 62
       7
100
AcDbLine
 10
81.37897481
 20
26.75741055
 30
0.0
 11
81.37897481
 21
24.95741055
 31
0.0
  0
LINE
  5
125
100
AcDbEntity
  8
0
  6
CONTINUOUS
 62
       7
100
AcDbLine
 10
82.47897481
 20
26.75741055
 30
0.0
 11
81.37897481
 21
26.75741055
 31
0.0
  0
LINE
  5
126
100
AcDbEntity
  8
0
  6
CONTINUOUS
 62
       7
100
AcDbLine
 10
73.67897481
 20
22.71741055
 30
0.0
 11
82.47897481
 21
22.71741055
 31
0.0
  0
LINE
  5
127
100
AcDbEntity
  8
0
  6
CONTINUOUS
 62
       7
100
AcDbLine
 10
73.67897481
 20
23.31741055
 30
0.0
 11
73.67897481
 21
22.71741055
 31
0.0
  0
LINE
  5
128
100
AcDbEntity
  8
0
  6
CONTINUOUS
 62
       7
100
AcDbLine
 10
70.17897481
 20
23.31741055
 30
0.0
 11
82.47897481
 21
23.31741055
 31
0.0
  0
LINE
  5
129
100
AcDbEntity
  8
0
  6
CONTINUOUS
 62
       7
100
AcDbLine
 10
70.17897481
 20
33.47741055
 30
0.0
 11
70.17897481
 21
23.31741055
 31
0.0
  0
LINE
  5
12A
100
AcDbEntity
  8
0
  6
CONTINUOUS
 62
       7
100
AcDbLine
 10
82.47897481
 20
33.47741055
 30
0.0
 11
70.17897481
 21
33.47741055
 31
0.0
  0
LINE
  5
12B
100
AcDbEntity
  8
0
  6
CONTINUOUS
 62
       7
100
AcDbLine
 10
75.56897481
 20
28.29741055
 30
0.0
 11
75.05897481
 21
28.29741055
 31
0.0
  0
LINE
  5
12C
100
AcDbEntity
  8
0
  6
CONTINUOUS
 62
       7
100
AcDbLine
 10
75.66897481
 20
23.51741055
 30
0.0
 11
75.66897481
 21
28.19741055
 31
0.0
  0
LINE
  5
12D
100
AcDbEntity
  8
0
  6
CONTINUOUS
 62
       7
100
AcDbLine
 10
75.05897481
 20
23.41741055
 30
0.0
 11
75.56897481
 21
23.41741055
 31
0.0
  0
LINE
  5
12E
100
AcDbEntity
  8
0
  6
CONTINUOUS
 62
       7
100
AcDbLine
 10
71.04897481
 20
23.41741055
 30
0.0
 11
75.05897481
 21
23.41741055
 31
0.0
  0
LINE
  5
12F
100
AcDbEntity
  8
0
  6
CONTINUOUS
 62
       7
100
AcDbLine
 10
70.94897481
 20
28.19741055
 30
0.0
 11
70.94897481
 21
23.51741055
 31
0.0
  0
LINE
  5
130
100
AcDbEntity
  8
0
  6
CONTINUOUS
 62
       7
100
AcDbLine
 10
75.05897481
 20
28.29741055
 30
0.0
 11
71.04897481
 21
28.29741055
 31
0.0
  0
LINE
  5
131
100
AcDbEntity
  8
0
  6
CONTINUOUS
 62
       7
100
AcDbLine
 10
75.15897481
 20
23.51741055
 30
0.0
 11
75.15897481
 21
28.19741055
 31
0.0
  0
LINE
  5
132
100
AcDbEntity
  8
0
  6
CONTINUOUS
 62
       7
100
AcDbLine
 10
71.04897481
 20
28.49741055
 30
0.0
 11
75.05897481
 21
28.49741055
 31
0.0
  0
LINE
  5
133
100
AcDbEntity
  8
0
  6
CONTINUOUS
 62
       7
100
AcDbLine
 10
70.94897481
 20
33.27741055
 30
0.0
 11
70.94897481
 21
28.59741055
 31
0.0
  0
LINE
  5
134
100
AcDbEntity
  8
0
  6
CONTINUOUS
 62
       7
100
AcDbLine
 10
75.05897481
 20
33.37741055
 30
0.0
 11
71.04897481
 21
33.37741055
 31
0.0
  0
LINE
  5
135
100
AcDbEntity
  8
0
  6
CONTINUOUS
 62
       7
100
AcDbLine
 10
75.15897481
 20
28.59741055
 30
0.0
 11
75.15897481
 21
33.27741055
 31
0.0
  0
LINE
  5
136
100
AcDbEntity
  8
0
  6
CONTINUOUS
 62
       7
100
AcDbLine
 10
75.56897481
 20
33.37741055
 30
0.0
 11
75.05897481
 21
33.37741055
 31
0.0
  0
LINE
  5
137
100
AcDbEntity
  8
0
  6
CONTINUOUS
 62
       7
100
AcDbLine
 10
75.66897481
 20
28.59741055
 30
0.0
 11
75.66897481
 21
33.27741055
 31
0.0
  0
LINE
  5
138
100
AcDbEntity
  8
0
  6
CONTINUOUS
 62
       7
100
AcDbLine
 10
75.05897481
 20
28.49741055
 30
0.0
 11
75.56897481
 21
28.49741055
 31
0.0
  0
LINE
  5
139
100
AcDbEntity
  8
0
  6
CONTINUOUS
 62
       7
100
AcDbLine
 10
77.97897481
 20
29.78741055
 30
0.0
 11
80.67897481
 21
29.78741055
 31
0.0
  0
LINE
  5
13A
100
AcDbEntity
  8
0
  6
CONTINUOUS
 62
       7
100
AcDbLine
 10
77.97897481
 20
32.08741055
 30
0.0
 11
77.97897481
 21
29.78741055
 31
0.0
  0
LINE
  5
13B
100
AcDbEntity
  8
0
  6
CONTINUOUS
 62
       7
100
AcDbLine
 10
80.67897481
 20
32.08741055
 30
0.0
 11
77.97897481
 21
32.08741055
 31
0.0
  0
LINE
  5
13C
100
AcDbEntity
  8
0
  6
CONTINUOUS
 62
       7
100
AcDbLine
 10
80.67897481
 20
29.78741055
 30
0.0
 11
80.67897481
 21
32.08741055
 31
0.0
  0
LINE
  5
13D
100
AcDbEntity
  8
0
  6
CONTINUOUS
 62
       7
100
AcDbLine
 10
75.97897481
 20
33.03741055
 30
0.0
 11
75.97897481
 21
28.83741055
 31
0.0
  0
LINE
  5
13E
100
AcDbEntity
  8
0
  6
CONTINUOUS
 62
       7
100
AcDbLine
 10
80.57897481
 20
33.03741055
 30
0.0
 11
75.97897481
 21
33.03741055
 31
0.0
  0
LINE
  5
13F
100
AcDbEntity
  8
0
  6
CONTINUOUS
 62
       7
100
AcDbLine
 10
81.07897481
 20
29.33741055
 30
0.0
 11
81.07897481
 21
32.53741055
 31
0.0
  0
LINE
  5
140
100
AcDbEntity
  8
0
  6
CONTINUOUS
 62
       7
100
AcDbLine
 10
75.97897481
 20
28.83741055
 30
0.0
 11
80.57897481
 21
28.83741055
 31
0.0
  0
LINE
  5
141
100
AcDbEntity
  8
0
  6
CONTINUOUS
 62
       7
100
AcDbLine
 10
75.97897481
 20
27.95741055
 30
0.0
 11
75.97897481
 21
23.75741055
 31
0.0
  0
LINE
  5
142
100
AcDbEntity
  8
0
  6
CONTINUOUS
 62
       7
100
AcDbLine
 10
80.57897481
 20
27.95741055
 30
0.0
 11
75.97897481
 21
27.95741055
 31
0.0
  0
LINE
  5
143
100
AcDbEntity
  8
0
  6
CONTINUOUS
 62
       7
100
AcDbLine
 10
81.07897481
 20
24.25741055
 30
0.0
 11
81.07897481
 21
27.45741055
 31
0.0
  0
LINE
  5
144
100
AcDbEntity
  8
0
  6
CONTINUOUS
 62
       7
100
AcDbLine
 10
75.97897481
 20
23.75741055
 30
0.0
 11
80.57897481
 21
23.75741055
 31
0.0
  0
LINE
  5
145
100
AcDbEntity
  8
0
  6
CONTINUOUS
 62
       7
100
AcDbLine
 10
77.97897481
 20
24.70741055
 30
0.0
 11
80.67897481
 21
24.70741055
 31
0.0
  0
LINE
  5
146
100
AcDbEntity
  8
0
  6
CONTINUOUS
 62
       7
100
AcDbLine
 10
77.97897481
 20
27.00741055
 30
0.0
 11
77.97897481
 21
24.70741055
 31
0.0
  0
LINE
  5
147
100
AcDbEntity
  8
0
  6
CONTINUOUS
 62
       7
100
AcDbLine
 10
80.67897481
 20
27.00741055
 30
0.0
 11
77.97897481
 21
27.00741055
 31
0.0
  0
LINE
  5
148
100
AcDbEntity
  8
0
  6
CONTINUOUS
 62
       7
100
AcDbLine
 10
80.67897481
 20
24.70741055
 30
0.0
 11
80.67897481
 21
27.00741055
 31
0.0
  0
LINE
  5
149
100
AcDbEntity
  8
0
  6
CONTINUOUS
 62
       7
100
AcDbLine
 10
77.57897481
 20
29.08741055
 30
0.0
 11
77.97897481
 21
29.78741055
 31
0.0
  0
LINE
  5
14A
100
AcDbEntity
  8
0
  6
CONTINUOUS
 62
       7
100
AcDbLine
 10
75.97897481
 20
28.83741055
 30
0.0
 11
77.57897481
 21
29.08741055
 31
0.0
  0
LINE
  5
14B
100
AcDbEntity
  8
0
  6
CONTINUOUS
 62
       7
100
AcDbLine
 10
77.57897481
 20
32.78741055
 30
0.0
 11
77.97897481
 21
32.08741055
 31
0.0
  0
LINE
  5
14C
100
AcDbEntity
  8
0
  6
CONTINUOUS
 62
       7
100
AcDbLine
 10
75.97897481
 20
33.03741055
 30
0.0
 11
77.57897481
 21
32.78741055
 31
0.0
  0
LINE
  5
14D
100
AcDbEntity
  8
0
  6
CONTINUOUS
 62
       7
100
AcDbLine
 10
77.57897481
 20
27.70741055
 30
0.0
 11
77.97897481
 21
27.00741055
 31
0.0
  0
LINE
  5
14E
100
AcDbEntity
  8
0
  6
CONTINUOUS
 62
       7
100
AcDbLine
 10
75.97897481
 20
27.95741055
 30
0.0
 11
77.57897481
 21
27.70741055
 31
0.0
  0
LINE
  5
14F
100
AcDbEntity
  8
0
  6
CONTINUOUS
 62
       7
100
AcDbLine
 10
77.57897481
 20
24.00741055
 30
0.0
 11
77.97897481
 21
24.70741055
 31
0.0
  0
LINE
  5
150
100
AcDbEntity
  8
0
  6
CONTINUOUS
 62
       7
100
AcDbLine
 10
75.97897481
 20
23.75741055
 30
0.0
 11
77.57897481
 21
24.00741055
 31
0.0
  0
LINE
  5
151
100
AcDbEntity
  8
0
  6
CONTINUOUS
 62
       7
100
AcDbLine
 10
66.27897481
 20
40.76741055
 30
0.0
 11
66.27897481
 21
40.36741055
 31
0.0
  0
LINE
  5
152
100
AcDbEntity
  8
0
  6
CONTINUOUS
 62
       7
100
AcDbLine
 10
77.47897481
 20
40.76741055
 30
0.0
 11
66.27897481
 21
40.76741055
 31
0.0
  0
LINE
  5
153
100
AcDbEntity
  8
0
  6
CONTINUOUS
 62
       7
100
AcDbLine
 10
77.47897481
 20
43.96741055
 30
0.0
 11
77.47897481
 21
40.76741055
 31
0.0
  0
LINE
  5
154
100
AcDbEntity
  8
0
  6
CONTINUOUS
 62
       7
100
AcDbLine
 10
66.27897481
 20
43.96741055
 30
0.0
 11
77.47897481
 21
43.96741055
 31
0.0
  0
LINE
  5
155
100
AcDbEntity
  8
0
  6
CONTINUOUS
 62
       7
100
AcDbLine
 10
84.97897481
 20
30.75741055
 30
0.0
 11
88.47897481
 21
30.75741055
 31
0.0
  0
LINE
  5
156
100
AcDbEntity
  8
0
  6
CONTINUOUS
 62
       7
100
AcDbLine
 10
84.97897481
 20
50.75741055
 30
0.0
 11
84.97897481
 21
30.75741055
 31
0.0
  0
LINE
  5
157
100
AcDbEntity
  8
0
  6
CONTINUOUS
 62
       7
100
AcDbLine
 10
88.47897481
 20
50.75741055
 30
0.0
 11
84.97897481
 21
50.75741055
 31
0.0
  0
LINE
  5
158
100
AcDbEntity
  8
0
  6
CONTINUOUS
 62
       7
100
AcDbLine
 10
88.47897481
 20
30.75741055
 30
0.0
 11
88.47897481
 21
50.75741055
 31
0.0
  0
LINE
  5
15A
100
AcDbEntity
  8
0
  6
DASHED
 62
       7
100
AcDbLine
 10
101.18897481
 20
42.75741055
 30
0.0
 11
105.08897481
 21
42.75741055
 31
0.0
  0
LINE
  5
15B
100
AcDbEntity
  8
0
  6
DASHED
 62
       7
100
AcDbLine
 10
99.38897481
 20
47.75741055
 30
0.0
 11
99.38897481
 21
44.55741055
 31
0.0
  0
LINE
  5
15C
100
AcDbEntity
  8
0
  6
DASHED
 62
       7
100
AcDbLine
 10
100.38897481
 20
44.55741055
 30
0.0
 11
100.38897481
 21
47.75741055
 31
0.0
  0
LINE
  5
15D
100
AcDbEntity
  8
0
  6
DASHED
 62
       7
100
AcDbLine
 10
105.08897481
 20
43.75741055
 30
0.0
 11
101.18897481
 21
43.75741055
 31
0.0
  0
LINE
  5
15E
100
AcDbEntity
  8
0
  6
DASHED
 62
       7
100
AcDbLine
 10
106.88897481
 20
18.55741055
 30
0.0
 11
106.88897481
 21
41.95741055
 31
0.0
  0
LINE
  5
15F
100
AcDbEntity
  8
0
  6
DASHED
 62
       7
100
AcDbLine
 10
101.18897481
 20
16.75741055
 30
0.0
 11
105.08897481
 21
16.75741055
 31
0.0
  0
LINE
  5
160
100
AcDbEntity
  8
0
  6
DASHED
 62
       7
100
AcDbLine
 10
100.38897481
 20
12.75741055
 30
0.0
 11
100.38897481
 21
15.95741055
 31
0.0
  0
LINE
  5
161
100
AcDbEntity
  8
0
  6
CONTINUOUS
 62
       7
100
AcDbLine
 10
99.38897481
 20
12.75741055
 30
0.0
 11
100.38897481
 21
12.75741055
 31
0.0
  0
LINE
  5
162
100
AcDbEntity
  8
0
  6
DASHED
 62
       7
100
AcDbLine
 10
99.38897481
 20
15.95741055
 30
0.0
 11
99.38897481
 21
12.75741055
 31
0.0
  0
LINE
  5
163
100
AcDbEntity
  8
0
  6
DASHED
 62
       7
100
AcDbLine
 10
105.08897481
 20
17.75741055
 30
0.0
 11
101.18897481
 21
17.75741055
 31
0.0
  0
LINE
  5
164
100
AcDbEntity
  8
0
  6
DASHED
 62
       7
100
AcDbLine
 10
105.88897481
 20
41.95741055
 30
0.0
 11
105.88897481
 21
18.55741055
 31
0.0
  0
LINE
  5
165
100
AcDbEntity
  8
0
  6
CONTINUOUS
 62
       7
100
AcDbLine
 10
100.88897481
 20
40.03741055
 30
0.0
 11
100.88897481
 21
30.35741055
 31
0.0
  0
LINE
  5
166
100
AcDbEntity
  8
0
  6
CONTINUOUS
 62
       7
100
AcDbLine
 10
102.08897481
 20
40.03741055
 30
0.0
 11
100.88897481
 21
40.03741055
 31
0.0
  0
LINE
  5
167
100
AcDbEntity
  8
0
  6
CONTINUOUS
 62
       7
100
AcDbLine
 10
102.08897481
 20
41.55741055
 30
0.0
 11
102.08897481
 21
40.03741055
 31
0.0
  0
LINE
  5
168
100
AcDbEntity
  8
0
  6
CONTINUOUS
 62
       7
100
AcDbLine
 10
97.68897481
 20
12.67741055
 30
0.0
 11
97.68897481
 21
14.53741055
 31
0.0
  0
LINE
  5
169
100
AcDbEntity
  8
0
  6
CONTINUOUS
 62
       7
100
AcDbLine
 10
96.18897481
 20
13.25741055
 30
0.0
 11
96.18897481
 21
12.13741055
 31
0.0
  0
LINE
  5
16A
100
AcDbEntity
  8
0
  6
CONTINUOUS
 62
       7
100
AcDbLine
 10
93.64897481
 20
13.25741055
 30
0.0
 11
96.18897481
 21
13.25741055
 31
0.0
  0
LINE
  5
16B
100
AcDbEntity
  8
0
  6
CONTINUOUS
 62
       7
100
AcDbLine
 10
93.25897481
 20
13.47741055
 30
0.0
 11
93.64897481
 21
13.25741055
 31
0.0
  0
LINE
  5
16C
100
AcDbEntity
  8
0
  6
CONTINUOUS
 62
       7
100
AcDbLine
 10
89.28897481
 20
10.15741055
 30
0.0
 11
89.28897481
 21
10.05741055
 31
0.0
  0
LINE
  5
16D
100
AcDbEntity
  8
0
  6
CONTINUOUS
 62
       7
100
AcDbLine
 10
88.88897481
 20
10.25741055
 30
0.0
 11
89.17897481
 21
10.25741055
 31
0.0
  0
LINE
  5
16E
100
AcDbEntity
  8
0
  6
CONTINUOUS
 62
       7
100
AcDbLine
 10
88.37897481
 20
11.25741055
 30
0.0
 11
88.37897481
 21
10.51741055
 31
0.0
  0
LINE
  5
16F
100
AcDbEntity
  8
0
  6
CONTINUOUS
 62
       7
100
AcDbLine
 10
88.64897481
 20
11.25741055
 30
0.0
 11
88.37897481
 21
11.25741055
 31
0.0
  0
LINE
  5
170
100
AcDbEntity
  8
0
  6
CONTINUOUS
 62
       7
100
AcDbLine
 10
90.28897481
 20
9.57741055
 30
0.0
 11
90.28897481
 21
10.47741055
 31
0.0
  0
LINE
  5
171
100
AcDbEntity
  8
0
  6
CONTINUOUS
 62
       7
100
AcDbLine
 10
92.74897481
 20
9.89741055
 30
0.0
 11
90.39897481
 21
9.47741055
 31
0.0
  0
LINE
  5
172
100
AcDbEntity
  8
0
  6
CONTINUOUS
 62
       7
100
AcDbLine
 10
97.68897481
 20
9.23741055
 30
0.0
 11
97.68897481
 21
10.51741055
 31
0.0
  0
LINE
  5
173
100
AcDbEntity
  8
0
  6
CONTINUOUS
 62
       7
100
AcDbLine
 10
89.28897481
 20
7.75741055
 30
0.0
 11
97.68897481
 21
9.23741055
 31
0.0
  0
LINE
  5
174
100
AcDbEntity
  8
0
  6
CONTINUOUS
 62
       7
100
AcDbLine
 10
89.12897481
 20
7.75741055
 30
0.0
 11
89.28897481
 21
7.75741055
 31
0.0
  0
LINE
  5
175
100
AcDbEntity
  8
0
  6
CONTINUOUS
 62
       7
100
AcDbLine
 10
97.68897481
 20
51.27741055
 30
0.0
 11
97.68897481
 21
51.25741055
 31
0.0
  0
LINE
  5
176
100
AcDbEntity
  8
0
  6
CONTINUOUS
 62
       7
100
AcDbLine
 10
89.28897481
 20
52.75741055
 30
0.0
 11
97.68897481
 21
51.27741055
 31
0.0
  0
LINE
  5
177
100
AcDbEntity
  8
0
  6
CONTINUOUS
 62
       7
100
AcDbLine
 10
83.47897481
 20
52.75741055
 30
0.0
 11
89.28897481
 21
52.75741055
 31
0.0
  0
LINE
  5
178
100
AcDbEntity
  8
0
  6
CONTINUOUS
 62
       7
100
AcDbLine
 10
89.12897481
 20
7.75741055
 30
0.0
 11
83.47897481
 21
7.75741055
 31
0.0
  0
LINE
  5
179
100
AcDbEntity
  8
0
  6
CONTINUOUS
 62
       7
100
AcDbLine
 10
89.33897481
 20
9.92741055
 30
0.0
 11
89.33897481
 21
7.95741055
 31
0.0
  0
LINE
  5
17A
100
AcDbEntity
  8
0
  6
CONTINUOUS
 62
       7
100
AcDbLine
 10
86.33897481
 20
12.64741055
 30
0.0
 11
86.33897481
 21
12.02741055
 31
0.0
  0
LINE
  5
17B
100
AcDbEntity
  8
0
  6
CONTINUOUS
 62
       7
100
AcDbLine
 10
87.05897481
 20
12.40741055
 30
0.0
 11
86.67897481
 21
12.78741055
 31
0.0
  0
LINE
  5
17C
100
AcDbEntity
  8
0
  6
CONTINUOUS
 62
       7
100
AcDbLine
 10
101.27897481
 20
10.83741055
 30
0.0
 11
99.27897481
 21
10.83741055
 31
0.0
  0
LINE
  5
17D
100
AcDbEntity
  8
0
  6
CONTINUOUS
 62
       7
100
AcDbLine
 10
102.07897481
 20
9.68741055
 30
0.0
 11
102.07897481
 21
10.03741055
 31
0.0
  0
LINE
  5
17E
100
AcDbEntity
  8
0
  6
CONTINUOUS
 62
       7
100
AcDbLine
 10
100.31897481
 20
8.43741055
 30
0.0
 11
101.34897481
 21
8.72741055
 31
0.0
  0
LINE
  5
17F
100
AcDbEntity
  8
0
  6
CONTINUOUS
 62
       7
100
AcDbLine
 10
102.35897481
 20
7.26741055
 30
0.0
 11
100.48897481
 21
7.26741055
 31
0.0
  0
LINE
  5
180
100
AcDbEntity
  8
0
  6
CONTINUOUS
 62
       7
100
AcDbLine
 10
105.28897481
 20
9.96741055
 30
0.0
 11
103.99897481
 21
8.11741055
 31
0.0
  0
LINE
  5
181
100
AcDbEntity
  8
0
  6
CONTINUOUS
 62
       7
100
AcDbLine
 10
105.38897481
 20
11.28741055
 30
0.0
 11
105.38897481
 21
10.24741055
 31
0.0
  0
LINE
  5
182
100
AcDbEntity
  8
0
  6
CONTINUOUS
 62
       7
100
AcDbLine
 10
100.69897481
 20
13.96741055
 30
0.0
 11
100.92897481
 21
13.89741055
 31
0.0
  0
LINE
  5
183
100
AcDbEntity
  8
0
  6
CONTINUOUS
 62
       7
100
AcDbLine
 10
100.63897481
 20
13.98741055
 30
0.0
 11
100.69897481
 21
13.96741055
 31
0.0
  0
LINE
  5
184
100
AcDbEntity
  8
0
  6
CONTINUOUS
 62
       7
100
AcDbLine
 10
99.20897481
 20
13.23741055
 30
0.0
 11
99.27897481
 21
12.92741055
 31
0.0
  0
LINE
  5
185
100
AcDbEntity
  8
0
  6
CONTINUOUS
 62
       7
100
AcDbLine
 10
97.78897481
 20
15.40741055
 30
0.0
 11
97.78897481
 21
14.71741055
 31
0.0
  0
LINE
  5
186
100
AcDbEntity
  8
0
  6
CONTINUOUS
 62
       7
100
AcDbLine
 10
98.98897481
 20
15.40741055
 30
0.0
 11
97.78897481
 21
15.40741055
 31
0.0
  0
LINE
  5
187
100
AcDbEntity
  8
0
  6
CONTINUOUS
 62
       7
100
AcDbLine
 10
98.98897481
 20
16.80741055
 30
0.0
 11
98.98897481
 21
15.40741055
 31
0.0
  0
LINE
  5
188
100
AcDbEntity
  8
0
  6
CONTINUOUS
 62
       7
100
AcDbLine
 10
97.78897481
 20
16.80741055
 30
0.0
 11
98.98897481
 21
16.80741055
 31
0.0
  0
LINE
  5
189
100
AcDbEntity
  8
0
  6
CONTINUOUS
 62
       7
100
AcDbLine
 10
97.78897481
 20
29.85741055
 30
0.0
 11
97.78897481
 21
16.80741055
 31
0.0
  0
LINE
  5
18A
100
AcDbEntity
  8
0
  6
CONTINUOUS
 62
       7
100
AcDbLine
 10
105.38897481
 20
30.35741055
 30
0.0
 11
98.28897481
 21
30.35741055
 31
0.0
  0
LINE
  5
18B
100
AcDbEntity
  8
0
  6
CONTINUOUS
 62
       7
100
AcDbLine
 10
105.38897481
 20
41.55741055
 30
0.0
 11
105.38897481
 21
30.35741055
 31
0.0
  0
LINE
  5
18C
100
AcDbEntity
  8
0
  6
CONTINUOUS
 62
       7
100
AcDbLine
 10
101.98897481
 20
42.05741055
 30
0.0
 11
105.38897481
 21
41.55741055
 31
0.0
  0
LINE
  5
18D
100
AcDbEntity
  8
0
  6
CONTINUOUS
 62
       7
100
AcDbLine
 10
99.58897481
 20
42.05741055
 30
0.0
 11
101.98897481
 21
42.05741055
 31
0.0
  0
LINE
  5
18E
100
AcDbEntity
  8
0
  6
CONTINUOUS
 62
       7
100
AcDbLine
 10
99.08897481
 20
46.62741055
 30
0.0
 11
99.08897481
 21
42.55741055
 31
0.0
  0
LINE
  5
18F
100
AcDbEntity
  8
0
  6
CONTINUOUS
 62
       7
100
AcDbLine
 10
99.35897481
 20
47.73741055
 30
0.0
 11
99.08897481
 21
46.62741055
 31
0.0
  0
LINE
  5
190
100
AcDbEntity
  8
0
  6
CONTINUOUS
 62
       7
100
AcDbLine
 10
100.38897481
 20
47.75741055
 30
0.0
 11
99.38897481
 21
47.75741055
 31
0.0
  0
LINE
  5
191
100
AcDbEntity
  8
0
  6
CONTINUOUS
 62
       7
100
AcDbLine
 10
100.50897481
 20
46.69741055
 30
0.0
 11
100.41897481
 21
47.72741055
 31
0.0
  0
LINE
  5
192
100
AcDbEntity
  8
0
  6
CONTINUOUS
 62
       7
100
AcDbLine
 10
102.18897481
 20
47.89741055
 30
0.0
 11
100.85897481
 21
46.56741055
 31
0.0
  0
LINE
  5
193
100
AcDbEntity
  8
0
  6
CONTINUOUS
 62
       7
100
AcDbLine
 10
102.18897481
 20
49.62741055
 30
0.0
 11
102.18897481
 21
47.89741055
 31
0.0
  0
LINE
  5
194
100
AcDbEntity
  8
0
  6
CONTINUOUS
 62
       7
100
AcDbLine
 10
89.17897481
 20
52.75741055
 30
0.0
 11
101.35897481
 21
50.60741055
 31
0.0
  0
LINE
  5
195
100
AcDbEntity
  8
0
  6
CONTINUOUS
 62
       7
100
AcDbLine
 10
82.47897481
 20
8.75741055
 30
0.0
 11
82.47897481
 21
51.75741055
 31
0.0
  0
LINE
  5
196
100
AcDbEntity
  8
0
  6
CONTINUOUS
 62
       7
100
AcDbLine
 10
105.38897481
 20
41.55741055
 30
0.0
 11
102.08897481
 21
41.55741055
 31
0.0
  0
LINE
  5
197
100
AcDbEntity
  8
0
  6
CONTINUOUS
 62
       2
100
AcDbLine
 10
99.88897481
 20
36.05741055
 30
0.0
 11
106.38897481
 21
36.05741055
 31
0.0
  0
LINE
  5
198
100
AcDbEntity
  8
0
  6
CONTINUOUS
 62
       7
100
AcDbLine
 10
100.88897481
 20
34.00741055
 30
0.0
 11
105.38897481
 21
34.00741055
 31
0.0
  0
LINE
  5
199
100
AcDbEntity
  8
0
  6
CONTINUOUS
 62
       7
100
AcDbLine
 10
100.88897481
 20
38.10741055
 30
0.0
 11
105.38897481
 21
38.10741055
 31
0.0
  0
LINE
  5
19A
100
AcDbEntity
  8
0
  6
CONTINUOUS
 62
       7
100
AcDbLine
 10
66.67897481
 20
46.66741055
 30
0.0
 11
66.67897481
 21
43.96741055
 31
0.0
  0
LINE
  5
19B
100
AcDbEntity
  8
0
  6
CONTINUOUS
 62
       7
100
AcDbLine
 10
66.67897481
 20
40.76741055
 30
0.0
 11
66.67897481
 21
38.06741055
 31
0.0
  0
LINE
  5
19C
100
AcDbEntity
  8
0
  6
CONTINUOUS
 62
       7
100
AcDbLine
 10
76.37897481
 20
46.66741055
 30
0.0
 11
76.37897481
 21
43.96741055
 31
0.0
  0
LINE
  5
19D
100
AcDbEntity
  8
0
  6
CONTINUOUS
 62
       7
100
AcDbLine
 10
76.37897481
 20
40.76741055
 30
0.0
 11
76.37897481
 21
38.06741055
 31
0.0
  0
LINE
  5
19E
100
AcDbEntity
  8
0
  6
CONTINUOUS
 62
       7
100
AcDbLine
 10
74.67897481
 20
43.96741055
 30
0.0
 11
74.67897481
 21
40.76741055
 31
0.0
  0
LINE
  5
19F
100
AcDbEntity
  8
0
  6
CONTINUOUS
 62
       7
100
AcDbLine
 10
64.42897481
 20
44.36741055
 30
0.0
 11
64.42897481
 21
40.36741055
 31
0.0
  0
LINE
  5
1A0
100
AcDbEntity
  8
0
  6
CONTINUOUS
 62
       7
100
AcDbLine
 10
59.47897481
 20
44.36741055
 30
0.0
 11
59.47897481
 21
40.36741055
 31
0.0
  0
LINE
  5
1A1
100
AcDbEntity
  8
0
  6
CONTINUOUS
 62
       7
100
AcDbLine
 10
56.92897481
 20
44.36741055
 30
0.0
 11
56.92897481
 21
40.36741055
 31
0.0
  0
LINE
  5
1A2
100
AcDbEntity
  8
0
  6
CONTINUOUS
 62
       7
100
AcDbLine
 10
66.27897481
 20
44.36741055
 30
0.0
 11
66.27897481
 21
43.96741055
 31
0.0
  0
LINE
  5
1A3
100
AcDbEntity
  8
0
  6
CONTINUOUS
 62
       7
100
AcDbLine
 10
80.67897481
 20
27.00741055
 30
0.0
 11
80.93897481
 21
27.80741055
 31
0.0
  0
LINE
  5
1A4
100
AcDbEntity
  8
0
  6
CONTINUOUS
 62
       7
100
AcDbLine
 10
80.67897481
 20
24.70741055
 30
0.0
 11
80.93897481
 21
23.90741055
 31
0.0
  0
LINE
  5
1A5
100
AcDbEntity
  8
0
  6
CONTINUOUS
 62
       7
100
AcDbLine
 10
77.57897481
 20
24.00741055
 30
0.0
 11
77.57897481
 21
27.70741055
 31
0.0
  0
LINE
  5
1A6
100
AcDbEntity
  8
0
  6
CONTINUOUS
 62
       7
100
AcDbLine
 10
74.04897481
 20
23.31741055
 30
0.0
 11
74.13897481
 21
23.41741055
 31
0.0
  0
LINE
  5
1A7
100
AcDbEntity
  8
0
  6
CONTINUOUS
 62
       7
100
AcDbLine
 10
74.13897481
 20
33.37741055
 30
0.0
 11
74.04897481
 21
33.47741055
 31
0.0
  0
LINE
  5
1A8
100
AcDbEntity
  8
0
  6
CONTINUOUS
 62
       7
100
AcDbLine
 10
72.81897481
 20
28.39741055
 30
0.0
 11
71.37897481
 21
28.39741055
 31
0.0
  0
LINE
  5
1A9
100
AcDbEntity
  8
0
  6
CONTINUOUS
 62
       7
100
AcDbLine
 10
71.37897481
 20
23.31741055
 30
0.0
 11
71.37897481
 21
23.41741055
 31
0.0
  0
LINE
  5
1AA
100
AcDbEntity
  8
0
  6
CONTINUOUS
 62
       7
100
AcDbLine
 10
75.67897481
 20
28.39741055
 30
0.0
 11
74.04897481
 21
28.39741055
 31
0.0
  0
LINE
  5
1AB
100
AcDbEntity
  8
0
  6
CONTINUOUS
 62
       7
100
AcDbLine
 10
74.04897481
 20
28.39741055
 30
0.0
 11
74.13897481
 21
28.49741055
 31
0.0
  0
LINE
  5
1AC
100
AcDbEntity
  8
0
  6
CONTINUOUS
 62
       7
100
AcDbLine
 10
74.13897481
 20
28.29741055
 30
0.0
 11
74.04897481
 21
28.39741055
 31
0.0
  0
LINE
  5
1AD
100
AcDbEntity
  8
0
  6
CONTINUOUS
 62
       7
100
AcDbLine
 10
70.77897481
 20
23.31741055
 30
0.0
 11
70.77897481
 21
33.47741055
 31
0.0
  0
LINE
  5
1AE
100
AcDbEntity
  8
0
  6
CONTINUOUS
 62
       7
100
AcDbLine
 10
73.94897481
 20
23.31741055
 30
0.0
 11
73.94897481
 21
23.41741055
 31
0.0
  0
LINE
  5
1AF
100
AcDbEntity
  8
0
  6
CONTINUOUS
 62
       7
100
AcDbLine
 10
72.81897481
 20
23.31741055
 30
0.0
 11
72.81897481
 21
23.41741055
 31
0.0
  0
LINE
  5
1B0
100
AcDbEntity
  8
0
  6
CONTINUOUS
 62
       7
100
AcDbLine
 10
77.57897481
 20
29.08741055
 30
0.0
 11
77.57897481
 21
32.78741055
 31
0.0
  0
LINE
  5
1B1
100
AcDbEntity
  8
0
  6
CONTINUOUS
 62
       7
100
AcDbLine
 10
80.67897481
 20
29.78741055
 30
0.0
 11
80.93897481
 21
28.98741055
 31
0.0
  0
LINE
  5
1B2
100
AcDbEntity
  8
0
  6
CONTINUOUS
 62
       7
100
AcDbLine
 10
75.67897481
 20
23.31741055
 30
0.0
 11
75.67897481
 21
33.47741055
 31
0.0
  0
LINE
  5
1B3
100
AcDbEntity
  8
0
  6
CONTINUOUS
 62
       7
100
AcDbLine
 10
80.67897481
 20
32.08741055
 30
0.0
 11
80.93897481
 21
32.88741055
 31
0.0
  0
LINE
  5
1B4
100
AcDbEntity
  8
0
  6
CONTINUOUS
 62
       7
100
AcDbLine
 10
77.67897481
 20
33.47741055
 30
0.0
 11
77.67897481
 21
34.07741055
 31
0.0
  0
LINE
  5
1B5
100
AcDbEntity
  8
0
  6
CONTINUOUS
 62
       7
100
AcDbLine
 10
71.37897481
 20
33.37741055
 30
0.0
 11
71.37897481
 21
33.47741055
 31
0.0
  0
LINE
  5
1B6
100
AcDbEntity
  8
0
  6
CONTINUOUS
 62
       7
100
AcDbLine
 10
72.81897481
 20
33.37741055
 30
0.0
 11
72.81897481
 21
33.47741055
 31
0.0
  0
LINE
  5
1B7
100
AcDbEntity
  8
0
  6
CONTINUOUS
 62
       7
100
AcDbLine
 10
73.94897481
 20
33.37741055
 30
0.0
 11
73.94897481
 21
33.47741055
 31
0.0
  0
LINE
  5
1B8
100
AcDbEntity
  8
0
  6
CONTINUOUS
 62
       7
100
AcDbLine
 10
71.37897481
 20
28.29741055
 30
0.0
 11
71.37897481
 21
28.49741055
 31
0.0
  0
LINE
  5
1B9
100
AcDbEntity
  8
0
  6
CONTINUOUS
 62
       7
100
AcDbLine
 10
72.81897481
 20
28.29741055
 30
0.0
 11
72.81897481
 21
28.49741055
 31
0.0
  0
LINE
  5
1BA
100
AcDbEntity
  8
0
  6
CONTINUOUS
 62
       7
100
AcDbLine
 10
73.94897481
 20
28.29741055
 30
0.0
 11
73.94897481
 21
28.49741055
 31
0.0
  0
LINE
  5
1BB
100
AcDbEntity
  8
0
  6
CONTINUOUS
 62
       7
100
AcDbLine
 10
66.27897481
 20
14.48741055
 30
0.0
 11
66.27897481
 21
12.18741055
 31
0.0
  0
LINE
  5
1BC
100
AcDbEntity
  8
0
  6
CONTINUOUS
 62
       7
100
AcDbLine
 10
56.41897481
 20
14.48741055
 30
0.0
 11
66.27897481
 21
14.48741055
 31
0.0
  0
LINE
  5
1BD
100
AcDbEntity
  8
0
  6
CONTINUOUS
 62
       7
100
AcDbLine
 10
56.41897481
 20
18.48741055
 30
0.0
 11
56.41897481
 21
14.48741055
 31
0.0
  0
LINE
  5
1BE
100
AcDbEntity
  8
0
  6
CONTINUOUS
 62
       7
100
AcDbLine
 10
66.27897481
 20
18.48741055
 30
0.0
 11
56.41897481
 21
18.48741055
 31
0.0
  0
LINE
  5
1BF
100
AcDbEntity
  8
0
  6
CONTINUOUS
 62
       7
100
AcDbLine
 10
66.27897481
 20
20.78741055
 30
0.0
 11
66.27897481
 21
18.48741055
 31
0.0
  0
LINE
  5
1C0
100
AcDbEntity
  8
0
  6
CONTINUOUS
 62
       7
100
AcDbLine
 10
82.47897481
 20
20.78741055
 30
0.0
 11
66.27897481
 21
20.78741055
 31
0.0
  0
LINE
  5
1C1
100
AcDbEntity
  8
0
  6
CONTINUOUS
 62
       7
100
AcDbLine
 10
66.27897481
 20
12.18741055
 30
0.0
 11
82.47897481
 21
12.18741055
 31
0.0
  0
LINE
  5
1C2
100
AcDbEntity
  8
0
  6
CONTINUOUS
 62
       7
100
AcDbLine
 10
66.27897481
 20
14.88741055
 30
0.0
 11
66.27897481
 21
14.48741055
 31
0.0
  0
LINE
  5
1C3
100
AcDbEntity
  8
0
  6
CONTINUOUS
 62
       7
100
AcDbLine
 10
77.47897481
 20
14.88741055
 30
0.0
 11
66.27897481
 21
14.88741055
 31
0.0
  0
LINE
  5
1C4
100
AcDbEntity
  8
0
  6
CONTINUOUS
 62
       7
100
AcDbLine
 10
77.47897481
 20
18.08741055
 30
0.0
 11
77.47897481
 21
14.88741055
 31
0.0
  0
LINE
  5
1C5
100
AcDbEntity
  8
0
  6
CONTINUOUS
 62
       7
100
AcDbLine
 10
66.27897481
 20
18.08741055
 30
0.0
 11
77.47897481
 21
18.08741055
 31
0.0
  0
LINE
  5
1C6
100
AcDbEntity
  8
0
  6
CONTINUOUS
 62
       7
100
AcDbLine
 10
66.67897481
 20
20.78741055
 30
0.0
 11
66.67897481
 21
18.08741055
 31
0.0
  0
LINE
  5
1C7
100
AcDbEntity
  8
0
  6
CONTINUOUS
 62
       7
100
AcDbLine
 10
66.67897481
 20
14.88741055
 30
0.0
 11
66.67897481
 21
12.18741055
 31
0.0
  0
LINE
  5
1C8
100
AcDbEntity
  8
0
  6
CONTINUOUS
 62
       7
100
AcDbLine
 10
76.37897481
 20
20.78741055
 30
0.0
 11
76.37897481
 21
18.08741055
 31
0.0
  0
LINE
  5
1C9
100
AcDbEntity
  8
0
  6
CONTINUOUS
 62
       7
100
AcDbLine
 10
76.37897481
 20
14.88741055
 30
0.0
 11
76.37897481
 21
12.18741055
 31
0.0
  0
LINE
  5
1CA
100
AcDbEntity
  8
0
  6
CONTINUOUS
 62
       7
100
AcDbLine
 10
74.67897481
 20
18.08741055
 30
0.0
 11
74.67897481
 21
14.88741055
 31
0.0
  0
LINE
  5
1CB
100
AcDbEntity
  8
0
  6
CONTINUOUS
 62
       7
100
AcDbLine
 10
64.42897481
 20
18.48741055
 30
0.0
 11
64.42897481
 21
14.48741055
 31
0.0
  0
LINE
  5
1CC
100
AcDbEntity
  8
0
  6
CONTINUOUS
 62
       7
100
AcDbLine
 10
59.47897481
 20
18.48741055
 30
0.0
 11
59.47897481
 21
14.48741055
 31
0.0
  0
LINE
  5
1CD
100
AcDbEntity
  8
0
  6
CONTINUOUS
 62
       7
100
AcDbLine
 10
56.92897481
 20
18.48741055
 30
0.0
 11
56.92897481
 21
14.48741055
 31
0.0
  0
LINE
  5
1CE
100
AcDbEntity
  8
0
  6
CONTINUOUS
 62
       7
100
AcDbLine
 10
66.27897481
 20
18.48741055
 30
0.0
 11
66.27897481
 21
18.08741055
 31
0.0
  0
ARC
  5
1CF
100
AcDbEntity
  8
0
  6
CONTINUOUS
 62
       7
100
AcDbCircle
 10
75.57510009
 20
28.20353582
 30
0.0
 40
0.09407435
100
AcDbArc
 50
356.26677637
 51
93.73322363
  0
ARC
  5
1D0
100
AcDbEntity
  8
0
  6
CONTINUOUS
 62
       7
100
AcDbCircle
 10
75.56991987
 20
23.51646549
 30
0.0
 40
0.09905946
100
AcDbArc
 50
269.45337538
 51
0.54662462
  0
ARC
  5
1D1
100
AcDbEntity
  8
0
  6
CONTINUOUS
 62
       7
100
AcDbCircle
 10
75.05700415
 20
23.51938121
 30
0.0
 40
0.1019897
100
AcDbArc
 50
271.10714849
 51
358.89285151
  0
ARC
  5
1D2
100
AcDbEntity
  8
0
  6
CONTINUOUS
 62
       7
100
AcDbCircle
 10
71.05134387
 20
23.5197796
 30
0.0
 40
0.10239646
100
AcDbArc
 50
181.32571832
 51
268.67428168
  0
ARC
  5
1D3
100
AcDbEntity
  8
0
  6
CONTINUOUS
 62
       7
100
AcDbCircle
 10
71.04633731
 20
28.20004805
 30
0.0
 40
0.09739821
100
AcDbArc
 50
88.44826381
 51
181.55173619
  0
ARC
  5
1D4
100
AcDbEntity
  8
0
  6
CONTINUOUS
 62
       7
100
AcDbCircle
 10
75.06203122
 20
28.20046695
 30
0.0
 40
0.09699176
100
AcDbArc
 50
358.19419411
 51
91.80580589
  0
ARC
  5
1D5
100
AcDbEntity
  8
0
  6
CONTINUOUS
 62
       7
100
AcDbCircle
 10
75.05700321
 20
28.59938215
 30
0.0
 40
0.10199067
100
AcDbArc
 50
271.10766825
 51
358.89233175
  0
ARC
  5
1D6
100
AcDbEntity
  8
0
  6
CONTINUOUS
 62
       7
100
AcDbCircle
 10
71.05134481
 20
28.59978054
 30
0.0
 40
0.10239742
100
AcDbArc
 50
181.3262319
 51
268.6737681
  0
ARC
  5
1D7
100
AcDbEntity
  8
0
  6
CONTINUOUS
 62
       7
100
AcDbCircle
 10
71.04633642
 20
33.28004894
 30
0.0
 40
0.09739734
100
AcDbArc
 50
88.44772375
 51
181.55227625
  0
ARC
  5
1D8
100
AcDbEntity
  8
0
  6
CONTINUOUS
 62
       7
100
AcDbCircle
 10
75.06203212
 20
33.28046785
 30
0.0
 40
0.09699089
100
AcDbArc
 50
358.19364723
 51
91.80635277
  0
ARC
  5
1D9
100
AcDbEntity
  8
0
  6
CONTINUOUS
 62
       7
100
AcDbCircle
 10
75.57510101
 20
33.28353674
 30
0.0
 40
0.09407349
100
AcDbArc
 50
356.266177
 51
93.733823
  0
ARC
  5
1DA
100
AcDbEntity
  8
0
  6
CONTINUOUS
 62
       7
100
AcDbCircle
 10
75.5699189
 20
28.59646647
 30
0.0
 40
0.09906042
100
AcDbArc
 50
269.45394285
 51
0.54605715
  0
ARC
  5
1DB
100
AcDbEntity
  8
0
  6
CONTINUOUS
 62
       7
100
AcDbCircle
 10
80.58605117
 20
32.5444869
 30
0.0
 40
0.49297444
100
AcDbArc
 50
359.17752479
 51
90.82247521
  0
ARC
  5
1DC
100
AcDbEntity
  8
0
  6
CONTINUOUS
 62
       7
100
AcDbCircle
 10
80.58100504
 20
29.33538032
 30
0.0
 40
0.49797392
100
AcDbArc
 50
269.76640648
 51
0.23359352
  0
ARC
  5
1DD
100
AcDbEntity
  8
0
  6
CONTINUOUS
 62
       7
100
AcDbCircle
 10
80.58605025
 20
27.46448598
 30
0.0
 40
0.49297534
100
AcDbArc
 50
359.17763316
 51
90.82236684
  0
ARC
  5
1DE
100
AcDbEntity
  8
0
  6
CONTINUOUS
 62
       7
100
AcDbCircle
 10
80.58100597
 20
24.2553794
 30
0.0
 40
0.49797299
100
AcDbArc
 50
269.76629921
 51
0.23370079
  0
ARC
  5
1DF
100
AcDbEntity
  8
0
  6
DASHED
 62
       7
100
AcDbCircle
 10
105.09104927
 20
41.959485
 30
0.0
 40
0.79792824
100
AcDbArc
 50
359.85104223
 51
90.14895777
  0
ARC
  5
1E0
100
AcDbEntity
  8
0
  6
DASHED
 62
       7
100
AcDbCircle
 10
101.19106306
 20
44.55949879
 30
0.0
 40
1.80208945
100
AcDbArc
 50
180.0663937
 51
269.9336063
  0
ARC
  5
1E1
100
AcDbEntity
  8
0
  6
DASHED
 62
       7
100
AcDbCircle
 10
101.19106601
 20
44.55950174
 30
0.0
 40
0.80209392
100
AcDbArc
 50
180.14938
 51
269.85062
  0
ARC
  5
1E2
100
AcDbEntity
  8
0
  6
DASHED
 62
       7
100
AcDbCircle
 10
105.09105222
 20
41.95948796
 30
0.0
 40
1.79792379
100
AcDbArc
 50
359.93379764
 51
90.06620236
  0
ARC
  5
1E3
100
AcDbEntity
  8
0
  6
DASHED
 62
       7
100
AcDbCircle
 10
105.08605338
 20
18.56033198
 30
0.0
 40
1.8029238
100
AcDbArc
 50
270.09284131
 51
359.90715869
  0
ARC
  5
1E4
100
AcDbEntity
  8
0
  6
DASHED
 62
       7
100
AcDbCircle
 10
101.1860634
 20
15.96032196
 30
0.0
 40
0.7970939
100
AcDbArc
 50
89.79072478
 51
180.20927522
  0
ARC
  5
1E5
100
AcDbEntity
  8
0
  6
DASHED
 62
       7
100
AcDbCircle
 10
101.1860619
 20
15.96032346
 30
0.0
 40
1.79708944
100
AcDbArc
 50
89.90712871
 51
180.09287129
  0
ARC
  5
1E6
100
AcDbEntity
  8
0
  6
DASHED
 62
       7
100
AcDbCircle
 10
105.08605188
 20
18.56033348
 30
0.0
 40
0.80292826
100
AcDbArc
 50
270.20857704
 51
359.79142296
  0
ARC
  5
1E7
100
AcDbEntity
  8
0
  6
CONTINUOUS
 62
       7
100
AcDbCircle
 10
89.19080581
 20
10.15992464
 30
0.0
 40
0.09820119
100
AcDbArc
 50
358.53298462
 51
96.91963737
  0
ARC
  5
1E8
100
AcDbEntity
  8
0
  6
CONTINUOUS
 62
       7
100
AcDbCircle
 10
90.39067429
 20
9.57877996
 30
0.0
 40
0.10170869
100
AcDbArc
 50
180.77146092
 51
274.68116107
  0
ARC
  5
1E9
100
AcDbEntity
  8
0
  6
CONTINUOUS
 62
       7
100
AcDbCircle
 10
89.13593964
 20
7.96034748
 30
0.0
 40
0.20305641
100
AcDbArc
 50
268.03437159
 51
359.17126636
  0
ARC
  5
1EA
100
AcDbEntity
  8
0
  6
CONTINUOUS
 62
       7
100
AcDbCircle
 10
89.14061785
 20
9.92517257
 30
0.0
 40
0.19836958
100
AcDbArc
 50
0.64641534
 51
66.73371971
  0
ARC
  5
1EB
100
AcDbEntity
  8
0
  6
CONTINUOUS
 62
       7
100
AcDbCircle
 10
93.77207927
 20
20.45132214
 30
0.0
 40
11.30164887
100
AcDbArc
 50
229.34467281
 51
246.24223011
  0
ARC
  5
1EC
100
AcDbEntity
  8
0
  6
CONTINUOUS
 62
       7
100
AcDbCircle
 10
86.54220586
 20
12.03091837
 30
0.0
 40
0.20326131
100
AcDbArc
 50
180.98884153
 51
229.04494542
  0
ARC
  5
1ED
100
AcDbEntity
  8
0
  6
CONTINUOUS
 62
       7
100
AcDbCircle
 10
86.53817266
 20
12.64650149
 30
0.0
 40
0.19919992
100
AcDbArc
 50
45.02174288
 51
179.73852723
  0
ARC
  5
1EE
100
AcDbEntity
  8
0
  6
CONTINUOUS
 62
       7
100
AcDbCircle
 10
93.87564795
 20
20.13556832
 30
0.0
 40
10.30492383
100
AcDbArc
 50
228.58588
 51
279.34514212
  0
ARC
  5
1EF
100
AcDbEntity
  8
0
  6
CONTINUOUS
 62
       7
100
AcDbCircle
 10
93.87940598
 20
20.8385788
 30
0.0
 40
10.99862534
100
AcDbArc
 50
278.73113509
 51
291.10055179
  0
ARC
  5
1F0
100
AcDbEntity
  8
0
  6
CONTINUOUS
 62
       7
100
AcDbCircle
 10
99.25753311
 20
6.83847229
 30
0.0
 40
3.99899574
100
AcDbArc
 50
89.69279162
 51
110.77681391
  0
ARC
  5
1F1
100
AcDbEntity
  8
0
  6
CONTINUOUS
 62
       7
100
AcDbCircle
 10
101.28204623
 20
10.04048196
 30
0.0
 40
0.7969345
100
AcDbArc
 50
359.77917945
 51
90.22082055
  0
ARC
  5
1F2
100
AcDbEntity
  8
0
  6
CONTINUOUS
 62
       7
100
AcDbCircle
 10
101.07700418
 20
9.69177363
 30
0.0
 40
1.00198013
100
AcDbArc
 50
285.74956595
 51
359.75050689
  0
ARC
  5
1F3
100
AcDbEntity
  8
0
  6
CONTINUOUS
 62
       7
100
AcDbCircle
 10
100.48852605
 20
7.86469577
 30
0.0
 40
0.59728539
100
AcDbArc
 50
106.4912981
 51
270.04304857
  0
ARC
  5
1F4
100
AcDbEntity
  8
0
  6
CONTINUOUS
 62
       7
100
AcDbCircle
 10
102.36334158
 20
9.26610291
 30
0.0
 40
1.99869714
100
AcDbArc
 50
269.87481987
 51
324.91993379
  0
ARC
  5
1F5
100
AcDbEntity
  8
0
  6
CONTINUOUS
 62
       7
100
AcDbCircle
 10
104.8924153
 20
10.26689609
 30
0.0
 40
0.49694168
100
AcDbArc
 50
322.93954821
 51
357.75280367
  0
ARC
  5
1F6
100
AcDbEntity
  8
0
  6
CONTINUOUS
 62
       7
100
AcDbCircle
 10
104.39274847
 20
11.28789855
 30
0.0
 40
0.99622647
100
AcDbArc
 50
359.97193352
 51
60.78631851
  0
ARC
  5
1F7
100
AcDbEntity
  8
0
  6
CONTINUOUS
 62
       7
100
AcDbCircle
 10
94.89267883
 20
-5.15915218
 30
0.0
 40
19.98973367
100
AcDbArc
 50
60.02836265
 51
72.42404732
  0
ARC
  5
1F8
100
AcDbEntity
  8
0
  6
CONTINUOUS
 62
       7
100
AcDbCircle
 10
100.58676208
 20
13.79663783
 30
0.0
 40
0.19778878
100
AcDbArc
 50
74.69351077
 51
179.77615719
  0
ARC
  5
1F9
100
AcDbEntity
  8
0
  6
CONTINUOUS
 62
       7
100
AcDbCircle
 10
99.5755183
 20
12.99870339
 30
0.0
 40
0.30499297
100
AcDbArc
 50
193.51809384
 51
232.29239201
  0
ARC
  5
1FA
100
AcDbEntity
  8
0
  6
CONTINUOUS
 62
       7
100
AcDbCircle
 10
99.01945781
 20
13.19861803
 30
0.0
 40
0.19344652
100
AcDbArc
 50
11.56816018
 51
124.82902085
  0
ARC
  5
1FB
100
AcDbEntity
  8
0
  6
CONTINUOUS
 62
       7
100
AcDbCircle
 10
93.91811835
 20
20.84890526
 30
0.0
 40
9.00172991
100
AcDbArc
 50
267.26747673
 51
303.67167281
  0
ARC
  5
1FC
100
AcDbEntity
  8
0
  6
CONTINUOUS
 62
       7
100
AcDbCircle
 10
94.32287627
 20
20.11937626
 30
0.0
 40
8.30394299
100
AcDbArc
 50
196.45336355
 51
264.23650831
  0
ARC
  5
1FD
100
AcDbEntity
  8
0
  6
CONTINUOUS
 62
       7
100
AcDbCircle
 10
86.84897481
 20
17.93741055
 30
0.0
 40
0.51865223
100
AcDbArc
 50
19.13364321
 51
199.13364321
  0
ARC
  5
1FE
100
AcDbEntity
  8
0
  6
CONTINUOUS
 62
       7
100
AcDbCircle
 10
93.9320324
 20
20.45013414
 30
0.0
 40
6.9969109
100
AcDbArc
 50
199.56174805
 51
302.47577792
  0
ARC
  5
1FF
100
AcDbEntity
  8
0
  6
CONTINUOUS
 62
       7
100
AcDbCircle
 10
97.58994136
 20
14.72007729
 30
0.0
 40
0.19905132
100
AcDbArc
 50
299.8365391
 51
359.23237107
  0
ARC
  5
200
100
AcDbEntity
  8
0
  6
CONTINUOUS
 62
       7
100
AcDbCircle
 10
98.28604821
 20
29.86033715
 30
0.0
 40
0.49708201
100
AcDbArc
 50
89.6626655
 51
180.3373345
  0
ARC
  5
201
100
AcDbEntity
  8
0
  6
CONTINUOUS
 62
       7
100
AcDbCircle
 10
99.59106617
 20
42.5595019
 30
0.0
 40
0.50209571
100
AcDbArc
 50
180.23865172
 51
269.76134828
  0
ARC
  5
202
100
AcDbEntity
  8
0
  6
CONTINUOUS
 62
       7
100
AcDbCircle
 10
99.38534268
 20
47.73035874
 30
0.0
 40
0.02729455
100
AcDbArc
 50
82.35287163
 51
165.02726342
  0
ARC
  5
203
100
AcDbEntity
  8
0
  6
CONTINUOUS
 62
       7
100
AcDbCircle
 10
100.3920626
 20
47.73049834
 30
0.0
 40
0.02708877
100
AcDbArc
 50
353.45475236
 51
96.54524764
  0
ARC
  5
204
100
AcDbEntity
  8
0
  6
CONTINUOUS
 62
       7
100
AcDbCircle
 10
100.71584854
 20
46.71822441
 30
0.0
 40
0.20791814
100
AcDbArc
 50
185.74527726
 51
313.50185231
  0
ARC
  5
205
100
AcDbEntity
  8
0
  6
CONTINUOUS
 62
       7
100
AcDbCircle
 10
101.19296045
 20
49.62532695
 30
0.0
 40
0.99601654
100
AcDbArc
 50
0.11985857
 51
80.40525473
  0
ARC
  5
206
100
AcDbEntity
  8
0
  6
CONTINUOUS
 62
       7
100
AcDbCircle
 10
83.48107811
 20
51.75530725
 30
0.0
 40
1.00210551
100
AcDbArc
 50
90.120257
 51
179.879743
  0
ARC
  5
207
100
AcDbEntity
  8
0
  6
CONTINUOUS
 62
       7
100
AcDbCircle
 10
83.48605522
 20
8.76449095
 30
0.0
 40
1.0071053
100
AcDbArc
 50
180.4028186
 51
269.5971814
  0
CIRCLE
  5
208
100
AcDbEntity
  8
0
  6
CONTINUOUS
 62
       7
100
AcDbCircle
 10
93.2881191
 20
16.76241055
 30
0.0
 40
2.79998779
  0
CIRCLE
  5
209
100
AcDbEntity
  8
0
  6
CONTINUOUS
 62
       7
100
AcDbCircle
 10
93.2881191
 20
43.76241055
 30
0.0
 40
2.79998779
  0
CIRCLE
  5
20A
100
AcDbEntity
  8
0
  6
CONTINUOUS
 62
       7
100
AcDbCircle
 10
93.2881191
 20
16.76241055
 30
0.0
 40
3.0
  0
CIRCLE
  5
20B
100
AcDbEntity
  8
0
  6
CONTINUOUS
 62
       7
100
AcDbCircle
 10
93.2881191
 20
43.76241055
 30
0.0
 40
3.0
  0
LINE
  5
20C
100
AcDbEntity
  8
0
  6
CONTINUOUS
 62
       7
100
AcDbLine
 10
93.28609474
 20
43.33054472
 30
0.0
 11
94.1339627
 21
42.48267675
 31
0.0
  0
LINE
  5
20D
100
AcDbEntity
  8
0
  6
CONTINUOUS
 62
       7
100
AcDbLine
 10
93.71035881
 20
43.75480879
 30
0.0
 11
94.55822677
 21
42.90694082
 31
0.0
  0
LINE
  5
20E
100
AcDbEntity
  8
0
  6
CONTINUOUS
 62
       7
100
AcDbLine
 10
93.71035881
 20
43.75480879
 30
0.0
 11
94.55822677
 21
44.60267675
 31
0.0
  0
LINE
  5
20F
100
AcDbEntity
  8
0
  6
CONTINUOUS
 62
       7
100
AcDbLine
 10
92.43822677
 20
42.48267675
 30
0.0
 11
93.28609474
 21
43.33054472
 31
0.0
  0
LINE
  5
210
100
AcDbEntity
  8
0
  6
CONTINUOUS
 62
       7
100
AcDbLine
 10
92.43822677
 20
45.02694082
 30
0.0
 11
93.28609474
 21
44.17907286
 31
0.0
  0
LINE
  5
211
100
AcDbEntity
  8
0
  6
CONTINUOUS
 62
       7
100
AcDbLine
 10
92.0139627
 20
44.60267675
 30
0.0
 11
92.86183067
 21
43.75480879
 31
0.0
  0
LINE
  5
212
100
AcDbEntity
  8
0
  6
CONTINUOUS
 62
       7
100
AcDbLine
 10
92.0139627
 20
42.90694082
 30
0.0
 11
92.86183067
 21
43.75480879
 31
0.0
  0
LINE
  5
213
100
AcDbEntity
  8
0
  6
CONTINUOUS
 62
       7
100
AcDbLine
 10
93.28609474
 20
44.17907286
 30
0.0
 11
94.1339627
 21
45.02694082
 31
0.0
  0
LINE
  5
214
100
AcDbEntity
  8
0
  6
CONTINUOUS
 62
       7
100
AcDbLine
 10
92.0139627
 20
44.60267675
 30
0.0
 11
92.43822677
 21
45.02694082
 31
0.0
  0
LINE
  5
215
100
AcDbEntity
  8
0
  6
CONTINUOUS
 62
       7
100
AcDbLine
 10
94.55822677
 20
44.60267675
 30
0.0
 11
94.1339627
 21
45.02694082
 31
0.0
  0
LINE
  5
216
100
AcDbEntity
  8
0
  6
CONTINUOUS
 62
       7
100
AcDbLine
 10
94.1339627
 20
42.48267675
 30
0.0
 11
94.55822677
 21
42.90694082
 31
0.0
  0
LINE
  5
217
100
AcDbEntity
  8
0
  6
CONTINUOUS
 62
       7
100
AcDbLine
 10
92.0139627
 20
42.90694082
 30
0.0
 11
92.43822677
 21
42.48267675
 31
0.0
  0
LINE
  5
218
100
AcDbEntity
  8
0
  6
CONTINUOUS
 62
       7
100
AcDbLine
 10
93.28609474
 20
17.17907286
 30
0.0
 11
94.1339627
 21
18.02694082
 31
0.0
  0
LINE
  5
219
100
AcDbEntity
  8
0
  6
CONTINUOUS
 62
       7
100
AcDbLine
 10
92.43822677
 20
18.02694082
 30
0.0
 11
93.28609474
 21
17.17907286
 31
0.0
  0
LINE
  5
21A
100
AcDbEntity
  8
0
  6
CONTINUOUS
 62
       7
100
AcDbLine
 10
92.43822677
 20
15.48267675
 30
0.0
 11
93.28609474
 21
16.33054472
 31
0.0
  0
LINE
  5
21B
100
AcDbEntity
  8
0
  6
CONTINUOUS
 62
       7
100
AcDbLine
 10
92.0139627
 20
15.90694082
 30
0.0
 11
92.86183067
 21
16.75480879
 31
0.0
  0
LINE
  5
21C
100
AcDbEntity
  8
0
  6
CONTINUOUS
 62
       7
100
AcDbLine
 10
92.0139627
 20
17.60267675
 30
0.0
 11
92.86183067
 21
16.75480879
 31
0.0
  0
LINE
  5
21D
100
AcDbEntity
  8
0
  6
CONTINUOUS
 62
       7
100
AcDbLine
 10
92.0139627
 20
17.60267675
 30
0.0
 11
92.43822677
 21
18.02694082
 31
0.0
  0
LINE
  5
21E
100
AcDbEntity
  8
0
  6
CONTINUOUS
 62
       7
100
AcDbLine
 10
92.0139627
 20
15.90694082
 30
0.0
 11
92.43822677
 21
15.48267675
 31
0.0
  0
LINE
  5
21F
100
AcDbEntity
  8
0
  6
CONTINUOUS
 62
       7
100
AcDbLine
 10
94.1339627
 20
15.48267675
 30
0.0
 11
94.55822677
 21
15.90694082
 31
0.0
  0
LINE
  5
220
100
AcDbEntity
  8
0
  6
CONTINUOUS
 62
       7
100
AcDbLine
 10
94.1339627
 20
18.02694082
 30
0.0
 11
94.55822677
 21
17.60267675
 31
0.0
  0
LINE
  5
221
100
AcDbEntity
  8
0
  6
CONTINUOUS
 62
       7
100
AcDbLine
 10
93.71035881
 20
16.75480879
 30
0.0
 11
94.55822677
 21
17.60267675
 31
0.0
  0
LINE
  5
222
100
AcDbEntity
  8
0
  6
CONTINUOUS
 62
       7
100
AcDbLine
 10
93.71035881
 20
16.75480879
 30
0.0
 11
94.55822677
 21
15.90694082
 31
0.0
  0
LINE
  5
223
100
AcDbEntity
  8
0
  6
CONTINUOUS
 62
       7
100
AcDbLine
 10
93.28609474
 20
16.33054472
 30
0.0
 11
94.1339627
 21
15.48267675
 31
0.0
  0
LINE
  5
224
100
AcDbEntity
  8
0
  6
CONTINUOUS
 62
       7
100
AcDbLine
 10
-94.51102519
 20
45.25741055
 30
0.0
 11
-99.51102519
 21
45.25741055
 31
0.0
  0
LINE
  5
225
100
AcDbEntity
  8
0
  6
CONTINUOUS
 62
       7
100
AcDbLine
 10
-94.51102519
 20
50.25741055
 30
0.0
 11
-94.51102519
 21
45.25741055
 31
0.0
  0
LINE
  5
226
100
AcDbEntity
  8
0
  6
CONTINUOUS
 62
       7
100
AcDbLine
 10
-2.02102519
 20
10.25741055
 30
0.0
 11
-2.02102519
 21
10.15741055
 31
0.0
  0
LINE
  5
227
100
AcDbEntity
  8
0
  6
CONTINUOUS
 62
       7
100
AcDbLine
 10
-97.01102519
 20
10.25741055
 30
0.0
 11
-2.02102519
 21
10.25741055
 31
0.0
  0
LINE
  5
228
100
AcDbEntity
  8
0
  6
CONTINUOUS
 62
       7
100
AcDbLine
 10
-97.01102519
 20
10.15741055
 30
0.0
 11
-97.01102519
 21
10.25741055
 31
0.0
  0
LINE
  5
229
100
AcDbEntity
  8
0
  6
CONTINUOUS
 62
       7
100
AcDbLine
 10
-2.02102519
 20
50.25741055
 30
0.0
 11
-2.02102519
 21
50.35741055
 31
0.0
  0
LINE
  5
22A
100
AcDbEntity
  8
0
  6
CONTINUOUS
 62
       7
100
AcDbLine
 10
-97.01102519
 20
50.25741055
 30
0.0
 11
-2.02102519
 21
50.25741055
 31
0.0
  0
LINE
  5
22B
100
AcDbEntity
  8
0
  6
CONTINUOUS
 62
       7
100
AcDbLine
 10
-97.01102519
 20
50.35741055
 30
0.0
 11
-97.01102519
 21
50.25741055
 31
0.0
  0
LINE
  5
22C
100
AcDbEntity
  8
0
  6
CONTINUOUS
 62
       7
100
AcDbLine
 10
-106.51102519
 20
22.40741055
 30
0.0
 11
-105.51102519
 21
22.40741055
 31
0.0
  0
LINE
  5
22D
100
AcDbEntity
  8
0
  6
CONTINUOUS
 62
       7
100
AcDbLine
 10
-105.51102519
 20
26.50741055
 30
0.0
 11
-106.51102519
 21
26.50741055
 31
0.0
  0
LINE
  5
22E
100
AcDbEntity
  8
0
  6
CONTINUOUS
 62
       7
100
AcDbLine
 10
-97.01102519
 20
50.35741055
 30
0.0
 11
-97.01102519
 21
52.75741055
 31
0.0
  0
LINE
  5
22F
100
AcDbEntity
  8
0
  6
CONTINUOUS
 62
       7
100
AcDbLine
 10
-99.61102519
 20
50.35741055
 30
0.0
 11
-97.01102519
 21
50.35741055
 31
0.0
  0
LINE
  5
230
100
AcDbEntity
  8
0
  6
CONTINUOUS
 62
       7
100
AcDbLine
 10
-99.61102519
 20
33.25741055
 30
0.0
 11
-99.61102519
 21
50.35741055
 31
0.0
  0
LINE
  5
231
100
AcDbEntity
  8
0
  6
CONTINUOUS
 62
       7
100
AcDbLine
 10
-97.01102519
 20
33.25741055
 30
0.0
 11
-99.61102519
 21
33.25741055
 31
0.0
  0
LINE
  5
232
100
AcDbEntity
  8
0
  6
CONTINUOUS
 62
       7
100
AcDbLine
 10
-97.01102519
 20
27.25741055
 30
0.0
 11
-97.01102519
 21
33.25741055
 31
0.0
  0
LINE
  5
233
100
AcDbEntity
  8
0
  6
CONTINUOUS
 62
       7
100
AcDbLine
 10
-99.61102519
 20
27.25741055
 30
0.0
 11
-97.01102519
 21
27.25741055
 31
0.0
  0
LINE
  5
234
100
AcDbEntity
  8
0
  6
CONTINUOUS
 62
       7
100
AcDbLine
 10
-99.61102519
 20
10.15741055
 30
0.0
 11
-99.61102519
 21
27.25741055
 31
0.0
  0
LINE
  5
235
100
AcDbEntity
  8
0
  6
CONTINUOUS
 62
       7
100
AcDbLine
 10
-97.01102519
 20
10.15741055
 30
0.0
 11
-99.61102519
 21
10.15741055
 31
0.0
  0
LINE
  5
236
100
AcDbEntity
  8
0
  6
CONTINUOUS
 62
       7
100
AcDbLine
 10
-97.01102519
 20
7.75741055
 30
0.0
 11
-97.01102519
 21
10.15741055
 31
0.0
  0
LINE
  5
237
100
AcDbEntity
  8
0
  6
CONTINUOUS
 62
       7
100
AcDbLine
 10
-100.01102519
 20
7.75741055
 30
0.0
 11
-97.01102519
 21
7.75741055
 31
0.0
  0
LINE
  5
238
100
AcDbEntity
  8
0
  6
CONTINUOUS
 62
       7
100
AcDbLine
 10
-106.51102519
 20
18.95741055
 30
0.0
 11
-101.01102519
 21
18.95741055
 31
0.0
  0
LINE
  5
239
100
AcDbEntity
  8
0
  6
CONTINUOUS
 62
       7
100
AcDbLine
 10
-111.51102519
 20
25.15741055
 30
0.0
 11
-111.51102519
 21
23.95741055
 31
0.0
  0
LINE
  5
23A
100
AcDbEntity
  8
0
  6
CONTINUOUS
 62
       7
100
AcDbLine
 10
-101.01102519
 20
30.15741055
 30
0.0
 11
-106.51102519
 21
30.15741055
 31
0.0
  0
LINE
  5
23B
100
AcDbEntity
  8
0
  6
CONTINUOUS
 62
       7
100
AcDbLine
 10
-101.01102519
 20
8.75741055
 30
0.0
 11
-101.01102519
 21
51.75741055
 31
0.0
  0
LINE
  5
23C
100
AcDbEntity
  8
0
  6
CONTINUOUS
 62
       7
100
AcDbLine
 10
-97.01102519
 20
52.75741055
 30
0.0
 11
-100.01102519
 21
52.75741055
 31
0.0
  0
LINE
  5
23D
100
AcDbEntity
  8
0
  6
CONTINUOUS
 62
       7
100
AcDbLine
 10
-2.02102519
 20
10.15741055
 30
0.0
 11
-2.02102519
 21
7.75741055
 31
0.0
  0
LINE
  5
23E
100
AcDbEntity
  8
0
  6
CONTINUOUS
 62
       7
100
AcDbLine
 10
0.57897481
 20
10.15741055
 30
0.0
 11
-2.02102519
 21
10.15741055
 31
0.0
  0
LINE
  5
23F
100
AcDbEntity
  8
0
  6
CONTINUOUS
 62
       7
100
AcDbLine
 10
0.57897481
 20
27.25741055
 30
0.0
 11
0.57897481
 21
10.15741055
 31
0.0
  0
LINE
  5
240
100
AcDbEntity
  8
0
  6
CONTINUOUS
 62
       7
100
AcDbLine
 10
-2.02102519
 20
27.25741055
 30
0.0
 11
0.57897481
 21
27.25741055
 31
0.0
  0
LINE
  5
241
100
AcDbEntity
  8
0
  6
CONTINUOUS
 62
       7
100
AcDbLine
 10
-2.02102519
 20
33.25741055
 30
0.0
 11
-2.02102519
 21
27.25741055
 31
0.0
  0
LINE
  5
242
100
AcDbEntity
  8
0
  6
CONTINUOUS
 62
       7
100
AcDbLine
 10
0.57897481
 20
33.25741055
 30
0.0
 11
-2.02102519
 21
33.25741055
 31
0.0
  0
LINE
  5
243
100
AcDbEntity
  8
0
  6
CONTINUOUS
 62
       7
100
AcDbLine
 10
0.57897481
 20
50.35741055
 30
0.0
 11
0.57897481
 21
33.25741055
 31
0.0
  0
LINE
  5
244
100
AcDbEntity
  8
0
  6
CONTINUOUS
 62
       7
100
AcDbLine
 10
-2.02102519
 20
50.35741055
 30
0.0
 11
0.57897481
 21
50.35741055
 31
0.0
  0
LINE
  5
245
100
AcDbEntity
  8
0
  6
CONTINUOUS
 62
       7
100
AcDbLine
 10
-2.02102519
 20
52.75741055
 30
0.0
 11
-2.02102519
 21
50.35741055
 31
0.0
  0
LINE
  5
246
100
AcDbEntity
  8
0
  6
CONTINUOUS
 62
       7
100
AcDbLine
 10
0.97897481
 20
52.75741055
 30
0.0
 11
-2.02102519
 21
52.75741055
 31
0.0
  0
LINE
  5
247
100
AcDbEntity
  8
0
  6
CONTINUOUS
 62
       7
100
AcDbLine
 10
1.97897481
 20
8.75741055
 30
0.0
 11
1.97897481
 21
51.75741055
 31
0.0
  0
LINE
  5
248
100
AcDbEntity
  8
0
  6
CONTINUOUS
 62
       7
100
AcDbLine
 10
7.47897481
 20
41.55741055
 30
0.0
 11
1.97897481
 21
41.55741055
 31
0.0
  0
LINE
  5
249
100
AcDbEntity
  8
0
  6
CONTINUOUS
 62
       7
100
AcDbLine
 10
12.47897481
 20
35.35741055
 30
0.0
 11
12.47897481
 21
36.55741055
 31
0.0
  0
LINE
  5
24A
100
AcDbEntity
  8
0
  6
CONTINUOUS
 62
       7
100
AcDbLine
 10
1.97897481
 20
30.35741055
 30
0.0
 11
7.47897481
 21
30.35741055
 31
0.0
  0
LINE
  5
24B
100
AcDbEntity
  8
0
  6
CONTINUOUS
 62
       7
100
AcDbLine
 10
-2.02102519
 20
7.75741055
 30
0.0
 11
0.97897481
 21
7.75741055
 31
0.0
  0
LINE
  5
24C
100
AcDbEntity
  8
0
  6
CONTINUOUS
 62
       7
100
AcDbLine
 10
7.47897481
 20
38.10741055
 30
0.0
 11
6.47897481
 21
38.10741055
 31
0.0
  0
LINE
  5
24D
100
AcDbEntity
  8
0
  6
CONTINUOUS
 62
       7
100
AcDbLine
 10
6.47897481
 20
34.00741055
 30
0.0
 11
7.47897481
 21
34.00741055
 31
0.0
  0
LINE
  5
24E
100
AcDbEntity
  8
0
  6
CONTINUOUS
 62
       7
100
AcDbLine
 10
-23.91102519
 20
28.10741055
 30
0.0
 11
-27.56102519
 21
28.10741055
 31
0.0
  0
LINE
  5
24F
100
AcDbEntity
  8
0
  6
CONTINUOUS
 62
       7
100
AcDbLine
 10
-23.81102519
 20
23.70741055
 30
0.0
 11
-23.81102519
 21
28.00741055
 31
0.0
  0
LINE
  5
250
100
AcDbEntity
  8
0
  6
CONTINUOUS
 62
       7
100
AcDbLine
 10
-27.56102519
 20
23.60741055
 30
0.0
 11
-23.91102519
 21
23.60741055
 31
0.0
  0
LINE
  5
251
100
AcDbEntity
  8
0
  6
CONTINUOUS
 62
       7
100
AcDbLine
 10
-27.56102519
 20
23.85741055
 30
0.0
 11
-23.91102519
 21
23.85741055
 31
0.0
  0
LINE
  5
252
100
AcDbEntity
  8
0
  6
CONTINUOUS
 62
       7
100
AcDbLine
 10
-23.91102519
 20
27.85741055
 30
0.0
 11
-27.56102519
 21
27.85741055
 31
0.0
  0
LINE
  5
253
100
AcDbEntity
  8
0
  6
CONTINUOUS
 62
       7
100
AcDbLine
 10
-25.06102519
 20
24.10741055
 30
0.0
 11
-25.06102519
 21
24.81741055
 31
0.0
  0
LINE
  5
254
100
AcDbEntity
  8
0
  6
CONTINUOUS
 62
       7
100
AcDbLine
 10
-26.06102519
 20
24.10741055
 30
0.0
 11
-25.06102519
 21
24.10741055
 31
0.0
  0
LINE
  5
255
100
AcDbEntity
  8
0
  6
CONTINUOUS
 62
       7
100
AcDbLine
 10
-26.06102519
 20
24.81741055
 30
0.0
 11
-26.06102519
 21
24.10741055
 31
0.0
  0
LINE
  5
256
100
AcDbEntity
  8
0
  6
CONTINUOUS
 62
       7
100
AcDbLine
 10
-26.06102519
 20
27.60741055
 30
0.0
 11
-26.06102519
 21
26.89741055
 31
0.0
  0
LINE
  5
257
100
AcDbEntity
  8
0
  6
CONTINUOUS
 62
       7
100
AcDbLine
 10
-25.06102519
 20
27.60741055
 30
0.0
 11
-26.06102519
 21
27.60741055
 31
0.0
  0
LINE
  5
258
100
AcDbEntity
  8
0
  6
CONTINUOUS
 62
       7
100
AcDbLine
 10
-25.06102519
 20
26.89741055
 30
0.0
 11
-25.06102519
 21
27.60741055
 31
0.0
  0
LINE
  5
259
100
AcDbEntity
  8
0
  6
CONTINUOUS
 62
       7
100
AcDbLine
 10
-26.86102519
 20
24.60741055
 30
0.0
 11
-27.56102519
 21
25.25741055
 31
0.0
  0
LINE
  5
25A
100
AcDbEntity
  8
0
  6
CONTINUOUS
 62
       7
100
AcDbLine
 10
-26.86102519
 20
24.00741055
 30
0.0
 11
-26.86102519
 21
24.60741055
 31
0.0
  0
LINE
  5
25B
100
AcDbEntity
  8
0
  6
CONTINUOUS
 62
       7
100
AcDbLine
 10
-27.06102519
 20
24.00741055
 30
0.0
 11
-26.86102519
 21
24.00741055
 31
0.0
  0
LINE
  5
25C
100
AcDbEntity
  8
0
  6
CONTINUOUS
 62
       7
100
AcDbLine
 10
-27.44102519
 20
24.35741055
 30
0.0
 11
-27.06102519
 21
24.00741055
 31
0.0
  0
LINE
  5
25D
100
AcDbEntity
  8
0
  6
CONTINUOUS
 62
       7
100
AcDbLine
 10
-27.56102519
 20
24.35741055
 30
0.0
 11
-27.44102519
 21
24.35741055
 31
0.0
  0
LINE
  5
25E
100
AcDbEntity
  8
0
  6
CONTINUOUS
 62
       7
100
AcDbLine
 10
-27.44102519
 20
27.35741055
 30
0.0
 11
-27.56102519
 21
27.35741055
 31
0.0
  0
LINE
  5
25F
100
AcDbEntity
  8
0
  6
CONTINUOUS
 62
       7
100
AcDbLine
 10
-27.06102519
 20
27.70741055
 30
0.0
 11
-27.44102519
 21
27.35741055
 31
0.0
  0
LINE
  5
260
100
AcDbEntity
  8
0
  6
CONTINUOUS
 62
       7
100
AcDbLine
 10
-26.86102519
 20
27.70741055
 30
0.0
 11
-27.06102519
 21
27.70741055
 31
0.0
  0
LINE
  5
261
100
AcDbEntity
  8
0
  6
CONTINUOUS
 62
       7
100
AcDbLine
 10
-26.86102519
 20
27.10741055
 30
0.0
 11
-26.86102519
 21
27.70741055
 31
0.0
  0
LINE
  5
262
100
AcDbEntity
  8
0
  6
CONTINUOUS
 62
       7
100
AcDbLine
 10
-27.56102519
 20
26.45741055
 30
0.0
 11
-26.86102519
 21
27.10741055
 31
0.0
  0
LINE
  5
263
100
AcDbEntity
  8
0
  6
CONTINUOUS
 62
       7
100
AcDbLine
 10
-27.44102519
 20
32.43741055
 30
0.0
 11
-27.56102519
 21
32.43741055
 31
0.0
  0
LINE
  5
264
100
AcDbEntity
  8
0
  6
CONTINUOUS
 62
       7
100
AcDbLine
 10
-27.06102519
 20
32.78741055
 30
0.0
 11
-27.44102519
 21
32.43741055
 31
0.0
  0
LINE
  5
265
100
AcDbEntity
  8
0
  6
CONTINUOUS
 62
       7
100
AcDbLine
 10
-26.86102519
 20
32.78741055
 30
0.0
 11
-27.06102519
 21
32.78741055
 31
0.0
  0
LINE
  5
266
100
AcDbEntity
  8
0
  6
CONTINUOUS
 62
       7
100
AcDbLine
 10
-26.86102519
 20
32.18741055
 30
0.0
 11
-26.86102519
 21
32.78741055
 31
0.0
  0
LINE
  5
267
100
AcDbEntity
  8
0
  6
CONTINUOUS
 62
       7
100
AcDbLine
 10
-27.56102519
 20
31.53741055
 30
0.0
 11
-26.86102519
 21
32.18741055
 31
0.0
  0
LINE
  5
268
100
AcDbEntity
  8
0
  6
CONTINUOUS
 62
       7
100
AcDbLine
 10
-26.86102519
 20
29.68741055
 30
0.0
 11
-27.56102519
 21
30.33741055
 31
0.0
  0
LINE
  5
269
100
AcDbEntity
  8
0
  6
CONTINUOUS
 62
       7
100
AcDbLine
 10
-26.86102519
 20
29.08741055
 30
0.0
 11
-26.86102519
 21
29.68741055
 31
0.0
  0
LINE
  5
26A
100
AcDbEntity
  8
0
  6
CONTINUOUS
 62
       7
100
AcDbLine
 10
-27.06102519
 20
29.08741055
 30
0.0
 11
-26.86102519
 21
29.08741055
 31
0.0
  0
LINE
  5
26B
100
AcDbEntity
  8
0
  6
CONTINUOUS
 62
       7
100
AcDbLine
 10
-27.44102519
 20
29.43741055
 30
0.0
 11
-27.06102519
 21
29.08741055
 31
0.0
  0
LINE
  5
26C
100
AcDbEntity
  8
0
  6
CONTINUOUS
 62
       7
100
AcDbLine
 10
-27.56102519
 20
29.43741055
 30
0.0
 11
-27.44102519
 21
29.43741055
 31
0.0
  0
LINE
  5
26D
100
AcDbEntity
  8
0
  6
CONTINUOUS
 62
       7
100
AcDbLine
 10
-25.06102519
 20
29.18741055
 30
0.0
 11
-25.06102519
 21
29.89741055
 31
0.0
  0
LINE
  5
26E
100
AcDbEntity
  8
0
  6
CONTINUOUS
 62
       7
100
AcDbLine
 10
-26.06102519
 20
29.18741055
 30
0.0
 11
-25.06102519
 21
29.18741055
 31
0.0
  0
LINE
  5
26F
100
AcDbEntity
  8
0
  6
CONTINUOUS
 62
       7
100
AcDbLine
 10
-26.06102519
 20
29.89741055
 30
0.0
 11
-26.06102519
 21
29.18741055
 31
0.0
  0
LINE
  5
270
100
AcDbEntity
  8
0
  6
CONTINUOUS
 62
       7
100
AcDbLine
 10
-26.06102519
 20
32.68741055
 30
0.0
 11
-26.06102519
 21
31.97741055
 31
0.0
  0
LINE
  5
271
100
AcDbEntity
  8
0
  6
CONTINUOUS
 62
       7
100
AcDbLine
 10
-25.06102519
 20
32.68741055
 30
0.0
 11
-26.06102519
 21
32.68741055
 31
0.0
  0
LINE
  5
272
100
AcDbEntity
  8
0
  6
CONTINUOUS
 62
       7
100
AcDbLine
 10
-25.06102519
 20
31.97741055
 30
0.0
 11
-25.06102519
 21
32.68741055
 31
0.0
  0
LINE
  5
273
100
AcDbEntity
  8
0
  6
CONTINUOUS
 62
       7
100
AcDbLine
 10
-23.91102519
 20
32.93741055
 30
0.0
 11
-27.56102519
 21
32.93741055
 31
0.0
  0
LINE
  5
274
100
AcDbEntity
  8
0
  6
CONTINUOUS
 62
       7
100
AcDbLine
 10
-27.56102519
 20
28.93741055
 30
0.0
 11
-23.91102519
 21
28.93741055
 31
0.0
  0
LINE
  5
275
100
AcDbEntity
  8
0
  6
CONTINUOUS
 62
       7
100
AcDbLine
 10
-23.91102519
 20
33.18741055
 30
0.0
 11
-27.56102519
 21
33.18741055
 31
0.0
  0
LINE
  5
276
100
AcDbEntity
  8
0
  6
CONTINUOUS
 62
       7
100
AcDbLine
 10
-23.81102519
 20
28.78741055
 30
0.0
 11
-23.81102519
 21
33.08741055
 31
0.0
  0
LINE
  5
277
100
AcDbEntity
  8
0
  6
CONTINUOUS
 62
       7
100
AcDbLine
 10
-27.56102519
 20
28.68741055
 30
0.0
 11
-23.91102519
 21
28.68741055
 31
0.0
  0
LINE
  5
278
100
AcDbEntity
  8
0
  6
CONTINUOUS
 62
       7
100
AcDbLine
 10
-16.18102519
 20
23.41741055
 30
0.0
 11
-14.94102519
 21
23.41741055
 31
0.0
  0
LINE
  5
279
100
AcDbEntity
  8
0
  6
CONTINUOUS
 62
       7
100
AcDbLine
 10
-16.28102519
 20
28.19741055
 30
0.0
 11
-16.28102519
 21
23.51741055
 31
0.0
  0
LINE
  5
27A
100
AcDbEntity
  8
0
  6
CONTINUOUS
 62
       7
100
AcDbLine
 10
-14.94102519
 20
28.29741055
 30
0.0
 11
-16.18102519
 21
28.29741055
 31
0.0
  0
LINE
  5
27B
100
AcDbEntity
  8
0
  6
CONTINUOUS
 62
       7
100
AcDbLine
 10
-14.84102519
 20
23.51741055
 30
0.0
 11
-14.84102519
 21
28.19741055
 31
0.0
  0
LINE
  5
27C
100
AcDbEntity
  8
0
  6
CONTINUOUS
 62
       7
100
AcDbLine
 10
-16.18102519
 20
28.49741055
 30
0.0
 11
-14.94102519
 21
28.49741055
 31
0.0
  0
LINE
  5
27D
100
AcDbEntity
  8
0
  6
CONTINUOUS
 62
       7
100
AcDbLine
 10
-16.28102519
 20
33.27741055
 30
0.0
 11
-16.28102519
 21
28.59741055
 31
0.0
  0
LINE
  5
27E
100
AcDbEntity
  8
0
  6
CONTINUOUS
 62
       7
100
AcDbLine
 10
-14.94102519
 20
33.37741055
 30
0.0
 11
-16.18102519
 21
33.37741055
 31
0.0
  0
LINE
  5
27F
100
AcDbEntity
  8
0
  6
CONTINUOUS
 62
       7
100
AcDbLine
 10
-14.84102519
 20
28.59741055
 30
0.0
 11
-14.84102519
 21
33.27741055
 31
0.0
  0
LINE
  5
280
100
AcDbEntity
  8
0
  6
CONTINUOUS
 62
       7
100
AcDbLine
 10
-15.06102519
 20
28.49741055
 30
0.0
 11
-15.06102519
 21
28.29741055
 31
0.0
  0
LINE
  5
281
100
AcDbEntity
  8
0
  6
CONTINUOUS
 62
       7
100
AcDbLine
 10
-15.06102519
 20
33.47741055
 30
0.0
 11
-15.06102519
 21
33.37741055
 31
0.0
  0
LINE
  5
282
100
AcDbEntity
  8
0
  6
CONTINUOUS
 62
       7
100
AcDbLine
 10
-16.61102519
 20
33.47741055
 30
0.0
 11
-15.06102519
 21
33.47741055
 31
0.0
  0
LINE
  5
283
100
AcDbEntity
  8
0
  6
CONTINUOUS
 62
       7
100
AcDbLine
 10
-16.46102519
 20
34.07741055
 30
0.0
 11
-16.61102519
 21
33.47741055
 31
0.0
  0
LINE
  5
284
100
AcDbEntity
  8
0
  6
CONTINUOUS
 62
       7
100
AcDbLine
 10
-17.26102519
 20
34.07741055
 30
0.0
 11
-16.46102519
 21
34.07741055
 31
0.0
  0
LINE
  5
285
100
AcDbEntity
  8
0
  6
CONTINUOUS
 62
       7
100
AcDbLine
 10
-17.11102519
 20
33.47741055
 30
0.0
 11
-17.26102519
 21
34.07741055
 31
0.0
  0
LINE
  5
286
100
AcDbEntity
  8
0
  6
CONTINUOUS
 62
       7
100
AcDbLine
 10
-25.91102519
 20
33.47741055
 30
0.0
 11
-17.11102519
 21
33.47741055
 31
0.0
  0
LINE
  5
287
100
AcDbEntity
  8
0
  6
CONTINUOUS
 62
       7
100
AcDbLine
 10
-25.76102519
 20
34.07741055
 30
0.0
 11
-25.91102519
 21
33.47741055
 31
0.0
  0
LINE
  5
288
100
AcDbEntity
  8
0
  6
CONTINUOUS
 62
       7
100
AcDbLine
 10
-26.56102519
 20
34.07741055
 30
0.0
 11
-25.76102519
 21
34.07741055
 31
0.0
  0
LINE
  5
289
100
AcDbEntity
  8
0
  6
CONTINUOUS
 62
       7
100
AcDbLine
 10
-26.41102519
 20
33.47741055
 30
0.0
 11
-26.56102519
 21
34.07741055
 31
0.0
  0
LINE
  5
28A
100
AcDbEntity
  8
0
  6
CONTINUOUS
 62
       7
100
AcDbLine
 10
-27.56102519
 20
33.47741055
 30
0.0
 11
-26.41102519
 21
33.47741055
 31
0.0
  0
LINE
  5
28B
100
AcDbEntity
  8
0
  6
CONTINUOUS
 62
       7
100
AcDbLine
 10
-27.56102519
 20
23.31741055
 30
0.0
 11
-27.56102519
 21
33.47741055
 31
0.0
  0
LINE
  5
28C
100
AcDbEntity
  8
0
  6
CONTINUOUS
 62
       7
100
AcDbLine
 10
-15.06102519
 20
23.31741055
 30
0.0
 11
-27.56102519
 21
23.31741055
 31
0.0
  0
LINE
  5
28D
100
AcDbEntity
  8
0
  6
CONTINUOUS
 62
       7
100
AcDbLine
 10
-15.06102519
 20
23.41741055
 30
0.0
 11
-15.06102519
 21
23.31741055
 31
0.0
  0
LINE
  5
28E
100
AcDbEntity
  8
0
  6
CONTINUOUS
 62
       7
100
AcDbLine
 10
-84.59102519
 20
23.31741055
 30
0.0
 11
-84.59102519
 21
23.41741055
 31
0.0
  0
LINE
  5
28F
100
AcDbEntity
  8
0
  6
CONTINUOUS
 62
       7
100
AcDbLine
 10
-83.04102519
 20
23.31741055
 30
0.0
 11
-84.59102519
 21
23.31741055
 31
0.0
  0
LINE
  5
290
100
AcDbEntity
  8
0
  6
CONTINUOUS
 62
       7
100
AcDbLine
 10
-83.19102519
 20
22.71741055
 30
0.0
 11
-83.04102519
 21
23.31741055
 31
0.0
  0
LINE
  5
291
100
AcDbEntity
  8
0
  6
CONTINUOUS
 62
       7
100
AcDbLine
 10
-82.39102519
 20
22.71741055
 30
0.0
 11
-83.19102519
 21
22.71741055
 31
0.0
  0
LINE
  5
292
100
AcDbEntity
  8
0
  6
CONTINUOUS
 62
       7
100
AcDbLine
 10
-82.54102519
 20
23.31741055
 30
0.0
 11
-82.39102519
 21
22.71741055
 31
0.0
  0
LINE
  5
293
100
AcDbEntity
  8
0
  6
CONTINUOUS
 62
       7
100
AcDbLine
 10
-73.74102519
 20
23.31741055
 30
0.0
 11
-82.54102519
 21
23.31741055
 31
0.0
  0
LINE
  5
294
100
AcDbEntity
  8
0
  6
CONTINUOUS
 62
       7
100
AcDbLine
 10
-73.89102519
 20
22.71741055
 30
0.0
 11
-73.74102519
 21
23.31741055
 31
0.0
  0
LINE
  5
295
100
AcDbEntity
  8
0
  6
CONTINUOUS
 62
       7
100
AcDbLine
 10
-73.09102519
 20
22.71741055
 30
0.0
 11
-73.89102519
 21
22.71741055
 31
0.0
  0
LINE
  5
296
100
AcDbEntity
  8
0
  6
CONTINUOUS
 62
       7
100
AcDbLine
 10
-73.24102519
 20
23.31741055
 30
0.0
 11
-73.09102519
 21
22.71741055
 31
0.0
  0
LINE
  5
297
100
AcDbEntity
  8
0
  6
CONTINUOUS
 62
       7
100
AcDbLine
 10
-72.09102519
 20
23.31741055
 30
0.0
 11
-73.24102519
 21
23.31741055
 31
0.0
  0
LINE
  5
298
100
AcDbEntity
  8
0
  6
CONTINUOUS
 62
       7
100
AcDbLine
 10
-72.09102519
 20
33.47741055
 30
0.0
 11
-72.09102519
 21
23.31741055
 31
0.0
  0
LINE
  5
299
100
AcDbEntity
  8
0
  6
CONTINUOUS
 62
       7
100
AcDbLine
 10
-84.59102519
 20
33.47741055
 30
0.0
 11
-72.09102519
 21
33.47741055
 31
0.0
  0
LINE
  5
29A
100
AcDbEntity
  8
0
  6
CONTINUOUS
 62
       7
100
AcDbLine
 10
-84.59102519
 20
33.37741055
 30
0.0
 11
-84.59102519
 21
33.47741055
 31
0.0
  0
LINE
  5
29B
100
AcDbEntity
  8
0
  6
CONTINUOUS
 62
       7
100
AcDbLine
 10
-84.59102519
 20
28.29741055
 30
0.0
 11
-84.59102519
 21
28.49741055
 31
0.0
  0
LINE
  5
29C
100
AcDbEntity
  8
0
  6
CONTINUOUS
 62
       7
100
AcDbLine
 10
-83.47102519
 20
28.29741055
 30
0.0
 11
-84.71102519
 21
28.29741055
 31
0.0
  0
LINE
  5
29D
100
AcDbEntity
  8
0
  6
CONTINUOUS
 62
       7
100
AcDbLine
 10
-83.37102519
 20
23.51741055
 30
0.0
 11
-83.37102519
 21
28.19741055
 31
0.0
  0
LINE
  5
29E
100
AcDbEntity
  8
0
  6
CONTINUOUS
 62
       7
100
AcDbLine
 10
-84.71102519
 20
23.41741055
 30
0.0
 11
-83.47102519
 21
23.41741055
 31
0.0
  0
LINE
  5
29F
100
AcDbEntity
  8
0
  6
CONTINUOUS
 62
       7
100
AcDbLine
 10
-84.81102519
 20
28.19741055
 30
0.0
 11
-84.81102519
 21
23.51741055
 31
0.0
  0
LINE
  5
2A0
100
AcDbEntity
  8
0
  6
CONTINUOUS
 62
       7
100
AcDbLine
 10
-83.47102519
 20
33.37741055
 30
0.0
 11
-84.71102519
 21
33.37741055
 31
0.0
  0
LINE
  5
2A1
100
AcDbEntity
  8
0
  6
CONTINUOUS
 62
       7
100
AcDbLine
 10
-83.37102519
 20
28.59741055
 30
0.0
 11
-83.37102519
 21
33.27741055
 31
0.0
  0
LINE
  5
2A2
100
AcDbEntity
  8
0
  6
CONTINUOUS
 62
       7
100
AcDbLine
 10
-84.71102519
 20
28.49741055
 30
0.0
 11
-83.47102519
 21
28.49741055
 31
0.0
  0
LINE
  5
2A3
100
AcDbEntity
  8
0
  6
CONTINUOUS
 62
       7
100
AcDbLine
 10
-84.81102519
 20
33.27741055
 30
0.0
 11
-84.81102519
 21
28.59741055
 31
0.0
  0
LINE
  5
2A4
100
AcDbEntity
  8
0
  6
CONTINUOUS
 62
       7
100
AcDbLine
 10
-75.74102519
 20
23.60741055
 30
0.0
 11
-72.09102519
 21
23.60741055
 31
0.0
  0
LINE
  5
2A5
100
AcDbEntity
  8
0
  6
CONTINUOUS
 62
       7
100
AcDbLine
 10
-75.84102519
 20
28.00741055
 30
0.0
 11
-75.84102519
 21
23.70741055
 31
0.0
  0
LINE
  5
2A6
100
AcDbEntity
  8
0
  6
CONTINUOUS
 62
       7
100
AcDbLine
 10
-72.09102519
 20
28.10741055
 30
0.0
 11
-75.74102519
 21
28.10741055
 31
0.0
  0
LINE
  5
2A7
100
AcDbEntity
  8
0
  6
CONTINUOUS
 62
       7
100
AcDbLine
 10
-72.09102519
 20
27.85741055
 30
0.0
 11
-75.74102519
 21
27.85741055
 31
0.0
  0
LINE
  5
2A8
100
AcDbEntity
  8
0
  6
CONTINUOUS
 62
       7
100
AcDbLine
 10
-75.74102519
 20
23.85741055
 30
0.0
 11
-72.09102519
 21
23.85741055
 31
0.0
  0
LINE
  5
2A9
100
AcDbEntity
  8
0
  6
CONTINUOUS
 62
       7
100
AcDbLine
 10
-74.59102519
 20
27.60741055
 30
0.0
 11
-74.59102519
 21
26.89741055
 31
0.0
  0
LINE
  5
2AA
100
AcDbEntity
  8
0
  6
CONTINUOUS
 62
       7
100
AcDbLine
 10
-73.59102519
 20
27.60741055
 30
0.0
 11
-74.59102519
 21
27.60741055
 31
0.0
  0
LINE
  5
2AB
100
AcDbEntity
  8
0
  6
CONTINUOUS
 62
       7
100
AcDbLine
 10
-73.59102519
 20
26.89741055
 30
0.0
 11
-73.59102519
 21
27.60741055
 31
0.0
  0
LINE
  5
2AC
100
AcDbEntity
  8
0
  6
CONTINUOUS
 62
       7
100
AcDbLine
 10
-73.59102519
 20
24.10741055
 30
0.0
 11
-73.59102519
 21
24.81741055
 31
0.0
  0
LINE
  5
2AD
100
AcDbEntity
  8
0
  6
CONTINUOUS
 62
       7
100
AcDbLine
 10
-74.59102519
 20
24.10741055
 30
0.0
 11
-73.59102519
 21
24.10741055
 31
0.0
  0
LINE
  5
2AE
100
AcDbEntity
  8
0
  6
CONTINUOUS
 62
       7
100
AcDbLine
 10
-74.59102519
 20
24.81741055
 30
0.0
 11
-74.59102519
 21
24.10741055
 31
0.0
  0
LINE
  5
2AF
100
AcDbEntity
  8
0
  6
CONTINUOUS
 62
       7
100
AcDbLine
 10
-72.79102519
 20
27.10741055
 30
0.0
 11
-72.09102519
 21
26.45741055
 31
0.0
  0
LINE
  5
2B0
100
AcDbEntity
  8
0
  6
CONTINUOUS
 62
       7
100
AcDbLine
 10
-72.79102519
 20
27.70741055
 30
0.0
 11
-72.79102519
 21
27.10741055
 31
0.0
  0
LINE
  5
2B1
100
AcDbEntity
  8
0
  6
CONTINUOUS
 62
       7
100
AcDbLine
 10
-72.59102519
 20
27.70741055
 30
0.0
 11
-72.79102519
 21
27.70741055
 31
0.0
  0
LINE
  5
2B2
100
AcDbEntity
  8
0
  6
CONTINUOUS
 62
       7
100
AcDbLine
 10
-72.21102519
 20
27.35741055
 30
0.0
 11
-72.59102519
 21
27.70741055
 31
0.0
  0
LINE
  5
2B3
100
AcDbEntity
  8
0
  6
CONTINUOUS
 62
       7
100
AcDbLine
 10
-72.09102519
 20
27.35741055
 30
0.0
 11
-72.21102519
 21
27.35741055
 31
0.0
  0
LINE
  5
2B4
100
AcDbEntity
  8
0
  6
CONTINUOUS
 62
       7
100
AcDbLine
 10
-72.21102519
 20
24.35741055
 30
0.0
 11
-72.09102519
 21
24.35741055
 31
0.0
  0
LINE
  5
2B5
100
AcDbEntity
  8
0
  6
CONTINUOUS
 62
       7
100
AcDbLine
 10
-72.59102519
 20
24.00741055
 30
0.0
 11
-72.21102519
 21
24.35741055
 31
0.0
  0
LINE
  5
2B6
100
AcDbEntity
  8
0
  6
CONTINUOUS
 62
       7
100
AcDbLine
 10
-72.79102519
 20
24.00741055
 30
0.0
 11
-72.59102519
 21
24.00741055
 31
0.0
  0
LINE
  5
2B7
100
AcDbEntity
  8
0
  6
CONTINUOUS
 62
       7
100
AcDbLine
 10
-72.79102519
 20
24.60741055
 30
0.0
 11
-72.79102519
 21
24.00741055
 31
0.0
  0
LINE
  5
2B8
100
AcDbEntity
  8
0
  6
CONTINUOUS
 62
       7
100
AcDbLine
 10
-72.09102519
 20
25.25741055
 30
0.0
 11
-72.79102519
 21
24.60741055
 31
0.0
  0
LINE
  5
2B9
100
AcDbEntity
  8
0
  6
CONTINUOUS
 62
       7
100
AcDbLine
 10
-72.21102519
 20
29.43741055
 30
0.0
 11
-72.09102519
 21
29.43741055
 31
0.0
  0
LINE
  5
2BA
100
AcDbEntity
  8
0
  6
CONTINUOUS
 62
       7
100
AcDbLine
 10
-72.59102519
 20
29.08741055
 30
0.0
 11
-72.21102519
 21
29.43741055
 31
0.0
  0
LINE
  5
2BB
100
AcDbEntity
  8
0
  6
CONTINUOUS
 62
       7
100
AcDbLine
 10
-72.79102519
 20
29.08741055
 30
0.0
 11
-72.59102519
 21
29.08741055
 31
0.0
  0
LINE
  5
2BC
100
AcDbEntity
  8
0
  6
CONTINUOUS
 62
       7
100
AcDbLine
 10
-72.79102519
 20
29.68741055
 30
0.0
 11
-72.79102519
 21
29.08741055
 31
0.0
  0
LINE
  5
2BD
100
AcDbEntity
  8
0
  6
CONTINUOUS
 62
       7
100
AcDbLine
 10
-72.09102519
 20
30.33741055
 30
0.0
 11
-72.79102519
 21
29.68741055
 31
0.0
  0
LINE
  5
2BE
100
AcDbEntity
  8
0
  6
CONTINUOUS
 62
       7
100
AcDbLine
 10
-72.79102519
 20
32.18741055
 30
0.0
 11
-72.09102519
 21
31.53741055
 31
0.0
  0
LINE
  5
2BF
100
AcDbEntity
  8
0
  6
CONTINUOUS
 62
       7
100
AcDbLine
 10
-72.79102519
 20
32.78741055
 30
0.0
 11
-72.79102519
 21
32.18741055
 31
0.0
  0
LINE
  5
2C0
100
AcDbEntity
  8
0
  6
CONTINUOUS
 62
       7
100
AcDbLine
 10
-72.59102519
 20
32.78741055
 30
0.0
 11
-72.79102519
 21
32.78741055
 31
0.0
  0
LINE
  5
2C1
100
AcDbEntity
  8
0
  6
CONTINUOUS
 62
       7
100
AcDbLine
 10
-72.21102519
 20
32.43741055
 30
0.0
 11
-72.59102519
 21
32.78741055
 31
0.0
  0
LINE
  5
2C2
100
AcDbEntity
  8
0
  6
CONTINUOUS
 62
       7
100
AcDbLine
 10
-72.09102519
 20
32.43741055
 30
0.0
 11
-72.21102519
 21
32.43741055
 31
0.0
  0
LINE
  5
2C3
100
AcDbEntity
  8
0
  6
CONTINUOUS
 62
       7
100
AcDbLine
 10
-74.59102519
 20
32.68741055
 30
0.0
 11
-74.59102519
 21
31.97741055
 31
0.0
  0
LINE
  5
2C4
100
AcDbEntity
  8
0
  6
CONTINUOUS
 62
       7
100
AcDbLine
 10
-73.59102519
 20
32.68741055
 30
0.0
 11
-74.59102519
 21
32.68741055
 31
0.0
  0
LINE
  5
2C5
100
AcDbEntity
  8
0
  6
CONTINUOUS
 62
       7
100
AcDbLine
 10
-73.59102519
 20
31.97741055
 30
0.0
 11
-73.59102519
 21
32.68741055
 31
0.0
  0
LINE
  5
2C6
100
AcDbEntity
  8
0
  6
CONTINUOUS
 62
       7
100
AcDbLine
 10
-73.59102519
 20
29.18741055
 30
0.0
 11
-73.59102519
 21
29.89741055
 31
0.0
  0
LINE
  5
2C7
100
AcDbEntity
  8
0
  6
CONTINUOUS
 62
       7
100
AcDbLine
 10
-74.59102519
 20
29.18741055
 30
0.0
 11
-73.59102519
 21
29.18741055
 31
0.0
  0
LINE
  5
2C8
100
AcDbEntity
  8
0
  6
CONTINUOUS
 62
       7
100
AcDbLine
 10
-74.59102519
 20
29.89741055
 30
0.0
 11
-74.59102519
 21
29.18741055
 31
0.0
  0
LINE
  5
2C9
100
AcDbEntity
  8
0
  6
CONTINUOUS
 62
       7
100
AcDbLine
 10
-75.74102519
 20
28.93741055
 30
0.0
 11
-72.09102519
 21
28.93741055
 31
0.0
  0
LINE
  5
2CA
100
AcDbEntity
  8
0
  6
CONTINUOUS
 62
       7
100
AcDbLine
 10
-72.09102519
 20
32.93741055
 30
0.0
 11
-75.74102519
 21
32.93741055
 31
0.0
  0
LINE
  5
2CB
100
AcDbEntity
  8
0
  6
CONTINUOUS
 62
       7
100
AcDbLine
 10
-75.74102519
 20
28.68741055
 30
0.0
 11
-72.09102519
 21
28.68741055
 31
0.0
  0
LINE
  5
2CC
100
AcDbEntity
  8
0
  6
CONTINUOUS
 62
       7
100
AcDbLine
 10
-75.84102519
 20
33.08741055
 30
0.0
 11
-75.84102519
 21
28.78741055
 31
0.0
  0
LINE
  5
2CD
100
AcDbEntity
  8
0
  6
CONTINUOUS
 62
       7
100
AcDbLine
 10
-72.09102519
 20
33.18741055
 30
0.0
 11
-75.74102519
 21
33.18741055
 31
0.0
  0
LINE
  5
2CE
100
AcDbEntity
  8
0
  6
CONTINUOUS
 62
       7
100
AcDbLine
 10
-80.50102519
 20
-12.27258945
 30
0.0
 11
-79.32102519
 21
-14.74258945
 31
0.0
  0
LINE
  5
2CF
100
AcDbEntity
  8
0
  6
CONTINUOUS
 62
       7
100
AcDbLine
 10
-80.16102519
 20
-11.74258945
 30
0.0
 11
-80.47102519
 21
-12.04258945
 31
0.0
  0
LINE
  5
2D0
100
AcDbEntity
  8
0
  6
CONTINUOUS
 62
       7
100
AcDbLine
 10
-79.76102519
 20
-11.74258945
 30
0.0
 11
-79.97102519
 21
-11.68258945
 31
0.0
  0
LINE
  5
2D1
100
AcDbEntity
  8
0
  6
CONTINUOUS
 62
       7
100
AcDbLine
 10
-79.32102519
 20
-11.74258945
 30
0.0
 11
-79.76102519
 21
-11.74258945
 31
0.0
  0
LINE
  5
2D2
100
AcDbEntity
  8
0
  6
CONTINUOUS
 62
       7
100
AcDbLine
 10
-79.32102519
 20
-12.34258945
 30
0.0
 11
-79.32102519
 21
-11.74258945
 31
0.0
  0
LINE
  5
2D3
100
AcDbEntity
  8
0
  6
CONTINUOUS
 62
       7
100
AcDbLine
 10
-78.82102519
 20
-12.34258945
 30
0.0
 11
-79.32102519
 21
-12.34258945
 31
0.0
  0
LINE
  5
2D4
100
AcDbEntity
  8
0
  6
CONTINUOUS
 62
       7
100
AcDbLine
 10
-78.82102519
 20
-12.94258945
 30
0.0
 11
-78.82102519
 21
-12.34258945
 31
0.0
  0
LINE
  5
2D5
100
AcDbEntity
  8
0
  6
CONTINUOUS
 62
       7
100
AcDbLine
 10
-78.32102519
 20
-12.94258945
 30
0.0
 11
-78.82102519
 21
-12.94258945
 31
0.0
  0
LINE
  5
2D6
100
AcDbEntity
  8
0
  6
CONTINUOUS
 62
       7
100
AcDbLine
 10
-78.32102519
 20
-13.54258945
 30
0.0
 11
-78.32102519
 21
-12.94258945
 31
0.0
  0
LINE
  5
2D7
100
AcDbEntity
  8
0
  6
CONTINUOUS
 62
       7
100
AcDbLine
 10
-77.82102519
 20
-13.54258945
 30
0.0
 11
-78.32102519
 21
-13.54258945
 31
0.0
  0
LINE
  5
2D8
100
AcDbEntity
  8
0
  6
CONTINUOUS
 62
       7
100
AcDbLine
 10
-77.82102519
 20
-14.14258945
 30
0.0
 11
-77.82102519
 21
-13.54258945
 31
0.0
  0
LINE
  5
2D9
100
AcDbEntity
  8
0
  6
CONTINUOUS
 62
       7
100
AcDbLine
 10
-77.32102519
 20
-14.14258945
 30
0.0
 11
-77.82102519
 21
-14.14258945
 31
0.0
  0
LINE
  5
2DA
100
AcDbEntity
  8
0
  6
CONTINUOUS
 62
       7
100
AcDbLine
 10
-77.32102519
 20
-14.74258945
 30
0.0
 11
-77.32102519
 21
-14.14258945
 31
0.0
  0
LINE
  5
2DB
100
AcDbEntity
  8
0
  6
CONTINUOUS
 62
       7
100
AcDbLine
 10
-76.82102519
 20
-14.74258945
 30
0.0
 11
-77.32102519
 21
-14.74258945
 31
0.0
  0
LINE
  5
2DC
100
AcDbEntity
  8
0
  6
CONTINUOUS
 62
       7
100
AcDbLine
 10
-55.23102519
 20
-12.27258945
 30
0.0
 11
-56.42102519
 21
-14.74258945
 31
0.0
  0
LINE
  5
2DD
100
AcDbEntity
  8
0
  6
CONTINUOUS
 62
       7
100
AcDbLine
 10
-55.57102519
 20
-11.74258945
 30
0.0
 11
-55.27102519
 21
-12.04258945
 31
0.0
  0
LINE
  5
2DE
100
AcDbEntity
  8
0
  6
CONTINUOUS
 62
       7
100
AcDbLine
 10
-55.98102519
 20
-11.74258945
 30
0.0
 11
-55.77102519
 21
-11.68258945
 31
0.0
  0
LINE
  5
2DF
100
AcDbEntity
  8
0
  6
CONTINUOUS
 62
       7
100
AcDbLine
 10
-56.42102519
 20
-11.74258945
 30
0.0
 11
-55.98102519
 21
-11.74258945
 31
0.0
  0
LINE
  5
2E0
100
AcDbEntity
  8
0
  6
CONTINUOUS
 62
       7
100
AcDbLine
 10
-56.42102519
 20
-12.34258945
 30
0.0
 11
-56.42102519
 21
-11.74258945
 31
0.0
  0
LINE
  5
2E1
100
AcDbEntity
  8
0
  6
CONTINUOUS
 62
       7
100
AcDbLine
 10
-56.92102519
 20
-12.34258945
 30
0.0
 11
-56.42102519
 21
-12.34258945
 31
0.0
  0
LINE
  5
2E2
100
AcDbEntity
  8
0
  6
CONTINUOUS
 62
       7
100
AcDbLine
 10
-56.92102519
 20
-12.94258945
 30
0.0
 11
-56.92102519
 21
-12.34258945
 31
0.0
  0
LINE
  5
2E3
100
AcDbEntity
  8
0
  6
CONTINUOUS
 62
       7
100
AcDbLine
 10
-57.42102519
 20
-12.94258945
 30
0.0
 11
-56.92102519
 21
-12.94258945
 31
0.0
  0
LINE
  5
2E4
100
AcDbEntity
  8
0
  6
CONTINUOUS
 62
       7
100
AcDbLine
 10
-57.42102519
 20
-13.54258945
 30
0.0
 11
-57.42102519
 21
-12.94258945
 31
0.0
  0
LINE
  5
2E5
100
AcDbEntity
  8
0
  6
CONTINUOUS
 62
       7
100
AcDbLine
 10
-57.92102519
 20
-13.54258945
 30
0.0
 11
-57.42102519
 21
-13.54258945
 31
0.0
  0
LINE
  5
2E6
100
AcDbEntity
  8
0
  6
CONTINUOUS
 62
       7
100
AcDbLine
 10
-57.92102519
 20
-14.14258945
 30
0.0
 11
-57.92102519
 21
-13.54258945
 31
0.0
  0
LINE
  5
2E7
100
AcDbEntity
  8
0
  6
CONTINUOUS
 62
       7
100
AcDbLine
 10
-58.42102519
 20
-14.14258945
 30
0.0
 11
-57.92102519
 21
-14.14258945
 31
0.0
  0
LINE
  5
2E8
100
AcDbEntity
  8
0
  6
CONTINUOUS
 62
       7
100
AcDbLine
 10
-58.42102519
 20
-14.74258945
 30
0.0
 11
-58.42102519
 21
-14.14258945
 31
0.0
  0
LINE
  5
2E9
100
AcDbEntity
  8
0
  6
CONTINUOUS
 62
       7
100
AcDbLine
 10
-58.92102519
 20
-14.74258945
 30
0.0
 11
-58.42102519
 21
-14.74258945
 31
0.0
  0
LINE
  5
2EA
100
AcDbEntity
  8
0
  6
CONTINUOUS
 62
       7
100
AcDbLine
 10
-17.03102519
 20
-12.27258945
 30
0.0
 11
-18.22102519
 21
-14.74258945
 31
0.0
  0
LINE
  5
2EB
100
AcDbEntity
  8
0
  6
CONTINUOUS
 62
       7
100
AcDbLine
 10
-17.37102519
 20
-11.74258945
 30
0.0
 11
-17.07102519
 21
-12.04258945
 31
0.0
  0
LINE
  5
2EC
100
AcDbEntity
  8
0
  6
CONTINUOUS
 62
       7
100
AcDbLine
 10
-17.77102519
 20
-11.74258945
 30
0.0
 11
-17.56102519
 21
-11.68258945
 31
0.0
  0
LINE
  5
2ED
100
AcDbEntity
  8
0
  6
CONTINUOUS
 62
       7
100
AcDbLine
 10
-18.22102519
 20
-11.74258945
 30
0.0
 11
-17.77102519
 21
-11.74258945
 31
0.0
  0
LINE
  5
2EE
100
AcDbEntity
  8
0
  6
CONTINUOUS
 62
       7
100
AcDbLine
 10
-18.22102519
 20
-12.34258945
 30
0.0
 11
-18.22102519
 21
-11.74258945
 31
0.0
  0
LINE
  5
2EF
100
AcDbEntity
  8
0
  6
CONTINUOUS
 62
       7
100
AcDbLine
 10
-18.72102519
 20
-12.34258945
 30
0.0
 11
-18.22102519
 21
-12.34258945
 31
0.0
  0
LINE
  5
2F0
100
AcDbEntity
  8
0
  6
CONTINUOUS
 62
       7
100
AcDbLine
 10
-18.72102519
 20
-12.94258945
 30
0.0
 11
-18.72102519
 21
-12.34258945
 31
0.0
  0
LINE
  5
2F1
100
AcDbEntity
  8
0
  6
CONTINUOUS
 62
       7
100
AcDbLine
 10
-19.22102519
 20
-12.94258945
 30
0.0
 11
-18.72102519
 21
-12.94258945
 31
0.0
  0
LINE
  5
2F2
100
AcDbEntity
  8
0
  6
CONTINUOUS
 62
       7
100
AcDbLine
 10
-19.22102519
 20
-13.54258945
 30
0.0
 11
-19.22102519
 21
-12.94258945
 31
0.0
  0
LINE
  5
2F3
100
AcDbEntity
  8
0
  6
CONTINUOUS
 62
       7
100
AcDbLine
 10
-19.72102519
 20
-13.54258945
 30
0.0
 11
-19.22102519
 21
-13.54258945
 31
0.0
  0
LINE
  5
2F4
100
AcDbEntity
  8
0
  6
CONTINUOUS
 62
       7
100
AcDbLine
 10
-19.72102519
 20
-14.14258945
 30
0.0
 11
-19.72102519
 21
-13.54258945
 31
0.0
  0
LINE
  5
2F5
100
AcDbEntity
  8
0
  6
CONTINUOUS
 62
       7
100
AcDbLine
 10
-20.22102519
 20
-14.14258945
 30
0.0
 11
-19.72102519
 21
-14.14258945
 31
0.0
  0
LINE
  5
2F6
100
AcDbEntity
  8
0
  6
CONTINUOUS
 62
       7
100
AcDbLine
 10
-20.22102519
 20
-14.74258945
 30
0.0
 11
-20.22102519
 21
-14.14258945
 31
0.0
  0
LINE
  5
2F7
100
AcDbEntity
  8
0
  6
CONTINUOUS
 62
       7
100
AcDbLine
 10
-20.72102519
 20
-14.74258945
 30
0.0
 11
-20.22102519
 21
-14.74258945
 31
0.0
  0
LINE
  5
2F8
100
AcDbEntity
  8
0
  6
CONTINUOUS
 62
       7
100
AcDbLine
 10
-44.41102519
 20
-12.27258945
 30
0.0
 11
-43.23102519
 21
-14.74258945
 31
0.0
  0
LINE
  5
2F9
100
AcDbEntity
  8
0
  6
CONTINUOUS
 62
       7
100
AcDbLine
 10
-44.07102519
 20
-11.74258945
 30
0.0
 11
-44.38102519
 21
-12.04258945
 31
0.0
  0
LINE
  5
2FA
100
AcDbEntity
  8
0
  6
CONTINUOUS
 62
       7
100
AcDbLine
 10
-43.67102519
 20
-11.74258945
 30
0.0
 11
-43.88102519
 21
-11.68258945
 31
0.0
  0
LINE
  5
2FB
100
AcDbEntity
  8
0
  6
CONTINUOUS
 62
       7
100
AcDbLine
 10
-43.23102519
 20
-11.74258945
 30
0.0
 11
-43.67102519
 21
-11.74258945
 31
0.0
  0
LINE
  5
2FC
100
AcDbEntity
  8
0
  6
CONTINUOUS
 62
       7
100
AcDbLine
 10
-43.23102519
 20
-12.34258945
 30
0.0
 11
-43.23102519
 21
-11.74258945
 31
0.0
  0
LINE
  5
2FD
100
AcDbEntity
  8
0
  6
CONTINUOUS
 62
       7
100
AcDbLine
 10
-42.73102519
 20
-12.34258945
 30
0.0
 11
-43.23102519
 21
-12.34258945
 31
0.0
  0
LINE
  5
2FE
100
AcDbEntity
  8
0
  6
CONTINUOUS
 62
       7
100
AcDbLine
 10
-42.73102519
 20
-12.94258945
 30
0.0
 11
-42.73102519
 21
-12.34258945
 31
0.0
  0
LINE
  5
2FF
100
AcDbEntity
  8
0
  6
CONTINUOUS
 62
       7
100
AcDbLine
 10
-42.23102519
 20
-12.94258945
 30
0.0
 11
-42.73102519
 21
-12.94258945
 31
0.0
  0
LINE
  5
300
100
AcDbEntity
  8
0
  6
CONTINUOUS
 62
       7
100
AcDbLine
 10
-42.23102519
 20
-13.54258945
 30
0.0
 11
-42.23102519
 21
-12.94258945
 31
0.0
  0
LINE
  5
301
100
AcDbEntity
  8
0
  6
CONTINUOUS
 62
       7
100
AcDbLine
 10
-41.73102519
 20
-13.54258945
 30
0.0
 11
-42.23102519
 21
-13.54258945
 31
0.0
  0
LINE
  5
302
100
AcDbEntity
  8
0
  6
CONTINUOUS
 62
       7
100
AcDbLine
 10
-41.73102519
 20
-14.14258945
 30
0.0
 11
-41.73102519
 21
-13.54258945
 31
0.0
  0
LINE
  5
303
100
AcDbEntity
  8
0
  6
CONTINUOUS
 62
       7
100
AcDbLine
 10
-41.23102519
 20
-14.14258945
 30
0.0
 11
-41.73102519
 21
-14.14258945
 31
0.0
  0
LINE
  5
304
100
AcDbEntity
  8
0
  6
CONTINUOUS
 62
       7
100
AcDbLine
 10
-41.23102519
 20
-14.74258945
 30
0.0
 11
-41.23102519
 21
-14.14258945
 31
0.0
  0
LINE
  5
305
100
AcDbEntity
  8
0
  6
CONTINUOUS
 62
       7
100
AcDbLine
 10
-40.73102519
 20
-14.74258945
 30
0.0
 11
-41.23102519
 21
-14.74258945
 31
0.0
  0
LINE
  5
306
100
AcDbEntity
  8
0
  6
CONTINUOUS
 62
       7
100
AcDbLine
 10
-96.72102519
 20
20.78741055
 30
0.0
 11
-96.72102519
 21
12.18741055
 31
0.0
  0
LINE
  5
307
100
AcDbEntity
  8
0
  6
CONTINUOUS
 62
       7
100
AcDbLine
 10
-51.82102519
 20
20.78741055
 30
0.0
 11
-96.72102519
 21
20.78741055
 31
0.0
  0
LINE
  5
308
100
AcDbEntity
  8
0
  6
CONTINUOUS
 62
       7
100
AcDbLine
 10
-51.82102519
 20
12.18741055
 30
0.0
 11
-51.82102519
 21
20.78741055
 31
0.0
  0
LINE
  5
309
100
AcDbEntity
  8
0
  6
CONTINUOUS
 62
       7
100
AcDbLine
 10
-96.72102519
 20
12.18741055
 30
0.0
 11
-51.82102519
 21
12.18741055
 31
0.0
  0
LINE
  5
30A
100
AcDbEntity
  8
0
  6
CONTINUOUS
 62
       7
100
AcDbLine
 10
-74.27102519
 20
19.98741055
 30
0.0
 11
-58.92102519
 21
19.98741055
 31
0.0
  0
LINE
  5
30B
100
AcDbEntity
  8
0
  6
CONTINUOUS
 62
       7
100
AcDbLine
 10
-89.62102519
 20
19.98741055
 30
0.0
 11
-74.27102519
 21
19.98741055
 31
0.0
  0
LINE
  5
30C
100
AcDbEntity
  8
0
  6
CONTINUOUS
 62
       7
100
AcDbLine
 10
-76.27102519
 20
14.18741055
 30
0.0
 11
-76.27102519
 21
12.18741055
 31
0.0
  0
LINE
  5
30D
100
AcDbEntity
  8
0
  6
CONTINUOUS
 62
       7
100
AcDbLine
 10
-72.27102519
 20
14.18741055
 30
0.0
 11
-76.27102519
 21
14.18741055
 31
0.0
  0
LINE
  5
30E
100
AcDbEntity
  8
0
  6
CONTINUOUS
 62
       7
100
AcDbLine
 10
-72.27102519
 20
12.18741055
 30
0.0
 11
-72.27102519
 21
14.18741055
 31
0.0
  0
LINE
  5
30F
100
AcDbEntity
  8
0
  6
CONTINUOUS
 62
       7
100
AcDbLine
 10
-60.52102519
 20
14.48741055
 30
0.0
 11
-60.52102519
 21
18.48741055
 31
0.0
  0
LINE
  5
310
100
AcDbEntity
  8
0
  6
CONTINUOUS
 62
       7
100
AcDbLine
 10
-52.82102519
 20
14.48741055
 30
0.0
 11
-60.52102519
 21
14.48741055
 31
0.0
  0
LINE
  5
311
100
AcDbEntity
  8
0
  6
CONTINUOUS
 62
       7
100
AcDbLine
 10
-52.82102519
 20
18.48741055
 30
0.0
 11
-52.82102519
 21
14.48741055
 31
0.0
  0
LINE
  5
312
100
AcDbEntity
  8
0
  6
CONTINUOUS
 62
       7
100
AcDbLine
 10
-60.52102519
 20
18.48741055
 30
0.0
 11
-52.82102519
 21
18.48741055
 31
0.0
  0
LINE
  5
313
100
AcDbEntity
  8
0
  6
CONTINUOUS
 62
       7
100
AcDbLine
 10
-88.02102519
 20
14.48741055
 30
0.0
 11
-88.02102519
 21
18.48741055
 31
0.0
  0
LINE
  5
314
100
AcDbEntity
  8
0
  6
CONTINUOUS
 62
       7
100
AcDbLine
 10
-95.72102519
 20
14.48741055
 30
0.0
 11
-88.02102519
 21
14.48741055
 31
0.0
  0
LINE
  5
315
100
AcDbEntity
  8
0
  6
CONTINUOUS
 62
       7
100
AcDbLine
 10
-95.72102519
 20
18.48741055
 30
0.0
 11
-95.72102519
 21
14.48741055
 31
0.0
  0
LINE
  5
316
100
AcDbEntity
  8
0
  6
CONTINUOUS
 62
       7
100
AcDbLine
 10
-88.02102519
 20
18.48741055
 30
0.0
 11
-95.72102519
 21
18.48741055
 31
0.0
  0
LINE
  5
317
100
AcDbEntity
  8
0
  6
CONTINUOUS
 62
       7
100
AcDbLine
 10
-39.13102519
 20
14.48741055
 30
0.0
 11
-39.13102519
 21
18.48741055
 31
0.0
  0
LINE
  5
318
100
AcDbEntity
  8
0
  6
CONTINUOUS
 62
       7
100
AcDbLine
 10
-46.83102519
 20
14.48741055
 30
0.0
 11
-39.13102519
 21
14.48741055
 31
0.0
  0
LINE
  5
319
100
AcDbEntity
  8
0
  6
CONTINUOUS
 62
       7
100
AcDbLine
 10
-46.83102519
 20
18.48741055
 30
0.0
 11
-46.83102519
 21
14.48741055
 31
0.0
  0
LINE
  5
31A
100
AcDbEntity
  8
0
  6
CONTINUOUS
 62
       7
100
AcDbLine
 10
-39.13102519
 20
18.48741055
 30
0.0
 11
-46.83102519
 21
18.48741055
 31
0.0
  0
LINE
  5
31B
100
AcDbEntity
  8
0
  6
CONTINUOUS
 62
       7
100
AcDbLine
 10
-11.63102519
 20
14.48741055
 30
0.0
 11
-11.63102519
 21
18.48741055
 31
0.0
  0
LINE
  5
31C
100
AcDbEntity
  8
0
  6
CONTINUOUS
 62
       7
100
AcDbLine
 10
-3.94102519
 20
14.48741055
 30
0.0
 11
-11.63102519
 21
14.48741055
 31
0.0
  0
LINE
  5
31D
100
AcDbEntity
  8
0
  6
CONTINUOUS
 62
       7
100
AcDbLine
 10
-3.94102519
 20
18.48741055
 30
0.0
 11
-3.94102519
 21
14.48741055
 31
0.0
  0
LINE
  5
31E
100
AcDbEntity
  8
0
  6
CONTINUOUS
 62
       7
100
AcDbLine
 10
-11.63102519
 20
18.48741055
 30
0.0
 11
-3.94102519
 21
18.48741055
 31
0.0
  0
LINE
  5
31F
100
AcDbEntity
  8
0
  6
CONTINUOUS
 62
       7
100
AcDbLine
 10
-27.38102519
 20
14.18741055
 30
0.0
 11
-27.38102519
 21
12.18741055
 31
0.0
  0
LINE
  5
320
100
AcDbEntity
  8
0
  6
CONTINUOUS
 62
       7
100
AcDbLine
 10
-23.38102519
 20
14.18741055
 30
0.0
 11
-27.38102519
 21
14.18741055
 31
0.0
  0
LINE
  5
321
100
AcDbEntity
  8
0
  6
CONTINUOUS
 62
       7
100
AcDbLine
 10
-23.38102519
 20
12.18741055
 30
0.0
 11
-23.38102519
 21
14.18741055
 31
0.0
  0
LINE
  5
322
100
AcDbEntity
  8
0
  6
CONTINUOUS
 62
       7
100
AcDbLine
 10
-25.38102519
 20
19.98741055
 30
0.0
 11
-10.04102519
 21
19.98741055
 31
0.0
  0
LINE
  5
323
100
AcDbEntity
  8
0
  6
CONTINUOUS
 62
       7
100
AcDbLine
 10
-40.73102519
 20
19.98741055
 30
0.0
 11
-25.38102519
 21
19.98741055
 31
0.0
  0
LINE
  5
324
100
AcDbEntity
  8
0
  6
CONTINUOUS
 62
       7
100
AcDbLine
 10
-47.83102519
 20
20.78741055
 30
0.0
 11
-47.83102519
 21
12.18741055
 31
0.0
  0
LINE
  5
325
100
AcDbEntity
  8
0
  6
CONTINUOUS
 62
       7
100
AcDbLine
 10
-2.94102519
 20
20.78741055
 30
0.0
 11
-47.83102519
 21
20.78741055
 31
0.0
  0
LINE
  5
326
100
AcDbEntity
  8
0
  6
CONTINUOUS
 62
       7
100
AcDbLine
 10
-2.94102519
 20
12.18741055
 30
0.0
 11
-2.94102519
 21
20.78741055
 31
0.0
  0
LINE
  5
327
100
AcDbEntity
  8
0
  6
CONTINUOUS
 62
       7
100
AcDbLine
 10
-47.83102519
 20
12.18741055
 30
0.0
 11
-2.94102519
 21
12.18741055
 31
0.0
  0
LINE
  5
328
100
AcDbEntity
  8
0
  6
CONTINUOUS
 62
       7
100
AcDbLine
 10
-6.84102519
 20
12.18741055
 30
0.0
 11
-6.84102519
 21
14.48741055
 31
0.0
  0
LINE
  5
329
100
AcDbEntity
  8
0
  6
CONTINUOUS
 62
       7
100
AcDbLine
 10
-6.84102519
 20
18.48741055
 30
0.0
 11
-6.84102519
 21
20.78741055
 31
0.0
  0
LINE
  5
32A
100
AcDbEntity
  8
0
  6
CONTINUOUS
 62
       7
100
AcDbLine
 10
-10.04102519
 20
12.18741055
 30
0.0
 11
-10.04102519
 21
14.48741055
 31
0.0
  0
LINE
  5
32B
100
AcDbEntity
  8
0
  6
CONTINUOUS
 62
       7
100
AcDbLine
 10
-10.04102519
 20
18.48741055
 30
0.0
 11
-10.04102519
 21
20.78741055
 31
0.0
  0
LINE
  5
32C
100
AcDbEntity
  8
0
  6
CONTINUOUS
 62
       7
100
AcDbLine
 10
-10.04102519
 20
13.18741055
 30
0.0
 11
-23.38102519
 21
13.18741055
 31
0.0
  0
LINE
  5
32D
100
AcDbEntity
  8
0
  6
CONTINUOUS
 62
       7
100
AcDbLine
 10
-6.33102519
 20
14.48741055
 30
0.0
 11
-6.33102519
 21
18.48741055
 31
0.0
  0
LINE
  5
32E
100
AcDbEntity
  8
0
  6
CONTINUOUS
 62
       7
100
AcDbLine
 10
-40.73102519
 20
13.18741055
 30
0.0
 11
-27.38102519
 21
13.18741055
 31
0.0
  0
LINE
  5
32F
100
AcDbEntity
  8
0
  6
CONTINUOUS
 62
       7
100
AcDbLine
 10
-40.73102519
 20
18.48741055
 30
0.0
 11
-40.73102519
 21
20.78741055
 31
0.0
  0
LINE
  5
330
100
AcDbEntity
  8
0
  6
CONTINUOUS
 62
       7
100
AcDbLine
 10
-40.73102519
 20
12.18741055
 30
0.0
 11
-40.73102519
 21
14.48741055
 31
0.0
  0
LINE
  5
331
100
AcDbEntity
  8
0
  6
CONTINUOUS
 62
       7
100
AcDbLine
 10
-43.93102519
 20
18.48741055
 30
0.0
 11
-43.93102519
 21
20.78741055
 31
0.0
  0
LINE
  5
332
100
AcDbEntity
  8
0
  6
CONTINUOUS
 62
       7
100
AcDbLine
 10
-43.93102519
 20
12.18741055
 30
0.0
 11
-43.93102519
 21
14.48741055
 31
0.0
  0
LINE
  5
333
100
AcDbEntity
  8
0
  6
CONTINUOUS
 62
       7
100
AcDbLine
 10
-6.88102519
 20
14.48741055
 30
0.0
 11
-6.88102519
 21
18.48741055
 31
0.0
  0
LINE
  5
334
100
AcDbEntity
  8
0
  6
CONTINUOUS
 62
       7
100
AcDbLine
 10
-7.54102519
 20
14.48741055
 30
0.0
 11
-7.54102519
 21
18.48741055
 31
0.0
  0
LINE
  5
335
100
AcDbEntity
  8
0
  6
CONTINUOUS
 62
       7
100
AcDbLine
 10
-8.04102519
 20
14.48741055
 30
0.0
 11
-8.04102519
 21
18.48741055
 31
0.0
  0
LINE
  5
336
100
AcDbEntity
  8
0
  6
CONTINUOUS
 62
       7
100
AcDbLine
 10
-8.54102519
 20
14.48741055
 30
0.0
 11
-8.54102519
 21
18.48741055
 31
0.0
  0
LINE
  5
337
100
AcDbEntity
  8
0
  6
CONTINUOUS
 62
       7
100
AcDbLine
 10
-9.04102519
 20
14.48741055
 30
0.0
 11
-9.04102519
 21
18.48741055
 31
0.0
  0
LINE
  5
338
100
AcDbEntity
  8
0
  6
CONTINUOUS
 62
       7
100
AcDbLine
 10
-9.54102519
 20
14.48741055
 30
0.0
 11
-9.54102519
 21
18.48741055
 31
0.0
  0
LINE
  5
339
100
AcDbEntity
  8
0
  6
CONTINUOUS
 62
       7
100
AcDbLine
 10
-10.04102519
 20
14.48741055
 30
0.0
 11
-10.04102519
 21
18.48741055
 31
0.0
  0
LINE
  5
33A
100
AcDbEntity
  8
0
  6
CONTINUOUS
 62
       7
100
AcDbLine
 10
-40.73102519
 20
14.48741055
 30
0.0
 11
-40.73102519
 21
18.48741055
 31
0.0
  0
LINE
  5
33B
100
AcDbEntity
  8
0
  6
CONTINUOUS
 62
       7
100
AcDbLine
 10
-41.23102519
 20
14.48741055
 30
0.0
 11
-41.23102519
 21
18.48741055
 31
0.0
  0
LINE
  5
33C
100
AcDbEntity
  8
0
  6
CONTINUOUS
 62
       7
100
AcDbLine
 10
-41.73102519
 20
14.48741055
 30
0.0
 11
-41.73102519
 21
18.48741055
 31
0.0
  0
LINE
  5
33D
100
AcDbEntity
  8
0
  6
CONTINUOUS
 62
       7
100
AcDbLine
 10
-42.23102519
 20
14.48741055
 30
0.0
 11
-42.23102519
 21
18.48741055
 31
0.0
  0
LINE
  5
33E
100
AcDbEntity
  8
0
  6
CONTINUOUS
 62
       7
100
AcDbLine
 10
-42.73102519
 20
14.48741055
 30
0.0
 11
-42.73102519
 21
18.48741055
 31
0.0
  0
LINE
  5
33F
100
AcDbEntity
  8
0
  6
CONTINUOUS
 62
       7
100
AcDbLine
 10
-43.23102519
 20
14.48741055
 30
0.0
 11
-43.23102519
 21
18.48741055
 31
0.0
  0
LINE
  5
340
100
AcDbEntity
  8
0
  6
CONTINUOUS
 62
       7
100
AcDbLine
 10
-43.88102519
 20
14.48741055
 30
0.0
 11
-43.88102519
 21
18.48741055
 31
0.0
  0
LINE
  5
341
100
AcDbEntity
  8
0
  6
CONTINUOUS
 62
       7
100
AcDbLine
 10
-44.43102519
 20
14.48741055
 30
0.0
 11
-44.43102519
 21
18.48741055
 31
0.0
  0
LINE
  5
342
100
AcDbEntity
  8
0
  6
CONTINUOUS
 62
       7
100
AcDbLine
 10
-93.33102519
 20
14.48741055
 30
0.0
 11
-93.33102519
 21
18.48741055
 31
0.0
  0
LINE
  5
343
100
AcDbEntity
  8
0
  6
CONTINUOUS
 62
       7
100
AcDbLine
 10
-92.77102519
 20
14.48741055
 30
0.0
 11
-92.77102519
 21
18.48741055
 31
0.0
  0
LINE
  5
344
100
AcDbEntity
  8
0
  6
CONTINUOUS
 62
       7
100
AcDbLine
 10
-92.12102519
 20
14.48741055
 30
0.0
 11
-92.12102519
 21
18.48741055
 31
0.0
  0
LINE
  5
345
100
AcDbEntity
  8
0
  6
CONTINUOUS
 62
       7
100
AcDbLine
 10
-91.62102519
 20
14.48741055
 30
0.0
 11
-91.62102519
 21
18.48741055
 31
0.0
  0
LINE
  5
346
100
AcDbEntity
  8
0
  6
CONTINUOUS
 62
       7
100
AcDbLine
 10
-91.12102519
 20
14.48741055
 30
0.0
 11
-91.12102519
 21
18.48741055
 31
0.0
  0
LINE
  5
347
100
AcDbEntity
  8
0
  6
CONTINUOUS
 62
       7
100
AcDbLine
 10
-90.62102519
 20
14.48741055
 30
0.0
 11
-90.62102519
 21
18.48741055
 31
0.0
  0
LINE
  5
348
100
AcDbEntity
  8
0
  6
CONTINUOUS
 62
       7
100
AcDbLine
 10
-90.12102519
 20
14.48741055
 30
0.0
 11
-90.12102519
 21
18.48741055
 31
0.0
  0
LINE
  5
349
100
AcDbEntity
  8
0
  6
CONTINUOUS
 62
       7
100
AcDbLine
 10
-89.62102519
 20
14.48741055
 30
0.0
 11
-89.62102519
 21
18.48741055
 31
0.0
  0
LINE
  5
34A
100
AcDbEntity
  8
0
  6
CONTINUOUS
 62
       7
100
AcDbLine
 10
-58.92102519
 20
14.48741055
 30
0.0
 11
-58.92102519
 21
18.48741055
 31
0.0
  0
LINE
  5
34B
100
AcDbEntity
  8
0
  6
CONTINUOUS
 62
       7
100
AcDbLine
 10
-58.42102519
 20
14.48741055
 30
0.0
 11
-58.42102519
 21
18.48741055
 31
0.0
  0
LINE
  5
34C
100
AcDbEntity
  8
0
  6
CONTINUOUS
 62
       7
100
AcDbLine
 10
-57.92102519
 20
14.48741055
 30
0.0
 11
-57.92102519
 21
18.48741055
 31
0.0
  0
LINE
  5
34D
100
AcDbEntity
  8
0
  6
CONTINUOUS
 62
       7
100
AcDbLine
 10
-57.42102519
 20
14.48741055
 30
0.0
 11
-57.42102519
 21
18.48741055
 31
0.0
  0
LINE
  5
34E
100
AcDbEntity
  8
0
  6
CONTINUOUS
 62
       7
100
AcDbLine
 10
-56.92102519
 20
14.48741055
 30
0.0
 11
-56.92102519
 21
18.48741055
 31
0.0
  0
LINE
  5
34F
100
AcDbEntity
  8
0
  6
CONTINUOUS
 62
       7
100
AcDbLine
 10
-56.42102519
 20
14.48741055
 30
0.0
 11
-56.42102519
 21
18.48741055
 31
0.0
  0
LINE
  5
350
100
AcDbEntity
  8
0
  6
CONTINUOUS
 62
       7
100
AcDbLine
 10
-55.77102519
 20
14.48741055
 30
0.0
 11
-55.77102519
 21
18.48741055
 31
0.0
  0
LINE
  5
351
100
AcDbEntity
  8
0
  6
CONTINUOUS
 62
       7
100
AcDbLine
 10
-92.82102519
 20
12.18741055
 30
0.0
 11
-92.82102519
 21
14.48741055
 31
0.0
  0
LINE
  5
352
100
AcDbEntity
  8
0
  6
CONTINUOUS
 62
       7
100
AcDbLine
 10
-92.82102519
 20
18.48741055
 30
0.0
 11
-92.82102519
 21
20.78741055
 31
0.0
  0
LINE
  5
353
100
AcDbEntity
  8
0
  6
CONTINUOUS
 62
       7
100
AcDbLine
 10
-89.62102519
 20
12.18741055
 30
0.0
 11
-89.62102519
 21
14.48741055
 31
0.0
  0
LINE
  5
354
100
AcDbEntity
  8
0
  6
CONTINUOUS
 62
       7
100
AcDbLine
 10
-89.62102519
 20
18.48741055
 30
0.0
 11
-89.62102519
 21
20.78741055
 31
0.0
  0
LINE
  5
355
100
AcDbEntity
  8
0
  6
CONTINUOUS
 62
       7
100
AcDbLine
 10
-89.62102519
 20
13.18741055
 30
0.0
 11
-76.27102519
 21
13.18741055
 31
0.0
  0
LINE
  5
356
100
AcDbEntity
  8
0
  6
CONTINUOUS
 62
       7
100
AcDbLine
 10
-55.21102519
 20
14.48741055
 30
0.0
 11
-55.21102519
 21
18.48741055
 31
0.0
  0
LINE
  5
357
100
AcDbEntity
  8
0
  6
CONTINUOUS
 62
       7
100
AcDbLine
 10
-58.92102519
 20
13.18741055
 30
0.0
 11
-72.27102519
 21
13.18741055
 31
0.0
  0
LINE
  5
358
100
AcDbEntity
  8
0
  6
CONTINUOUS
 62
       7
100
AcDbLine
 10
-58.92102519
 20
18.48741055
 30
0.0
 11
-58.92102519
 21
20.78741055
 31
0.0
  0
LINE
  5
359
100
AcDbEntity
  8
0
  6
CONTINUOUS
 62
       7
100
AcDbLine
 10
-58.92102519
 20
12.18741055
 30
0.0
 11
-58.92102519
 21
14.48741055
 31
0.0
  0
LINE
  5
35A
100
AcDbEntity
  8
0
  6
CONTINUOUS
 62
       7
100
AcDbLine
 10
-55.72102519
 20
18.48741055
 30
0.0
 11
-55.72102519
 21
20.78741055
 31
0.0
  0
LINE
  5
35B
100
AcDbEntity
  8
0
  6
CONTINUOUS
 62
       7
100
AcDbLine
 10
-55.72102519
 20
12.18741055
 30
0.0
 11
-55.72102519
 21
14.48741055
 31
0.0
  0
LINE
  5
35C
100
AcDbEntity
  8
0
  6
CONTINUOUS
 62
       7
100
AcDbLine
 10
-83.04102519
 20
23.31741055
 30
0.0
 11
-82.54102519
 21
23.31741055
 31
0.0
  0
LINE
  5
35D
100
AcDbEntity
  8
0
  6
CONTINUOUS
 62
       7
100
AcDbLine
 10
-73.74102519
 20
23.31741055
 30
0.0
 11
-73.24102519
 21
23.31741055
 31
0.0
  0
LINE
  5
35E
100
AcDbEntity
  8
0
  6
CONTINUOUS
 62
       7
100
AcDbLine
 10
-82.90102519
 20
33.47741055
 30
0.0
 11
-82.90102519
 21
23.31741055
 31
0.0
  0
LINE
  5
35F
100
AcDbEntity
  8
0
  6
CONTINUOUS
 62
       7
100
AcDbLine
 10
-82.69102519
 20
33.47741055
 30
0.0
 11
-82.69102519
 21
23.31741055
 31
0.0
  0
LINE
  5
360
100
AcDbEntity
  8
0
  6
CONTINUOUS
 62
       7
100
AcDbLine
 10
-83.46102519
 20
33.47741055
 30
0.0
 11
-83.46102519
 21
33.37741055
 31
0.0
  0
LINE
  5
361
100
AcDbEntity
  8
0
  6
CONTINUOUS
 62
       7
100
AcDbLine
 10
-83.46102519
 20
23.41741055
 30
0.0
 11
-83.46102519
 21
23.31741055
 31
0.0
  0
LINE
  5
362
100
AcDbEntity
  8
0
  6
CONTINUOUS
 62
       7
100
AcDbLine
 10
-83.46102519
 20
28.49741055
 30
0.0
 11
-83.46102519
 21
28.29741055
 31
0.0
  0
LINE
  5
363
100
AcDbEntity
  8
0
  6
CONTINUOUS
 62
       7
100
AcDbLine
 10
-83.47102519
 20
28.29741055
 30
0.0
 11
-82.90102519
 21
28.29741055
 31
0.0
  0
LINE
  5
364
100
AcDbEntity
  8
0
  6
CONTINUOUS
 62
       7
100
AcDbLine
 10
-82.90102519
 20
23.41741055
 30
0.0
 11
-83.47102519
 21
23.41741055
 31
0.0
  0
LINE
  5
365
100
AcDbEntity
  8
0
  6
CONTINUOUS
 62
       7
100
AcDbLine
 10
-82.90102519
 20
28.49741055
 30
0.0
 11
-83.47102519
 21
28.49741055
 31
0.0
  0
LINE
  5
366
100
AcDbEntity
  8
0
  6
CONTINUOUS
 62
       7
100
AcDbLine
 10
-83.47102519
 20
33.37741055
 30
0.0
 11
-82.90102519
 21
33.37741055
 31
0.0
  0
LINE
  5
367
100
AcDbEntity
  8
0
  6
CONTINUOUS
 62
       7
100
AcDbLine
 10
-16.18102519
 20
23.41741055
 30
0.0
 11
-16.75102519
 21
23.41741055
 31
0.0
  0
LINE
  5
368
100
AcDbEntity
  8
0
  6
CONTINUOUS
 62
       7
100
AcDbLine
 10
-16.75102519
 20
28.29741055
 30
0.0
 11
-16.18102519
 21
28.29741055
 31
0.0
  0
LINE
  5
369
100
AcDbEntity
  8
0
  6
CONTINUOUS
 62
       7
100
AcDbLine
 10
-16.75102519
 20
33.37741055
 30
0.0
 11
-16.18102519
 21
33.37741055
 31
0.0
  0
LINE
  5
36A
100
AcDbEntity
  8
0
  6
CONTINUOUS
 62
       7
100
AcDbLine
 10
-16.18102519
 20
28.49741055
 30
0.0
 11
-16.75102519
 21
28.49741055
 31
0.0
  0
LINE
  5
36B
100
AcDbEntity
  8
0
  6
CONTINUOUS
 62
       7
100
AcDbLine
 10
-16.19102519
 20
28.29741055
 30
0.0
 11
-16.19102519
 21
28.49741055
 31
0.0
  0
LINE
  5
36C
100
AcDbEntity
  8
0
  6
CONTINUOUS
 62
       7
100
AcDbLine
 10
-16.19102519
 20
33.37741055
 30
0.0
 11
-16.19102519
 21
33.47741055
 31
0.0
  0
LINE
  5
36D
100
AcDbEntity
  8
0
  6
CONTINUOUS
 62
       7
100
AcDbLine
 10
-16.19102519
 20
23.31741055
 30
0.0
 11
-16.19102519
 21
23.41741055
 31
0.0
  0
LINE
  5
36E
100
AcDbEntity
  8
0
  6
CONTINUOUS
 62
       7
100
AcDbLine
 10
-16.96102519
 20
23.31741055
 30
0.0
 11
-16.96102519
 21
33.47741055
 31
0.0
  0
LINE
  5
36F
100
AcDbEntity
  8
0
  6
CONTINUOUS
 62
       7
100
AcDbLine
 10
-16.75102519
 20
23.31741055
 30
0.0
 11
-16.75102519
 21
33.47741055
 31
0.0
  0
LINE
  5
370
100
AcDbEntity
  8
0
  6
CONTINUOUS
 62
       7
100
AcDbLine
 10
-25.91102519
 20
33.47741055
 30
0.0
 11
-26.41102519
 21
33.47741055
 31
0.0
  0
LINE
  5
371
100
AcDbEntity
  8
0
  6
CONTINUOUS
 62
       7
100
AcDbLine
 10
-16.61102519
 20
33.47741055
 30
0.0
 11
-17.11102519
 21
33.47741055
 31
0.0
  0
LINE
  5
372
100
AcDbEntity
  8
0
  6
CONTINUOUS
 62
       7
100
AcDbLine
 10
1.97897481
 20
40.03741055
 30
0.0
 11
11.06897481
 21
40.03741055
 31
0.0
  0
LINE
  5
373
100
AcDbEntity
  8
0
  6
CONTINUOUS
 62
       7
100
AcDbLine
 10
-101.01102519
 20
20.47741055
 30
0.0
 11
-110.10102519
 21
20.47741055
 31
0.0
  0
LINE
  5
374
100
AcDbEntity
  8
0
  6
CONTINUOUS
 62
       7
100
AcDbLine
 10
-97.01102519
 20
7.75741055
 30
0.0
 11
-2.02102519
 21
7.75741055
 31
0.0
  0
LINE
  5
375
100
AcDbEntity
  8
0
  6
CONTINUOUS
 62
       7
100
AcDbLine
 10
-2.02102519
 20
52.75741055
 30
0.0
 11
-97.01102519
 21
52.75741055
 31
0.0
  0
LINE
  5
376
100
AcDbEntity
  8
0
  6
CONTINUOUS
 62
       2
100
AcDbLine
 10
3.42897481
 20
36.05741055
 30
0.0
 11
10.52897481
 21
36.05741055
 31
0.0
  0
LINE
  5
377
100
AcDbEntity
  8
0
  6
CONTINUOUS
 62
       2
100
AcDbLine
 10
6.97897481
 20
39.10741055
 30
0.0
 11
6.97897481
 21
33.00741055
 31
0.0
  0
LINE
  5
378
100
AcDbEntity
  8
0
  6
CONTINUOUS
 62
       2
100
AcDbLine
 10
-109.56102519
 20
24.45741055
 30
0.0
 11
-102.46102519
 21
24.45741055
 31
0.0
  0
LINE
  5
379
100
AcDbEntity
  8
0
  6
CONTINUOUS
 62
       2
100
AcDbLine
 10
-106.01102519
 20
27.50741055
 30
0.0
 11
-106.01102519
 21
21.40741055
 31
0.0
  0
LINE
  5
37A
100
AcDbEntity
  8
0
  6
CONTINUOUS
 62
       7
100
AcDbLine
 10
-46.77102519
 20
40.06741055
 30
0.0
 11
-46.77102519
 21
38.06741055
 31
0.0
  0
LINE
  5
37B
100
AcDbEntity
  8
0
  6
CONTINUOUS
 62
       7
100
AcDbLine
 10
-50.77102519
 20
40.06741055
 30
0.0
 11
-46.77102519
 21
40.06741055
 31
0.0
  0
LINE
  5
37C
100
AcDbEntity
  8
0
  6
CONTINUOUS
 62
       7
100
AcDbLine
 10
-50.77102519
 20
38.06741055
 30
0.0
 11
-50.77102519
 21
40.06741055
 31
0.0
  0
LINE
  5
37D
100
AcDbEntity
  8
0
  6
CONTINUOUS
 62
       7
100
AcDbLine
 10
-48.77102519
 20
45.86741055
 30
0.0
 11
-76.82102519
 21
45.86741055
 31
0.0
  0
LINE
  5
37E
100
AcDbEntity
  8
0
  6
CONTINUOUS
 62
       7
100
AcDbLine
 10
-20.72102519
 20
45.86741055
 30
0.0
 11
-48.77102519
 21
45.86741055
 31
0.0
  0
LINE
  5
37F
100
AcDbEntity
  8
0
  6
CONTINUOUS
 62
       7
100
AcDbLine
 10
-75.22102519
 20
40.36741055
 30
0.0
 11
-75.22102519
 21
44.36741055
 31
0.0
  0
LINE
  5
380
100
AcDbEntity
  8
0
  6
CONTINUOUS
 62
       7
100
AcDbLine
 10
-82.92102519
 20
40.36741055
 30
0.0
 11
-75.22102519
 21
40.36741055
 31
0.0
  0
LINE
  5
381
100
AcDbEntity
  8
0
  6
CONTINUOUS
 62
       7
100
AcDbLine
 10
-82.92102519
 20
44.36741055
 30
0.0
 11
-82.92102519
 21
40.36741055
 31
0.0
  0
LINE
  5
382
100
AcDbEntity
  8
0
  6
CONTINUOUS
 62
       7
100
AcDbLine
 10
-75.22102519
 20
44.36741055
 30
0.0
 11
-82.92102519
 21
44.36741055
 31
0.0
  0
LINE
  5
383
100
AcDbEntity
  8
0
  6
CONTINUOUS
 62
       7
100
AcDbLine
 10
-22.32102519
 20
40.36741055
 30
0.0
 11
-22.32102519
 21
44.36741055
 31
0.0
  0
LINE
  5
384
100
AcDbEntity
  8
0
  6
CONTINUOUS
 62
       7
100
AcDbLine
 10
-14.62102519
 20
40.36741055
 30
0.0
 11
-22.32102519
 21
40.36741055
 31
0.0
  0
LINE
  5
385
100
AcDbEntity
  8
0
  6
CONTINUOUS
 62
       7
100
AcDbLine
 10
-14.62102519
 20
44.36741055
 30
0.0
 11
-14.62102519
 21
40.36741055
 31
0.0
  0
LINE
  5
386
100
AcDbEntity
  8
0
  6
CONTINUOUS
 62
       7
100
AcDbLine
 10
-22.32102519
 20
44.36741055
 30
0.0
 11
-14.62102519
 21
44.36741055
 31
0.0
  0
LINE
  5
387
100
AcDbEntity
  8
0
  6
CONTINUOUS
 62
       7
100
AcDbLine
 10
-83.92102519
 20
38.06741055
 30
0.0
 11
-83.92102519
 21
46.66741055
 31
0.0
  0
LINE
  5
388
100
AcDbEntity
  8
0
  6
CONTINUOUS
 62
       7
100
AcDbLine
 10
-13.62102519
 20
38.06741055
 30
0.0
 11
-83.92102519
 21
38.06741055
 31
0.0
  0
LINE
  5
389
100
AcDbEntity
  8
0
  6
CONTINUOUS
 62
       7
100
AcDbLine
 10
-13.62102519
 20
46.66741055
 30
0.0
 11
-13.62102519
 21
38.06741055
 31
0.0
  0
LINE
  5
38A
100
AcDbEntity
  8
0
  6
CONTINUOUS
 62
       7
100
AcDbLine
 10
-83.92102519
 20
46.66741055
 30
0.0
 11
-13.62102519
 21
46.66741055
 31
0.0
  0
LINE
  5
38B
100
AcDbEntity
  8
0
  6
CONTINUOUS
 62
       7
100
AcDbLine
 10
-85.84102519
 20
43.66741055
 30
0.0
 11
-83.92102519
 21
43.66741055
 31
0.0
  0
LINE
  5
38C
100
AcDbEntity
  8
0
  6
CONTINUOUS
 62
       7
100
AcDbLine
 10
-83.92102519
 20
40.76741055
 30
0.0
 11
-85.84102519
 21
40.76741055
 31
0.0
  0
LINE
  5
38D
100
AcDbEntity
  8
0
  6
CONTINUOUS
 62
       7
100
AcDbLine
 10
-17.01102519
 20
40.36741055
 30
0.0
 11
-17.01102519
 21
44.36741055
 31
0.0
  0
LINE
  5
38E
100
AcDbEntity
  8
0
  6
CONTINUOUS
 62
       7
100
AcDbLine
 10
-17.56102519
 20
40.36741055
 30
0.0
 11
-17.56102519
 21
44.36741055
 31
0.0
  0
LINE
  5
38F
100
AcDbEntity
  8
0
  6
CONTINUOUS
 62
       7
100
AcDbLine
 10
-18.22102519
 20
40.36741055
 30
0.0
 11
-18.22102519
 21
44.36741055
 31
0.0
  0
LINE
  5
390
100
AcDbEntity
  8
0
  6
CONTINUOUS
 62
       7
100
AcDbLine
 10
-18.72102519
 20
40.36741055
 30
0.0
 11
-18.72102519
 21
44.36741055
 31
0.0
  0
LINE
  5
391
100
AcDbEntity
  8
0
  6
CONTINUOUS
 62
       7
100
AcDbLine
 10
-19.22102519
 20
40.36741055
 30
0.0
 11
-19.22102519
 21
44.36741055
 31
0.0
  0
LINE
  5
392
100
AcDbEntity
  8
0
  6
CONTINUOUS
 62
       7
100
AcDbLine
 10
-19.72102519
 20
40.36741055
 30
0.0
 11
-19.72102519
 21
44.36741055
 31
0.0
  0
LINE
  5
393
100
AcDbEntity
  8
0
  6
CONTINUOUS
 62
       7
100
AcDbLine
 10
-20.22102519
 20
40.36741055
 30
0.0
 11
-20.22102519
 21
44.36741055
 31
0.0
  0
LINE
  5
394
100
AcDbEntity
  8
0
  6
CONTINUOUS
 62
       7
100
AcDbLine
 10
-20.72102519
 20
40.36741055
 30
0.0
 11
-20.72102519
 21
44.36741055
 31
0.0
  0
LINE
  5
395
100
AcDbEntity
  8
0
  6
CONTINUOUS
 62
       7
100
AcDbLine
 10
-76.82102519
 20
40.36741055
 30
0.0
 11
-76.82102519
 21
44.36741055
 31
0.0
  0
LINE
  5
396
100
AcDbEntity
  8
0
  6
CONTINUOUS
 62
       7
100
AcDbLine
 10
-77.32102519
 20
40.36741055
 30
0.0
 11
-77.32102519
 21
44.36741055
 31
0.0
  0
LINE
  5
397
100
AcDbEntity
  8
0
  6
CONTINUOUS
 62
       7
100
AcDbLine
 10
-77.82102519
 20
40.36741055
 30
0.0
 11
-77.82102519
 21
44.36741055
 31
0.0
  0
LINE
  5
398
100
AcDbEntity
  8
0
  6
CONTINUOUS
 62
       7
100
AcDbLine
 10
-78.32102519
 20
40.36741055
 30
0.0
 11
-78.32102519
 21
44.36741055
 31
0.0
  0
LINE
  5
399
100
AcDbEntity
  8
0
  6
CONTINUOUS
 62
       7
100
AcDbLine
 10
-78.82102519
 20
40.36741055
 30
0.0
 11
-78.82102519
 21
44.36741055
 31
0.0
  0
LINE
  5
39A
100
AcDbEntity
  8
0
  6
CONTINUOUS
 62
       7
100
AcDbLine
 10
-79.32102519
 20
40.36741055
 30
0.0
 11
-79.32102519
 21
44.36741055
 31
0.0
  0
LINE
  5
39B
100
AcDbEntity
  8
0
  6
CONTINUOUS
 62
       7
100
AcDbLine
 10
-79.97102519
 20
40.36741055
 30
0.0
 11
-79.97102519
 21
44.36741055
 31
0.0
  0
LINE
  5
39C
100
AcDbEntity
  8
0
  6
CONTINUOUS
 62
       7
100
AcDbLine
 10
-17.52102519
 20
38.06741055
 30
0.0
 11
-17.52102519
 21
40.36741055
 31
0.0
  0
LINE
  5
39D
100
AcDbEntity
  8
0
  6
CONTINUOUS
 62
       7
100
AcDbLine
 10
-17.52102519
 20
44.36741055
 30
0.0
 11
-17.52102519
 21
46.66741055
 31
0.0
  0
LINE
  5
39E
100
AcDbEntity
  8
0
  6
CONTINUOUS
 62
       7
100
AcDbLine
 10
-20.72102519
 20
38.06741055
 30
0.0
 11
-20.72102519
 21
40.36741055
 31
0.0
  0
LINE
  5
39F
100
AcDbEntity
  8
0
  6
CONTINUOUS
 62
       7
100
AcDbLine
 10
-20.72102519
 20
44.36741055
 30
0.0
 11
-20.72102519
 21
46.66741055
 31
0.0
  0
LINE
  5
3A0
100
AcDbEntity
  8
0
  6
CONTINUOUS
 62
       7
100
AcDbLine
 10
-20.72102519
 20
39.06741055
 30
0.0
 11
-46.77102519
 21
39.06741055
 31
0.0
  0
LINE
  5
3A1
100
AcDbEntity
  8
0
  6
CONTINUOUS
 62
       7
100
AcDbLine
 10
-80.52102519
 20
40.36741055
 30
0.0
 11
-80.52102519
 21
44.36741055
 31
0.0
  0
LINE
  5
3A2
100
AcDbEntity
  8
0
  6
CONTINUOUS
 62
       7
100
AcDbLine
 10
-76.82102519
 20
39.06741055
 30
0.0
 11
-50.77102519
 21
39.06741055
 31
0.0
  0
LINE
  5
3A3
100
AcDbEntity
  8
0
  6
CONTINUOUS
 62
       7
100
AcDbLine
 10
-76.82102519
 20
44.36741055
 30
0.0
 11
-76.82102519
 21
46.66741055
 31
0.0
  0
LINE
  5
3A4
100
AcDbEntity
  8
0
  6
CONTINUOUS
 62
       7
100
AcDbLine
 10
-76.82102519
 20
38.06741055
 30
0.0
 11
-76.82102519
 21
40.36741055
 31
0.0
  0
LINE
  5
3A5
100
AcDbEntity
  8
0
  6
CONTINUOUS
 62
       7
100
AcDbLine
 10
-80.02102519
 20
44.36741055
 30
0.0
 11
-80.02102519
 21
46.66741055
 31
0.0
  0
LINE
  5
3A6
100
AcDbEntity
  8
0
  6
CONTINUOUS
 62
       7
100
AcDbLine
 10
-80.02102519
 20
38.06741055
 30
0.0
 11
-80.02102519
 21
40.36741055
 31
0.0
  0
LINE
  5
3A7
100
AcDbEntity
  8
0
  6
CONTINUOUS
 62
       7
100
AcDbLine
 10
-93.31102519
 20
-12.27258945
 30
0.0
 11
-92.12102519
 21
-14.74258945
 31
0.0
  0
LINE
  5
3A8
100
AcDbEntity
  8
0
  6
CONTINUOUS
 62
       7
100
AcDbLine
 10
-92.97102519
 20
-11.74258945
 30
0.0
 11
-93.27102519
 21
-12.04258945
 31
0.0
  0
LINE
  5
3A9
100
AcDbEntity
  8
0
  6
CONTINUOUS
 62
       7
100
AcDbLine
 10
-92.57102519
 20
-11.74258945
 30
0.0
 11
-92.77102519
 21
-11.68258945
 31
0.0
  0
LINE
  5
3AA
100
AcDbEntity
  8
0
  6
CONTINUOUS
 62
       7
100
AcDbLine
 10
-92.12102519
 20
-11.74258945
 30
0.0
 11
-92.57102519
 21
-11.74258945
 31
0.0
  0
LINE
  5
3AB
100
AcDbEntity
  8
0
  6
CONTINUOUS
 62
       7
100
AcDbLine
 10
-92.12102519
 20
-12.34258945
 30
0.0
 11
-92.12102519
 21
-11.74258945
 31
0.0
  0
LINE
  5
3AC
100
AcDbEntity
  8
0
  6
CONTINUOUS
 62
       7
100
AcDbLine
 10
-91.62102519
 20
-12.34258945
 30
0.0
 11
-92.12102519
 21
-12.34258945
 31
0.0
  0
LINE
  5
3AD
100
AcDbEntity
  8
0
  6
CONTINUOUS
 62
       7
100
AcDbLine
 10
-91.62102519
 20
-12.94258945
 30
0.0
 11
-91.62102519
 21
-12.34258945
 31
0.0
  0
LINE
  5
3AE
100
AcDbEntity
  8
0
  6
CONTINUOUS
 62
       7
100
AcDbLine
 10
-91.12102519
 20
-12.94258945
 30
0.0
 11
-91.62102519
 21
-12.94258945
 31
0.0
  0
LINE
  5
3AF
100
AcDbEntity
  8
0
  6
CONTINUOUS
 62
       7
100
AcDbLine
 10
-91.12102519
 20
-13.54258945
 30
0.0
 11
-91.12102519
 21
-12.94258945
 31
0.0
  0
LINE
  5
3B0
100
AcDbEntity
  8
0
  6
CONTINUOUS
 62
       7
100
AcDbLine
 10
-90.62102519
 20
-13.54258945
 30
0.0
 11
-91.12102519
 21
-13.54258945
 31
0.0
  0
LINE
  5
3B1
100
AcDbEntity
  8
0
  6
CONTINUOUS
 62
       7
100
AcDbLine
 10
-90.62102519
 20
-14.14258945
 30
0.0
 11
-90.62102519
 21
-13.54258945
 31
0.0
  0
LINE
  5
3B2
100
AcDbEntity
  8
0
  6
CONTINUOUS
 62
       7
100
AcDbLine
 10
-90.12102519
 20
-14.14258945
 30
0.0
 11
-90.62102519
 21
-14.14258945
 31
0.0
  0
LINE
  5
3B3
100
AcDbEntity
  8
0
  6
CONTINUOUS
 62
       7
100
AcDbLine
 10
-90.12102519
 20
-14.74258945
 30
0.0
 11
-90.12102519
 21
-14.14258945
 31
0.0
  0
LINE
  5
3B4
100
AcDbEntity
  8
0
  6
CONTINUOUS
 62
       7
100
AcDbLine
 10
-89.62102519
 20
-14.74258945
 30
0.0
 11
-90.12102519
 21
-14.74258945
 31
0.0
  0
LINE
  5
3B5
100
AcDbEntity
  8
0
  6
CONTINUOUS
 62
       7
100
AcDbLine
 10
-6.35102519
 20
-12.27258945
 30
0.0
 11
-7.54102519
 21
-14.74258945
 31
0.0
  0
LINE
  5
3B6
100
AcDbEntity
  8
0
  6
CONTINUOUS
 62
       7
100
AcDbLine
 10
-6.69102519
 20
-11.74258945
 30
0.0
 11
-6.39102519
 21
-12.04258945
 31
0.0
  0
LINE
  5
3B7
100
AcDbEntity
  8
0
  6
CONTINUOUS
 62
       7
100
AcDbLine
 10
-7.09102519
 20
-11.74258945
 30
0.0
 11
-6.88102519
 21
-11.68258945
 31
0.0
  0
LINE
  5
3B8
100
AcDbEntity
  8
0
  6
CONTINUOUS
 62
       7
100
AcDbLine
 10
-7.54102519
 20
-11.74258945
 30
0.0
 11
-7.09102519
 21
-11.74258945
 31
0.0
  0
LINE
  5
3B9
100
AcDbEntity
  8
0
  6
CONTINUOUS
 62
       7
100
AcDbLine
 10
-7.54102519
 20
-12.34258945
 30
0.0
 11
-7.54102519
 21
-11.74258945
 31
0.0
  0
LINE
  5
3BA
100
AcDbEntity
  8
0
  6
CONTINUOUS
 62
       7
100
AcDbLine
 10
-8.04102519
 20
-12.34258945
 30
0.0
 11
-7.54102519
 21
-12.34258945
 31
0.0
  0
LINE
  5
3BB
100
AcDbEntity
  8
0
  6
CONTINUOUS
 62
       7
100
AcDbLine
 10
-8.04102519
 20
-12.94258945
 30
0.0
 11
-8.04102519
 21
-12.34258945
 31
0.0
  0
LINE
  5
3BC
100
AcDbEntity
  8
0
  6
CONTINUOUS
 62
       7
100
AcDbLine
 10
-8.54102519
 20
-12.94258945
 30
0.0
 11
-8.04102519
 21
-12.94258945
 31
0.0
  0
LINE
  5
3BD
100
AcDbEntity
  8
0
  6
CONTINUOUS
 62
       7
100
AcDbLine
 10
-8.54102519
 20
-13.54258945
 30
0.0
 11
-8.54102519
 21
-12.94258945
 31
0.0
  0
LINE
  5
3BE
100
AcDbEntity
  8
0
  6
CONTINUOUS
 62
       7
100
AcDbLine
 10
-9.04102519
 20
-13.54258945
 30
0.0
 11
-8.54102519
 21
-13.54258945
 31
0.0
  0
LINE
  5
3BF
100
AcDbEntity
  8
0
  6
CONTINUOUS
 62
       7
100
AcDbLine
 10
-9.04102519
 20
-14.14258945
 30
0.0
 11
-9.04102519
 21
-13.54258945
 31
0.0
  0
LINE
  5
3C0
100
AcDbEntity
  8
0
  6
CONTINUOUS
 62
       7
100
AcDbLine
 10
-9.54102519
 20
-14.14258945
 30
0.0
 11
-9.04102519
 21
-14.14258945
 31
0.0
  0
LINE
  5
3C1
100
AcDbEntity
  8
0
  6
CONTINUOUS
 62
       7
100
AcDbLine
 10
-9.54102519
 20
-14.74258945
 30
0.0
 11
-9.54102519
 21
-14.14258945
 31
0.0
  0
LINE
  5
3C2
100
AcDbEntity
  8
0
  6
CONTINUOUS
 62
       7
100
AcDbLine
 10
-10.04102519
 20
-14.74258945
 30
0.0
 11
-9.54102519
 21
-14.74258945
 31
0.0
  0
ARC
  5
3C3
100
AcDbEntity
  8
0
  6
CONTINUOUS
 62
       7
100
AcDbCircle
 10
-106.51102519
 20
24.45741055
 30
0.0
 40
2.05000017
100
AcDbArc
 50
90.0
 51
270.0
  0
ARC
  5
3C4
100
AcDbEntity
  8
0
  6
CONTINUOUS
 62
       7
100
AcDbCircle
 10
-105.51102519
 20
24.45741055
 30
0.0
 40
2.05000017
100
AcDbArc
 50
270.0
 51
90.0
  0
ARC
  5
3C5
100
AcDbEntity
  8
0
  6
CONTINUOUS
 62
       7
100
AcDbCircle
 10
-100.00894267
 20
8.75949306
 30
0.0
 40
1.00208468
100
AcDbArc
 50
180.1190712
 51
269.8809288
  0
ARC
  5
3C6
100
AcDbEntity
  8
0
  6
CONTINUOUS
 62
       7
100
AcDbCircle
 10
-106.50894761
 20
23.95948812
 30
0.0
 40
5.00207801
100
AcDbArc
 50
180.02379735
 51
269.97620265
  0
ARC
  5
3C7
100
AcDbEntity
  8
0
  6
CONTINUOUS
 62
       7
100
AcDbCircle
 10
-106.51394346
 20
25.16032882
 30
0.0
 40
4.99708258
100
AcDbArc
 50
89.96653956
 51
180.03346044
  0
ARC
  5
3C8
100
AcDbEntity
  8
0
  6
CONTINUOUS
 62
       7
100
AcDbCircle
 10
-100.01394478
 20
51.76033014
 30
0.0
 40
0.99708468
100
AcDbArc
 50
89.83223028
 51
180.16776972
  0
ARC
  5
3C9
100
AcDbEntity
  8
0
  6
CONTINUOUS
 62
       7
100
AcDbCircle
 10
0.9860509
 20
51.76448663
 30
0.0
 40
0.99294913
100
AcDbArc
 50
359.59168765
 51
90.40831235
  0
ARC
  5
3CA
100
AcDbEntity
  8
0
  6
CONTINUOUS
 62
       7
100
AcDbCircle
 10
7.48605416
 20
36.56448989
 30
0.0
 40
4.99292568
100
AcDbArc
 50
359.91876175
 51
90.08123825
  0
ARC
  5
3CB
100
AcDbEntity
  8
0
  6
CONTINUOUS
 62
       7
100
AcDbCircle
 10
7.481045
 20
35.35534037
 30
0.0
 40
4.99793025
100
AcDbArc
 50
269.97626765
 51
0.02373235
  0
ARC
  5
3CC
100
AcDbEntity
  8
0
  6
CONTINUOUS
 62
       7
100
AcDbCircle
 10
0.98102801
 20
8.75535735
 30
0.0
 40
0.99794892
100
AcDbArc
 50
269.88211868
 51
0.11788132
  0
ARC
  5
3CD
100
AcDbEntity
  8
0
  6
CONTINUOUS
 62
       7
100
AcDbCircle
 10
7.48813134
 20
36.05741055
 30
0.0
 40
2.05002045
100
AcDbArc
 50
269.74408461
 51
90.25591539
  0
ARC
  5
3CE
100
AcDbEntity
  8
0
  6
CONTINUOUS
 62
       7
100
AcDbCircle
 10
6.48813134
 20
36.05741055
 30
0.0
 40
2.05002045
100
AcDbArc
 50
90.25591539
 51
269.74408461
  0
ARC
  5
3CF
100
AcDbEntity
  8
0
  6
CONTINUOUS
 62
       7
100
AcDbCircle
 10
-23.91159348
 20
28.00684226
 30
0.0
 40
0.1005699
100
AcDbArc
 50
0.3237635
 51
89.6762365
  0
ARC
  5
3D0
100
AcDbEntity
  8
0
  6
CONTINUOUS
 62
       7
100
AcDbCircle
 10
-23.91644569
 20
23.71283105
 30
0.0
 40
0.10555977
100
AcDbArc
 50
272.94343883
 51
357.05656117
  0
ARC
  5
3D1
100
AcDbEntity
  8
0
  6
CONTINUOUS
 62
       7
100
AcDbCircle
 10
-23.91644569
 20
23.96283105
 30
0.0
 40
0.10555977
100
AcDbArc
 50
272.94343883
 51
357.05656117
  0
ARC
  5
3D2
100
AcDbEntity
  8
0
  6
CONTINUOUS
 62
       7
100
AcDbCircle
 10
-23.91159348
 20
27.75684226
 30
0.0
 40
0.1005699
100
AcDbArc
 50
0.3237635
 51
89.6762365
  0
ARC
  5
3D3
100
AcDbEntity
  8
0
  6
CONTINUOUS
 62
       7
100
AcDbCircle
 10
-25.56687196
 20
25.85741055
 30
0.0
 40
1.15142842
100
AcDbArc
 50
115.41460544
 51
244.58539456
  0
ARC
  5
3D4
100
AcDbEntity
  8
0
  6
CONTINUOUS
 62
       7
100
AcDbCircle
 10
-25.56688136
 20
25.85741055
 30
0.0
 40
1.15649923
100
AcDbArc
 50
295.93829638
 51
64.06170362
  0
ARC
  5
3D5
100
AcDbEntity
  8
0
  6
CONTINUOUS
 62
       7
100
AcDbCircle
 10
-25.56687198
 20
30.93741055
 30
0.0
 40
1.15142841
100
AcDbArc
 50
115.41460431
 51
244.58539569
  0
ARC
  5
3D6
100
AcDbEntity
  8
0
  6
CONTINUOUS
 62
       7
100
AcDbCircle
 10
-25.56688134
 20
30.93741055
 30
0.0
 40
1.15649922
100
AcDbArc
 50
295.93829524
 51
64.06170476
  0
ARC
  5
3D7
100
AcDbEntity
  8
0
  6
CONTINUOUS
 62
       7
100
AcDbCircle
 10
-23.91159261
 20
32.83684312
 30
0.0
 40
0.10056903
100
AcDbArc
 50
0.32327308
 51
89.67672692
  0
ARC
  5
3D8
100
AcDbEntity
  8
0
  6
CONTINUOUS
 62
       7
100
AcDbCircle
 10
-23.9164466
 20
29.04283196
 30
0.0
 40
0.10556073
100
AcDbArc
 50
272.94390761
 51
357.05609239
  0
ARC
  5
3D9
100
AcDbEntity
  8
0
  6
CONTINUOUS
 62
       7
100
AcDbCircle
 10
-23.91159261
 20
33.08684312
 30
0.0
 40
0.10056903
100
AcDbArc
 50
0.32327308
 51
89.67672692
  0
ARC
  5
3DA
100
AcDbEntity
  8
0
  6
CONTINUOUS
 62
       7
100
AcDbCircle
 10
-23.9164466
 20
28.79283196
 30
0.0
 40
0.10556073
100
AcDbArc
 50
272.94390761
 51
357.05609239
  0
ARC
  5
3DB
100
AcDbEntity
  8
0
  6
CONTINUOUS
 62
       7
100
AcDbCircle
 10
-14.94636728
 20
23.52275264
 30
0.0
 40
0.10547746
100
AcDbArc
 50
272.90308715
 51
357.09691285
  0
ARC
  5
3DC
100
AcDbEntity
  8
0
  6
CONTINUOUS
 62
       7
100
AcDbCircle
 10
-16.18183638
 20
23.51659936
 30
0.0
 40
0.09919213
100
AcDbArc
 50
179.53143187
 51
270.46856813
  0
ARC
  5
3DD
100
AcDbEntity
  8
0
  6
CONTINUOUS
 62
       7
100
AcDbCircle
 10
-16.18700943
 20
28.20339479
 30
0.0
 40
0.09420601
100
AcDbArc
 50
86.35794931
 51
183.64205069
  0
ARC
  5
3DE
100
AcDbEntity
  8
0
  6
CONTINUOUS
 62
       7
100
AcDbCircle
 10
-14.94151127
 20
28.19692446
 30
0.0
 40
0.10048726
100
AcDbArc
 50
0.27715581
 51
89.72284419
  0
ARC
  5
3DF
100
AcDbEntity
  8
0
  6
CONTINUOUS
 62
       7
100
AcDbCircle
 10
-14.94636819
 20
28.60275355
 30
0.0
 40
0.10547841
100
AcDbArc
 50
272.90355701
 51
357.09644299
  0
ARC
  5
3E0
100
AcDbEntity
  8
0
  6
CONTINUOUS
 62
       7
100
AcDbCircle
 10
-16.1818354
 20
28.59660033
 30
0.0
 40
0.09919309
100
AcDbArc
 50
179.53199705
 51
270.46800295
  0
ARC
  5
3E1
100
AcDbEntity
  8
0
  6
CONTINUOUS
 62
       7
100
AcDbCircle
 10
-16.18701036
 20
33.28339572
 30
0.0
 40
0.09420515
100
AcDbArc
 50
86.35735245
 51
183.64264755
  0
ARC
  5
3E2
100
AcDbEntity
  8
0
  6
CONTINUOUS
 62
       7
100
AcDbCircle
 10
-14.9415104
 20
33.27692533
 30
0.0
 40
0.10048639
100
AcDbArc
 50
0.27666419
 51
89.72333581
  0
ARC
  5
3E3
100
AcDbEntity
  8
0
  6
CONTINUOUS
 62
       7
100
AcDbCircle
 10
-84.71399508
 20
28.20038044
 30
0.0
 40
0.09707554
100
AcDbArc
 50
88.24683743
 51
181.75316257
  0
ARC
  5
3E4
100
AcDbEntity
  8
0
  6
CONTINUOUS
 62
       7
100
AcDbCircle
 10
-83.46840455
 20
28.20003118
 30
0.0
 40
0.09741462
100
AcDbArc
 50
358.45844894
 51
91.54155106
  0
ARC
  5
3E5
100
AcDbEntity
  8
0
  6
CONTINUOUS
 62
       7
100
AcDbCircle
 10
-83.47341028
 20
23.51979564
 30
0.0
 40
0.10241287
100
AcDbArc
 50
271.33448313
 51
358.66551687
  0
ARC
  5
3E6
100
AcDbEntity
  8
0
  6
CONTINUOUS
 62
       7
100
AcDbCircle
 10
-84.70897226
 20
23.51946348
 30
0.0
 40
0.10207358
100
AcDbArc
 50
181.15242522
 51
268.84757478
  0
ARC
  5
3E7
100
AcDbEntity
  8
0
  6
CONTINUOUS
 62
       7
100
AcDbCircle
 10
-84.71399598
 20
33.28038134
 30
0.0
 40
0.09707467
100
AcDbArc
 50
88.24629196
 51
181.75370804
  0
ARC
  5
3E8
100
AcDbEntity
  8
0
  6
CONTINUOUS
 62
       7
100
AcDbCircle
 10
-83.46840365
 20
33.28003208
 30
0.0
 40
0.09741375
100
AcDbArc
 50
358.45790915
 51
91.54209085
  0
ARC
  5
3E9
100
AcDbEntity
  8
0
  6
CONTINUOUS
 62
       7
100
AcDbCircle
 10
-83.47341122
 20
28.59979658
 30
0.0
 40
0.10241383
100
AcDbArc
 50
271.33499647
 51
358.66500353
  0
ARC
  5
3EA
100
AcDbEntity
  8
0
  6
CONTINUOUS
 62
       7
100
AcDbCircle
 10
-84.70897131
 20
28.59946442
 30
0.0
 40
0.10207454
100
AcDbArc
 50
181.15294369
 51
268.84705631
  0
ARC
  5
3EB
100
AcDbEntity
  8
0
  6
CONTINUOUS
 62
       7
100
AcDbCircle
 10
-75.73890377
 20
23.70953196
 30
0.0
 40
0.10214345
100
AcDbArc
 50
181.19005998
 51
268.80994002
  0
ARC
  5
3EC
100
AcDbEntity
  8
0
  6
CONTINUOUS
 62
       7
100
AcDbCircle
 10
-75.7439232
 20
28.01030856
 30
0.0
 40
0.09714523
100
AcDbArc
 50
88.29051407
 51
181.70948593
  0
ARC
  5
3ED
100
AcDbEntity
  8
0
  6
CONTINUOUS
 62
       7
100
AcDbCircle
 10
-75.7439232
 20
27.76030856
 30
0.0
 40
0.09714523
100
AcDbArc
 50
88.29051407
 51
181.70948593
  0
ARC
  5
3EE
100
AcDbEntity
  8
0
  6
CONTINUOUS
 62
       7
100
AcDbCircle
 10
-75.73890377
 20
23.95953196
 30
0.0
 40
0.10214345
100
AcDbArc
 50
181.19005998
 51
268.80994002
  0
ARC
  5
3EF
100
AcDbEntity
  8
0
  6
CONTINUOUS
 62
       7
100
AcDbCircle
 10
-74.09187523
 20
25.85741055
 30
0.0
 40
1.15431831
100
AcDbArc
 50
295.71484219
 51
64.28515781
  0
ARC
  5
3F0
100
AcDbEntity
  8
0
  6
CONTINUOUS
 62
       7
100
AcDbCircle
 10
-74.09186582
 20
25.85741055
 30
0.0
 40
1.15358574
100
AcDbArc
 50
115.63918625
 51
244.36081375
  0
ARC
  5
3F1
100
AcDbEntity
  8
0
  6
CONTINUOUS
 62
       7
100
AcDbCircle
 10
-74.09187521
 20
30.93741055
 30
0.0
 40
1.1543183
100
AcDbArc
 50
295.71484106
 51
64.28515894
  0
ARC
  5
3F2
100
AcDbEntity
  8
0
  6
CONTINUOUS
 62
       7
100
AcDbCircle
 10
-74.09186585
 20
30.93741055
 30
0.0
 40
1.15358573
100
AcDbArc
 50
115.63918513
 51
244.36081487
  0
ARC
  5
3F3
100
AcDbEntity
  8
0
  6
CONTINUOUS
 62
       7
100
AcDbCircle
 10
-75.73890283
 20
29.0395329
 30
0.0
 40
0.10214441
100
AcDbArc
 50
181.19057741
 51
268.80942259
  0
ARC
  5
3F4
100
AcDbEntity
  8
0
  6
CONTINUOUS
 62
       7
100
AcDbCircle
 10
-75.74392409
 20
32.84030945
 30
0.0
 40
0.09714436
100
AcDbArc
 50
88.28996976
 51
181.71003024
  0
ARC
  5
3F5
100
AcDbEntity
  8
0
  6
CONTINUOUS
 62
       7
100
AcDbCircle
 10
-75.73890283
 20
28.7895329
 30
0.0
 40
0.10214441
100
AcDbArc
 50
181.19057741
 51
268.80942259
  0
ARC
  5
3F6
100
AcDbEntity
  8
0
  6
CONTINUOUS
 62
       7
100
AcDbCircle
 10
-75.74392409
 20
33.09030945
 30
0.0
 40
0.09714436
100
AcDbArc
 50
88.28996976
 51
181.71003024
  0
ARC
  5
3F7
100
AcDbEntity
  8
0
  6
CONTINUOUS
 62
       7
100
AcDbCircle
 10
-80.32989487
 20
-12.17795428
 30
0.0
 40
0.19555409
100
AcDbArc
 50
136.19456183
 51
208.94262223
  0
ARC
  5
3F8
100
AcDbEntity
  8
0
  6
CONTINUOUS
 62
       7
100
AcDbCircle
 10
-80.01560832
 20
-11.87224287
 30
0.0
 40
0.19482319
100
AcDbArc
 50
76.77127492
 51
138.27986182
  0
ARC
  5
3F9
100
AcDbEntity
  8
0
  6
CONTINUOUS
 62
       7
100
AcDbCircle
 10
-55.41733588
 20
-12.18651305
 30
0.0
 40
0.20523358
100
AcDbArc
 50
335.20284489
 51
44.528769
  0
ARC
  5
3FA
100
AcDbEntity
  8
0
  6
CONTINUOUS
 62
       7
100
AcDbCircle
 10
-55.72004659
 20
-11.87599413
 30
0.0
 40
0.20001047
100
AcDbArc
 50
41.83505833
 51
104.7664532
  0
ARC
  5
3FB
100
AcDbEntity
  8
0
  6
CONTINUOUS
 62
       7
100
AcDbCircle
 10
-17.2124567
 20
-12.1856645
 30
0.0
 40
0.20117988
100
AcDbArc
 50
334.40063269
 51
45.3309812
  0
ARC
  5
3FC
100
AcDbEntity
  8
0
  6
CONTINUOUS
 62
       7
100
AcDbCircle
 10
-17.51739732
 20
-11.87526787
 30
0.0
 40
0.19755598
100
AcDbArc
 50
42.19060572
 51
102.75825753
  0
ARC
  5
3FD
100
AcDbEntity
  8
0
  6
CONTINUOUS
 62
       7
100
AcDbCircle
 10
-44.24006343
 20
-12.17793229
 30
0.0
 40
0.19541724
100
AcDbArc
 50
136.16500298
 51
208.97218108
  0
ARC
  5
3FE
100
AcDbEntity
  8
0
  6
CONTINUOUS
 62
       7
100
AcDbCircle
 10
-43.92562133
 20
-11.87220166
 30
0.0
 40
0.19478605
100
AcDbArc
 50
76.76477537
 51
138.28636138
  0
CIRCLE
  5
3FF
100
AcDbEntity
  8
0
  6
CONTINUOUS
 62
       7
100
AcDbCircle
 10
-13.95187113
 20
15.06740322
 30
0.0
 40
0.3500061
  0
CIRCLE
  5
400
100
AcDbEntity
  8
0
  6
CONTINUOUS
 62
       7
100
AcDbCircle
 10
-13.95187113
 20
17.60741177
 30
0.0
 40
0.3500061
  0
CIRCLE
  5
401
100
AcDbEntity
  8
0
  6
CONTINUOUS
 62
       7
100
AcDbCircle
 10
-16.49186442
 20
15.06740322
 30
0.0
 40
0.3500061
  0
CIRCLE
  5
402
100
AcDbEntity
  8
0
  6
CONTINUOUS
 62
       7
100
AcDbCircle
 10
-16.49186442
 20
17.60741177
 30
0.0
 40
0.3500061
  0
CIRCLE
  5
403
100
AcDbEntity
  8
0
  6
CONTINUOUS
 62
       7
100
AcDbCircle
 10
-19.03187296
 20
15.06740322
 30
0.0
 40
0.3500061
  0
CIRCLE
  5
404
100
AcDbEntity
  8
0
  6
CONTINUOUS
 62
       7
100
AcDbCircle
 10
-19.03187296
 20
17.60741177
 30
0.0
 40
0.3500061
  0
CIRCLE
  5
405
100
AcDbEntity
  8
0
  6
CONTINUOUS
 62
       7
100
AcDbCircle
 10
-21.57186625
 20
15.06740322
 30
0.0
 40
0.3500061
  0
CIRCLE
  5
406
100
AcDbEntity
  8
0
  6
CONTINUOUS
 62
       7
100
AcDbCircle
 10
-21.57186625
 20
17.60741177
 30
0.0
 40
0.3500061
  0
CIRCLE
  5
407
100
AcDbEntity
  8
0
  6
CONTINUOUS
 62
       7
100
AcDbCircle
 10
-24.11187479
 20
15.06740322
 30
0.0
 40
0.3500061
  0
CIRCLE
  5
408
100
AcDbEntity
  8
0
  6
CONTINUOUS
 62
       7
100
AcDbCircle
 10
-24.11187479
 20
17.60741177
 30
0.0
 40
0.3500061
  0
CIRCLE
  5
409
100
AcDbEntity
  8
0
  6
CONTINUOUS
 62
       7
100
AcDbCircle
 10
-26.65186808
 20
17.60741177
 30
0.0
 40
0.3500061
  0
CIRCLE
  5
40A
100
AcDbEntity
  8
0
  6
CONTINUOUS
 62
       7
100
AcDbCircle
 10
-26.65186808
 20
15.06740322
 30
0.0
 40
0.3500061
  0
CIRCLE
  5
40B
100
AcDbEntity
  8
0
  6
CONTINUOUS
 62
       7
100
AcDbCircle
 10
-29.19186137
 20
17.60741177
 30
0.0
 40
0.3500061
  0
CIRCLE
  5
40C
100
AcDbEntity
  8
0
  6
CONTINUOUS
 62
       7
100
AcDbCircle
 10
-29.19186137
 20
15.06740322
 30
0.0
 40
0.3500061
  0
CIRCLE
  5
40D
100
AcDbEntity
  8
0
  6
CONTINUOUS
 62
       7
100
AcDbCircle
 10
-31.73186991
 20
17.60741177
 30
0.0
 40
0.3500061
  0
CIRCLE
  5
40E
100
AcDbEntity
  8
0
  6
CONTINUOUS
 62
       7
100
AcDbCircle
 10
-31.73186991
 20
15.06740322
 30
0.0
 40
0.3500061
  0
CIRCLE
  5
40F
100
AcDbEntity
  8
0
  6
CONTINUOUS
 62
       7
100
AcDbCircle
 10
-34.2718632
 20
17.60741177
 30
0.0
 40
0.3500061
  0
CIRCLE
  5
410
100
AcDbEntity
  8
0
  6
CONTINUOUS
 62
       7
100
AcDbCircle
 10
-34.2718632
 20
15.06740322
 30
0.0
 40
0.3500061
  0
CIRCLE
  5
411
100
AcDbEntity
  8
0
  6
CONTINUOUS
 62
       7
100
AcDbCircle
 10
-36.81187174
 20
17.60741177
 30
0.0
 40
0.3500061
  0
CIRCLE
  5
412
100
AcDbEntity
  8
0
  6
CONTINUOUS
 62
       7
100
AcDbCircle
 10
-36.81187174
 20
15.06740322
 30
0.0
 40
0.3500061
  0
CIRCLE
  5
413
100
AcDbEntity
  8
0
  6
CONTINUOUS
 62
       7
100
AcDbCircle
 10
-85.70686076
 20
15.06740322
 30
0.0
 40
0.34999847
  0
CIRCLE
  5
414
100
AcDbEntity
  8
0
  6
CONTINUOUS
 62
       7
100
AcDbCircle
 10
-85.70686076
 20
17.60741177
 30
0.0
 40
0.34999847
  0
CIRCLE
  5
415
100
AcDbEntity
  8
0
  6
CONTINUOUS
 62
       7
100
AcDbCircle
 10
-83.16686747
 20
15.06740322
 30
0.0
 40
0.34999847
  0
CIRCLE
  5
416
100
AcDbEntity
  8
0
  6
CONTINUOUS
 62
       7
100
AcDbCircle
 10
-83.16686747
 20
17.60741177
 30
0.0
 40
0.34999847
  0
CIRCLE
  5
417
100
AcDbEntity
  8
0
  6
CONTINUOUS
 62
       7
100
AcDbCircle
 10
-80.62685893
 20
15.06740322
 30
0.0
 40
0.34999847
  0
CIRCLE
  5
418
100
AcDbEntity
  8
0
  6
CONTINUOUS
 62
       7
100
AcDbCircle
 10
-80.62685893
 20
17.60741177
 30
0.0
 40
0.34999847
  0
CIRCLE
  5
419
100
AcDbEntity
  8
0
  6
CONTINUOUS
 62
       7
100
AcDbCircle
 10
-78.08686564
 20
15.06740322
 30
0.0
 40
0.34999847
  0
CIRCLE
  5
41A
100
AcDbEntity
  8
0
  6
CONTINUOUS
 62
       7
100
AcDbCircle
 10
-78.08686564
 20
17.60741177
 30
0.0
 40
0.34999847
  0
CIRCLE
  5
41B
100
AcDbEntity
  8
0
  6
CONTINUOUS
 62
       7
100
AcDbCircle
 10
-75.54687235
 20
15.06740322
 30
0.0
 40
0.34999847
  0
CIRCLE
  5
41C
100
AcDbEntity
  8
0
  6
CONTINUOUS
 62
       7
100
AcDbCircle
 10
-75.54687235
 20
17.60741177
 30
0.0
 40
0.34999847
  0
CIRCLE
  5
41D
100
AcDbEntity
  8
0
  6
CONTINUOUS
 62
       7
100
AcDbCircle
 10
-73.00686381
 20
17.60741177
 30
0.0
 40
0.34999847
  0
CIRCLE
  5
41E
100
AcDbEntity
  8
0
  6
CONTINUOUS
 62
       7
100
AcDbCircle
 10
-73.00686381
 20
15.06740322
 30
0.0
 40
0.34999847
  0
CIRCLE
  5
41F
100
AcDbEntity
  8
0
  6
CONTINUOUS
 62
       7
100
AcDbCircle
 10
-70.46687052
 20
17.60741177
 30
0.0
 40
0.34999847
  0
CIRCLE
  5
420
100
AcDbEntity
  8
0
  6
CONTINUOUS
 62
       7
100
AcDbCircle
 10
-70.46687052
 20
15.06740322
 30
0.0
 40
0.34999847
  0
CIRCLE
  5
421
100
AcDbEntity
  8
0
  6
CONTINUOUS
 62
       7
100
AcDbCircle
 10
-67.92686198
 20
17.60741177
 30
0.0
 40
0.34999847
  0
CIRCLE
  5
422
100
AcDbEntity
  8
0
  6
CONTINUOUS
 62
       7
100
AcDbCircle
 10
-67.92686198
 20
15.06740322
 30
0.0
 40
0.34999847
  0
CIRCLE
  5
423
100
AcDbEntity
  8
0
  6
CONTINUOUS
 62
       7
100
AcDbCircle
 10
-65.38686869
 20
17.60741177
 30
0.0
 40
0.3500061
  0
CIRCLE
  5
424
100
AcDbEntity
  8
0
  6
CONTINUOUS
 62
       7
100
AcDbCircle
 10
-65.38686869
 20
15.06740322
 30
0.0
 40
0.3500061
  0
CIRCLE
  5
425
100
AcDbEntity
  8
0
  6
CONTINUOUS
 62
       7
100
AcDbCircle
 10
-62.84687541
 20
17.60741177
 30
0.0
 40
0.3500061
  0
CIRCLE
  5
426
100
AcDbEntity
  8
0
  6
CONTINUOUS
 62
       7
100
AcDbCircle
 10
-62.84687541
 20
15.06740322
 30
0.0
 40
0.3500061
  0
CIRCLE
  5
427
100
AcDbEntity
  8
0
  6
CONTINUOUS
 62
       7
100
AcDbCircle
 10
-78.49186442
 20
30.94240322
 30
0.0
 40
1.875
  0
CIRCLE
  5
428
100
AcDbEntity
  8
0
  6
CONTINUOUS
 62
       7
100
AcDbCircle
 10
-78.49186442
 20
25.86241665
 30
0.0
 40
1.875
  0
CIRCLE
  5
429
100
AcDbEntity
  8
0
  6
CONTINUOUS
 62
       7
100
AcDbCircle
 10
-21.16688273
 20
30.94240322
 30
0.0
 40
1.875
  0
CIRCLE
  5
42A
100
AcDbEntity
  8
0
  6
CONTINUOUS
 62
       7
100
AcDbCircle
 10
-21.16688273
 20
25.86241665
 30
0.0
 40
1.875
  0
CIRCLE
  5
42B
100
AcDbEntity
  8
0
  6
CONTINUOUS
 62
       7
100
AcDbCircle
 10
-94.51186869
 20
39.26241055
 30
0.0
 40
1.0
  0
CIRCLE
  5
42C
100
AcDbEntity
  8
0
  6
CONTINUOUS
 62
       7
100
AcDbCircle
 10
-94.51186869
 20
33.26241055
 30
0.0
 40
1.0
  0
CIRCLE
  5
42D
100
AcDbEntity
  8
0
  6
CONTINUOUS
 62
       7
100
AcDbCircle
 10
-94.51186869
 20
27.26241055
 30
0.0
 40
1.0
  0
CIRCLE
  5
42E
100
AcDbEntity
  8
0
  6
CONTINUOUS
 62
       7
100
AcDbCircle
 10
-4.51186869
 20
45.26241055
 30
0.0
 40
1.0
  0
CIRCLE
  5
42F
100
AcDbEntity
  8
0
  6
CONTINUOUS
 62
       7
100
AcDbCircle
 10
-4.51186869
 20
39.26241055
 30
0.0
 40
1.0
  0
CIRCLE
  5
430
100
AcDbEntity
  8
0
  6
CONTINUOUS
 62
       7
100
AcDbCircle
 10
-4.51186869
 20
33.26241055
 30
0.0
 40
1.0
  0
CIRCLE
  5
431
100
AcDbEntity
  8
0
  6
CONTINUOUS
 62
       7
100
AcDbCircle
 10
-4.51186869
 20
27.26241055
 30
0.0
 40
1.0
  0
CIRCLE
  5
432
100
AcDbEntity
  8
0
  6
CONTINUOUS
 62
       7
100
AcDbCircle
 10
-72.90171549
 20
40.95241299
 30
0.0
 40
0.34999758
  0
CIRCLE
  5
433
100
AcDbEntity
  8
0
  6
CONTINUOUS
 62
       7
100
AcDbCircle
 10
-72.90171549
 20
43.49239102
 30
0.0
 40
0.34999758
  0
ARC
  5
434
100
AcDbEntity
  8
0
  6
CONTINUOUS
 62
       7
100
AcDbCircle
 10
-85.84102519
 20
42.21741055
 30
0.0
 40
1.45000015
100
AcDbArc
 50
90.0
 51
270.0
  0
CIRCLE
  5
435
100
AcDbEntity
  8
0
  6
CONTINUOUS
 62
       7
100
AcDbCircle
 10
-24.64184115
 20
43.49239102
 30
0.0
 40
0.35000521
  0
CIRCLE
  5
436
100
AcDbEntity
  8
0
  6
CONTINUOUS
 62
       7
100
AcDbCircle
 10
-24.64184115
 20
40.95241299
 30
0.0
 40
0.35000521
  0
CIRCLE
  5
437
100
AcDbEntity
  8
0
  6
CONTINUOUS
 62
       7
100
AcDbCircle
 10
-27.18183634
 20
40.95241299
 30
0.0
 40
0.35000521
  0
CIRCLE
  5
438
100
AcDbEntity
  8
0
  6
CONTINUOUS
 62
       7
100
AcDbCircle
 10
-27.18183634
 20
43.49239102
 30
0.0
 40
0.35000521
  0
CIRCLE
  5
439
100
AcDbEntity
  8
0
  6
CONTINUOUS
 62
       7
100
AcDbCircle
 10
-29.72182963
 20
40.95241299
 30
0.0
 40
0.35000521
  0
CIRCLE
  5
43A
100
AcDbEntity
  8
0
  6
CONTINUOUS
 62
       7
100
AcDbCircle
 10
-29.72182963
 20
43.49239102
 30
0.0
 40
0.35000521
  0
CIRCLE
  5
43B
100
AcDbEntity
  8
0
  6
CONTINUOUS
 62
       7
100
AcDbCircle
 10
-32.26182291
 20
40.95241299
 30
0.0
 40
0.35000521
  0
CIRCLE
  5
43C
100
AcDbEntity
  8
0
  6
CONTINUOUS
 62
       7
100
AcDbCircle
 10
-32.26182291
 20
43.49239102
 30
0.0
 40
0.35000521
  0
CIRCLE
  5
43D
100
AcDbEntity
  8
0
  6
CONTINUOUS
 62
       7
100
AcDbCircle
 10
-34.8018162
 20
40.95241299
 30
0.0
 40
0.35000521
  0
CIRCLE
  5
43E
100
AcDbEntity
  8
0
  6
CONTINUOUS
 62
       7
100
AcDbCircle
 10
-34.8018162
 20
43.49239102
 30
0.0
 40
0.35000521
  0
CIRCLE
  5
43F
100
AcDbEntity
  8
0
  6
CONTINUOUS
 62
       7
100
AcDbCircle
 10
-37.34180949
 20
40.95241299
 30
0.0
 40
0.35000521
  0
CIRCLE
  5
440
100
AcDbEntity
  8
0
  6
CONTINUOUS
 62
       7
100
AcDbCircle
 10
-37.34180949
 20
43.49239102
 30
0.0
 40
0.35000521
  0
CIRCLE
  5
441
100
AcDbEntity
  8
0
  6
CONTINUOUS
 62
       7
100
AcDbCircle
 10
-39.88180277
 20
40.95241299
 30
0.0
 40
0.35000521
  0
CIRCLE
  5
442
100
AcDbEntity
  8
0
  6
CONTINUOUS
 62
       7
100
AcDbCircle
 10
-39.88180277
 20
43.49239102
 30
0.0
 40
0.35000521
  0
CIRCLE
  5
443
100
AcDbEntity
  8
0
  6
CONTINUOUS
 62
       7
100
AcDbCircle
 10
-42.42181132
 20
40.95241299
 30
0.0
 40
0.35000521
  0
CIRCLE
  5
444
100
AcDbEntity
  8
0
  6
CONTINUOUS
 62
       7
100
AcDbCircle
 10
-42.42181132
 20
43.49239102
 30
0.0
 40
0.35000521
  0
CIRCLE
  5
445
100
AcDbEntity
  8
0
  6
CONTINUOUS
 62
       7
100
AcDbCircle
 10
-44.96178935
 20
40.95241299
 30
0.0
 40
0.35000521
  0
CIRCLE
  5
446
100
AcDbEntity
  8
0
  6
CONTINUOUS
 62
       7
100
AcDbCircle
 10
-44.96178935
 20
43.49239102
 30
0.0
 40
0.35000521
  0
CIRCLE
  5
447
100
AcDbEntity
  8
0
  6
CONTINUOUS
 62
       7
100
AcDbCircle
 10
-47.50178263
 20
40.95241299
 30
0.0
 40
0.35000521
  0
CIRCLE
  5
448
100
AcDbEntity
  8
0
  6
CONTINUOUS
 62
       7
100
AcDbCircle
 10
-47.50178263
 20
43.49239102
 30
0.0
 40
0.35000521
  0
CIRCLE
  5
449
100
AcDbEntity
  8
0
  6
CONTINUOUS
 62
       7
100
AcDbCircle
 10
-50.04177592
 20
43.49239102
 30
0.0
 40
0.35000521
  0
CIRCLE
  5
44A
100
AcDbEntity
  8
0
  6
CONTINUOUS
 62
       7
100
AcDbCircle
 10
-50.04177592
 20
40.95241299
 30
0.0
 40
0.35000521
  0
CIRCLE
  5
44B
100
AcDbEntity
  8
0
  6
CONTINUOUS
 62
       7
100
AcDbCircle
 10
-52.5817692
 20
43.49239102
 30
0.0
 40
0.35000521
  0
CIRCLE
  5
44C
100
AcDbEntity
  8
0
  6
CONTINUOUS
 62
       7
100
AcDbCircle
 10
-52.5817692
 20
40.95241299
 30
0.0
 40
0.35000521
  0
CIRCLE
  5
44D
100
AcDbEntity
  8
0
  6
CONTINUOUS
 62
       7
100
AcDbCircle
 10
-55.12176249
 20
43.49239102
 30
0.0
 40
0.35000521
  0
CIRCLE
  5
44E
100
AcDbEntity
  8
0
  6
CONTINUOUS
 62
       7
100
AcDbCircle
 10
-55.12176249
 20
40.95241299
 30
0.0
 40
0.35000521
  0
CIRCLE
  5
44F
100
AcDbEntity
  8
0
  6
CONTINUOUS
 62
       7
100
AcDbCircle
 10
-57.66175578
 20
43.49239102
 30
0.0
 40
0.35000521
  0
CIRCLE
  5
450
100
AcDbEntity
  8
0
  6
CONTINUOUS
 62
       7
100
AcDbCircle
 10
-57.66175578
 20
40.95241299
 30
0.0
 40
0.35000521
  0
CIRCLE
  5
451
100
AcDbEntity
  8
0
  6
CONTINUOUS
 62
       7
100
AcDbCircle
 10
-60.20176432
 20
43.49239102
 30
0.0
 40
0.35000521
  0
CIRCLE
  5
452
100
AcDbEntity
  8
0
  6
CONTINUOUS
 62
       7
100
AcDbCircle
 10
-60.20176432
 20
40.95241299
 30
0.0
 40
0.35000521
  0
CIRCLE
  5
453
100
AcDbEntity
  8
0
  6
CONTINUOUS
 62
       7
100
AcDbCircle
 10
-62.74174235
 20
43.49239102
 30
0.0
 40
0.35000521
  0
CIRCLE
  5
454
100
AcDbEntity
  8
0
  6
CONTINUOUS
 62
       7
100
AcDbCircle
 10
-62.74174235
 20
40.95241299
 30
0.0
 40
0.35000521
  0
CIRCLE
  5
455
100
AcDbEntity
  8
0
  6
CONTINUOUS
 62
       7
100
AcDbCircle
 10
-65.28173563
 20
43.49239102
 30
0.0
 40
0.35000521
  0
CIRCLE
  5
456
100
AcDbEntity
  8
0
  6
CONTINUOUS
 62
       7
100
AcDbCircle
 10
-65.28173563
 20
40.95241299
 30
0.0
 40
0.35000521
  0
CIRCLE
  5
457
100
AcDbEntity
  8
0
  6
CONTINUOUS
 62
       7
100
AcDbCircle
 10
-67.82172892
 20
43.49239102
 30
0.0
 40
0.35000521
  0
CIRCLE
  5
458
100
AcDbEntity
  8
0
  6
CONTINUOUS
 62
       7
100
AcDbCircle
 10
-67.82172892
 20
40.95241299
 30
0.0
 40
0.35000521
  0
CIRCLE
  5
459
100
AcDbEntity
  8
0
  6
CONTINUOUS
 62
       7
100
AcDbCircle
 10
-70.36172221
 20
43.49239102
 30
0.0
 40
0.34999758
  0
CIRCLE
  5
45A
100
AcDbEntity
  8
0
  6
CONTINUOUS
 62
       7
100
AcDbCircle
 10
-70.36172221
 20
40.95241299
 30
0.0
 40
0.34999758
  0
ARC
  5
45B
100
AcDbEntity
  8
0
  6
CONTINUOUS
 62
       7
100
AcDbCircle
 10
-93.13610993
 20
-12.18453124
 30
0.0
 40
0.19583053
100
AcDbArc
 50
133.54616589
 51
206.72222023
  0
ARC
  5
45C
100
AcDbEntity
  8
0
  6
CONTINUOUS
 62
       7
100
AcDbCircle
 10
-92.82291765
 20
-11.87294792
 30
0.0
 40
0.19730477
100
AcDbArc
 50
74.75146028
 51
138.64702819
  0
ARC
  5
45D
100
AcDbEntity
  8
0
  6
CONTINUOUS
 62
       7
100
AcDbCircle
 10
-6.52272176
 20
-12.18397147
 30
0.0
 40
0.19321714
100
AcDbArc
 50
332.70032291
 51
47.03129098
  0
ARC
  5
45E
100
AcDbEntity
  8
0
  6
CONTINUOUS
 62
       7
100
AcDbCircle
 10
-6.83655904
 20
-11.87261332
 30
0.0
 40
0.19515713
100
AcDbArc
 50
41.77845997
 51
103.17040328
  0
LINE
  5
45F
100
AcDbEntity
  8
0
  6
CONTINUOUS
 62
       7
100
AcDbLine
 10
-80.01102519
 20
32.03741055
 30
0.0
 11
-78.90870017
 21
30.93508553
 31
0.0
  0
LINE
  5
460
100
AcDbEntity
  8
0
  6
CONTINUOUS
 62
       7
100
AcDbLine
 10
-79.58102519
 20
32.45741055
 30
0.0
 11
-78.48499125
 21
31.35717724
 31
0.0
  0
LINE
  5
461
100
AcDbEntity
  8
0
  6
CONTINUOUS
 62
       7
100
AcDbLine
 10
-78.48579587
 20
30.51218123
 30
0.0
 11
-77.39102519
 21
29.41741055
 31
0.0
  0
LINE
  5
462
100
AcDbEntity
  8
0
  6
CONTINUOUS
 62
       7
100
AcDbLine
 10
-78.06370261
 20
30.93427448
 30
0.0
 11
-76.97102519
 21
29.83741055
 31
0.0
  0
LINE
  5
463
100
AcDbEntity
  8
0
  6
CONTINUOUS
 62
       7
100
AcDbLine
 10
-78.06370261
 20
30.93427448
 30
0.0
 11
-77.45163353
 21
31.54634356
 31
0.0
  0
LINE
  5
464
100
AcDbEntity
  8
0
  6
CONTINUOUS
 62
       7
100
AcDbLine
 10
-79.51696149
 20
30.32914582
 30
0.0
 11
-78.90870017
 21
30.93508553
 31
0.0
  0
LINE
  5
465
100
AcDbEntity
  8
0
  6
CONTINUOUS
 62
       7
100
AcDbLine
 10
-79.09289638
 20
29.90508071
 30
0.0
 11
-78.48579587
 21
30.51218123
 31
0.0
  0
LINE
  5
466
100
AcDbEntity
  8
0
  6
CONTINUOUS
 62
       7
100
AcDbLine
 10
-78.48499125
 20
31.35717724
 30
0.0
 11
-77.87256046
 21
31.9672705
 31
0.0
  0
LINE
  5
467
100
AcDbEntity
  8
0
  6
CONTINUOUS
 62
       7
100
AcDbLine
 10
-77.45163353
 20
31.54634356
 30
0.0
 11
-77.87256046
 21
31.9672705
 31
0.0
  0
LINE
  5
468
100
AcDbEntity
  8
0
  6
CONTINUOUS
 62
       7
100
AcDbLine
 10
-79.09289638
 20
29.90508071
 30
0.0
 11
-79.51696149
 21
30.32914582
 31
0.0
  0
LINE
  5
469
100
AcDbEntity
  8
0
  6
CONTINUOUS
 62
       7
100
AcDbLine
 10
-80.01102519
 20
26.95742397
 30
0.0
 11
-78.90870017
 21
25.85509896
 31
0.0
  0
LINE
  5
46A
100
AcDbEntity
  8
0
  6
CONTINUOUS
 62
       7
100
AcDbLine
 10
-79.58102519
 20
27.37742397
 30
0.0
 11
-78.48499125
 21
26.27719067
 31
0.0
  0
LINE
  5
46B
100
AcDbEntity
  8
0
  6
CONTINUOUS
 62
       7
100
AcDbLine
 10
-78.48579587
 20
25.43219465
 30
0.0
 11
-77.39102519
 21
24.33742397
 31
0.0
  0
LINE
  5
46C
100
AcDbEntity
  8
0
  6
CONTINUOUS
 62
       7
100
AcDbLine
 10
-78.06370261
 20
25.85428791
 30
0.0
 11
-76.97102519
 21
24.75742397
 31
0.0
  0
LINE
  5
46D
100
AcDbEntity
  8
0
  6
CONTINUOUS
 62
       7
100
AcDbLine
 10
-78.06370261
 20
25.85428791
 30
0.0
 11
-77.45163353
 21
26.46635699
 31
0.0
  0
LINE
  5
46E
100
AcDbEntity
  8
0
  6
CONTINUOUS
 62
       7
100
AcDbLine
 10
-79.51696149
 20
25.24915924
 30
0.0
 11
-78.90870017
 21
25.85509896
 31
0.0
  0
LINE
  5
46F
100
AcDbEntity
  8
0
  6
CONTINUOUS
 62
       7
100
AcDbLine
 10
-79.09289638
 20
24.82509414
 30
0.0
 11
-78.48579587
 21
25.43219465
 31
0.0
  0
LINE
  5
470
100
AcDbEntity
  8
0
  6
CONTINUOUS
 62
       7
100
AcDbLine
 10
-78.48499125
 20
26.27719067
 30
0.0
 11
-77.87256046
 21
26.88728393
 31
0.0
  0
LINE
  5
471
100
AcDbEntity
  8
0
  6
CONTINUOUS
 62
       7
100
AcDbLine
 10
-77.45163353
 20
26.46635699
 30
0.0
 11
-77.87256046
 21
26.88728393
 31
0.0
  0
LINE
  5
472
100
AcDbEntity
  8
0
  6
CONTINUOUS
 62
       7
100
AcDbLine
 10
-79.09289638
 20
24.82509414
 30
0.0
 11
-79.51696149
 21
25.24915924
 31
0.0
  0
LINE
  5
473
100
AcDbEntity
  8
0
  6
CONTINUOUS
 62
       7
100
AcDbLine
 10
-22.6860435
 20
32.03741055
 30
0.0
 11
-21.58371848
 21
30.93508553
 31
0.0
  0
LINE
  5
474
100
AcDbEntity
  8
0
  6
CONTINUOUS
 62
       7
100
AcDbLine
 10
-22.2560435
 20
32.45741055
 30
0.0
 11
-21.16000956
 21
31.35717724
 31
0.0
  0
LINE
  5
475
100
AcDbEntity
  8
0
  6
CONTINUOUS
 62
       7
100
AcDbLine
 10
-21.16081418
 20
30.51218123
 30
0.0
 11
-20.0660435
 21
29.41741055
 31
0.0
  0
LINE
  5
476
100
AcDbEntity
  8
0
  6
CONTINUOUS
 62
       7
100
AcDbLine
 10
-20.73872092
 20
30.93427448
 30
0.0
 11
-19.6460435
 21
29.83741055
 31
0.0
  0
LINE
  5
477
100
AcDbEntity
  8
0
  6
CONTINUOUS
 62
       7
100
AcDbLine
 10
-20.73872092
 20
30.93427448
 30
0.0
 11
-20.12665184
 21
31.54634356
 31
0.0
  0
LINE
  5
478
100
AcDbEntity
  8
0
  6
CONTINUOUS
 62
       7
100
AcDbLine
 10
-22.1919798
 20
30.32914582
 30
0.0
 11
-21.58371848
 21
30.93508553
 31
0.0
  0
LINE
  5
479
100
AcDbEntity
  8
0
  6
CONTINUOUS
 62
       7
100
AcDbLine
 10
-21.76791469
 20
29.90508071
 30
0.0
 11
-21.16081418
 21
30.51218123
 31
0.0
  0
LINE
  5
47A
100
AcDbEntity
  8
0
  6
CONTINUOUS
 62
       7
100
AcDbLine
 10
-21.16000956
 20
31.35717724
 30
0.0
 11
-20.54757878
 21
31.9672705
 31
0.0
  0
LINE
  5
47B
100
AcDbEntity
  8
0
  6
CONTINUOUS
 62
       7
100
AcDbLine
 10
-20.12665184
 20
31.54634356
 30
0.0
 11
-20.54757878
 21
31.9672705
 31
0.0
  0
LINE
  5
47C
100
AcDbEntity
  8
0
  6
CONTINUOUS
 62
       7
100
AcDbLine
 10
-21.76791469
 20
29.90508071
 30
0.0
 11
-22.1919798
 21
30.32914582
 31
0.0
  0
LINE
  5
47D
100
AcDbEntity
  8
0
  6
CONTINUOUS
 62
       7
100
AcDbLine
 10
-22.6860435
 20
26.95742397
 30
0.0
 11
-21.58371848
 21
25.85509896
 31
0.0
  0
LINE
  5
47E
100
AcDbEntity
  8
0
  6
CONTINUOUS
 62
       7
100
AcDbLine
 10
-22.2560435
 20
27.37742397
 30
0.0
 11
-21.16000956
 21
26.27719067
 31
0.0
  0
LINE
  5
47F
100
AcDbEntity
  8
0
  6
CONTINUOUS
 62
       7
100
AcDbLine
 10
-21.16081418
 20
25.43219465
 30
0.0
 11
-20.0660435
 21
24.33742397
 31
0.0
  0
LINE
  5
480
100
AcDbEntity
  8
0
  6
CONTINUOUS
 62
       7
100
AcDbLine
 10
-20.73872092
 20
25.85428791
 30
0.0
 11
-19.6460435
 21
24.75742397
 31
0.0
  0
LINE
  5
481
100
AcDbEntity
  8
0
  6
CONTINUOUS
 62
       7
100
AcDbLine
 10
-20.73872092
 20
25.85428791
 30
0.0
 11
-20.12665184
 21
26.46635699
 31
0.0
  0
LINE
  5
482
100
AcDbEntity
  8
0
  6
CONTINUOUS
 62
       7
100
AcDbLine
 10
-22.1919798
 20
25.24915924
 30
0.0
 11
-21.58371848
 21
25.85509896
 31
0.0
  0
LINE
  5
483
100
AcDbEntity
  8
0
  6
CONTINUOUS
 62
       7
100
AcDbLine
 10
-21.76791469
 20
24.82509414
 30
0.0
 11
-21.16081418
 21
25.43219465
 31
0.0
  0
LINE
  5
484
100
AcDbEntity
  8
0
  6
CONTINUOUS
 62
       7
100
AcDbLine
 10
-21.16000956
 20
26.27719067
 30
0.0
 11
-20.54757878
 21
26.88728393
 31
0.0
  0
LINE
  5
485
100
AcDbEntity
  8
0
  6
CONTINUOUS
 62
       7
100
AcDbLine
 10
-20.12665184
 20
26.46635699
 30
0.0
 11
-20.54757878
 21
26.88728393
 31
0.0
  0
LINE
  5
486
100
AcDbEntity
  8
0
  6
CONTINUOUS
 62
       7
100
AcDbLine
 10
-21.76791469
 20
24.82509414
 30
0.0
 11
-22.1919798
 21
25.24915924
 31
0.0
  0
LINE
  5
487
100
AcDbEntity
  8
0
  6
CONTINUOUS
 62
       7
100
AcDbLine
 10
-10.04102519
 20
-15.34258945
 30
0.0
 11
-10.04102519
 21
-14.74258945
 31
0.0
  0
LINE
  5
488
100
AcDbEntity
  8
0
  6
CONTINUOUS
 62
       7
100
AcDbLine
 10
-7.54102519
 20
-14.74258945
 30
0.0
 11
-7.54102519
 21
-19.67258945
 31
0.0
  0
LINE
  5
489
100
AcDbEntity
  8
0
  6
CONTINUOUS
 62
       7
100
AcDbLine
 10
-89.62102519
 20
-15.34258945
 30
0.0
 11
-89.62102519
 21
-14.74258945
 31
0.0
  0
LINE
  5
48A
100
AcDbEntity
  8
0
  6
CONTINUOUS
 62
       7
100
AcDbLine
 10
-92.12102519
 20
-14.74258945
 30
0.0
 11
-92.12102519
 21
-19.67258945
 31
0.0
  0
LINE
  5
48B
100
AcDbEntity
  8
0
  6
CONTINUOUS
 62
       7
100
AcDbLine
 10
-40.73102519
 20
-15.34258945
 30
0.0
 11
-40.73102519
 21
-14.74258945
 31
0.0
  0
LINE
  5
48C
100
AcDbEntity
  8
0
  6
CONTINUOUS
 62
       7
100
AcDbLine
 10
-43.23102519
 20
-14.74258945
 30
0.0
 11
-43.23102519
 21
-19.67258945
 31
0.0
  0
LINE
  5
48D
100
AcDbEntity
  8
0
  6
CONTINUOUS
 62
       7
100
AcDbLine
 10
-20.72102519
 20
-15.34258945
 30
0.0
 11
-20.72102519
 21
-14.74258945
 31
0.0
  0
LINE
  5
48E
100
AcDbEntity
  8
0
  6
CONTINUOUS
 62
       7
100
AcDbLine
 10
-18.22102519
 20
-14.74258945
 30
0.0
 11
-18.22102519
 21
-19.67258945
 31
0.0
  0
LINE
  5
48F
100
AcDbEntity
  8
0
  6
CONTINUOUS
 62
       7
100
AcDbLine
 10
-58.92102519
 20
-15.34258945
 30
0.0
 11
-58.92102519
 21
-14.74258945
 31
0.0
  0
LINE
  5
490
100
AcDbEntity
  8
0
  6
CONTINUOUS
 62
       7
100
AcDbLine
 10
-56.42102519
 20
-14.74258945
 30
0.0
 11
-56.42102519
 21
-19.67258945
 31
0.0
  0
LINE
  5
491
100
AcDbEntity
  8
0
  6
CONTINUOUS
 62
       7
100
AcDbLine
 10
-76.82102519
 20
-15.34258945
 30
0.0
 11
-76.82102519
 21
-14.74258945
 31
0.0
  0
LINE
  5
492
100
AcDbEntity
  8
0
  6
CONTINUOUS
 62
       7
100
AcDbLine
 10
-79.32102519
 20
-14.74258945
 30
0.0
 11
-79.32102519
 21
-19.67258945
 31
0.0
  0
LINE
  5
493
100
AcDbEntity
  8
0
  6
CONTINUOUS
 62
       7
100
AcDbLine
 10
-138.3999939
 20
94.5
 30
0.0
 11
138.3500061
 21
94.5
 31
0.0
  0
LINE
  5
494
100
AcDbEntity
  8
0
  6
CONTINUOUS
 62
       7
100
AcDbLine
 10
138.3500061
 20
94.5
 30
0.0
 11
138.3500061
 21
-94.80000305
 31
0.0
  0
LINE
  5
495
100
AcDbEntity
  8
0
  6
CONTINUOUS
 62
       7
100
AcDbLine
 10
-138.3999939
 20
-94.80000305
 30
0.0
 11
138.3500061
 21
-94.80000305
 31
0.0
  0
LINE
  5
496
100
AcDbEntity
  8
0
  6
CONTINUOUS
 62
       7
100
AcDbLine
 10
-138.3999939
 20
94.5
 30
0.0
 11
-138.3999939
 21
-94.80000305
 31
0.0
  0
MTEXT
  5
497
100
AcDbEntity
  8
0
  6
CONTINUOUS
 62
       7
100
AcDbMText
 10
-129.43703095
 20
74.5
 30
0.0
 40
3.20000005
 41
0.0
 71
       4
 72
       1
  1
\W1.056;\A1;MODEL:FMA-TE4020-OR
  0
ENDSEC
  0
SECTION
  2
OBJECTS
  0
DICTIONARY
  5
19
100
AcDbDictionary
  3
ACAD_GROUP
350
1A
  3
ACAD_MLINESTYLE
350
1B
  0
DICTIONARY
  5
1A
102
{ACAD_REACTORS
330
19
102
}
100
AcDbDictionary
  0
DICTIONARY
  5
1B
102
{ACAD_REACTORS
330
19
102
}
100
AcDbDictionary
  3
STANDARD
350
1C
  0
MLINESTYLE
  5
1C
102
{ACAD_REACTORS
330
1B
102
}
100
AcDbMlineStyle
  2
Standard
 70
       0
  3

 62
       0
 51
90.0
 52
90.0
 71
       2
 49
0.5
 62
     256
  6
ByLayer
 49
-0.5
 62
     256
  6
ByLayer
  0
ENDSEC
  0
EOF
