  0
SECTION
  2
HEADER
  9
$ACADVER
  1
AC1012
  9
$DWGCODEPAGE
  3
dos932
  9
$INSBASE
 10
0.0
 20
0.0
 30
0.0
  9
$EXTMIN
 10
-138.3999939
 20
-94.80000305
 30
0.0
  9
$EXTMAX
 10
138.3500061
 20
94.5
 30
0.0
  9
$LIMMIN
 10
-148.5
 20
-105.0
  9
$LIMMAX
 10
148.5
 20
105.0
  9
$ORTHOMODE
 70
       0
  9
$REGENMODE
 70
       1
  9
$FILLMODE
 70
       1
  9
$QTEXTMODE
 70
       0
  9
$MIRRTEXT
 70
       1
  9
$DRAGMODE
 70
       2
  9
$LTSCALE
 40
1.0
  9
$OSMODE
 70
       0
  9
$ATTMODE
 70
       1
  9
$TEXTSIZE
 40
3.20000005
  9
$TRACEWID
 40
0.05
  9
$TEXTSTYLE
  7
MX_NOTE_STANDARD
  9
$CLAYER
  8
0
  9
$CELTYPE
  6
CONTINUOUS
  9
$CECOLOR
 62
     256
  9
$CELTSCALE
 40
1.0
  9
$DELOBJ
 70
       1
  9
$DISPSILH
 70
       0
  9
$DIMSCALE
 40
1.0
  9
$DIMASZ
 40
2.5
  9
$DIMEXO
 40
1.5
  9
$DIMDLI
 40
3.75
  9
$DIMRND
 40
0.0
  9
$DIMDLE
 40
0.0
  9
$DIMEXE
 40
1.5
  9
$DIMTP
 40
0.0
  9
$DIMTM
 40
0.0
  9
$DIMTXT
 40
3.20000005
  9
$DIMCEN
 40
2.5
  9
$DIMTSZ
 40
0.0
  9
$DIMTOL
 70
       0
  9
$DIMLIM
 70
       0
  9
$DIMTIH
 70
       0
  9
$DIMTOH
 70
       0
  9
$DIMSE1
 70
       0
  9
$DIMSE2
 70
       0
  9
$DIMTAD
 70
       1
  9
$DIMZIN
 70
       8
  9
$DIMBLK
  1

  9
$DIMASO
 70
       1
  9
$DIMSHO
 70
       1
  9
$DIMPOST
  1

  9
$DIMAPOST
  1

  9
$DIMALT
 70
       0
  9
$DIMALTD
 70
       4
  9
$DIMALTF
 40
0.03937008
  9
$DIMLFAC
 40
1.0
  9
$DIMTOFL
 70
       1
  9
$DIMTVP
 40
0.0
  9
$DIMTIX
 70
       0
  9
$DIMSOXD
 70
       0
  9
$DIMSAH
 70
       1
  9
$DIMBLK1
  1
_OPEN30
  9
$DIMBLK2
  1
_OPEN30
  9
$DIMSTYLE
  2
MXDIMSTYLE
  9
$DIMCLRD
 70
       0
  9
$DIMCLRE
 70
       0
  9
$DIMCLRT
 70
       0
  9
$DIMTFAC
 40
1.0
  9
$DIMGAP
 40
1.0
  9
$DIMJUST
 70
       0
  9
$DIMSD1
 70
       0
  9
$DIMSD2
 70
       0
  9
$DIMTOLJ
 70
       0
  9
$DIMTZIN
 70
       0
  9
$DIMALTZ
 70
       0
  9
$DIMALTTZ
 70
       0
  9
$DIMFIT
 70
       3
  9
$DIMUPT
 70
       1
  9
$DIMUNIT
 70
       2
  9
$DIMDEC
 70
       2
  9
$DIMTDEC
 70
       2
  9
$DIMALTU
 70
       2
  9
$DIMALTTD
 70
       4
  9
$DIMTXSTY
  7
MX_NOTE_STANDARD
  9
$DIMAUNIT
 70
       0
  9
$LUNITS
 70
       2
  9
$LUPREC
 70
       4
  9
$SKETCHINC
 40
0.1
  9
$FILLETRAD
 40
0.0
  9
$AUNITS
 70
       0
  9
$AUPREC
 70
       0
  9
$MENU
  1
acad
  9
$ELEVATION
 40
0.0
  9
$PELEVATION
 40
0.0
  9
$THICKNESS
 40
0.0
  9
$LIMCHECK
 70
       0
  9
$BLIPMODE
 70
       1
  9
$CHAMFERA
 40
0.0
  9
$CHAMFERB
 40
0.0
  9
$CHAMFERC
 40
0.0
  9
$CHAMFERD
 40
0.0
  9
$SKPOLY
 70
       0
  9
$TDCREATE
 40
2454397.561805556
  9
$TDUPDATE
 40
2454397.561805556
  9
$TDINDWG
 40
0.0000000000
  9
$TDUSRTIMER
 40
0.0000000000
  9
$USRTIMER
 70
       1
  9
$ANGBASE
 50
0.0
  9
$ANGDIR
 70
       0
  9
$PDMODE
 70
       0
  9
$PDSIZE
 40
0.0
  9
$PLINEWID
 40
0.0
  9
$COORDS
 70
       1
  9
$SPLFRAME
 70
       0
  9
$SPLINETYPE
 70
       6
  9
$SPLINESEGS
 70
       8
  9
$ATTDIA
 70
       0
  9
$ATTREQ
 70
       1
  9
$HANDLING
 70
       1
  9
$HANDSEED
  5
49A
  9
$SURFTAB1
 70
       6
  9
$SURFTAB2
 70
       6
  9
$SURFTYPE
 70
       6
  9
$SURFU
 70
       6
  9
$SURFV
 70
       6
  9
$UCSNAME
  2

  9
$UCSORG
 10
0.0
 20
0.0
 30
0.0
  9
$UCSXDIR
 10
1.0
 20
0.0
 30
0.0
  9
$UCSYDIR
 10
0.0
 20
1.0
 30
0.0
  9
$PUCSNAME
  2

  9
$PUCSORG
 10
0.0
 20
0.0
 30
0.0
  9
$PUCSXDIR
 10
1.0
 20
0.0
 30
0.0
  9
$PUCSYDIR
 10
0.0
 20
1.0
 30
0.0
  9
$USERI1
 70
       0
  9
$USERI2
 70
       0
  9
$USERI3
 70
       0
  9
$USERI4
 70
       0
  9
$USERI5
 70
       0
  9
$USERR1
 40
0.0
  9
$USERR2
 40
0.0
  9
$USERR3
 40
0.0
  9
$USERR4
 40
0.0
  9
$USERR5
 40
0.0
  9
$WORLDVIEW
 70
       1
  9
$SHADEDGE
 70
       3
  9
$SHADEDIF
 70
      70
  9
$TILEMODE
 70
       1
  9
$MAXACTVP
 70
      16
  9
$PINSBASE
 10
0.0
 20
0.0
 30
0.0
  9
$PLIMCHECK
 70
       0
  9
$PEXTMIN
 10
1.00000000E+20
 20
1.00000000E+20
 30
1.00000000E+20
  9
$PEXTMAX
 10
-1.00000000E+20
 20
-1.00000000E+20
 30
-1.00000000E+20
  9
$PLIMMIN
 10
0.0
 20
0.0
  9
$PLIMMAX
 10
12.0
 20
9.0
  9
$UNITMODE
 70
       0
  9
$VISRETAIN
 70
       0
  9
$PLINEGEN
 70
       1
  9
$PSLTSCALE
 70
       0
  9
$TREEDEPTH
 70
    3020
  9
$PICKSTYLE
 70
       1
  9
$CMLSTYLE
  2
Standard
  9
$CMLJUST
 70
       0
  9
$CMLSCALE
 40
1.0
  9
$SAVEIMAGES
 70
       0
  0
ENDSEC
  0
SECTION
  2
CLASSES
  0
CLASS
  1
LWPOLYLINE
  2
AcDbPolyline
  3
"AutoCAD"
 90
    32768
280
       0
281
       1
  0
CLASS
  1
IMAGE
  2
AcDbRasterImage
  3
ISM
 90
    32895
280
       0
281
       1
  0
CLASS
  1
OLE2FRAME
  2
AcDbOle2Frame
  3
""
 90
    32768
280
       0
281
       1
  0
CLASS
  1
HATCH
  2
AcDbHatch
  3
"ACAD_SEDONA"
 90
    32768
280
       0
281
       1
  0
CLASS
  1
DICTIONARYVAR
  2
AcDbDictionaryVar
  3
"AutoCAD"
 90
    32768
280
       0
281
       0
  0
CLASS
  1
RASTERVARIABLES
  2
AcDbRasterVariables
  3
ISM
 90
    32768
280
       0
281
       0
  0
CLASS
  1
IMAGEDEF
  2
AcDbRasterImageDef
  3
ISM
 90
    32768
280
       0
281
       0
  0
CLASS
  1
IMAGEDEF_REACTOR
  2
AcDbRasterImageDefReactor
  3
ISM
 90
    32769
280
       0
281
       0
  0
CLASS
  1
IDBUFFER
  2
AcDbIdBuffer
  3
"Acad"
 90
    32768
280
       0
281
       0
  0
CLASS
  1
SPATIAL_FILTER
  2
AcDbSpatialFilter
  3
"Acad"
 90
    32768
280
       0
281
       0
  0
CLASS
  1
XRECORD
  2
AcDbXrecord
  3
"<Built In>"
 90
    32768
280
       0
281
       0
  0
CLASS
  1
SORTENTSTABLE
  2
AcDbSortentsTable
  3
"AutoCAD"
 90
    32768
280
       0
281
       0
  0
CLASS
  1
LAYER_INDEX
  2
AcDbLayerIndex
  3
"Acad"
 90
    32768
280
       0
281
       0
  0
CLASS
  1
SPATIAL_INDEX
  2
AcDbSpatialIndex
  3
"Acad"
 90
    32768
280
       0
281
       0
  0
CLASS
  1
OBJECT_PTR
  2
CAseDLPNTableRecord
  3
"ASE-LPNTableRecord"
 90
    32769
280
       0
281
       0
  0
CLASS
  1
LAYOUT
  2
AcDbLayout
  3
"AutoCAD 2000"
 90
    32768
280
       0
281
       0
  0
CLASS
  1
PLOTSETTINGS
  2
AcDbPlotSettings
  3
"AutoCAD 2000"
 90
    32768
280
       0
281
       0
  0
CLASS
  1
ACDBDICTIONARYWDFLT
  2
AcDbDictionaryWithDefault
  3
"AutoCAD 2000"
 90
    32768
280
       0
281
       0
  0
CLASS
  1
ACDBPLACEHOLDER
  2
AcDbPlaceHolder
  3
"AutoCAD 2000"
 90
    32768
280
       0
281
       0
  0
ENDSEC
  0
SECTION
  2
TABLES
  0
TABLE
  2
VPORT
  5
7
100
AcDbSymbolTable
 70
       1
  0
VPORT
  5
15
100
AcDbSymbolTableRecord
100
AcDbViewportTableRecord
  2
*ACTIVE
 70
       0
 10
0.0
 20
0.0
 11
1.0
 21
1.0
 12
0.0
 22
0.0
 13
0.0
 23
0.0
 14
1.0
 24
1.0
 15
0.0
 25
0.0
 16
0.0
 26
0.0
 36
1.0
 17
0.0
 27
0.0
 37
0.0
 40
212.1
 41
1.73205081
 42
50.0
 43
0.0
 44
0.0
 50
0.0
 51
0.0
 71
       0
 72
     100
 73
       1
 74
       1
 75
       0
 76
       0
 77
       0
 78
       0
  0
ENDTAB
  0
TABLE
  2
LTYPE
  5
4
100
AcDbSymbolTable
 70
       4
  0
LTYPE
  5
11
100
AcDbSymbolTableRecord
100
AcDbLinetypeTableRecord
  2
BYBLOCK
 70
      64
  3

 72
      65
 73
       0
 40
0.0
  0
LTYPE
  5
12
100
AcDbSymbolTableRecord
100
AcDbLinetypeTableRecord
  2
BYLAYER
 70
      64
  3

 72
      65
 73
       0
 40
0.0
  0
LTYPE
  5
13
100
AcDbSymbolTableRecord
100
AcDbLinetypeTableRecord
  2
CONTINUOUS
 70
      64
  3
Solid line
 72
      65
 73
       0
 40
0.0
  0
LTYPE
  5
6A
100
AcDbSymbolTableRecord
100
AcDbLinetypeTableRecord
  2
DASHED
 70
      64
  3
Dashed __ __ __ __ __ __ __ __ __ __ __ __ __ _
 72
      65
 73
       2
 40
19.05
 49
12.7
 74
       0
 49
-6.35
 74
       0
  0
ENDTAB
  0
TABLE
  2
LAYER
  5
2
100
AcDbSymbolTable
 70
       2
  0
LAYER
  5
14
100
AcDbSymbolTableRecord
100
AcDbLayerTableRecord
  2
0
 70
       0
 62
       7
  6
CONTINUOUS
  0
LAYER
  5
1D
100
AcDbSymbolTableRecord
100
AcDbLayerTableRecord
  2
DEFPOINTS
 70
       0
 62
       7
  6
CONTINUOUS
  0
ENDTAB
  0
TABLE
  2
STYLE
  5
3
100
AcDbSymbolTable
 70
       1
  0
STYLE
  5
17
100
AcDbSymbolTableRecord
100
AcDbTextStyleTableRecord
  2
MX_NOTE_STANDARD
 70
       0
 40
0.0
 41
1.0
 50
0.0
 71
       0
 42
3.20000005
  3
txt.shx
  4
extfont.shx
  0
ENDTAB
  0
TABLE
  2
VIEW
  5
5
100
AcDbSymbolTable
 70
       0
  0
ENDTAB
  0
TABLE
  2
UCS
  5
6
100
AcDbSymbolTable
 70
       0
  0
ENDTAB
  0
TABLE
  2
APPID
  5
8
100
AcDbSymbolTable
 70
       1
  0
APPID
  5
16
100
AcDbSymbolTableRecord
100
AcDbRegAppTableRecord
  2
ACAD
 70
       0
  0
ENDTAB
  0
TABLE
  2
DIMSTYLE
  5
9
100
AcDbSymbolTable
 70
       1
  0
DIMSTYLE
105
18
100
AcDbSymbolTableRecord
100
AcDbDimStyleTableRecord
  2
MXDIMSTYLE
 70
       0
  3

  4

  5

  6
_OPEN30
  7
_OPEN30
 40
1.0
 41
2.5
 42
1.5
 43
3.75
 44
1.5
 45
0.0
 46
0.0
 47
0.0
 48
0.0
 71
       0
 72
       0
 73
       0
 74
       0
 75
       0
 76
       0
 77
       1
 78
       8
140
3.20000005
141
2.5
142
0.0
143
0.03937008
144
1.0
145
0.0
146
1.0
147
1.0
170
       0
171
       4
172
       1
173
       1
174
       0
175
       0
176
       0
177
       0
178
       0
270
       2
271
       2
272
       2
273
       2
274
       4
275
       0
280
       0
281
       0
282
       0
283
       0
284
       0
285
       0
286
       0
287
       3
288
       1
340
17
  0
ENDTAB
  0
TABLE
  2
BLOCK_RECORD
  5
1
100
AcDbSymbolTable
 70
       1
  0
BLOCK_RECORD
  5
A
100
AcDbSymbolTableRecord
100
AcDbBlockTableRecord
  2
*MODEL_SPACE
  0
BLOCK_RECORD
  5
B
100
AcDbSymbolTableRecord
100
AcDbBlockTableRecord
  2
*PAPER_SPACE
  0
BLOCK_RECORD
  5
1E
100
AcDbSymbolTableRecord
100
AcDbBlockTableRecord
  2
_OPEN30
  0
ENDTAB
  0
ENDSEC
  0
SECTION
  2
BLOCKS
  0
BLOCK
  5
D
100
AcDbEntity
  8
0
100
AcDbBlockBegin
  2
*MODEL_SPACE
 70
       0
 10
0.0
 20
0.0
 30
0.0
  3
*MODEL_SPACE
  1

  0
ENDBLK
  5
E
100
AcDbEntity
  8
0
100
AcDbBlockEnd
  0
BLOCK
  5
F
100
AcDbEntity
 67
       1
  8
0
100
AcDbBlockBegin
  2
*PAPER_SPACE
 70
       0
 10
0.0
 20
0.0
 30
0.0
  3
*PAPER_SPACE
  1

  0
ENDBLK
  5
10
100
AcDbEntity
 67
       1
  8
0
100
AcDbBlockEnd
  0
BLOCK
  5
1F
100
AcDbEntity
  8
0
  6
ByBlock
 62
       0
100
AcDbBlockBegin
  2
_OPEN30
 70
       2
 10
0.0
 20
0.0
 30
0.0
  3
_OPEN30
  1

  0
LINE
  5
20
100
AcDbEntity
  8
0
  6
ByBlock
 62
       0
100
AcDbLine
 10
-1.0
 20
0.267949
 30
0.0
 11
0.0
 21
0.0
 31
0.0
  0
LINE
  5
21
100
AcDbEntity
  8
0
  6
ByBlock
 62
       0
100
AcDbLine
 10
0.0
 20
0.0
 30
0.0
 11
-1.0
 21
-0.267949
 31
0.0
  0
LINE
  5
22
100
AcDbEntity
  8
0
  6
ByBlock
 62
       0
100
AcDbLine
 10
0.0
 20
0.0
 30
0.0
 11
-1.0
 21
0.0
 31
0.0
  0
ENDBLK
  5
23
100
AcDbEntity
  8
0
  6
ByBlock
 62
       0
100
AcDbBlockEnd
  0
ENDSEC
  0
SECTION
  2
ENTITIES
  0
MTEXT
  5
24
100
AcDbEntity
  8
0
  6
CONTINUOUS
 62
       7
100
AcDbMText
 10
-85.88923727
 20
19.55494387
 30
0.0
 40
3.20000005
 41
0.0
 71
       4
 72
       1
  1
\W0.937;\A1;-
  0
MTEXT
  5
25
100
AcDbEntity
  8
0
  6
CONTINUOUS
 62
       7
100
AcDbMText
 10
-85.6474588
 20
25.84118412
 30
0.0
 40
3.20000005
 41
0.0
 71
       4
 72
       1
  1
\W0.937;\A1;+
  0
MTEXT
  5
26
100
AcDbEntity
  8
0
  6
CONTINUOUS
 62
       7
100
AcDbMText
 10
-9.48724039
 20
20.52205776
 30
0.0
 40
3.20000005
 41
0.0
 71
       4
 72
       1
  1
\W0.937;\A1;-
  0
MTEXT
  5
27
100
AcDbEntity
  8
0
  6
CONTINUOUS
 62
       7
100
AcDbMText
 10
-9.24546192
 20
25.84118412
 30
0.0
 40
3.20000005
 41
0.0
 71
       4
 72
       1
  1
\W0.937;\A1;+
  0
LINE
  5
28
100
AcDbEntity
  8
0
  6
CONTINUOUS
 62
       7
100
AcDbLine
 10
77.41432137
 20
28.69853354
 30
0.0
 11
77.41432137
 21
28.09853354
 31
0.0
  0
LINE
  5
29
100
AcDbEntity
  8
0
  6
CONTINUOUS
 62
       7
100
AcDbLine
 10
86.21432137
 20
28.69853354
 30
0.0
 11
77.41432137
 21
28.69853354
 31
0.0
  0
LINE
  5
2A
100
AcDbEntity
  8
0
  6
CONTINUOUS
 62
       7
100
AcDbLine
 10
70.01432137
 20
34.98853354
 30
0.0
 11
70.01432137
 21
32.68853354
 31
0.0
  0
LINE
  5
2B
100
AcDbEntity
  8
0
  6
CONTINUOUS
 62
       7
100
AcDbLine
 10
60.15432137
 20
34.98853354
 30
0.0
 11
70.01432137
 21
34.98853354
 31
0.0
  0
LINE
  5
2C
100
AcDbEntity
  8
0
  6
CONTINUOUS
 62
       7
100
AcDbLine
 10
60.15432137
 20
38.98853354
 30
0.0
 11
60.15432137
 21
34.98853354
 31
0.0
  0
LINE
  5
2D
100
AcDbEntity
  8
0
  6
CONTINUOUS
 62
       7
100
AcDbLine
 10
70.01432137
 20
38.98853354
 30
0.0
 11
60.15432137
 21
38.98853354
 31
0.0
  0
LINE
  5
2E
100
AcDbEntity
  8
0
  6
CONTINUOUS
 62
       7
100
AcDbLine
 10
70.01432137
 20
41.28853354
 30
0.0
 11
70.01432137
 21
38.98853354
 31
0.0
  0
LINE
  5
2F
100
AcDbEntity
  8
0
  6
CONTINUOUS
 62
       7
100
AcDbLine
 10
86.21432137
 20
41.28853354
 30
0.0
 11
70.01432137
 21
41.28853354
 31
0.0
  0
LINE
  5
30
100
AcDbEntity
  8
0
  6
CONTINUOUS
 62
       7
100
AcDbLine
 10
70.01432137
 20
32.68853354
 30
0.0
 11
86.21432137
 21
32.68853354
 31
0.0
  0
LINE
  5
31
100
AcDbEntity
  8
0
  6
CONTINUOUS
 62
       7
100
AcDbLine
 10
85.11432137
 20
24.65853354
 30
0.0
 11
86.21432137
 21
24.65853354
 31
0.0
  0
LINE
  5
32
100
AcDbEntity
  8
0
  6
CONTINUOUS
 62
       7
100
AcDbLine
 10
85.11432137
 20
26.45853354
 30
0.0
 11
85.11432137
 21
24.65853354
 31
0.0
  0
LINE
  5
33
100
AcDbEntity
  8
0
  6
CONTINUOUS
 62
       7
100
AcDbLine
 10
86.21432137
 20
26.45853354
 30
0.0
 11
85.11432137
 21
26.45853354
 31
0.0
  0
LINE
  5
34
100
AcDbEntity
  8
0
  6
CONTINUOUS
 62
       7
100
AcDbLine
 10
85.11432137
 20
19.57853354
 30
0.0
 11
86.21432137
 21
19.57853354
 31
0.0
  0
LINE
  5
35
100
AcDbEntity
  8
0
  6
CONTINUOUS
 62
       7
100
AcDbLine
 10
85.11432137
 20
21.37853354
 30
0.0
 11
85.11432137
 21
19.57853354
 31
0.0
  0
LINE
  5
36
100
AcDbEntity
  8
0
  6
CONTINUOUS
 62
       7
100
AcDbLine
 10
86.21432137
 20
21.37853354
 30
0.0
 11
85.11432137
 21
21.37853354
 31
0.0
  0
LINE
  5
37
100
AcDbEntity
  8
0
  6
CONTINUOUS
 62
       7
100
AcDbLine
 10
77.41432137
 20
17.33853354
 30
0.0
 11
86.21432137
 21
17.33853354
 31
0.0
  0
LINE
  5
38
100
AcDbEntity
  8
0
  6
CONTINUOUS
 62
       7
100
AcDbLine
 10
77.41432137
 20
17.93853354
 30
0.0
 11
77.41432137
 21
17.33853354
 31
0.0
  0
LINE
  5
39
100
AcDbEntity
  8
0
  6
CONTINUOUS
 62
       7
100
AcDbLine
 10
73.91432137
 20
17.93853354
 30
0.0
 11
86.21432137
 21
17.93853354
 31
0.0
  0
LINE
  5
3A
100
AcDbEntity
  8
0
  6
CONTINUOUS
 62
       7
100
AcDbLine
 10
73.91432137
 20
28.09853354
 30
0.0
 11
73.91432137
 21
17.93853354
 31
0.0
  0
LINE
  5
3B
100
AcDbEntity
  8
0
  6
CONTINUOUS
 62
       7
100
AcDbLine
 10
86.21432137
 20
28.09853354
 30
0.0
 11
73.91432137
 21
28.09853354
 31
0.0
  0
LINE
  5
3C
100
AcDbEntity
  8
0
  6
CONTINUOUS
 62
       7
100
AcDbLine
 10
79.30432137
 20
22.91853354
 30
0.0
 11
78.79432137
 21
22.91853354
 31
0.0
  0
LINE
  5
3D
100
AcDbEntity
  8
0
  6
CONTINUOUS
 62
       7
100
AcDbLine
 10
79.40432137
 20
18.13853354
 30
0.0
 11
79.40432137
 21
22.81853354
 31
0.0
  0
LINE
  5
3E
100
AcDbEntity
  8
0
  6
CONTINUOUS
 62
       7
100
AcDbLine
 10
78.79432137
 20
18.03853354
 30
0.0
 11
79.30432137
 21
18.03853354
 31
0.0
  0
LINE
  5
3F
100
AcDbEntity
  8
0
  6
CONTINUOUS
 62
       7
100
AcDbLine
 10
74.78432137
 20
18.03853354
 30
0.0
 11
78.79432137
 21
18.03853354
 31
0.0
  0
LINE
  5
40
100
AcDbEntity
  8
0
  6
CONTINUOUS
 62
       7
100
AcDbLine
 10
74.68432137
 20
22.81853354
 30
0.0
 11
74.68432137
 21
18.13853354
 31
0.0
  0
LINE
  5
41
100
AcDbEntity
  8
0
  6
CONTINUOUS
 62
       7
100
AcDbLine
 10
78.79432137
 20
22.91853354
 30
0.0
 11
74.78432137
 21
22.91853354
 31
0.0
  0
LINE
  5
42
100
AcDbEntity
  8
0
  6
CONTINUOUS
 62
       7
100
AcDbLine
 10
78.89432137
 20
18.13853354
 30
0.0
 11
78.89432137
 21
22.81853354
 31
0.0
  0
LINE
  5
43
100
AcDbEntity
  8
0
  6
CONTINUOUS
 62
       7
100
AcDbLine
 10
74.78432137
 20
23.11853354
 30
0.0
 11
78.79432137
 21
23.11853354
 31
0.0
  0
LINE
  5
44
100
AcDbEntity
  8
0
  6
CONTINUOUS
 62
       7
100
AcDbLine
 10
74.68432137
 20
27.89853354
 30
0.0
 11
74.68432137
 21
23.21853354
 31
0.0
  0
LINE
  5
45
100
AcDbEntity
  8
0
  6
CONTINUOUS
 62
       7
100
AcDbLine
 10
78.79432137
 20
27.99853354
 30
0.0
 11
74.78432137
 21
27.99853354
 31
0.0
  0
LINE
  5
46
100
AcDbEntity
  8
0
  6
CONTINUOUS
 62
       7
100
AcDbLine
 10
78.89432137
 20
23.21853354
 30
0.0
 11
78.89432137
 21
27.89853354
 31
0.0
  0
LINE
  5
47
100
AcDbEntity
  8
0
  6
CONTINUOUS
 62
       7
100
AcDbLine
 10
79.30432137
 20
27.99853354
 30
0.0
 11
78.79432137
 21
27.99853354
 31
0.0
  0
LINE
  5
48
100
AcDbEntity
  8
0
  6
CONTINUOUS
 62
       7
100
AcDbLine
 10
79.40432137
 20
23.21853354
 30
0.0
 11
79.40432137
 21
27.89853354
 31
0.0
  0
LINE
  5
49
100
AcDbEntity
  8
0
  6
CONTINUOUS
 62
       7
100
AcDbLine
 10
78.79432137
 20
23.11853354
 30
0.0
 11
79.30432137
 21
23.11853354
 31
0.0
  0
LINE
  5
4A
100
AcDbEntity
  8
0
  6
CONTINUOUS
 62
       7
100
AcDbLine
 10
81.71432137
 20
24.40853354
 30
0.0
 11
84.41432137
 21
24.40853354
 31
0.0
  0
LINE
  5
4B
100
AcDbEntity
  8
0
  6
CONTINUOUS
 62
       7
100
AcDbLine
 10
81.71432137
 20
26.70853354
 30
0.0
 11
81.71432137
 21
24.40853354
 31
0.0
  0
LINE
  5
4C
100
AcDbEntity
  8
0
  6
CONTINUOUS
 62
       7
100
AcDbLine
 10
84.41432137
 20
26.70853354
 30
0.0
 11
81.71432137
 21
26.70853354
 31
0.0
  0
LINE
  5
4D
100
AcDbEntity
  8
0
  6
CONTINUOUS
 62
       7
100
AcDbLine
 10
84.41432137
 20
24.40853354
 30
0.0
 11
84.41432137
 21
26.70853354
 31
0.0
  0
LINE
  5
4E
100
AcDbEntity
  8
0
  6
CONTINUOUS
 62
       7
100
AcDbLine
 10
79.71432137
 20
27.65853354
 30
0.0
 11
79.71432137
 21
23.45853354
 31
0.0
  0
LINE
  5
4F
100
AcDbEntity
  8
0
  6
CONTINUOUS
 62
       7
100
AcDbLine
 10
84.31432137
 20
27.65853354
 30
0.0
 11
79.71432137
 21
27.65853354
 31
0.0
  0
LINE
  5
50
100
AcDbEntity
  8
0
  6
CONTINUOUS
 62
       7
100
AcDbLine
 10
84.81432137
 20
23.95853354
 30
0.0
 11
84.81432137
 21
27.15853354
 31
0.0
  0
LINE
  5
51
100
AcDbEntity
  8
0
  6
CONTINUOUS
 62
       7
100
AcDbLine
 10
79.71432137
 20
23.45853354
 30
0.0
 11
84.31432137
 21
23.45853354
 31
0.0
  0
LINE
  5
52
100
AcDbEntity
  8
0
  6
CONTINUOUS
 62
       7
100
AcDbLine
 10
79.71432137
 20
22.57853354
 30
0.0
 11
79.71432137
 21
18.37853354
 31
0.0
  0
LINE
  5
53
100
AcDbEntity
  8
0
  6
CONTINUOUS
 62
       7
100
AcDbLine
 10
84.31432137
 20
22.57853354
 30
0.0
 11
79.71432137
 21
22.57853354
 31
0.0
  0
LINE
  5
54
100
AcDbEntity
  8
0
  6
CONTINUOUS
 62
       7
100
AcDbLine
 10
84.81432137
 20
18.87853354
 30
0.0
 11
84.81432137
 21
22.07853354
 31
0.0
  0
LINE
  5
55
100
AcDbEntity
  8
0
  6
CONTINUOUS
 62
       7
100
AcDbLine
 10
79.71432137
 20
18.37853354
 30
0.0
 11
84.31432137
 21
18.37853354
 31
0.0
  0
LINE
  5
56
100
AcDbEntity
  8
0
  6
CONTINUOUS
 62
       7
100
AcDbLine
 10
81.71432137
 20
19.32853354
 30
0.0
 11
84.41432137
 21
19.32853354
 31
0.0
  0
LINE
  5
57
100
AcDbEntity
  8
0
  6
CONTINUOUS
 62
       7
100
AcDbLine
 10
81.71432137
 20
21.62853354
 30
0.0
 11
81.71432137
 21
19.32853354
 31
0.0
  0
LINE
  5
58
100
AcDbEntity
  8
0
  6
CONTINUOUS
 62
       7
100
AcDbLine
 10
84.41432137
 20
21.62853354
 30
0.0
 11
81.71432137
 21
21.62853354
 31
0.0
  0
LINE
  5
59
100
AcDbEntity
  8
0
  6
CONTINUOUS
 62
       7
100
AcDbLine
 10
84.41432137
 20
19.32853354
 30
0.0
 11
84.41432137
 21
21.62853354
 31
0.0
  0
LINE
  5
5A
100
AcDbEntity
  8
0
  6
CONTINUOUS
 62
       7
100
AcDbLine
 10
81.31432137
 20
23.70853354
 30
0.0
 11
81.71432137
 21
24.40853354
 31
0.0
  0
LINE
  5
5B
100
AcDbEntity
  8
0
  6
CONTINUOUS
 62
       7
100
AcDbLine
 10
79.71432137
 20
23.45853354
 30
0.0
 11
81.31432137
 21
23.70853354
 31
0.0
  0
LINE
  5
5C
100
AcDbEntity
  8
0
  6
CONTINUOUS
 62
       7
100
AcDbLine
 10
81.31432137
 20
27.40853354
 30
0.0
 11
81.71432137
 21
26.70853354
 31
0.0
  0
LINE
  5
5D
100
AcDbEntity
  8
0
  6
CONTINUOUS
 62
       7
100
AcDbLine
 10
79.71432137
 20
27.65853354
 30
0.0
 11
81.31432137
 21
27.40853354
 31
0.0
  0
LINE
  5
5E
100
AcDbEntity
  8
0
  6
CONTINUOUS
 62
       7
100
AcDbLine
 10
81.31432137
 20
22.32853354
 30
0.0
 11
81.71432137
 21
21.62853354
 31
0.0
  0
LINE
  5
5F
100
AcDbEntity
  8
0
  6
CONTINUOUS
 62
       7
100
AcDbLine
 10
79.71432137
 20
22.57853354
 30
0.0
 11
81.31432137
 21
22.32853354
 31
0.0
  0
LINE
  5
60
100
AcDbEntity
  8
0
  6
CONTINUOUS
 62
       7
100
AcDbLine
 10
81.31432137
 20
18.62853354
 30
0.0
 11
81.71432137
 21
19.32853354
 31
0.0
  0
LINE
  5
61
100
AcDbEntity
  8
0
  6
CONTINUOUS
 62
       7
100
AcDbLine
 10
79.71432137
 20
18.37853354
 30
0.0
 11
81.31432137
 21
18.62853354
 31
0.0
  0
LINE
  5
62
100
AcDbEntity
  8
0
  6
CONTINUOUS
 62
       7
100
AcDbLine
 10
70.01432137
 20
35.38853354
 30
0.0
 11
70.01432137
 21
34.98853354
 31
0.0
  0
LINE
  5
63
100
AcDbEntity
  8
0
  6
CONTINUOUS
 62
       7
100
AcDbLine
 10
81.21432137
 20
35.38853354
 30
0.0
 11
70.01432137
 21
35.38853354
 31
0.0
  0
LINE
  5
64
100
AcDbEntity
  8
0
  6
CONTINUOUS
 62
       7
100
AcDbLine
 10
81.21432137
 20
38.58853354
 30
0.0
 11
81.21432137
 21
35.38853354
 31
0.0
  0
LINE
  5
65
100
AcDbEntity
  8
0
  6
CONTINUOUS
 62
       7
100
AcDbLine
 10
70.01432137
 20
38.58853354
 30
0.0
 11
81.21432137
 21
38.58853354
 31
0.0
  0
LINE
  5
66
100
AcDbEntity
  8
0
  6
CONTINUOUS
 62
       7
100
AcDbLine
 10
88.71432137
 20
25.37853354
 30
0.0
 11
92.21432137
 21
25.37853354
 31
0.0
  0
LINE
  5
67
100
AcDbEntity
  8
0
  6
CONTINUOUS
 62
       7
100
AcDbLine
 10
88.71432137
 20
45.37853354
 30
0.0
 11
88.71432137
 21
25.37853354
 31
0.0
  0
LINE
  5
68
100
AcDbEntity
  8
0
  6
CONTINUOUS
 62
       7
100
AcDbLine
 10
92.21432137
 20
45.37853354
 30
0.0
 11
88.71432137
 21
45.37853354
 31
0.0
  0
LINE
  5
69
100
AcDbEntity
  8
0
  6
CONTINUOUS
 62
       7
100
AcDbLine
 10
92.21432137
 20
25.37853354
 30
0.0
 11
92.21432137
 21
45.37853354
 31
0.0
  0
LINE
  5
6B
100
AcDbEntity
  8
0
  6
DASHED
 62
       7
100
AcDbLine
 10
104.92432137
 20
37.37853354
 30
0.0
 11
108.82432137
 21
37.37853354
 31
0.0
  0
LINE
  5
6C
100
AcDbEntity
  8
0
  6
DASHED
 62
       7
100
AcDbLine
 10
103.12432137
 20
42.37853354
 30
0.0
 11
103.12432137
 21
39.17853354
 31
0.0
  0
LINE
  5
6D
100
AcDbEntity
  8
0
  6
DASHED
 62
       7
100
AcDbLine
 10
104.12432137
 20
39.17853354
 30
0.0
 11
104.12432137
 21
42.37853354
 31
0.0
  0
LINE
  5
6E
100
AcDbEntity
  8
0
  6
DASHED
 62
       7
100
AcDbLine
 10
108.82432137
 20
38.37853354
 30
0.0
 11
104.92432137
 21
38.37853354
 31
0.0
  0
LINE
  5
6F
100
AcDbEntity
  8
0
  6
DASHED
 62
       7
100
AcDbLine
 10
110.62432137
 20
13.17853354
 30
0.0
 11
110.62432137
 21
36.57853354
 31
0.0
  0
LINE
  5
70
100
AcDbEntity
  8
0
  6
DASHED
 62
       7
100
AcDbLine
 10
104.92432137
 20
11.37853354
 30
0.0
 11
108.82432137
 21
11.37853354
 31
0.0
  0
LINE
  5
71
100
AcDbEntity
  8
0
  6
DASHED
 62
       7
100
AcDbLine
 10
104.12432137
 20
7.37853354
 30
0.0
 11
104.12432137
 21
10.57853354
 31
0.0
  0
LINE
  5
72
100
AcDbEntity
  8
0
  6
CONTINUOUS
 62
       7
100
AcDbLine
 10
103.12432137
 20
7.37853354
 30
0.0
 11
104.12432137
 21
7.37853354
 31
0.0
  0
LINE
  5
73
100
AcDbEntity
  8
0
  6
DASHED
 62
       7
100
AcDbLine
 10
103.12432137
 20
10.57853354
 30
0.0
 11
103.12432137
 21
7.37853354
 31
0.0
  0
LINE
  5
74
100
AcDbEntity
  8
0
  6
DASHED
 62
       7
100
AcDbLine
 10
108.82432137
 20
12.37853354
 30
0.0
 11
104.92432137
 21
12.37853354
 31
0.0
  0
LINE
  5
75
100
AcDbEntity
  8
0
  6
DASHED
 62
       7
100
AcDbLine
 10
109.62432137
 20
36.57853354
 30
0.0
 11
109.62432137
 21
13.17853354
 31
0.0
  0
LINE
  5
76
100
AcDbEntity
  8
0
  6
CONTINUOUS
 62
       7
100
AcDbLine
 10
104.62432137
 20
34.65853354
 30
0.0
 11
104.62432137
 21
24.97853354
 31
0.0
  0
LINE
  5
77
100
AcDbEntity
  8
0
  6
CONTINUOUS
 62
       7
100
AcDbLine
 10
105.82432137
 20
34.65853354
 30
0.0
 11
104.62432137
 21
34.65853354
 31
0.0
  0
LINE
  5
78
100
AcDbEntity
  8
0
  6
CONTINUOUS
 62
       7
100
AcDbLine
 10
105.82432137
 20
36.17853354
 30
0.0
 11
105.82432137
 21
34.65853354
 31
0.0
  0
LINE
  5
79
100
AcDbEntity
  8
0
  6
CONTINUOUS
 62
       7
100
AcDbLine
 10
101.42432137
 20
7.29853354
 30
0.0
 11
101.42432137
 21
9.15853354
 31
0.0
  0
LINE
  5
7A
100
AcDbEntity
  8
0
  6
CONTINUOUS
 62
       7
100
AcDbLine
 10
99.92432137
 20
7.87853354
 30
0.0
 11
99.92432137
 21
6.75853354
 31
0.0
  0
LINE
  5
7B
100
AcDbEntity
  8
0
  6
CONTINUOUS
 62
       7
100
AcDbLine
 10
97.38432137
 20
7.87853354
 30
0.0
 11
99.92432137
 21
7.87853354
 31
0.0
  0
LINE
  5
7C
100
AcDbEntity
  8
0
  6
CONTINUOUS
 62
       7
100
AcDbLine
 10
96.99432137
 20
8.09853354
 30
0.0
 11
97.38432137
 21
7.87853354
 31
0.0
  0
LINE
  5
7D
100
AcDbEntity
  8
0
  6
CONTINUOUS
 62
       7
100
AcDbLine
 10
93.02432137
 20
4.77853354
 30
0.0
 11
93.02432137
 21
4.67853354
 31
0.0
  0
LINE
  5
7E
100
AcDbEntity
  8
0
  6
CONTINUOUS
 62
       7
100
AcDbLine
 10
92.62432137
 20
4.87853354
 30
0.0
 11
92.91432137
 21
4.87853354
 31
0.0
  0
LINE
  5
7F
100
AcDbEntity
  8
0
  6
CONTINUOUS
 62
       7
100
AcDbLine
 10
92.11432137
 20
5.87853354
 30
0.0
 11
92.11432137
 21
5.13853354
 31
0.0
  0
LINE
  5
80
100
AcDbEntity
  8
0
  6
CONTINUOUS
 62
       7
100
AcDbLine
 10
92.38432137
 20
5.87853354
 30
0.0
 11
92.11432137
 21
5.87853354
 31
0.0
  0
LINE
  5
81
100
AcDbEntity
  8
0
  6
CONTINUOUS
 62
       7
100
AcDbLine
 10
94.02432137
 20
4.19853354
 30
0.0
 11
94.02432137
 21
5.09853354
 31
0.0
  0
LINE
  5
82
100
AcDbEntity
  8
0
  6
CONTINUOUS
 62
       7
100
AcDbLine
 10
96.48432137
 20
4.51853354
 30
0.0
 11
94.13432137
 21
4.09853354
 31
0.0
  0
LINE
  5
83
100
AcDbEntity
  8
0
  6
CONTINUOUS
 62
       7
100
AcDbLine
 10
101.42432137
 20
3.85853354
 30
0.0
 11
101.42432137
 21
5.13853354
 31
0.0
  0
LINE
  5
84
100
AcDbEntity
  8
0
  6
CONTINUOUS
 62
       7
100
AcDbLine
 10
93.02432137
 20
2.37853354
 30
0.0
 11
101.42432137
 21
3.85853354
 31
0.0
  0
LINE
  5
85
100
AcDbEntity
  8
0
  6
CONTINUOUS
 62
       7
100
AcDbLine
 10
92.86432137
 20
2.37853354
 30
0.0
 11
93.02432137
 21
2.37853354
 31
0.0
  0
LINE
  5
86
100
AcDbEntity
  8
0
  6
CONTINUOUS
 62
       7
100
AcDbLine
 10
101.42432137
 20
45.89853354
 30
0.0
 11
101.42432137
 21
45.87853354
 31
0.0
  0
LINE
  5
87
100
AcDbEntity
  8
0
  6
CONTINUOUS
 62
       7
100
AcDbLine
 10
93.02432137
 20
47.37853354
 30
0.0
 11
101.42432137
 21
45.89853354
 31
0.0
  0
LINE
  5
88
100
AcDbEntity
  8
0
  6
CONTINUOUS
 62
       7
100
AcDbLine
 10
87.21432137
 20
47.37853354
 30
0.0
 11
93.02432137
 21
47.37853354
 31
0.0
  0
LINE
  5
89
100
AcDbEntity
  8
0
  6
CONTINUOUS
 62
       7
100
AcDbLine
 10
92.86432137
 20
2.37853354
 30
0.0
 11
87.21432137
 21
2.37853354
 31
0.0
  0
LINE
  5
8A
100
AcDbEntity
  8
0
  6
CONTINUOUS
 62
       7
100
AcDbLine
 10
93.07432137
 20
4.54853354
 30
0.0
 11
93.07432137
 21
2.57853354
 31
0.0
  0
LINE
  5
8B
100
AcDbEntity
  8
0
  6
CONTINUOUS
 62
       7
100
AcDbLine
 10
90.07432137
 20
7.26853354
 30
0.0
 11
90.07432137
 21
6.64853354
 31
0.0
  0
LINE
  5
8C
100
AcDbEntity
  8
0
  6
CONTINUOUS
 62
       7
100
AcDbLine
 10
90.79432137
 20
7.02853354
 30
0.0
 11
90.41432137
 21
7.40853354
 31
0.0
  0
LINE
  5
8D
100
AcDbEntity
  8
0
  6
CONTINUOUS
 62
       7
100
AcDbLine
 10
105.01432137
 20
5.45853354
 30
0.0
 11
103.01432137
 21
5.45853354
 31
0.0
  0
LINE
  5
8E
100
AcDbEntity
  8
0
  6
CONTINUOUS
 62
       7
100
AcDbLine
 10
105.81432137
 20
4.30853354
 30
0.0
 11
105.81432137
 21
4.65853354
 31
0.0
  0
LINE
  5
8F
100
AcDbEntity
  8
0
  6
CONTINUOUS
 62
       7
100
AcDbLine
 10
104.05432137
 20
3.05853354
 30
0.0
 11
105.08432137
 21
3.34853354
 31
0.0
  0
LINE
  5
90
100
AcDbEntity
  8
0
  6
CONTINUOUS
 62
       7
100
AcDbLine
 10
106.09432137
 20
1.88853354
 30
0.0
 11
104.22432137
 21
1.88853354
 31
0.0
  0
LINE
  5
91
100
AcDbEntity
  8
0
  6
CONTINUOUS
 62
       7
100
AcDbLine
 10
109.02432137
 20
4.58853354
 30
0.0
 11
107.73432137
 21
2.73853354
 31
0.0
  0
LINE
  5
92
100
AcDbEntity
  8
0
  6
CONTINUOUS
 62
       7
100
AcDbLine
 10
109.12432137
 20
5.90853354
 30
0.0
 11
109.12432137
 21
4.86853354
 31
0.0
  0
LINE
  5
93
100
AcDbEntity
  8
0
  6
CONTINUOUS
 62
       7
100
AcDbLine
 10
104.43432137
 20
8.58853354
 30
0.0
 11
104.66432137
 21
8.51853354
 31
0.0
  0
LINE
  5
94
100
AcDbEntity
  8
0
  6
CONTINUOUS
 62
       7
100
AcDbLine
 10
104.37432137
 20
8.60853354
 30
0.0
 11
104.43432137
 21
8.58853354
 31
0.0
  0
LINE
  5
95
100
AcDbEntity
  8
0
  6
CONTINUOUS
 62
       7
100
AcDbLine
 10
102.94432137
 20
7.85853354
 30
0.0
 11
103.01432137
 21
7.54853354
 31
0.0
  0
LINE
  5
96
100
AcDbEntity
  8
0
  6
CONTINUOUS
 62
       7
100
AcDbLine
 10
101.52432137
 20
10.02853354
 30
0.0
 11
101.52432137
 21
9.33853354
 31
0.0
  0
LINE
  5
97
100
AcDbEntity
  8
0
  6
CONTINUOUS
 62
       7
100
AcDbLine
 10
102.72432137
 20
10.02853354
 30
0.0
 11
101.52432137
 21
10.02853354
 31
0.0
  0
LINE
  5
98
100
AcDbEntity
  8
0
  6
CONTINUOUS
 62
       7
100
AcDbLine
 10
102.72432137
 20
11.42853354
 30
0.0
 11
102.72432137
 21
10.02853354
 31
0.0
  0
LINE
  5
99
100
AcDbEntity
  8
0
  6
CONTINUOUS
 62
       7
100
AcDbLine
 10
101.52432137
 20
11.42853354
 30
0.0
 11
102.72432137
 21
11.42853354
 31
0.0
  0
LINE
  5
9A
100
AcDbEntity
  8
0
  6
CONTINUOUS
 62
       7
100
AcDbLine
 10
101.52432137
 20
24.47853354
 30
0.0
 11
101.52432137
 21
11.42853354
 31
0.0
  0
LINE
  5
9B
100
AcDbEntity
  8
0
  6
CONTINUOUS
 62
       7
100
AcDbLine
 10
109.12432137
 20
24.97853354
 30
0.0
 11
102.02432137
 21
24.97853354
 31
0.0
  0
LINE
  5
9C
100
AcDbEntity
  8
0
  6
CONTINUOUS
 62
       7
100
AcDbLine
 10
109.12432137
 20
36.17853354
 30
0.0
 11
109.12432137
 21
24.97853354
 31
0.0
  0
LINE
  5
9D
100
AcDbEntity
  8
0
  6
CONTINUOUS
 62
       7
100
AcDbLine
 10
105.72432137
 20
36.67853354
 30
0.0
 11
109.12432137
 21
36.17853354
 31
0.0
  0
LINE
  5
9E
100
AcDbEntity
  8
0
  6
CONTINUOUS
 62
       7
100
AcDbLine
 10
103.32432137
 20
36.67853354
 30
0.0
 11
105.72432137
 21
36.67853354
 31
0.0
  0
LINE
  5
9F
100
AcDbEntity
  8
0
  6
CONTINUOUS
 62
       7
100
AcDbLine
 10
102.82432137
 20
41.24853354
 30
0.0
 11
102.82432137
 21
37.17853354
 31
0.0
  0
LINE
  5
A0
100
AcDbEntity
  8
0
  6
CONTINUOUS
 62
       7
100
AcDbLine
 10
103.09432137
 20
42.35853354
 30
0.0
 11
102.82432137
 21
41.24853354
 31
0.0
  0
LINE
  5
A1
100
AcDbEntity
  8
0
  6
CONTINUOUS
 62
       7
100
AcDbLine
 10
104.12432137
 20
42.37853354
 30
0.0
 11
103.12432137
 21
42.37853354
 31
0.0
  0
LINE
  5
A2
100
AcDbEntity
  8
0
  6
CONTINUOUS
 62
       7
100
AcDbLine
 10
104.24432137
 20
41.31853354
 30
0.0
 11
104.15432137
 21
42.34853354
 31
0.0
  0
LINE
  5
A3
100
AcDbEntity
  8
0
  6
CONTINUOUS
 62
       7
100
AcDbLine
 10
105.92432137
 20
42.51853354
 30
0.0
 11
104.59432137
 21
41.18853354
 31
0.0
  0
LINE
  5
A4
100
AcDbEntity
  8
0
  6
CONTINUOUS
 62
       7
100
AcDbLine
 10
105.92432137
 20
44.24853354
 30
0.0
 11
105.92432137
 21
42.51853354
 31
0.0
  0
LINE
  5
A5
100
AcDbEntity
  8
0
  6
CONTINUOUS
 62
       7
100
AcDbLine
 10
92.91432137
 20
47.37853354
 30
0.0
 11
105.09432137
 21
45.22853354
 31
0.0
  0
LINE
  5
A6
100
AcDbEntity
  8
0
  6
CONTINUOUS
 62
       7
100
AcDbLine
 10
86.21432137
 20
3.37853354
 30
0.0
 11
86.21432137
 21
46.37853354
 31
0.0
  0
LINE
  5
A7
100
AcDbEntity
  8
0
  6
CONTINUOUS
 62
       7
100
AcDbLine
 10
109.12432137
 20
36.17853354
 30
0.0
 11
105.82432137
 21
36.17853354
 31
0.0
  0
LINE
  5
A8
100
AcDbEntity
  8
0
  6
CONTINUOUS
 62
       2
100
AcDbLine
 10
103.62432137
 20
30.67853354
 30
0.0
 11
110.12432137
 21
30.67853354
 31
0.0
  0
LINE
  5
A9
100
AcDbEntity
  8
0
  6
CONTINUOUS
 62
       7
100
AcDbLine
 10
104.62432137
 20
28.62853354
 30
0.0
 11
109.12432137
 21
28.62853354
 31
0.0
  0
LINE
  5
AA
100
AcDbEntity
  8
0
  6
CONTINUOUS
 62
       7
100
AcDbLine
 10
104.62432137
 20
32.72853354
 30
0.0
 11
109.12432137
 21
32.72853354
 31
0.0
  0
LINE
  5
AB
100
AcDbEntity
  8
0
  6
CONTINUOUS
 62
       7
100
AcDbLine
 10
70.41432137
 20
41.28853354
 30
0.0
 11
70.41432137
 21
38.58853354
 31
0.0
  0
LINE
  5
AC
100
AcDbEntity
  8
0
  6
CONTINUOUS
 62
       7
100
AcDbLine
 10
70.41432137
 20
35.38853354
 30
0.0
 11
70.41432137
 21
32.68853354
 31
0.0
  0
LINE
  5
AD
100
AcDbEntity
  8
0
  6
CONTINUOUS
 62
       7
100
AcDbLine
 10
80.11432137
 20
41.28853354
 30
0.0
 11
80.11432137
 21
38.58853354
 31
0.0
  0
LINE
  5
AE
100
AcDbEntity
  8
0
  6
CONTINUOUS
 62
       7
100
AcDbLine
 10
80.11432137
 20
35.38853354
 30
0.0
 11
80.11432137
 21
32.68853354
 31
0.0
  0
LINE
  5
AF
100
AcDbEntity
  8
0
  6
CONTINUOUS
 62
       7
100
AcDbLine
 10
78.41432137
 20
38.58853354
 30
0.0
 11
78.41432137
 21
35.38853354
 31
0.0
  0
LINE
  5
B0
100
AcDbEntity
  8
0
  6
CONTINUOUS
 62
       7
100
AcDbLine
 10
68.16432137
 20
38.98853354
 30
0.0
 11
68.16432137
 21
34.98853354
 31
0.0
  0
LINE
  5
B1
100
AcDbEntity
  8
0
  6
CONTINUOUS
 62
       7
100
AcDbLine
 10
63.21432137
 20
38.98853354
 30
0.0
 11
63.21432137
 21
34.98853354
 31
0.0
  0
LINE
  5
B2
100
AcDbEntity
  8
0
  6
CONTINUOUS
 62
       7
100
AcDbLine
 10
60.66432137
 20
38.98853354
 30
0.0
 11
60.66432137
 21
34.98853354
 31
0.0
  0
LINE
  5
B3
100
AcDbEntity
  8
0
  6
CONTINUOUS
 62
       7
100
AcDbLine
 10
70.01432137
 20
38.98853354
 30
0.0
 11
70.01432137
 21
38.58853354
 31
0.0
  0
LINE
  5
B4
100
AcDbEntity
  8
0
  6
CONTINUOUS
 62
       7
100
AcDbLine
 10
84.41432137
 20
21.62853354
 30
0.0
 11
84.67432137
 21
22.42853354
 31
0.0
  0
LINE
  5
B5
100
AcDbEntity
  8
0
  6
CONTINUOUS
 62
       7
100
AcDbLine
 10
84.41432137
 20
19.32853354
 30
0.0
 11
84.67432137
 21
18.52853354
 31
0.0
  0
LINE
  5
B6
100
AcDbEntity
  8
0
  6
CONTINUOUS
 62
       7
100
AcDbLine
 10
81.31432137
 20
18.62853354
 30
0.0
 11
81.31432137
 21
22.32853354
 31
0.0
  0
LINE
  5
B7
100
AcDbEntity
  8
0
  6
CONTINUOUS
 62
       7
100
AcDbLine
 10
77.78432137
 20
17.93853354
 30
0.0
 11
77.87432137
 21
18.03853354
 31
0.0
  0
LINE
  5
B8
100
AcDbEntity
  8
0
  6
CONTINUOUS
 62
       7
100
AcDbLine
 10
77.87432137
 20
27.99853354
 30
0.0
 11
77.78432137
 21
28.09853354
 31
0.0
  0
LINE
  5
B9
100
AcDbEntity
  8
0
  6
CONTINUOUS
 62
       7
100
AcDbLine
 10
76.55432137
 20
23.01853354
 30
0.0
 11
75.11432137
 21
23.01853354
 31
0.0
  0
LINE
  5
BA
100
AcDbEntity
  8
0
  6
CONTINUOUS
 62
       7
100
AcDbLine
 10
75.11432137
 20
17.93853354
 30
0.0
 11
75.11432137
 21
18.03853354
 31
0.0
  0
LINE
  5
BB
100
AcDbEntity
  8
0
  6
CONTINUOUS
 62
       7
100
AcDbLine
 10
79.41432137
 20
23.01853354
 30
0.0
 11
77.78432137
 21
23.01853354
 31
0.0
  0
LINE
  5
BC
100
AcDbEntity
  8
0
  6
CONTINUOUS
 62
       7
100
AcDbLine
 10
77.78432137
 20
23.01853354
 30
0.0
 11
77.87432137
 21
23.11853354
 31
0.0
  0
LINE
  5
BD
100
AcDbEntity
  8
0
  6
CONTINUOUS
 62
       7
100
AcDbLine
 10
77.87432137
 20
22.91853354
 30
0.0
 11
77.78432137
 21
23.01853354
 31
0.0
  0
LINE
  5
BE
100
AcDbEntity
  8
0
  6
CONTINUOUS
 62
       7
100
AcDbLine
 10
74.51432137
 20
17.93853354
 30
0.0
 11
74.51432137
 21
28.09853354
 31
0.0
  0
LINE
  5
BF
100
AcDbEntity
  8
0
  6
CONTINUOUS
 62
       7
100
AcDbLine
 10
77.68432137
 20
17.93853354
 30
0.0
 11
77.68432137
 21
18.03853354
 31
0.0
  0
LINE
  5
C0
100
AcDbEntity
  8
0
  6
CONTINUOUS
 62
       7
100
AcDbLine
 10
76.55432137
 20
17.93853354
 30
0.0
 11
76.55432137
 21
18.03853354
 31
0.0
  0
LINE
  5
C1
100
AcDbEntity
  8
0
  6
CONTINUOUS
 62
       7
100
AcDbLine
 10
81.31432137
 20
23.70853354
 30
0.0
 11
81.31432137
 21
27.40853354
 31
0.0
  0
LINE
  5
C2
100
AcDbEntity
  8
0
  6
CONTINUOUS
 62
       7
100
AcDbLine
 10
84.41432137
 20
24.40853354
 30
0.0
 11
84.67432137
 21
23.60853354
 31
0.0
  0
LINE
  5
C3
100
AcDbEntity
  8
0
  6
CONTINUOUS
 62
       7
100
AcDbLine
 10
79.41432137
 20
17.93853354
 30
0.0
 11
79.41432137
 21
28.09853354
 31
0.0
  0
LINE
  5
C4
100
AcDbEntity
  8
0
  6
CONTINUOUS
 62
       7
100
AcDbLine
 10
84.41432137
 20
26.70853354
 30
0.0
 11
84.67432137
 21
27.50853354
 31
0.0
  0
LINE
  5
C5
100
AcDbEntity
  8
0
  6
CONTINUOUS
 62
       7
100
AcDbLine
 10
81.41432137
 20
28.09853354
 30
0.0
 11
81.41432137
 21
28.69853354
 31
0.0
  0
LINE
  5
C6
100
AcDbEntity
  8
0
  6
CONTINUOUS
 62
       7
100
AcDbLine
 10
75.11432137
 20
27.99853354
 30
0.0
 11
75.11432137
 21
28.09853354
 31
0.0
  0
LINE
  5
C7
100
AcDbEntity
  8
0
  6
CONTINUOUS
 62
       7
100
AcDbLine
 10
76.55432137
 20
27.99853354
 30
0.0
 11
76.55432137
 21
28.09853354
 31
0.0
  0
LINE
  5
C8
100
AcDbEntity
  8
0
  6
CONTINUOUS
 62
       7
100
AcDbLine
 10
77.68432137
 20
27.99853354
 30
0.0
 11
77.68432137
 21
28.09853354
 31
0.0
  0
LINE
  5
C9
100
AcDbEntity
  8
0
  6
CONTINUOUS
 62
       7
100
AcDbLine
 10
75.11432137
 20
22.91853354
 30
0.0
 11
75.11432137
 21
23.11853354
 31
0.0
  0
LINE
  5
CA
100
AcDbEntity
  8
0
  6
CONTINUOUS
 62
       7
100
AcDbLine
 10
76.55432137
 20
22.91853354
 30
0.0
 11
76.55432137
 21
23.11853354
 31
0.0
  0
LINE
  5
CB
100
AcDbEntity
  8
0
  6
CONTINUOUS
 62
       7
100
AcDbLine
 10
77.68432137
 20
22.91853354
 30
0.0
 11
77.68432137
 21
23.11853354
 31
0.0
  0
LINE
  5
CC
100
AcDbEntity
  8
0
  6
CONTINUOUS
 62
       7
100
AcDbLine
 10
70.01432137
 20
9.10853354
 30
0.0
 11
70.01432137
 21
6.80853354
 31
0.0
  0
LINE
  5
CD
100
AcDbEntity
  8
0
  6
CONTINUOUS
 62
       7
100
AcDbLine
 10
60.15432137
 20
9.10853354
 30
0.0
 11
70.01432137
 21
9.10853354
 31
0.0
  0
LINE
  5
CE
100
AcDbEntity
  8
0
  6
CONTINUOUS
 62
       7
100
AcDbLine
 10
60.15432137
 20
13.10853354
 30
0.0
 11
60.15432137
 21
9.10853354
 31
0.0
  0
LINE
  5
CF
100
AcDbEntity
  8
0
  6
CONTINUOUS
 62
       7
100
AcDbLine
 10
70.01432137
 20
13.10853354
 30
0.0
 11
60.15432137
 21
13.10853354
 31
0.0
  0
LINE
  5
D0
100
AcDbEntity
  8
0
  6
CONTINUOUS
 62
       7
100
AcDbLine
 10
70.01432137
 20
15.40853354
 30
0.0
 11
70.01432137
 21
13.10853354
 31
0.0
  0
LINE
  5
D1
100
AcDbEntity
  8
0
  6
CONTINUOUS
 62
       7
100
AcDbLine
 10
86.21432137
 20
15.40853354
 30
0.0
 11
70.01432137
 21
15.40853354
 31
0.0
  0
LINE
  5
D2
100
AcDbEntity
  8
0
  6
CONTINUOUS
 62
       7
100
AcDbLine
 10
70.01432137
 20
6.80853354
 30
0.0
 11
86.21432137
 21
6.80853354
 31
0.0
  0
LINE
  5
D3
100
AcDbEntity
  8
0
  6
CONTINUOUS
 62
       7
100
AcDbLine
 10
70.01432137
 20
9.50853354
 30
0.0
 11
70.01432137
 21
9.10853354
 31
0.0
  0
LINE
  5
D4
100
AcDbEntity
  8
0
  6
CONTINUOUS
 62
       7
100
AcDbLine
 10
81.21432137
 20
9.50853354
 30
0.0
 11
70.01432137
 21
9.50853354
 31
0.0
  0
LINE
  5
D5
100
AcDbEntity
  8
0
  6
CONTINUOUS
 62
       7
100
AcDbLine
 10
81.21432137
 20
12.70853354
 30
0.0
 11
81.21432137
 21
9.50853354
 31
0.0
  0
LINE
  5
D6
100
AcDbEntity
  8
0
  6
CONTINUOUS
 62
       7
100
AcDbLine
 10
70.01432137
 20
12.70853354
 30
0.0
 11
81.21432137
 21
12.70853354
 31
0.0
  0
LINE
  5
D7
100
AcDbEntity
  8
0
  6
CONTINUOUS
 62
       7
100
AcDbLine
 10
70.41432137
 20
15.40853354
 30
0.0
 11
70.41432137
 21
12.70853354
 31
0.0
  0
LINE
  5
D8
100
AcDbEntity
  8
0
  6
CONTINUOUS
 62
       7
100
AcDbLine
 10
70.41432137
 20
9.50853354
 30
0.0
 11
70.41432137
 21
6.80853354
 31
0.0
  0
LINE
  5
D9
100
AcDbEntity
  8
0
  6
CONTINUOUS
 62
       7
100
AcDbLine
 10
80.11432137
 20
15.40853354
 30
0.0
 11
80.11432137
 21
12.70853354
 31
0.0
  0
LINE
  5
DA
100
AcDbEntity
  8
0
  6
CONTINUOUS
 62
       7
100
AcDbLine
 10
80.11432137
 20
9.50853354
 30
0.0
 11
80.11432137
 21
6.80853354
 31
0.0
  0
LINE
  5
DB
100
AcDbEntity
  8
0
  6
CONTINUOUS
 62
       7
100
AcDbLine
 10
78.41432137
 20
12.70853354
 30
0.0
 11
78.41432137
 21
9.50853354
 31
0.0
  0
LINE
  5
DC
100
AcDbEntity
  8
0
  6
CONTINUOUS
 62
       7
100
AcDbLine
 10
68.16432137
 20
13.10853354
 30
0.0
 11
68.16432137
 21
9.10853354
 31
0.0
  0
LINE
  5
DD
100
AcDbEntity
  8
0
  6
CONTINUOUS
 62
       7
100
AcDbLine
 10
63.21432137
 20
13.10853354
 30
0.0
 11
63.21432137
 21
9.10853354
 31
0.0
  0
LINE
  5
DE
100
AcDbEntity
  8
0
  6
CONTINUOUS
 62
       7
100
AcDbLine
 10
60.66432137
 20
13.10853354
 30
0.0
 11
60.66432137
 21
9.10853354
 31
0.0
  0
LINE
  5
DF
100
AcDbEntity
  8
0
  6
CONTINUOUS
 62
       7
100
AcDbLine
 10
70.01432137
 20
13.10853354
 30
0.0
 11
70.01432137
 21
12.70853354
 31
0.0
  0
ARC
  5
E0
100
AcDbEntity
  8
0
  6
CONTINUOUS
 62
       7
100
AcDbCircle
 10
79.31044664
 20
22.82465881
 30
0.0
 40
0.09407435
100
AcDbArc
 50
356.26677637
 51
93.73322363
  0
ARC
  5
E1
100
AcDbEntity
  8
0
  6
CONTINUOUS
 62
       7
100
AcDbCircle
 10
79.30526643
 20
18.13758849
 30
0.0
 40
0.09905946
100
AcDbArc
 50
269.45337538
 51
0.54662462
  0
ARC
  5
E2
100
AcDbEntity
  8
0
  6
CONTINUOUS
 62
       7
100
AcDbCircle
 10
78.79235071
 20
18.14050421
 30
0.0
 40
0.1019897
100
AcDbArc
 50
271.10714849
 51
358.89285151
  0
ARC
  5
E3
100
AcDbEntity
  8
0
  6
CONTINUOUS
 62
       7
100
AcDbCircle
 10
74.78669043
 20
18.14090259
 30
0.0
 40
0.10239646
100
AcDbArc
 50
181.32571832
 51
268.67428168
  0
ARC
  5
E4
100
AcDbEntity
  8
0
  6
CONTINUOUS
 62
       7
100
AcDbCircle
 10
74.78168387
 20
22.82117105
 30
0.0
 40
0.09739821
100
AcDbArc
 50
88.44826381
 51
181.55173619
  0
ARC
  5
E5
100
AcDbEntity
  8
0
  6
CONTINUOUS
 62
       7
100
AcDbCircle
 10
78.79737778
 20
22.82158995
 30
0.0
 40
0.09699176
100
AcDbArc
 50
358.19419411
 51
91.80580589
  0
ARC
  5
E6
100
AcDbEntity
  8
0
  6
CONTINUOUS
 62
       7
100
AcDbCircle
 10
78.79234977
 20
23.22050515
 30
0.0
 40
0.10199067
100
AcDbArc
 50
271.10766825
 51
358.89233175
  0
ARC
  5
E7
100
AcDbEntity
  8
0
  6
CONTINUOUS
 62
       7
100
AcDbCircle
 10
74.78669137
 20
23.22090353
 30
0.0
 40
0.10239742
100
AcDbArc
 50
181.3262319
 51
268.6737681
  0
ARC
  5
E8
100
AcDbEntity
  8
0
  6
CONTINUOUS
 62
       7
100
AcDbCircle
 10
74.78168297
 20
27.90117194
 30
0.0
 40
0.09739734
100
AcDbArc
 50
88.44772375
 51
181.55227625
  0
ARC
  5
E9
100
AcDbEntity
  8
0
  6
CONTINUOUS
 62
       7
100
AcDbCircle
 10
78.79737868
 20
27.90159085
 30
0.0
 40
0.09699089
100
AcDbArc
 50
358.19364723
 51
91.80635277
  0
ARC
  5
EA
100
AcDbEntity
  8
0
  6
CONTINUOUS
 62
       7
100
AcDbCircle
 10
79.31044757
 20
27.90465974
 30
0.0
 40
0.09407349
100
AcDbArc
 50
356.266177
 51
93.733823
  0
ARC
  5
EB
100
AcDbEntity
  8
0
  6
CONTINUOUS
 62
       7
100
AcDbCircle
 10
79.30526545
 20
23.21758946
 30
0.0
 40
0.09906042
100
AcDbArc
 50
269.45394285
 51
0.54605715
  0
ARC
  5
EC
100
AcDbEntity
  8
0
  6
CONTINUOUS
 62
       7
100
AcDbCircle
 10
84.32139773
 20
27.1656099
 30
0.0
 40
0.49297444
100
AcDbArc
 50
359.17752479
 51
90.82247521
  0
ARC
  5
ED
100
AcDbEntity
  8
0
  6
CONTINUOUS
 62
       7
100
AcDbCircle
 10
84.31635159
 20
23.95650332
 30
0.0
 40
0.49797392
100
AcDbArc
 50
269.76640648
 51
0.23359352
  0
ARC
  5
EE
100
AcDbEntity
  8
0
  6
CONTINUOUS
 62
       7
100
AcDbCircle
 10
84.32139681
 20
22.08560898
 30
0.0
 40
0.49297534
100
AcDbArc
 50
359.17763316
 51
90.82236684
  0
ARC
  5
EF
100
AcDbEntity
  8
0
  6
CONTINUOUS
 62
       7
100
AcDbCircle
 10
84.31635252
 20
18.87650239
 30
0.0
 40
0.49797299
100
AcDbArc
 50
269.76629921
 51
0.23370079
  0
ARC
  5
F0
100
AcDbEntity
  8
0
  6
DASHED
 62
       7
100
AcDbCircle
 10
108.82639583
 20
36.580608
 30
0.0
 40
0.79792824
100
AcDbArc
 50
359.85104223
 51
90.14895777
  0
ARC
  5
F1
100
AcDbEntity
  8
0
  6
DASHED
 62
       7
100
AcDbCircle
 10
104.92640961
 20
39.18062178
 30
0.0
 40
1.80208945
100
AcDbArc
 50
180.0663937
 51
269.9336063
  0
ARC
  5
F2
100
AcDbEntity
  8
0
  6
DASHED
 62
       7
100
AcDbCircle
 10
104.92641257
 20
39.18062474
 30
0.0
 40
0.80209392
100
AcDbArc
 50
180.14938
 51
269.85062
  0
ARC
  5
F3
100
AcDbEntity
  8
0
  6
DASHED
 62
       7
100
AcDbCircle
 10
108.82639878
 20
36.58061095
 30
0.0
 40
1.79792379
100
AcDbArc
 50
359.93379764
 51
90.06620236
  0
ARC
  5
F4
100
AcDbEntity
  8
0
  6
DASHED
 62
       7
100
AcDbCircle
 10
108.82139994
 20
13.18145497
 30
0.0
 40
1.8029238
100
AcDbArc
 50
270.09284131
 51
359.90715869
  0
ARC
  5
F5
100
AcDbEntity
  8
0
  6
DASHED
 62
       7
100
AcDbCircle
 10
104.92140996
 20
10.58144495
 30
0.0
 40
0.7970939
100
AcDbArc
 50
89.79072478
 51
180.20927522
  0
ARC
  5
F6
100
AcDbEntity
  8
0
  6
DASHED
 62
       7
100
AcDbCircle
 10
104.92140845
 20
10.58144646
 30
0.0
 40
1.79708944
100
AcDbArc
 50
89.90712871
 51
180.09287129
  0
ARC
  5
F7
100
AcDbEntity
  8
0
  6
DASHED
 62
       7
100
AcDbCircle
 10
108.82139843
 20
13.18145648
 30
0.0
 40
0.80292826
100
AcDbArc
 50
270.20857704
 51
359.79142296
  0
ARC
  5
F8
100
AcDbEntity
  8
0
  6
CONTINUOUS
 62
       7
100
AcDbCircle
 10
92.92615237
 20
4.78104763
 30
0.0
 40
0.09820119
100
AcDbArc
 50
358.53298462
 51
96.91963737
  0
ARC
  5
F9
100
AcDbEntity
  8
0
  6
CONTINUOUS
 62
       7
100
AcDbCircle
 10
94.12602084
 20
4.19990296
 30
0.0
 40
0.10170869
100
AcDbArc
 50
180.77146092
 51
274.68116107
  0
ARC
  5
FA
100
AcDbEntity
  8
0
  6
CONTINUOUS
 62
       7
100
AcDbCircle
 10
92.8712862
 20
2.58147047
 30
0.0
 40
0.20305641
100
AcDbArc
 50
268.03437159
 51
359.17126636
  0
ARC
  5
FB
100
AcDbEntity
  8
0
  6
CONTINUOUS
 62
       7
100
AcDbCircle
 10
92.87596441
 20
4.54629557
 30
0.0
 40
0.19836958
100
AcDbArc
 50
0.64641534
 51
66.73371971
  0
ARC
  5
FC
100
AcDbEntity
  8
0
  6
CONTINUOUS
 62
       7
100
AcDbCircle
 10
97.50742583
 20
15.07244513
 30
0.0
 40
11.30164887
100
AcDbArc
 50
229.34467281
 51
246.24223011
  0
ARC
  5
FD
100
AcDbEntity
  8
0
  6
CONTINUOUS
 62
       7
100
AcDbCircle
 10
90.27755241
 20
6.65204136
 30
0.0
 40
0.20326131
100
AcDbArc
 50
180.98884153
 51
229.04494542
  0
ARC
  5
FE
100
AcDbEntity
  8
0
  6
CONTINUOUS
 62
       7
100
AcDbCircle
 10
90.27351922
 20
7.26762448
 30
0.0
 40
0.19919992
100
AcDbArc
 50
45.02174288
 51
179.73852723
  0
ARC
  5
FF
100
AcDbEntity
  8
0
  6
CONTINUOUS
 62
       7
100
AcDbCircle
 10
97.61099451
 20
14.75669131
 30
0.0
 40
10.30492383
100
AcDbArc
 50
228.58588
 51
279.34514212
  0
ARC
  5
100
100
AcDbEntity
  8
0
  6
CONTINUOUS
 62
       7
100
AcDbCircle
 10
97.61475254
 20
15.4597018
 30
0.0
 40
10.99862534
100
AcDbArc
 50
278.73113509
 51
291.10055179
  0
ARC
  5
101
100
AcDbEntity
  8
0
  6
CONTINUOUS
 62
       7
100
AcDbCircle
 10
102.99287967
 20
1.45959528
 30
0.0
 40
3.99899574
100
AcDbArc
 50
89.69279162
 51
110.77681391
  0
ARC
  5
102
100
AcDbEntity
  8
0
  6
CONTINUOUS
 62
       7
100
AcDbCircle
 10
105.01739279
 20
4.66160496
 30
0.0
 40
0.7969345
100
AcDbArc
 50
359.77917945
 51
90.22082055
  0
ARC
  5
103
100
AcDbEntity
  8
0
  6
CONTINUOUS
 62
       7
100
AcDbCircle
 10
104.81235074
 20
4.31289663
 30
0.0
 40
1.00198013
100
AcDbArc
 50
285.74956595
 51
359.75050689
  0
ARC
  5
104
100
AcDbEntity
  8
0
  6
CONTINUOUS
 62
       7
100
AcDbCircle
 10
104.22387261
 20
2.48581876
 30
0.0
 40
0.59728539
100
AcDbArc
 50
106.4912981
 51
270.04304857
  0
ARC
  5
105
100
AcDbEntity
  8
0
  6
CONTINUOUS
 62
       7
100
AcDbCircle
 10
106.09868813
 20
3.88722591
 30
0.0
 40
1.99869714
100
AcDbArc
 50
269.87481987
 51
324.91993379
  0
ARC
  5
106
100
AcDbEntity
  8
0
  6
CONTINUOUS
 62
       7
100
AcDbCircle
 10
108.62776186
 20
4.88801908
 30
0.0
 40
0.49694168
100
AcDbArc
 50
322.93954821
 51
357.75280367
  0
ARC
  5
107
100
AcDbEntity
  8
0
  6
CONTINUOUS
 62
       7
100
AcDbCircle
 10
108.12809503
 20
5.90902155
 30
0.0
 40
0.99622647
100
AcDbArc
 50
359.97193352
 51
60.78631851
  0
ARC
  5
108
100
AcDbEntity
  8
0
  6
CONTINUOUS
 62
       7
100
AcDbCircle
 10
98.62802539
 20
-10.53802919
 30
0.0
 40
19.98973367
100
AcDbArc
 50
60.02836265
 51
72.42404732
  0
ARC
  5
109
100
AcDbEntity
  8
0
  6
CONTINUOUS
 62
       7
100
AcDbCircle
 10
104.32210864
 20
8.41776082
 30
0.0
 40
0.19778878
100
AcDbArc
 50
74.69351077
 51
179.77615719
  0
ARC
  5
10A
100
AcDbEntity
  8
0
  6
CONTINUOUS
 62
       7
100
AcDbCircle
 10
103.31086486
 20
7.61982639
 30
0.0
 40
0.30499297
100
AcDbArc
 50
193.51809384
 51
232.29239201
  0
ARC
  5
10B
100
AcDbEntity
  8
0
  6
CONTINUOUS
 62
       7
100
AcDbCircle
 10
102.75480437
 20
7.81974103
 30
0.0
 40
0.19344652
100
AcDbArc
 50
11.56816018
 51
124.82902085
  0
ARC
  5
10C
100
AcDbEntity
  8
0
  6
CONTINUOUS
 62
       7
100
AcDbCircle
 10
97.6534649
 20
15.47002825
 30
0.0
 40
9.00172991
100
AcDbArc
 50
267.26747673
 51
303.67167281
  0
ARC
  5
10D
100
AcDbEntity
  8
0
  6
CONTINUOUS
 62
       7
100
AcDbCircle
 10
98.05822283
 20
14.74049926
 30
0.0
 40
8.30394299
100
AcDbArc
 50
196.45336355
 51
264.23650831
  0
ARC
  5
10E
100
AcDbEntity
  8
0
  6
CONTINUOUS
 62
       7
100
AcDbCircle
 10
90.58432137
 20
12.55853354
 30
0.0
 40
0.51865223
100
AcDbArc
 50
19.13364321
 51
199.13364321
  0
ARC
  5
10F
100
AcDbEntity
  8
0
  6
CONTINUOUS
 62
       7
100
AcDbCircle
 10
97.66737896
 20
15.07125714
 30
0.0
 40
6.9969109
100
AcDbArc
 50
199.56174805
 51
302.47577792
  0
ARC
  5
110
100
AcDbEntity
  8
0
  6
CONTINUOUS
 62
       7
100
AcDbCircle
 10
101.32528791
 20
9.34120028
 30
0.0
 40
0.19905132
100
AcDbArc
 50
299.8365391
 51
359.23237107
  0
ARC
  5
111
100
AcDbEntity
  8
0
  6
CONTINUOUS
 62
       7
100
AcDbCircle
 10
102.02139477
 20
24.48146014
 30
0.0
 40
0.49708201
100
AcDbArc
 50
89.6626655
 51
180.3373345
  0
ARC
  5
112
100
AcDbEntity
  8
0
  6
CONTINUOUS
 62
       7
100
AcDbCircle
 10
103.32641273
 20
37.18062489
 30
0.0
 40
0.50209571
100
AcDbArc
 50
180.23865172
 51
269.76134828
  0
ARC
  5
113
100
AcDbEntity
  8
0
  6
CONTINUOUS
 62
       7
100
AcDbCircle
 10
103.12068924
 20
42.35148174
 30
0.0
 40
0.02729455
100
AcDbArc
 50
82.35287163
 51
165.02726342
  0
ARC
  5
114
100
AcDbEntity
  8
0
  6
CONTINUOUS
 62
       7
100
AcDbCircle
 10
104.12740916
 20
42.35162133
 30
0.0
 40
0.02708877
100
AcDbArc
 50
353.45475236
 51
96.54524764
  0
ARC
  5
115
100
AcDbEntity
  8
0
  6
CONTINUOUS
 62
       7
100
AcDbCircle
 10
104.45119509
 20
41.3393474
 30
0.0
 40
0.20791814
100
AcDbArc
 50
185.74527726
 51
313.50185231
  0
ARC
  5
116
100
AcDbEntity
  8
0
  6
CONTINUOUS
 62
       7
100
AcDbCircle
 10
104.92830701
 20
44.24644995
 30
0.0
 40
0.99601654
100
AcDbArc
 50
0.11985857
 51
80.40525473
  0
ARC
  5
117
100
AcDbEntity
  8
0
  6
CONTINUOUS
 62
       7
100
AcDbCircle
 10
87.21642467
 20
46.37643024
 30
0.0
 40
1.00210551
100
AcDbArc
 50
90.120257
 51
179.879743
  0
ARC
  5
118
100
AcDbEntity
  8
0
  6
CONTINUOUS
 62
       7
100
AcDbCircle
 10
87.22140178
 20
3.38561395
 30
0.0
 40
1.0071053
100
AcDbArc
 50
180.4028186
 51
269.5971814
  0
CIRCLE
  5
119
100
AcDbEntity
  8
0
  6
CONTINUOUS
 62
       7
100
AcDbCircle
 10
97.02346566
 20
11.38353354
 30
0.0
 40
2.79998779
  0
CIRCLE
  5
11A
100
AcDbEntity
  8
0
  6
CONTINUOUS
 62
       7
100
AcDbCircle
 10
97.02346566
 20
38.38353354
 30
0.0
 40
2.79998779
  0
CIRCLE
  5
11B
100
AcDbEntity
  8
0
  6
CONTINUOUS
 62
       7
100
AcDbCircle
 10
97.02346566
 20
11.38353354
 30
0.0
 40
3.0
  0
CIRCLE
  5
11C
100
AcDbEntity
  8
0
  6
CONTINUOUS
 62
       7
100
AcDbCircle
 10
97.02346566
 20
38.38353354
 30
0.0
 40
3.0
  0
LINE
  5
11D
100
AcDbEntity
  8
0
  6
CONTINUOUS
 62
       7
100
AcDbLine
 10
97.44570536
 20
38.37593178
 30
0.0
 11
98.29357333
 21
37.52806382
 31
0.0
  0
LINE
  5
11E
100
AcDbEntity
  8
0
  6
CONTINUOUS
 62
       7
100
AcDbLine
 10
97.44570536
 20
38.37593178
 30
0.0
 11
98.29357333
 21
39.22379975
 31
0.0
  0
LINE
  5
11F
100
AcDbEntity
  8
0
  6
CONTINUOUS
 62
       7
100
AcDbLine
 10
97.86930926
 20
37.10379975
 30
0.0
 11
98.29357333
 21
37.52806382
 31
0.0
  0
LINE
  5
120
100
AcDbEntity
  8
0
  6
CONTINUOUS
 62
       7
100
AcDbLine
 10
98.29357333
 20
39.22379975
 30
0.0
 11
97.86930926
 21
39.64806382
 31
0.0
  0
LINE
  5
121
100
AcDbEntity
  8
0
  6
CONTINUOUS
 62
       7
100
AcDbLine
 10
97.0214413
 20
38.80019585
 30
0.0
 11
97.86930926
 21
39.64806382
 31
0.0
  0
LINE
  5
122
100
AcDbEntity
  8
0
  6
CONTINUOUS
 62
       7
100
AcDbLine
 10
95.74930926
 20
39.22379975
 30
0.0
 11
96.17357333
 21
39.64806382
 31
0.0
  0
LINE
  5
123
100
AcDbEntity
  8
0
  6
CONTINUOUS
 62
       7
100
AcDbLine
 10
95.74930926
 20
37.52806382
 30
0.0
 11
96.59717723
 21
38.37593178
 31
0.0
  0
LINE
  5
124
100
AcDbEntity
  8
0
  6
CONTINUOUS
 62
       7
100
AcDbLine
 10
95.74930926
 20
39.22379975
 30
0.0
 11
96.59717723
 21
38.37593178
 31
0.0
  0
LINE
  5
125
100
AcDbEntity
  8
0
  6
CONTINUOUS
 62
       7
100
AcDbLine
 10
96.17357333
 20
39.64806382
 30
0.0
 11
97.0214413
 21
38.80019585
 31
0.0
  0
LINE
  5
126
100
AcDbEntity
  8
0
  6
CONTINUOUS
 62
       7
100
AcDbLine
 10
96.17357333
 20
37.10379975
 30
0.0
 11
97.0214413
 21
37.95166771
 31
0.0
  0
LINE
  5
127
100
AcDbEntity
  8
0
  6
CONTINUOUS
 62
       7
100
AcDbLine
 10
95.74930926
 20
37.52806382
 30
0.0
 11
96.17357333
 21
37.10379975
 31
0.0
  0
LINE
  5
128
100
AcDbEntity
  8
0
  6
CONTINUOUS
 62
       7
100
AcDbLine
 10
97.0214413
 20
37.95166771
 30
0.0
 11
97.86930926
 21
37.10379975
 31
0.0
  0
LINE
  5
129
100
AcDbEntity
  8
0
  6
CONTINUOUS
 62
       7
100
AcDbLine
 10
95.74930926
 20
10.52806382
 30
0.0
 11
96.17357333
 21
10.10379975
 31
0.0
  0
LINE
  5
12A
100
AcDbEntity
  8
0
  6
CONTINUOUS
 62
       7
100
AcDbLine
 10
95.74930926
 20
12.22379975
 30
0.0
 11
96.17357333
 21
12.64806382
 31
0.0
  0
LINE
  5
12B
100
AcDbEntity
  8
0
  6
CONTINUOUS
 62
       7
100
AcDbLine
 10
95.74930926
 20
12.22379975
 30
0.0
 11
96.59717723
 21
11.37593178
 31
0.0
  0
LINE
  5
12C
100
AcDbEntity
  8
0
  6
CONTINUOUS
 62
       7
100
AcDbLine
 10
95.74930926
 20
10.52806382
 30
0.0
 11
96.59717723
 21
11.37593178
 31
0.0
  0
LINE
  5
12D
100
AcDbEntity
  8
0
  6
CONTINUOUS
 62
       7
100
AcDbLine
 10
97.0214413
 20
11.80019585
 30
0.0
 11
97.86930926
 21
12.64806382
 31
0.0
  0
LINE
  5
12E
100
AcDbEntity
  8
0
  6
CONTINUOUS
 62
       7
100
AcDbLine
 10
96.17357333
 20
12.64806382
 30
0.0
 11
97.0214413
 21
11.80019585
 31
0.0
  0
LINE
  5
12F
100
AcDbEntity
  8
0
  6
CONTINUOUS
 62
       7
100
AcDbLine
 10
96.17357333
 20
10.10379975
 30
0.0
 11
97.0214413
 21
10.95166771
 31
0.0
  0
LINE
  5
130
100
AcDbEntity
  8
0
  6
CONTINUOUS
 62
       7
100
AcDbLine
 10
97.86930926
 20
10.10379975
 30
0.0
 11
98.29357333
 21
10.52806382
 31
0.0
  0
LINE
  5
131
100
AcDbEntity
  8
0
  6
CONTINUOUS
 62
       7
100
AcDbLine
 10
97.86930926
 20
12.64806382
 30
0.0
 11
98.29357333
 21
12.22379975
 31
0.0
  0
LINE
  5
132
100
AcDbEntity
  8
0
  6
CONTINUOUS
 62
       7
100
AcDbLine
 10
97.44570536
 20
11.37593178
 30
0.0
 11
98.29357333
 21
12.22379975
 31
0.0
  0
LINE
  5
133
100
AcDbEntity
  8
0
  6
CONTINUOUS
 62
       7
100
AcDbLine
 10
97.44570536
 20
11.37593178
 30
0.0
 11
98.29357333
 21
10.52806382
 31
0.0
  0
LINE
  5
134
100
AcDbEntity
  8
0
  6
CONTINUOUS
 62
       7
100
AcDbLine
 10
97.0214413
 20
10.95166771
 30
0.0
 11
97.86930926
 21
10.10379975
 31
0.0
  0
LINE
  5
135
100
AcDbEntity
  8
0
  6
CONTINUOUS
 62
       7
100
AcDbLine
 10
-90.77567863
 20
39.87853354
 30
0.0
 11
-95.77567863
 21
39.87853354
 31
0.0
  0
LINE
  5
136
100
AcDbEntity
  8
0
  6
CONTINUOUS
 62
       7
100
AcDbLine
 10
-90.77567863
 20
44.87853354
 30
0.0
 11
-90.77567863
 21
39.87853354
 31
0.0
  0
LINE
  5
137
100
AcDbEntity
  8
0
  6
CONTINUOUS
 62
       7
100
AcDbLine
 10
-6.90567863
 20
-39.87146646
 30
0.0
 11
-6.90567863
 21
-43.11146646
 31
0.0
  0
LINE
  5
138
100
AcDbEntity
  8
0
  6
CONTINUOUS
 62
       7
100
AcDbLine
 10
-4.40567863
 20
-38.42146646
 30
0.0
 11
-6.90567863
 21
-39.87146646
 31
0.0
  0
LINE
  5
139
100
AcDbEntity
  8
0
  6
CONTINUOUS
 62
       7
100
AcDbLine
 10
-1.90567863
 20
-39.87146646
 30
0.0
 11
-4.40567863
 21
-38.42146646
 31
0.0
  0
LINE
  5
13A
100
AcDbEntity
  8
0
  6
CONTINUOUS
 62
       7
100
AcDbLine
 10
-1.90567863
 20
-43.11146646
 30
0.0
 11
-1.90567863
 21
-39.87146646
 31
0.0
  0
LINE
  5
13B
100
AcDbEntity
  8
0
  6
CONTINUOUS
 62
       7
100
AcDbLine
 10
-41.39567863
 20
-39.87146646
 30
0.0
 11
-41.39567863
 21
-43.11146646
 31
0.0
  0
LINE
  5
13C
100
AcDbEntity
  8
0
  6
CONTINUOUS
 62
       7
100
AcDbLine
 10
-38.89567863
 20
-38.42146646
 30
0.0
 11
-41.39567863
 21
-39.87146646
 31
0.0
  0
LINE
  5
13D
100
AcDbEntity
  8
0
  6
CONTINUOUS
 62
       7
100
AcDbLine
 10
-36.39567863
 20
-39.87146646
 30
0.0
 11
-38.89567863
 21
-38.42146646
 31
0.0
  0
LINE
  5
13E
100
AcDbEntity
  8
0
  6
CONTINUOUS
 62
       7
100
AcDbLine
 10
-36.39567863
 20
-43.11146646
 30
0.0
 11
-36.39567863
 21
-39.87146646
 31
0.0
  0
LINE
  5
13F
100
AcDbEntity
  8
0
  6
CONTINUOUS
 62
       7
100
AcDbLine
 10
0.79432137
 20
-37.01146646
 30
0.0
 11
0.79432137
 21
-43.11146646
 31
0.0
  0
LINE
  5
140
100
AcDbEntity
  8
0
  6
CONTINUOUS
 62
       7
100
AcDbLine
 10
-14.48567863
 20
-25.05146646
 30
0.0
 11
-12.07567863
 21
-31.31146646
 31
0.0
  0
LINE
  5
141
100
AcDbEntity
  8
0
  6
CONTINUOUS
 62
       7
100
AcDbLine
 10
-16.58567863
 20
-26.91146646
 30
0.0
 11
-14.11567863
 21
-26.91146646
 31
0.0
  0
LINE
  5
142
100
AcDbEntity
  8
0
  6
CONTINUOUS
 62
       7
100
AcDbLine
 10
-17.91567863
 20
-30.81146646
 30
0.0
 11
-17.07567863
 21
-27.29146646
 31
0.0
  0
LINE
  5
143
100
AcDbEntity
  8
0
  6
CONTINUOUS
 62
       7
100
AcDbLine
 10
-35.15567863
 20
-31.31146646
 30
0.0
 11
-8.13567863
 21
-31.31146646
 31
0.0
  0
LINE
  5
144
100
AcDbEntity
  8
0
  6
CONTINUOUS
 62
       7
100
AcDbLine
 10
-36.89567863
 20
-27.29146646
 30
0.0
 11
-36.12567863
 21
-30.54146646
 31
0.0
  0
LINE
  5
145
100
AcDbEntity
  8
0
  6
CONTINUOUS
 62
       7
100
AcDbLine
 10
-39.86567863
 20
-26.91146646
 30
0.0
 11
-37.38567863
 21
-26.91146646
 31
0.0
  0
LINE
  5
146
100
AcDbEntity
  8
0
  6
CONTINUOUS
 62
       7
100
AcDbLine
 10
-44.09567863
 20
-37.01146646
 30
0.0
 11
-39.49567863
 21
-25.05146646
 31
0.0
  0
LINE
  5
147
100
AcDbEntity
  8
0
  6
CONTINUOUS
 62
       7
100
AcDbLine
 10
-44.09567863
 20
-43.11146646
 30
0.0
 11
-44.09567863
 21
-37.01146646
 31
0.0
  0
LINE
  5
148
100
AcDbEntity
  8
0
  6
CONTINUOUS
 62
       7
100
AcDbLine
 10
-90.28567863
 20
-39.87146646
 30
0.0
 11
-90.28567863
 21
-43.11146646
 31
0.0
  0
LINE
  5
149
100
AcDbEntity
  8
0
  6
CONTINUOUS
 62
       7
100
AcDbLine
 10
-87.78567863
 20
-38.42146646
 30
0.0
 11
-90.28567863
 21
-39.87146646
 31
0.0
  0
LINE
  5
14A
100
AcDbEntity
  8
0
  6
CONTINUOUS
 62
       7
100
AcDbLine
 10
-85.28567863
 20
-39.87146646
 30
0.0
 11
-87.78567863
 21
-38.42146646
 31
0.0
  0
LINE
  5
14B
100
AcDbEntity
  8
0
  6
CONTINUOUS
 62
       7
100
AcDbLine
 10
-85.28567863
 20
-43.11146646
 30
0.0
 11
-85.28567863
 21
-39.87146646
 31
0.0
  0
LINE
  5
14C
100
AcDbEntity
  8
0
  6
CONTINUOUS
 62
       7
100
AcDbLine
 10
-55.78567863
 20
-39.87146646
 30
0.0
 11
-55.78567863
 21
-43.11146646
 31
0.0
  0
LINE
  5
14D
100
AcDbEntity
  8
0
  6
CONTINUOUS
 62
       7
100
AcDbLine
 10
-53.28567863
 20
-38.42146646
 30
0.0
 11
-55.78567863
 21
-39.87146646
 31
0.0
  0
LINE
  5
14E
100
AcDbEntity
  8
0
  6
CONTINUOUS
 62
       7
100
AcDbLine
 10
-50.78567863
 20
-39.87146646
 30
0.0
 11
-53.28567863
 21
-38.42146646
 31
0.0
  0
LINE
  5
14F
100
AcDbEntity
  8
0
  6
CONTINUOUS
 62
       7
100
AcDbLine
 10
-50.78567863
 20
-43.11146646
 30
0.0
 11
-50.78567863
 21
-39.87146646
 31
0.0
  0
LINE
  5
150
100
AcDbEntity
  8
0
  6
CONTINUOUS
 62
       7
100
AcDbLine
 10
-48.08567863
 20
-37.01146646
 30
0.0
 11
-48.08567863
 21
-43.11146646
 31
0.0
  0
LINE
  5
151
100
AcDbEntity
  8
0
  6
CONTINUOUS
 62
       7
100
AcDbLine
 10
-52.68567863
 20
-25.05146646
 30
0.0
 11
-48.08567863
 21
-37.01146646
 31
0.0
  0
LINE
  5
152
100
AcDbEntity
  8
0
  6
CONTINUOUS
 62
       7
100
AcDbLine
 10
-54.79567863
 20
-26.91146646
 30
0.0
 11
-52.31567863
 21
-26.91146646
 31
0.0
  0
LINE
  5
153
100
AcDbEntity
  8
0
  6
CONTINUOUS
 62
       7
100
AcDbLine
 10
-56.05567863
 20
-30.54146646
 30
0.0
 11
-55.27567863
 21
-27.29146646
 31
0.0
  0
LINE
  5
154
100
AcDbEntity
  8
0
  6
CONTINUOUS
 62
       7
100
AcDbLine
 10
-84.04567863
 20
-31.31146646
 30
0.0
 11
-57.02567863
 21
-31.31146646
 31
0.0
  0
LINE
  5
155
100
AcDbEntity
  8
0
  6
CONTINUOUS
 62
       7
100
AcDbLine
 10
-72.98567863
 20
-27.29146646
 30
0.0
 11
-72.15567863
 21
-30.81146646
 31
0.0
  0
LINE
  5
156
100
AcDbEntity
  8
0
  6
CONTINUOUS
 62
       7
100
AcDbLine
 10
-75.95567863
 20
-26.91146646
 30
0.0
 11
-73.47567863
 21
-26.91146646
 31
0.0
  0
LINE
  5
157
100
AcDbEntity
  8
0
  6
CONTINUOUS
 62
       7
100
AcDbLine
 10
-77.79567863
 20
-30.81146646
 30
0.0
 11
-75.58567863
 21
-25.05146646
 31
0.0
  0
LINE
  5
158
100
AcDbEntity
  8
0
  6
CONTINUOUS
 62
       7
100
AcDbLine
 10
-92.98567863
 20
-43.11146646
 30
0.0
 11
-92.98567863
 21
-37.01146646
 31
0.0
  0
LINE
  5
159
100
AcDbEntity
  8
0
  6
CONTINUOUS
 62
       7
100
AcDbLine
 10
1.71432137
 20
4.87853354
 30
0.0
 11
1.71432137
 21
4.77853354
 31
0.0
  0
LINE
  5
15A
100
AcDbEntity
  8
0
  6
CONTINUOUS
 62
       7
100
AcDbLine
 10
-93.27567863
 20
4.87853354
 30
0.0
 11
1.71432137
 21
4.87853354
 31
0.0
  0
LINE
  5
15B
100
AcDbEntity
  8
0
  6
CONTINUOUS
 62
       7
100
AcDbLine
 10
-93.27567863
 20
4.77853354
 30
0.0
 11
-93.27567863
 21
4.87853354
 31
0.0
  0
LINE
  5
15C
100
AcDbEntity
  8
0
  6
CONTINUOUS
 62
       7
100
AcDbLine
 10
1.71432137
 20
44.87853354
 30
0.0
 11
1.71432137
 21
44.97853354
 31
0.0
  0
LINE
  5
15D
100
AcDbEntity
  8
0
  6
CONTINUOUS
 62
       7
100
AcDbLine
 10
-93.27567863
 20
44.87853354
 30
0.0
 11
1.71432137
 21
44.87853354
 31
0.0
  0
LINE
  5
15E
100
AcDbEntity
  8
0
  6
CONTINUOUS
 62
       7
100
AcDbLine
 10
-93.27567863
 20
44.97853354
 30
0.0
 11
-93.27567863
 21
44.87853354
 31
0.0
  0
LINE
  5
15F
100
AcDbEntity
  8
0
  6
CONTINUOUS
 62
       7
100
AcDbLine
 10
1.71432137
 20
-43.11146646
 30
0.0
 11
1.71432137
 21
-58.41146646
 31
0.0
  0
LINE
  5
160
100
AcDbEntity
  8
0
  6
CONTINUOUS
 62
       7
100
AcDbLine
 10
4.71432137
 20
-43.11146646
 30
0.0
 11
1.71432137
 21
-43.11146646
 31
0.0
  0
LINE
  5
161
100
AcDbEntity
  8
0
  6
CONTINUOUS
 62
       7
100
AcDbLine
 10
5.71432137
 20
-60.51146646
 30
0.0
 11
5.71432137
 21
-44.11146646
 31
0.0
  0
LINE
  5
162
100
AcDbEntity
  8
0
  6
CONTINUOUS
 62
       7
100
AcDbLine
 10
16.21432137
 20
-61.51146646
 30
0.0
 11
6.71432137
 21
-61.51146646
 31
0.0
  0
LINE
  5
163
100
AcDbEntity
  8
0
  6
CONTINUOUS
 62
       7
100
AcDbLine
 10
16.21432137
 20
-66.01146646
 30
0.0
 11
16.21432137
 21
-61.51146646
 31
0.0
  0
LINE
  5
164
100
AcDbEntity
  8
0
  6
CONTINUOUS
 62
       7
100
AcDbLine
 10
-2.28567863
 20
-66.01146646
 30
0.0
 11
16.21432137
 21
-66.01146646
 31
0.0
  0
LINE
  5
165
100
AcDbEntity
  8
0
  6
CONTINUOUS
 62
       7
100
AcDbLine
 10
-2.28567863
 20
-58.41146646
 30
0.0
 11
-2.28567863
 21
-66.01146646
 31
0.0
  0
LINE
  5
166
100
AcDbEntity
  8
0
  6
CONTINUOUS
 62
       7
100
AcDbLine
 10
1.71432137
 20
-58.41146646
 30
0.0
 11
-2.28567863
 21
-58.41146646
 31
0.0
  0
LINE
  5
167
100
AcDbEntity
  8
0
  6
CONTINUOUS
 62
       7
100
AcDbLine
 10
-93.27567863
 20
-43.11146646
 30
0.0
 11
-93.27567863
 21
-58.41146646
 31
0.0
  0
LINE
  5
168
100
AcDbEntity
  8
0
  6
CONTINUOUS
 62
       7
100
AcDbLine
 10
-96.27567863
 20
-43.11146646
 30
0.0
 11
-93.27567863
 21
-43.11146646
 31
0.0
  0
LINE
  5
169
100
AcDbEntity
  8
0
  6
CONTINUOUS
 62
       7
100
AcDbLine
 10
-97.27567863
 20
-60.51146646
 30
0.0
 11
-97.27567863
 21
-44.11146646
 31
0.0
  0
LINE
  5
16A
100
AcDbEntity
  8
0
  6
CONTINUOUS
 62
       7
100
AcDbLine
 10
-107.77567863
 20
-61.51146646
 30
0.0
 11
-98.27567863
 21
-61.51146646
 31
0.0
  0
LINE
  5
16B
100
AcDbEntity
  8
0
  6
CONTINUOUS
 62
       7
100
AcDbLine
 10
-107.77567863
 20
-66.01146646
 30
0.0
 11
-107.77567863
 21
-61.51146646
 31
0.0
  0
LINE
  5
16C
100
AcDbEntity
  8
0
  6
CONTINUOUS
 62
       7
100
AcDbLine
 10
-89.27567863
 20
-66.01146646
 30
0.0
 11
-107.77567863
 21
-66.01146646
 31
0.0
  0
LINE
  5
16D
100
AcDbEntity
  8
0
  6
CONTINUOUS
 62
       7
100
AcDbLine
 10
-89.27567863
 20
-58.41146646
 30
0.0
 11
-89.27567863
 21
-66.01146646
 31
0.0
  0
LINE
  5
16E
100
AcDbEntity
  8
0
  6
CONTINUOUS
 62
       7
100
AcDbLine
 10
-93.27567863
 20
-58.41146646
 30
0.0
 11
-89.27567863
 21
-58.41146646
 31
0.0
  0
LINE
  5
16F
100
AcDbEntity
  8
0
  6
CONTINUOUS
 62
       7
100
AcDbLine
 10
-106.36567863
 20
-62.71146646
 30
0.0
 11
-98.27567863
 21
-62.71146646
 31
0.0
  0
LINE
  5
170
100
AcDbEntity
  8
0
  6
CONTINUOUS
 62
       7
100
AcDbLine
 10
-102.77567863
 20
17.02853354
 30
0.0
 11
-101.77567863
 21
17.02853354
 31
0.0
  0
LINE
  5
171
100
AcDbEntity
  8
0
  6
CONTINUOUS
 62
       7
100
AcDbLine
 10
-101.77567863
 20
21.12853354
 30
0.0
 11
-102.77567863
 21
21.12853354
 31
0.0
  0
LINE
  5
172
100
AcDbEntity
  8
0
  6
CONTINUOUS
 62
       7
100
AcDbLine
 10
-93.27567863
 20
44.97853354
 30
0.0
 11
-93.27567863
 21
47.37853354
 31
0.0
  0
LINE
  5
173
100
AcDbEntity
  8
0
  6
CONTINUOUS
 62
       7
100
AcDbLine
 10
-95.87567863
 20
44.97853354
 30
0.0
 11
-93.27567863
 21
44.97853354
 31
0.0
  0
LINE
  5
174
100
AcDbEntity
  8
0
  6
CONTINUOUS
 62
       7
100
AcDbLine
 10
-95.87567863
 20
27.87853354
 30
0.0
 11
-95.87567863
 21
44.97853354
 31
0.0
  0
LINE
  5
175
100
AcDbEntity
  8
0
  6
CONTINUOUS
 62
       7
100
AcDbLine
 10
-93.27567863
 20
27.87853354
 30
0.0
 11
-95.87567863
 21
27.87853354
 31
0.0
  0
LINE
  5
176
100
AcDbEntity
  8
0
  6
CONTINUOUS
 62
       7
100
AcDbLine
 10
-93.27567863
 20
21.87853354
 30
0.0
 11
-93.27567863
 21
27.87853354
 31
0.0
  0
LINE
  5
177
100
AcDbEntity
  8
0
  6
CONTINUOUS
 62
       7
100
AcDbLine
 10
-95.87567863
 20
21.87853354
 30
0.0
 11
-93.27567863
 21
21.87853354
 31
0.0
  0
LINE
  5
178
100
AcDbEntity
  8
0
  6
CONTINUOUS
 62
       7
100
AcDbLine
 10
-95.87567863
 20
4.77853354
 30
0.0
 11
-95.87567863
 21
21.87853354
 31
0.0
  0
LINE
  5
179
100
AcDbEntity
  8
0
  6
CONTINUOUS
 62
       7
100
AcDbLine
 10
-93.27567863
 20
4.77853354
 30
0.0
 11
-95.87567863
 21
4.77853354
 31
0.0
  0
LINE
  5
17A
100
AcDbEntity
  8
0
  6
CONTINUOUS
 62
       7
100
AcDbLine
 10
-93.27567863
 20
2.37853354
 30
0.0
 11
-93.27567863
 21
4.77853354
 31
0.0
  0
LINE
  5
17B
100
AcDbEntity
  8
0
  6
CONTINUOUS
 62
       7
100
AcDbLine
 10
-96.27567863
 20
2.37853354
 30
0.0
 11
-93.27567863
 21
2.37853354
 31
0.0
  0
LINE
  5
17C
100
AcDbEntity
  8
0
  6
CONTINUOUS
 62
       7
100
AcDbLine
 10
-102.77567863
 20
13.57853354
 30
0.0
 11
-97.27567863
 21
13.57853354
 31
0.0
  0
LINE
  5
17D
100
AcDbEntity
  8
0
  6
CONTINUOUS
 62
       7
100
AcDbLine
 10
-107.77567863
 20
19.77853354
 30
0.0
 11
-107.77567863
 21
18.57853354
 31
0.0
  0
LINE
  5
17E
100
AcDbEntity
  8
0
  6
CONTINUOUS
 62
       7
100
AcDbLine
 10
-97.27567863
 20
24.77853354
 30
0.0
 11
-102.77567863
 21
24.77853354
 31
0.0
  0
LINE
  5
17F
100
AcDbEntity
  8
0
  6
CONTINUOUS
 62
       7
100
AcDbLine
 10
-97.27567863
 20
3.37853354
 30
0.0
 11
-97.27567863
 21
46.37853354
 31
0.0
  0
LINE
  5
180
100
AcDbEntity
  8
0
  6
CONTINUOUS
 62
       7
100
AcDbLine
 10
-93.27567863
 20
47.37853354
 30
0.0
 11
-96.27567863
 21
47.37853354
 31
0.0
  0
LINE
  5
181
100
AcDbEntity
  8
0
  6
CONTINUOUS
 62
       7
100
AcDbLine
 10
1.71432137
 20
4.77853354
 30
0.0
 11
1.71432137
 21
2.37853354
 31
0.0
  0
LINE
  5
182
100
AcDbEntity
  8
0
  6
CONTINUOUS
 62
       7
100
AcDbLine
 10
4.31432137
 20
4.77853354
 30
0.0
 11
1.71432137
 21
4.77853354
 31
0.0
  0
LINE
  5
183
100
AcDbEntity
  8
0
  6
CONTINUOUS
 62
       7
100
AcDbLine
 10
4.31432137
 20
21.87853354
 30
0.0
 11
4.31432137
 21
4.77853354
 31
0.0
  0
LINE
  5
184
100
AcDbEntity
  8
0
  6
CONTINUOUS
 62
       7
100
AcDbLine
 10
1.71432137
 20
21.87853354
 30
0.0
 11
4.31432137
 21
21.87853354
 31
0.0
  0
LINE
  5
185
100
AcDbEntity
  8
0
  6
CONTINUOUS
 62
       7
100
AcDbLine
 10
1.71432137
 20
27.87853354
 30
0.0
 11
1.71432137
 21
21.87853354
 31
0.0
  0
LINE
  5
186
100
AcDbEntity
  8
0
  6
CONTINUOUS
 62
       7
100
AcDbLine
 10
4.31432137
 20
27.87853354
 30
0.0
 11
1.71432137
 21
27.87853354
 31
0.0
  0
LINE
  5
187
100
AcDbEntity
  8
0
  6
CONTINUOUS
 62
       7
100
AcDbLine
 10
4.31432137
 20
44.97853354
 30
0.0
 11
4.31432137
 21
27.87853354
 31
0.0
  0
LINE
  5
188
100
AcDbEntity
  8
0
  6
CONTINUOUS
 62
       7
100
AcDbLine
 10
1.71432137
 20
44.97853354
 30
0.0
 11
4.31432137
 21
44.97853354
 31
0.0
  0
LINE
  5
189
100
AcDbEntity
  8
0
  6
CONTINUOUS
 62
       7
100
AcDbLine
 10
1.71432137
 20
47.37853354
 30
0.0
 11
1.71432137
 21
44.97853354
 31
0.0
  0
LINE
  5
18A
100
AcDbEntity
  8
0
  6
CONTINUOUS
 62
       7
100
AcDbLine
 10
4.71432137
 20
47.37853354
 30
0.0
 11
1.71432137
 21
47.37853354
 31
0.0
  0
LINE
  5
18B
100
AcDbEntity
  8
0
  6
CONTINUOUS
 62
       7
100
AcDbLine
 10
5.71432137
 20
3.37853354
 30
0.0
 11
5.71432137
 21
46.37853354
 31
0.0
  0
LINE
  5
18C
100
AcDbEntity
  8
0
  6
CONTINUOUS
 62
       7
100
AcDbLine
 10
11.21432137
 20
36.17853354
 30
0.0
 11
5.71432137
 21
36.17853354
 31
0.0
  0
LINE
  5
18D
100
AcDbEntity
  8
0
  6
CONTINUOUS
 62
       7
100
AcDbLine
 10
16.21432137
 20
29.97853354
 30
0.0
 11
16.21432137
 21
31.17853354
 31
0.0
  0
LINE
  5
18E
100
AcDbEntity
  8
0
  6
CONTINUOUS
 62
       7
100
AcDbLine
 10
5.71432137
 20
24.97853354
 30
0.0
 11
11.21432137
 21
24.97853354
 31
0.0
  0
LINE
  5
18F
100
AcDbEntity
  8
0
  6
CONTINUOUS
 62
       7
100
AcDbLine
 10
1.71432137
 20
2.37853354
 30
0.0
 11
4.71432137
 21
2.37853354
 31
0.0
  0
LINE
  5
190
100
AcDbEntity
  8
0
  6
CONTINUOUS
 62
       7
100
AcDbLine
 10
11.21432137
 20
32.72853354
 30
0.0
 11
10.21432137
 21
32.72853354
 31
0.0
  0
LINE
  5
191
100
AcDbEntity
  8
0
  6
CONTINUOUS
 62
       7
100
AcDbLine
 10
10.21432137
 20
28.62853354
 30
0.0
 11
11.21432137
 21
28.62853354
 31
0.0
  0
LINE
  5
192
100
AcDbEntity
  8
0
  6
CONTINUOUS
 62
       7
100
AcDbLine
 10
-20.17567863
 20
22.72853354
 30
0.0
 11
-23.82567863
 21
22.72853354
 31
0.0
  0
LINE
  5
193
100
AcDbEntity
  8
0
  6
CONTINUOUS
 62
       7
100
AcDbLine
 10
-20.07567863
 20
18.32853354
 30
0.0
 11
-20.07567863
 21
22.62853354
 31
0.0
  0
LINE
  5
194
100
AcDbEntity
  8
0
  6
CONTINUOUS
 62
       7
100
AcDbLine
 10
-23.82567863
 20
18.22853354
 30
0.0
 11
-20.17567863
 21
18.22853354
 31
0.0
  0
LINE
  5
195
100
AcDbEntity
  8
0
  6
CONTINUOUS
 62
       7
100
AcDbLine
 10
-23.82567863
 20
18.47853354
 30
0.0
 11
-20.17567863
 21
18.47853354
 31
0.0
  0
LINE
  5
196
100
AcDbEntity
  8
0
  6
CONTINUOUS
 62
       7
100
AcDbLine
 10
-20.17567863
 20
22.47853354
 30
0.0
 11
-23.82567863
 21
22.47853354
 31
0.0
  0
LINE
  5
197
100
AcDbEntity
  8
0
  6
CONTINUOUS
 62
       7
100
AcDbLine
 10
-21.32567863
 20
18.72853354
 30
0.0
 11
-21.32567863
 21
19.43853354
 31
0.0
  0
LINE
  5
198
100
AcDbEntity
  8
0
  6
CONTINUOUS
 62
       7
100
AcDbLine
 10
-22.32567863
 20
18.72853354
 30
0.0
 11
-21.32567863
 21
18.72853354
 31
0.0
  0
LINE
  5
199
100
AcDbEntity
  8
0
  6
CONTINUOUS
 62
       7
100
AcDbLine
 10
-22.32567863
 20
19.43853354
 30
0.0
 11
-22.32567863
 21
18.72853354
 31
0.0
  0
LINE
  5
19A
100
AcDbEntity
  8
0
  6
CONTINUOUS
 62
       7
100
AcDbLine
 10
-22.32567863
 20
22.22853354
 30
0.0
 11
-22.32567863
 21
21.51853354
 31
0.0
  0
LINE
  5
19B
100
AcDbEntity
  8
0
  6
CONTINUOUS
 62
       7
100
AcDbLine
 10
-21.32567863
 20
22.22853354
 30
0.0
 11
-22.32567863
 21
22.22853354
 31
0.0
  0
LINE
  5
19C
100
AcDbEntity
  8
0
  6
CONTINUOUS
 62
       7
100
AcDbLine
 10
-21.32567863
 20
21.51853354
 30
0.0
 11
-21.32567863
 21
22.22853354
 31
0.0
  0
LINE
  5
19D
100
AcDbEntity
  8
0
  6
CONTINUOUS
 62
       7
100
AcDbLine
 10
-23.12567863
 20
19.22853354
 30
0.0
 11
-23.82567863
 21
19.87853354
 31
0.0
  0
LINE
  5
19E
100
AcDbEntity
  8
0
  6
CONTINUOUS
 62
       7
100
AcDbLine
 10
-23.12567863
 20
18.62853354
 30
0.0
 11
-23.12567863
 21
19.22853354
 31
0.0
  0
LINE
  5
19F
100
AcDbEntity
  8
0
  6
CONTINUOUS
 62
       7
100
AcDbLine
 10
-23.32567863
 20
18.62853354
 30
0.0
 11
-23.12567863
 21
18.62853354
 31
0.0
  0
LINE
  5
1A0
100
AcDbEntity
  8
0
  6
CONTINUOUS
 62
       7
100
AcDbLine
 10
-23.70567863
 20
18.97853354
 30
0.0
 11
-23.32567863
 21
18.62853354
 31
0.0
  0
LINE
  5
1A1
100
AcDbEntity
  8
0
  6
CONTINUOUS
 62
       7
100
AcDbLine
 10
-23.82567863
 20
18.97853354
 30
0.0
 11
-23.70567863
 21
18.97853354
 31
0.0
  0
LINE
  5
1A2
100
AcDbEntity
  8
0
  6
CONTINUOUS
 62
       7
100
AcDbLine
 10
-23.70567863
 20
21.97853354
 30
0.0
 11
-23.82567863
 21
21.97853354
 31
0.0
  0
LINE
  5
1A3
100
AcDbEntity
  8
0
  6
CONTINUOUS
 62
       7
100
AcDbLine
 10
-23.32567863
 20
22.32853354
 30
0.0
 11
-23.70567863
 21
21.97853354
 31
0.0
  0
LINE
  5
1A4
100
AcDbEntity
  8
0
  6
CONTINUOUS
 62
       7
100
AcDbLine
 10
-23.12567863
 20
22.32853354
 30
0.0
 11
-23.32567863
 21
22.32853354
 31
0.0
  0
LINE
  5
1A5
100
AcDbEntity
  8
0
  6
CONTINUOUS
 62
       7
100
AcDbLine
 10
-23.12567863
 20
21.72853354
 30
0.0
 11
-23.12567863
 21
22.32853354
 31
0.0
  0
LINE
  5
1A6
100
AcDbEntity
  8
0
  6
CONTINUOUS
 62
       7
100
AcDbLine
 10
-23.82567863
 20
21.07853354
 30
0.0
 11
-23.12567863
 21
21.72853354
 31
0.0
  0
LINE
  5
1A7
100
AcDbEntity
  8
0
  6
CONTINUOUS
 62
       7
100
AcDbLine
 10
-23.70567863
 20
27.05853354
 30
0.0
 11
-23.82567863
 21
27.05853354
 31
0.0
  0
LINE
  5
1A8
100
AcDbEntity
  8
0
  6
CONTINUOUS
 62
       7
100
AcDbLine
 10
-23.32567863
 20
27.40853354
 30
0.0
 11
-23.70567863
 21
27.05853354
 31
0.0
  0
LINE
  5
1A9
100
AcDbEntity
  8
0
  6
CONTINUOUS
 62
       7
100
AcDbLine
 10
-23.12567863
 20
27.40853354
 30
0.0
 11
-23.32567863
 21
27.40853354
 31
0.0
  0
LINE
  5
1AA
100
AcDbEntity
  8
0
  6
CONTINUOUS
 62
       7
100
AcDbLine
 10
-23.12567863
 20
26.80853354
 30
0.0
 11
-23.12567863
 21
27.40853354
 31
0.0
  0
LINE
  5
1AB
100
AcDbEntity
  8
0
  6
CONTINUOUS
 62
       7
100
AcDbLine
 10
-23.82567863
 20
26.15853354
 30
0.0
 11
-23.12567863
 21
26.80853354
 31
0.0
  0
LINE
  5
1AC
100
AcDbEntity
  8
0
  6
CONTINUOUS
 62
       7
100
AcDbLine
 10
-23.12567863
 20
24.30853354
 30
0.0
 11
-23.82567863
 21
24.95853354
 31
0.0
  0
LINE
  5
1AD
100
AcDbEntity
  8
0
  6
CONTINUOUS
 62
       7
100
AcDbLine
 10
-23.12567863
 20
23.70853354
 30
0.0
 11
-23.12567863
 21
24.30853354
 31
0.0
  0
LINE
  5
1AE
100
AcDbEntity
  8
0
  6
CONTINUOUS
 62
       7
100
AcDbLine
 10
-23.32567863
 20
23.70853354
 30
0.0
 11
-23.12567863
 21
23.70853354
 31
0.0
  0
LINE
  5
1AF
100
AcDbEntity
  8
0
  6
CONTINUOUS
 62
       7
100
AcDbLine
 10
-23.70567863
 20
24.05853354
 30
0.0
 11
-23.32567863
 21
23.70853354
 31
0.0
  0
LINE
  5
1B0
100
AcDbEntity
  8
0
  6
CONTINUOUS
 62
       7
100
AcDbLine
 10
-23.82567863
 20
24.05853354
 30
0.0
 11
-23.70567863
 21
24.05853354
 31
0.0
  0
LINE
  5
1B1
100
AcDbEntity
  8
0
  6
CONTINUOUS
 62
       7
100
AcDbLine
 10
-21.32567863
 20
23.80853354
 30
0.0
 11
-21.32567863
 21
24.51853354
 31
0.0
  0
LINE
  5
1B2
100
AcDbEntity
  8
0
  6
CONTINUOUS
 62
       7
100
AcDbLine
 10
-22.32567863
 20
23.80853354
 30
0.0
 11
-21.32567863
 21
23.80853354
 31
0.0
  0
LINE
  5
1B3
100
AcDbEntity
  8
0
  6
CONTINUOUS
 62
       7
100
AcDbLine
 10
-22.32567863
 20
24.51853354
 30
0.0
 11
-22.32567863
 21
23.80853354
 31
0.0
  0
LINE
  5
1B4
100
AcDbEntity
  8
0
  6
CONTINUOUS
 62
       7
100
AcDbLine
 10
-22.32567863
 20
27.30853354
 30
0.0
 11
-22.32567863
 21
26.59853354
 31
0.0
  0
LINE
  5
1B5
100
AcDbEntity
  8
0
  6
CONTINUOUS
 62
       7
100
AcDbLine
 10
-21.32567863
 20
27.30853354
 30
0.0
 11
-22.32567863
 21
27.30853354
 31
0.0
  0
LINE
  5
1B6
100
AcDbEntity
  8
0
  6
CONTINUOUS
 62
       7
100
AcDbLine
 10
-21.32567863
 20
26.59853354
 30
0.0
 11
-21.32567863
 21
27.30853354
 31
0.0
  0
LINE
  5
1B7
100
AcDbEntity
  8
0
  6
CONTINUOUS
 62
       7
100
AcDbLine
 10
-20.17567863
 20
27.55853354
 30
0.0
 11
-23.82567863
 21
27.55853354
 31
0.0
  0
LINE
  5
1B8
100
AcDbEntity
  8
0
  6
CONTINUOUS
 62
       7
100
AcDbLine
 10
-23.82567863
 20
23.55853354
 30
0.0
 11
-20.17567863
 21
23.55853354
 31
0.0
  0
LINE
  5
1B9
100
AcDbEntity
  8
0
  6
CONTINUOUS
 62
       7
100
AcDbLine
 10
-20.17567863
 20
27.80853354
 30
0.0
 11
-23.82567863
 21
27.80853354
 31
0.0
  0
LINE
  5
1BA
100
AcDbEntity
  8
0
  6
CONTINUOUS
 62
       7
100
AcDbLine
 10
-20.07567863
 20
23.40853354
 30
0.0
 11
-20.07567863
 21
27.70853354
 31
0.0
  0
LINE
  5
1BB
100
AcDbEntity
  8
0
  6
CONTINUOUS
 62
       7
100
AcDbLine
 10
-23.82567863
 20
23.30853354
 30
0.0
 11
-20.17567863
 21
23.30853354
 31
0.0
  0
LINE
  5
1BC
100
AcDbEntity
  8
0
  6
CONTINUOUS
 62
       7
100
AcDbLine
 10
-12.44567863
 20
18.03853354
 30
0.0
 11
-11.20567863
 21
18.03853354
 31
0.0
  0
LINE
  5
1BD
100
AcDbEntity
  8
0
  6
CONTINUOUS
 62
       7
100
AcDbLine
 10
-12.54567863
 20
22.81853354
 30
0.0
 11
-12.54567863
 21
18.13853354
 31
0.0
  0
LINE
  5
1BE
100
AcDbEntity
  8
0
  6
CONTINUOUS
 62
       7
100
AcDbLine
 10
-11.20567863
 20
22.91853354
 30
0.0
 11
-12.44567863
 21
22.91853354
 31
0.0
  0
LINE
  5
1BF
100
AcDbEntity
  8
0
  6
CONTINUOUS
 62
       7
100
AcDbLine
 10
-11.10567863
 20
18.13853354
 30
0.0
 11
-11.10567863
 21
22.81853354
 31
0.0
  0
LINE
  5
1C0
100
AcDbEntity
  8
0
  6
CONTINUOUS
 62
       7
100
AcDbLine
 10
-12.44567863
 20
23.11853354
 30
0.0
 11
-11.20567863
 21
23.11853354
 31
0.0
  0
LINE
  5
1C1
100
AcDbEntity
  8
0
  6
CONTINUOUS
 62
       7
100
AcDbLine
 10
-12.54567863
 20
27.89853354
 30
0.0
 11
-12.54567863
 21
23.21853354
 31
0.0
  0
LINE
  5
1C2
100
AcDbEntity
  8
0
  6
CONTINUOUS
 62
       7
100
AcDbLine
 10
-11.20567863
 20
27.99853354
 30
0.0
 11
-12.44567863
 21
27.99853354
 31
0.0
  0
LINE
  5
1C3
100
AcDbEntity
  8
0
  6
CONTINUOUS
 62
       7
100
AcDbLine
 10
-11.10567863
 20
23.21853354
 30
0.0
 11
-11.10567863
 21
27.89853354
 31
0.0
  0
LINE
  5
1C4
100
AcDbEntity
  8
0
  6
CONTINUOUS
 62
       7
100
AcDbLine
 10
-11.32567863
 20
23.11853354
 30
0.0
 11
-11.32567863
 21
22.91853354
 31
0.0
  0
LINE
  5
1C5
100
AcDbEntity
  8
0
  6
CONTINUOUS
 62
       7
100
AcDbLine
 10
-11.32567863
 20
28.09853354
 30
0.0
 11
-11.32567863
 21
27.99853354
 31
0.0
  0
LINE
  5
1C6
100
AcDbEntity
  8
0
  6
CONTINUOUS
 62
       7
100
AcDbLine
 10
-12.87567863
 20
28.09853354
 30
0.0
 11
-11.32567863
 21
28.09853354
 31
0.0
  0
LINE
  5
1C7
100
AcDbEntity
  8
0
  6
CONTINUOUS
 62
       7
100
AcDbLine
 10
-12.72567863
 20
28.69853354
 30
0.0
 11
-12.87567863
 21
28.09853354
 31
0.0
  0
LINE
  5
1C8
100
AcDbEntity
  8
0
  6
CONTINUOUS
 62
       7
100
AcDbLine
 10
-13.52567863
 20
28.69853354
 30
0.0
 11
-12.72567863
 21
28.69853354
 31
0.0
  0
LINE
  5
1C9
100
AcDbEntity
  8
0
  6
CONTINUOUS
 62
       7
100
AcDbLine
 10
-13.37567863
 20
28.09853354
 30
0.0
 11
-13.52567863
 21
28.69853354
 31
0.0
  0
LINE
  5
1CA
100
AcDbEntity
  8
0
  6
CONTINUOUS
 62
       7
100
AcDbLine
 10
-22.17567863
 20
28.09853354
 30
0.0
 11
-13.37567863
 21
28.09853354
 31
0.0
  0
LINE
  5
1CB
100
AcDbEntity
  8
0
  6
CONTINUOUS
 62
       7
100
AcDbLine
 10
-22.02567863
 20
28.69853354
 30
0.0
 11
-22.17567863
 21
28.09853354
 31
0.0
  0
LINE
  5
1CC
100
AcDbEntity
  8
0
  6
CONTINUOUS
 62
       7
100
AcDbLine
 10
-22.82567863
 20
28.69853354
 30
0.0
 11
-22.02567863
 21
28.69853354
 31
0.0
  0
LINE
  5
1CD
100
AcDbEntity
  8
0
  6
CONTINUOUS
 62
       7
100
AcDbLine
 10
-22.67567863
 20
28.09853354
 30
0.0
 11
-22.82567863
 21
28.69853354
 31
0.0
  0
LINE
  5
1CE
100
AcDbEntity
  8
0
  6
CONTINUOUS
 62
       7
100
AcDbLine
 10
-23.82567863
 20
28.09853354
 30
0.0
 11
-22.67567863
 21
28.09853354
 31
0.0
  0
LINE
  5
1CF
100
AcDbEntity
  8
0
  6
CONTINUOUS
 62
       7
100
AcDbLine
 10
-23.82567863
 20
17.93853354
 30
0.0
 11
-23.82567863
 21
28.09853354
 31
0.0
  0
LINE
  5
1D0
100
AcDbEntity
  8
0
  6
CONTINUOUS
 62
       7
100
AcDbLine
 10
-11.32567863
 20
17.93853354
 30
0.0
 11
-23.82567863
 21
17.93853354
 31
0.0
  0
LINE
  5
1D1
100
AcDbEntity
  8
0
  6
CONTINUOUS
 62
       7
100
AcDbLine
 10
-11.32567863
 20
18.03853354
 30
0.0
 11
-11.32567863
 21
17.93853354
 31
0.0
  0
LINE
  5
1D2
100
AcDbEntity
  8
0
  6
CONTINUOUS
 62
       7
100
AcDbLine
 10
-80.85567863
 20
17.93853354
 30
0.0
 11
-80.85567863
 21
18.03853354
 31
0.0
  0
LINE
  5
1D3
100
AcDbEntity
  8
0
  6
CONTINUOUS
 62
       7
100
AcDbLine
 10
-79.30567863
 20
17.93853354
 30
0.0
 11
-80.85567863
 21
17.93853354
 31
0.0
  0
LINE
  5
1D4
100
AcDbEntity
  8
0
  6
CONTINUOUS
 62
       7
100
AcDbLine
 10
-79.45567863
 20
17.33853354
 30
0.0
 11
-79.30567863
 21
17.93853354
 31
0.0
  0
LINE
  5
1D5
100
AcDbEntity
  8
0
  6
CONTINUOUS
 62
       7
100
AcDbLine
 10
-78.65567863
 20
17.33853354
 30
0.0
 11
-79.45567863
 21
17.33853354
 31
0.0
  0
LINE
  5
1D6
100
AcDbEntity
  8
0
  6
CONTINUOUS
 62
       7
100
AcDbLine
 10
-78.80567863
 20
17.93853354
 30
0.0
 11
-78.65567863
 21
17.33853354
 31
0.0
  0
LINE
  5
1D7
100
AcDbEntity
  8
0
  6
CONTINUOUS
 62
       7
100
AcDbLine
 10
-70.00567863
 20
17.93853354
 30
0.0
 11
-78.80567863
 21
17.93853354
 31
0.0
  0
LINE
  5
1D8
100
AcDbEntity
  8
0
  6
CONTINUOUS
 62
       7
100
AcDbLine
 10
-70.15567863
 20
17.33853354
 30
0.0
 11
-70.00567863
 21
17.93853354
 31
0.0
  0
LINE
  5
1D9
100
AcDbEntity
  8
0
  6
CONTINUOUS
 62
       7
100
AcDbLine
 10
-69.35567863
 20
17.33853354
 30
0.0
 11
-70.15567863
 21
17.33853354
 31
0.0
  0
LINE
  5
1DA
100
AcDbEntity
  8
0
  6
CONTINUOUS
 62
       7
100
AcDbLine
 10
-69.50567863
 20
17.93853354
 30
0.0
 11
-69.35567863
 21
17.33853354
 31
0.0
  0
LINE
  5
1DB
100
AcDbEntity
  8
0
  6
CONTINUOUS
 62
       7
100
AcDbLine
 10
-68.35567863
 20
17.93853354
 30
0.0
 11
-69.50567863
 21
17.93853354
 31
0.0
  0
LINE
  5
1DC
100
AcDbEntity
  8
0
  6
CONTINUOUS
 62
       7
100
AcDbLine
 10
-68.35567863
 20
28.09853354
 30
0.0
 11
-68.35567863
 21
17.93853354
 31
0.0
  0
LINE
  5
1DD
100
AcDbEntity
  8
0
  6
CONTINUOUS
 62
       7
100
AcDbLine
 10
-80.85567863
 20
28.09853354
 30
0.0
 11
-68.35567863
 21
28.09853354
 31
0.0
  0
LINE
  5
1DE
100
AcDbEntity
  8
0
  6
CONTINUOUS
 62
       7
100
AcDbLine
 10
-80.85567863
 20
27.99853354
 30
0.0
 11
-80.85567863
 21
28.09853354
 31
0.0
  0
LINE
  5
1DF
100
AcDbEntity
  8
0
  6
CONTINUOUS
 62
       7
100
AcDbLine
 10
-80.85567863
 20
22.91853354
 30
0.0
 11
-80.85567863
 21
23.11853354
 31
0.0
  0
LINE
  5
1E0
100
AcDbEntity
  8
0
  6
CONTINUOUS
 62
       7
100
AcDbLine
 10
-79.73567863
 20
22.91853354
 30
0.0
 11
-80.97567863
 21
22.91853354
 31
0.0
  0
LINE
  5
1E1
100
AcDbEntity
  8
0
  6
CONTINUOUS
 62
       7
100
AcDbLine
 10
-79.63567863
 20
18.13853354
 30
0.0
 11
-79.63567863
 21
22.81853354
 31
0.0
  0
LINE
  5
1E2
100
AcDbEntity
  8
0
  6
CONTINUOUS
 62
       7
100
AcDbLine
 10
-80.97567863
 20
18.03853354
 30
0.0
 11
-79.73567863
 21
18.03853354
 31
0.0
  0
LINE
  5
1E3
100
AcDbEntity
  8
0
  6
CONTINUOUS
 62
       7
100
AcDbLine
 10
-81.07567863
 20
22.81853354
 30
0.0
 11
-81.07567863
 21
18.13853354
 31
0.0
  0
LINE
  5
1E4
100
AcDbEntity
  8
0
  6
CONTINUOUS
 62
       7
100
AcDbLine
 10
-79.73567863
 20
27.99853354
 30
0.0
 11
-80.97567863
 21
27.99853354
 31
0.0
  0
LINE
  5
1E5
100
AcDbEntity
  8
0
  6
CONTINUOUS
 62
       7
100
AcDbLine
 10
-79.63567863
 20
23.21853354
 30
0.0
 11
-79.63567863
 21
27.89853354
 31
0.0
  0
LINE
  5
1E6
100
AcDbEntity
  8
0
  6
CONTINUOUS
 62
       7
100
AcDbLine
 10
-80.97567863
 20
23.11853354
 30
0.0
 11
-79.73567863
 21
23.11853354
 31
0.0
  0
LINE
  5
1E7
100
AcDbEntity
  8
0
  6
CONTINUOUS
 62
       7
100
AcDbLine
 10
-81.07567863
 20
27.89853354
 30
0.0
 11
-81.07567863
 21
23.21853354
 31
0.0
  0
LINE
  5
1E8
100
AcDbEntity
  8
0
  6
CONTINUOUS
 62
       7
100
AcDbLine
 10
-72.00567863
 20
18.22853354
 30
0.0
 11
-68.35567863
 21
18.22853354
 31
0.0
  0
LINE
  5
1E9
100
AcDbEntity
  8
0
  6
CONTINUOUS
 62
       7
100
AcDbLine
 10
-72.10567863
 20
22.62853354
 30
0.0
 11
-72.10567863
 21
18.32853354
 31
0.0
  0
LINE
  5
1EA
100
AcDbEntity
  8
0
  6
CONTINUOUS
 62
       7
100
AcDbLine
 10
-68.35567863
 20
22.72853354
 30
0.0
 11
-72.00567863
 21
22.72853354
 31
0.0
  0
LINE
  5
1EB
100
AcDbEntity
  8
0
  6
CONTINUOUS
 62
       7
100
AcDbLine
 10
-68.35567863
 20
22.47853354
 30
0.0
 11
-72.00567863
 21
22.47853354
 31
0.0
  0
LINE
  5
1EC
100
AcDbEntity
  8
0
  6
CONTINUOUS
 62
       7
100
AcDbLine
 10
-72.00567863
 20
18.47853354
 30
0.0
 11
-68.35567863
 21
18.47853354
 31
0.0
  0
LINE
  5
1ED
100
AcDbEntity
  8
0
  6
CONTINUOUS
 62
       7
100
AcDbLine
 10
-70.85567863
 20
22.22853354
 30
0.0
 11
-70.85567863
 21
21.51853354
 31
0.0
  0
LINE
  5
1EE
100
AcDbEntity
  8
0
  6
CONTINUOUS
 62
       7
100
AcDbLine
 10
-69.85567863
 20
22.22853354
 30
0.0
 11
-70.85567863
 21
22.22853354
 31
0.0
  0
LINE
  5
1EF
100
AcDbEntity
  8
0
  6
CONTINUOUS
 62
       7
100
AcDbLine
 10
-69.85567863
 20
21.51853354
 30
0.0
 11
-69.85567863
 21
22.22853354
 31
0.0
  0
LINE
  5
1F0
100
AcDbEntity
  8
0
  6
CONTINUOUS
 62
       7
100
AcDbLine
 10
-69.85567863
 20
18.72853354
 30
0.0
 11
-69.85567863
 21
19.43853354
 31
0.0
  0
LINE
  5
1F1
100
AcDbEntity
  8
0
  6
CONTINUOUS
 62
       7
100
AcDbLine
 10
-70.85567863
 20
18.72853354
 30
0.0
 11
-69.85567863
 21
18.72853354
 31
0.0
  0
LINE
  5
1F2
100
AcDbEntity
  8
0
  6
CONTINUOUS
 62
       7
100
AcDbLine
 10
-70.85567863
 20
19.43853354
 30
0.0
 11
-70.85567863
 21
18.72853354
 31
0.0
  0
LINE
  5
1F3
100
AcDbEntity
  8
0
  6
CONTINUOUS
 62
       7
100
AcDbLine
 10
-69.05567863
 20
21.72853354
 30
0.0
 11
-68.35567863
 21
21.07853354
 31
0.0
  0
LINE
  5
1F4
100
AcDbEntity
  8
0
  6
CONTINUOUS
 62
       7
100
AcDbLine
 10
-69.05567863
 20
22.32853354
 30
0.0
 11
-69.05567863
 21
21.72853354
 31
0.0
  0
LINE
  5
1F5
100
AcDbEntity
  8
0
  6
CONTINUOUS
 62
       7
100
AcDbLine
 10
-68.85567863
 20
22.32853354
 30
0.0
 11
-69.05567863
 21
22.32853354
 31
0.0
  0
LINE
  5
1F6
100
AcDbEntity
  8
0
  6
CONTINUOUS
 62
       7
100
AcDbLine
 10
-68.47567863
 20
21.97853354
 30
0.0
 11
-68.85567863
 21
22.32853354
 31
0.0
  0
LINE
  5
1F7
100
AcDbEntity
  8
0
  6
CONTINUOUS
 62
       7
100
AcDbLine
 10
-68.35567863
 20
21.97853354
 30
0.0
 11
-68.47567863
 21
21.97853354
 31
0.0
  0
LINE
  5
1F8
100
AcDbEntity
  8
0
  6
CONTINUOUS
 62
       7
100
AcDbLine
 10
-68.47567863
 20
18.97853354
 30
0.0
 11
-68.35567863
 21
18.97853354
 31
0.0
  0
LINE
  5
1F9
100
AcDbEntity
  8
0
  6
CONTINUOUS
 62
       7
100
AcDbLine
 10
-68.85567863
 20
18.62853354
 30
0.0
 11
-68.47567863
 21
18.97853354
 31
0.0
  0
LINE
  5
1FA
100
AcDbEntity
  8
0
  6
CONTINUOUS
 62
       7
100
AcDbLine
 10
-69.05567863
 20
18.62853354
 30
0.0
 11
-68.85567863
 21
18.62853354
 31
0.0
  0
LINE
  5
1FB
100
AcDbEntity
  8
0
  6
CONTINUOUS
 62
       7
100
AcDbLine
 10
-69.05567863
 20
19.22853354
 30
0.0
 11
-69.05567863
 21
18.62853354
 31
0.0
  0
LINE
  5
1FC
100
AcDbEntity
  8
0
  6
CONTINUOUS
 62
       7
100
AcDbLine
 10
-68.35567863
 20
19.87853354
 30
0.0
 11
-69.05567863
 21
19.22853354
 31
0.0
  0
LINE
  5
1FD
100
AcDbEntity
  8
0
  6
CONTINUOUS
 62
       7
100
AcDbLine
 10
-68.47567863
 20
24.05853354
 30
0.0
 11
-68.35567863
 21
24.05853354
 31
0.0
  0
LINE
  5
1FE
100
AcDbEntity
  8
0
  6
CONTINUOUS
 62
       7
100
AcDbLine
 10
-68.85567863
 20
23.70853354
 30
0.0
 11
-68.47567863
 21
24.05853354
 31
0.0
  0
LINE
  5
1FF
100
AcDbEntity
  8
0
  6
CONTINUOUS
 62
       7
100
AcDbLine
 10
-69.05567863
 20
23.70853354
 30
0.0
 11
-68.85567863
 21
23.70853354
 31
0.0
  0
LINE
  5
200
100
AcDbEntity
  8
0
  6
CONTINUOUS
 62
       7
100
AcDbLine
 10
-69.05567863
 20
24.30853354
 30
0.0
 11
-69.05567863
 21
23.70853354
 31
0.0
  0
LINE
  5
201
100
AcDbEntity
  8
0
  6
CONTINUOUS
 62
       7
100
AcDbLine
 10
-68.35567863
 20
24.95853354
 30
0.0
 11
-69.05567863
 21
24.30853354
 31
0.0
  0
LINE
  5
202
100
AcDbEntity
  8
0
  6
CONTINUOUS
 62
       7
100
AcDbLine
 10
-69.05567863
 20
26.80853354
 30
0.0
 11
-68.35567863
 21
26.15853354
 31
0.0
  0
LINE
  5
203
100
AcDbEntity
  8
0
  6
CONTINUOUS
 62
       7
100
AcDbLine
 10
-69.05567863
 20
27.40853354
 30
0.0
 11
-69.05567863
 21
26.80853354
 31
0.0
  0
LINE
  5
204
100
AcDbEntity
  8
0
  6
CONTINUOUS
 62
       7
100
AcDbLine
 10
-68.85567863
 20
27.40853354
 30
0.0
 11
-69.05567863
 21
27.40853354
 31
0.0
  0
LINE
  5
205
100
AcDbEntity
  8
0
  6
CONTINUOUS
 62
       7
100
AcDbLine
 10
-68.47567863
 20
27.05853354
 30
0.0
 11
-68.85567863
 21
27.40853354
 31
0.0
  0
LINE
  5
206
100
AcDbEntity
  8
0
  6
CONTINUOUS
 62
       7
100
AcDbLine
 10
-68.35567863
 20
27.05853354
 30
0.0
 11
-68.47567863
 21
27.05853354
 31
0.0
  0
LINE
  5
207
100
AcDbEntity
  8
0
  6
CONTINUOUS
 62
       7
100
AcDbLine
 10
-70.85567863
 20
27.30853354
 30
0.0
 11
-70.85567863
 21
26.59853354
 31
0.0
  0
LINE
  5
208
100
AcDbEntity
  8
0
  6
CONTINUOUS
 62
       7
100
AcDbLine
 10
-69.85567863
 20
27.30853354
 30
0.0
 11
-70.85567863
 21
27.30853354
 31
0.0
  0
LINE
  5
209
100
AcDbEntity
  8
0
  6
CONTINUOUS
 62
       7
100
AcDbLine
 10
-69.85567863
 20
26.59853354
 30
0.0
 11
-69.85567863
 21
27.30853354
 31
0.0
  0
LINE
  5
20A
100
AcDbEntity
  8
0
  6
CONTINUOUS
 62
       7
100
AcDbLine
 10
-69.85567863
 20
23.80853354
 30
0.0
 11
-69.85567863
 21
24.51853354
 31
0.0
  0
LINE
  5
20B
100
AcDbEntity
  8
0
  6
CONTINUOUS
 62
       7
100
AcDbLine
 10
-70.85567863
 20
23.80853354
 30
0.0
 11
-69.85567863
 21
23.80853354
 31
0.0
  0
LINE
  5
20C
100
AcDbEntity
  8
0
  6
CONTINUOUS
 62
       7
100
AcDbLine
 10
-70.85567863
 20
24.51853354
 30
0.0
 11
-70.85567863
 21
23.80853354
 31
0.0
  0
LINE
  5
20D
100
AcDbEntity
  8
0
  6
CONTINUOUS
 62
       7
100
AcDbLine
 10
-72.00567863
 20
23.55853354
 30
0.0
 11
-68.35567863
 21
23.55853354
 31
0.0
  0
LINE
  5
20E
100
AcDbEntity
  8
0
  6
CONTINUOUS
 62
       7
100
AcDbLine
 10
-68.35567863
 20
27.55853354
 30
0.0
 11
-72.00567863
 21
27.55853354
 31
0.0
  0
LINE
  5
20F
100
AcDbEntity
  8
0
  6
CONTINUOUS
 62
       7
100
AcDbLine
 10
-72.00567863
 20
23.30853354
 30
0.0
 11
-68.35567863
 21
23.30853354
 31
0.0
  0
LINE
  5
210
100
AcDbEntity
  8
0
  6
CONTINUOUS
 62
       7
100
AcDbLine
 10
-72.10567863
 20
27.70853354
 30
0.0
 11
-72.10567863
 21
23.40853354
 31
0.0
  0
LINE
  5
211
100
AcDbEntity
  8
0
  6
CONTINUOUS
 62
       7
100
AcDbLine
 10
-68.35567863
 20
27.80853354
 30
0.0
 11
-72.00567863
 21
27.80853354
 31
0.0
  0
LINE
  5
212
100
AcDbEntity
  8
0
  6
CONTINUOUS
 62
       7
100
AcDbLine
 10
-78.95567863
 20
-30.81146646
 30
0.0
 11
-79.12567863
 21
-31.31146646
 31
0.0
  0
LINE
  5
213
100
AcDbEntity
  8
0
  6
CONTINUOUS
 62
       7
100
AcDbLine
 10
-70.73567863
 20
-30.81146646
 30
0.0
 11
-78.95567863
 21
-30.81146646
 31
0.0
  0
LINE
  5
214
100
AcDbEntity
  8
0
  6
CONTINUOUS
 62
       7
100
AcDbLine
 10
-70.13567863
 20
-31.31146646
 30
0.0
 11
-70.73567863
 21
-30.81146646
 31
0.0
  0
LINE
  5
215
100
AcDbEntity
  8
0
  6
CONTINUOUS
 62
       7
100
AcDbLine
 10
-13.22567863
 20
-30.81146646
 30
0.0
 11
-13.04567863
 21
-31.31146646
 31
0.0
  0
LINE
  5
216
100
AcDbEntity
  8
0
  6
CONTINUOUS
 62
       7
100
AcDbLine
 10
-21.44567863
 20
-30.81146646
 30
0.0
 11
-13.22567863
 21
-30.81146646
 31
0.0
  0
LINE
  5
217
100
AcDbEntity
  8
0
  6
CONTINUOUS
 62
       7
100
AcDbLine
 10
-22.03567863
 20
-31.31146646
 30
0.0
 11
-21.44567863
 21
-30.81146646
 31
0.0
  0
LINE
  5
218
100
AcDbEntity
  8
0
  6
CONTINUOUS
 62
       7
100
AcDbLine
 10
-57.13567863
 20
-41.91146646
 30
0.0
 11
-57.13567863
 21
-39.91146646
 31
0.0
  0
LINE
  5
219
100
AcDbEntity
  8
0
  6
CONTINUOUS
 62
       7
100
AcDbLine
 10
-83.43567863
 20
-42.41146646
 30
0.0
 11
-57.63567863
 21
-42.41146646
 31
0.0
  0
LINE
  5
21A
100
AcDbEntity
  8
0
  6
CONTINUOUS
 62
       7
100
AcDbLine
 10
-83.93567863
 20
-39.91146646
 30
0.0
 11
-83.93567863
 21
-41.91146646
 31
0.0
  0
LINE
  5
21B
100
AcDbEntity
  8
0
  6
CONTINUOUS
 62
       7
100
AcDbLine
 10
-57.63567863
 20
-39.41146646
 30
0.0
 11
-83.43567863
 21
-39.41146646
 31
0.0
  0
LINE
  5
21C
100
AcDbEntity
  8
0
  6
CONTINUOUS
 62
       7
100
AcDbLine
 10
-71.48567863
 20
-31.81146646
 30
0.0
 11
-71.48567863
 21
-37.11146646
 31
0.0
  0
LINE
  5
21D
100
AcDbEntity
  8
0
  6
CONTINUOUS
 62
       7
100
AcDbLine
 10
-71.64567863
 20
-31.31146646
 30
0.0
 11
-71.48567863
 21
-31.81146646
 31
0.0
  0
LINE
  5
21E
100
AcDbEntity
  8
0
  6
CONTINUOUS
 62
       7
100
AcDbLine
 10
-72.12567863
 20
-31.81146646
 30
0.0
 11
-71.96567863
 21
-31.31146646
 31
0.0
  0
LINE
  5
21F
100
AcDbEntity
  8
0
  6
CONTINUOUS
 62
       7
100
AcDbLine
 10
-72.12567863
 20
-37.11146646
 30
0.0
 11
-72.12567863
 21
-31.81146646
 31
0.0
  0
LINE
  5
220
100
AcDbEntity
  8
0
  6
CONTINUOUS
 62
       7
100
AcDbLine
 10
-68.53567863
 20
-37.81146646
 30
0.0
 11
-68.53567863
 21
-31.31146646
 31
0.0
  0
LINE
  5
221
100
AcDbEntity
  8
0
  6
CONTINUOUS
 62
       7
100
AcDbLine
 10
-72.03567863
 20
-38.31146646
 30
0.0
 11
-69.03567863
 21
-38.31146646
 31
0.0
  0
LINE
  5
222
100
AcDbEntity
  8
0
  6
CONTINUOUS
 62
       7
100
AcDbLine
 10
-72.53567863
 20
-31.31146646
 30
0.0
 11
-72.53567863
 21
-37.81146646
 31
0.0
  0
LINE
  5
223
100
AcDbEntity
  8
0
  6
CONTINUOUS
 62
       7
100
AcDbLine
 10
-68.94567863
 20
-31.81146646
 30
0.0
 11
-68.94567863
 21
-37.11146646
 31
0.0
  0
LINE
  5
224
100
AcDbEntity
  8
0
  6
CONTINUOUS
 62
       7
100
AcDbLine
 10
-69.10567863
 20
-31.31146646
 30
0.0
 11
-68.94567863
 21
-31.81146646
 31
0.0
  0
LINE
  5
225
100
AcDbEntity
  8
0
  6
CONTINUOUS
 62
       7
100
AcDbLine
 10
-69.58567863
 20
-31.81146646
 30
0.0
 11
-69.42567863
 21
-31.31146646
 31
0.0
  0
LINE
  5
226
100
AcDbEntity
  8
0
  6
CONTINUOUS
 62
       7
100
AcDbLine
 10
-69.58567863
 20
-37.11146646
 30
0.0
 11
-69.58567863
 21
-31.81146646
 31
0.0
  0
LINE
  5
227
100
AcDbEntity
  8
0
  6
CONTINUOUS
 62
       7
100
AcDbLine
 10
-81.96567863
 20
-34.31146646
 30
0.0
 11
-80.46567863
 21
-31.31146646
 31
0.0
  0
LINE
  5
228
100
AcDbEntity
  8
0
  6
CONTINUOUS
 62
       7
100
AcDbLine
 10
-83.46567863
 20
-31.31146646
 30
0.0
 11
-81.96567863
 21
-34.31146646
 31
0.0
  0
LINE
  5
229
100
AcDbEntity
  8
0
  6
CONTINUOUS
 62
       7
100
AcDbLine
 10
-75.58567863
 20
-20.12146646
 30
0.0
 11
-75.58567863
 21
-25.05146646
 31
0.0
  0
LINE
  5
22A
100
AcDbEntity
  8
0
  6
CONTINUOUS
 62
       7
100
AcDbLine
 10
-76.76567863
 20
-17.65146646
 30
0.0
 11
-75.58567863
 21
-20.12146646
 31
0.0
  0
LINE
  5
22B
100
AcDbEntity
  8
0
  6
CONTINUOUS
 62
       7
100
AcDbLine
 10
-76.42567863
 20
-17.12146646
 30
0.0
 11
-76.73567863
 21
-17.42146646
 31
0.0
  0
LINE
  5
22C
100
AcDbEntity
  8
0
  6
CONTINUOUS
 62
       7
100
AcDbLine
 10
-76.02567863
 20
-17.12146646
 30
0.0
 11
-76.23567863
 21
-17.06146646
 31
0.0
  0
LINE
  5
22D
100
AcDbEntity
  8
0
  6
CONTINUOUS
 62
       7
100
AcDbLine
 10
-75.58567863
 20
-17.12146646
 30
0.0
 11
-76.02567863
 21
-17.12146646
 31
0.0
  0
LINE
  5
22E
100
AcDbEntity
  8
0
  6
CONTINUOUS
 62
       7
100
AcDbLine
 10
-75.58567863
 20
-17.72146646
 30
0.0
 11
-75.58567863
 21
-17.12146646
 31
0.0
  0
LINE
  5
22F
100
AcDbEntity
  8
0
  6
CONTINUOUS
 62
       7
100
AcDbLine
 10
-75.08567863
 20
-17.72146646
 30
0.0
 11
-75.58567863
 21
-17.72146646
 31
0.0
  0
LINE
  5
230
100
AcDbEntity
  8
0
  6
CONTINUOUS
 62
       7
100
AcDbLine
 10
-75.08567863
 20
-18.32146646
 30
0.0
 11
-75.08567863
 21
-17.72146646
 31
0.0
  0
LINE
  5
231
100
AcDbEntity
  8
0
  6
CONTINUOUS
 62
       7
100
AcDbLine
 10
-74.58567863
 20
-18.32146646
 30
0.0
 11
-75.08567863
 21
-18.32146646
 31
0.0
  0
LINE
  5
232
100
AcDbEntity
  8
0
  6
CONTINUOUS
 62
       7
100
AcDbLine
 10
-74.58567863
 20
-18.92146646
 30
0.0
 11
-74.58567863
 21
-18.32146646
 31
0.0
  0
LINE
  5
233
100
AcDbEntity
  8
0
  6
CONTINUOUS
 62
       7
100
AcDbLine
 10
-74.08567863
 20
-18.92146646
 30
0.0
 11
-74.58567863
 21
-18.92146646
 31
0.0
  0
LINE
  5
234
100
AcDbEntity
  8
0
  6
CONTINUOUS
 62
       7
100
AcDbLine
 10
-74.08567863
 20
-19.52146646
 30
0.0
 11
-74.08567863
 21
-18.92146646
 31
0.0
  0
LINE
  5
235
100
AcDbEntity
  8
0
  6
CONTINUOUS
 62
       7
100
AcDbLine
 10
-73.58567863
 20
-19.52146646
 30
0.0
 11
-74.08567863
 21
-19.52146646
 31
0.0
  0
LINE
  5
236
100
AcDbEntity
  8
0
  6
CONTINUOUS
 62
       7
100
AcDbLine
 10
-73.58567863
 20
-20.12146646
 30
0.0
 11
-73.58567863
 21
-19.52146646
 31
0.0
  0
LINE
  5
237
100
AcDbEntity
  8
0
  6
CONTINUOUS
 62
       7
100
AcDbLine
 10
-73.08567863
 20
-20.12146646
 30
0.0
 11
-73.58567863
 21
-20.12146646
 31
0.0
  0
LINE
  5
238
100
AcDbEntity
  8
0
  6
CONTINUOUS
 62
       7
100
AcDbLine
 10
-73.08567863
 20
-20.72146646
 30
0.0
 11
-73.08567863
 21
-20.12146646
 31
0.0
  0
LINE
  5
239
100
AcDbEntity
  8
0
  6
CONTINUOUS
 62
       7
100
AcDbLine
 10
-72.15567863
 20
-20.87146646
 30
0.0
 11
-73.08567863
 21
-20.72146646
 31
0.0
  0
LINE
  5
23A
100
AcDbEntity
  8
0
  6
CONTINUOUS
 62
       7
100
AcDbLine
 10
-71.48567863
 20
-22.49146646
 30
0.0
 11
-71.48567863
 21
-21.66146646
 31
0.0
  0
LINE
  5
23B
100
AcDbEntity
  8
0
  6
CONTINUOUS
 62
       7
100
AcDbLine
 10
-72.10567863
 20
-22.64146646
 30
0.0
 11
-71.70567863
 21
-22.69146646
 31
0.0
  0
LINE
  5
23C
100
AcDbEntity
  8
0
  6
CONTINUOUS
 62
       7
100
AcDbLine
 10
-72.28567863
 20
-22.22146646
 30
0.0
 11
-72.28567863
 21
-22.44146646
 31
0.0
  0
LINE
  5
23D
100
AcDbEntity
  8
0
  6
CONTINUOUS
 62
       7
100
AcDbLine
 10
-72.98567863
 20
-22.12146646
 30
0.0
 11
-72.38567863
 21
-22.12146646
 31
0.0
  0
LINE
  5
23E
100
AcDbEntity
  8
0
  6
CONTINUOUS
 62
       7
100
AcDbLine
 10
-73.08567863
 20
-27.10146646
 30
0.0
 11
-73.08567863
 21
-22.22146646
 31
0.0
  0
LINE
  5
23F
100
AcDbEntity
  8
0
  6
CONTINUOUS
 62
       7
100
AcDbLine
 10
-52.68567863
 20
-20.12146646
 30
0.0
 11
-52.68567863
 21
-25.05146646
 31
0.0
  0
LINE
  5
240
100
AcDbEntity
  8
0
  6
CONTINUOUS
 62
       7
100
AcDbLine
 10
-51.49567863
 20
-17.65146646
 30
0.0
 11
-52.68567863
 21
-20.12146646
 31
0.0
  0
LINE
  5
241
100
AcDbEntity
  8
0
  6
CONTINUOUS
 62
       7
100
AcDbLine
 10
-51.83567863
 20
-17.12146646
 30
0.0
 11
-51.53567863
 21
-17.42146646
 31
0.0
  0
LINE
  5
242
100
AcDbEntity
  8
0
  6
CONTINUOUS
 62
       7
100
AcDbLine
 10
-52.24567863
 20
-17.12146646
 30
0.0
 11
-52.03567863
 21
-17.06146646
 31
0.0
  0
LINE
  5
243
100
AcDbEntity
  8
0
  6
CONTINUOUS
 62
       7
100
AcDbLine
 10
-52.68567863
 20
-17.12146646
 30
0.0
 11
-52.24567863
 21
-17.12146646
 31
0.0
  0
LINE
  5
244
100
AcDbEntity
  8
0
  6
CONTINUOUS
 62
       7
100
AcDbLine
 10
-52.68567863
 20
-17.72146646
 30
0.0
 11
-52.68567863
 21
-17.12146646
 31
0.0
  0
LINE
  5
245
100
AcDbEntity
  8
0
  6
CONTINUOUS
 62
       7
100
AcDbLine
 10
-53.18567863
 20
-17.72146646
 30
0.0
 11
-52.68567863
 21
-17.72146646
 31
0.0
  0
LINE
  5
246
100
AcDbEntity
  8
0
  6
CONTINUOUS
 62
       7
100
AcDbLine
 10
-53.18567863
 20
-18.32146646
 30
0.0
 11
-53.18567863
 21
-17.72146646
 31
0.0
  0
LINE
  5
247
100
AcDbEntity
  8
0
  6
CONTINUOUS
 62
       7
100
AcDbLine
 10
-53.68567863
 20
-18.32146646
 30
0.0
 11
-53.18567863
 21
-18.32146646
 31
0.0
  0
LINE
  5
248
100
AcDbEntity
  8
0
  6
CONTINUOUS
 62
       7
100
AcDbLine
 10
-53.68567863
 20
-18.92146646
 30
0.0
 11
-53.68567863
 21
-18.32146646
 31
0.0
  0
LINE
  5
249
100
AcDbEntity
  8
0
  6
CONTINUOUS
 62
       7
100
AcDbLine
 10
-54.18567863
 20
-18.92146646
 30
0.0
 11
-53.68567863
 21
-18.92146646
 31
0.0
  0
LINE
  5
24A
100
AcDbEntity
  8
0
  6
CONTINUOUS
 62
       7
100
AcDbLine
 10
-54.18567863
 20
-19.52146646
 30
0.0
 11
-54.18567863
 21
-18.92146646
 31
0.0
  0
LINE
  5
24B
100
AcDbEntity
  8
0
  6
CONTINUOUS
 62
       7
100
AcDbLine
 10
-54.68567863
 20
-19.52146646
 30
0.0
 11
-54.18567863
 21
-19.52146646
 31
0.0
  0
LINE
  5
24C
100
AcDbEntity
  8
0
  6
CONTINUOUS
 62
       7
100
AcDbLine
 10
-54.68567863
 20
-20.12146646
 30
0.0
 11
-54.68567863
 21
-19.52146646
 31
0.0
  0
LINE
  5
24D
100
AcDbEntity
  8
0
  6
CONTINUOUS
 62
       7
100
AcDbLine
 10
-55.18567863
 20
-20.12146646
 30
0.0
 11
-54.68567863
 21
-20.12146646
 31
0.0
  0
LINE
  5
24E
100
AcDbEntity
  8
0
  6
CONTINUOUS
 62
       7
100
AcDbLine
 10
-55.18567863
 20
-20.72146646
 30
0.0
 11
-55.18567863
 21
-20.12146646
 31
0.0
  0
LINE
  5
24F
100
AcDbEntity
  8
0
  6
CONTINUOUS
 62
       7
100
AcDbLine
 10
-56.11567863
 20
-20.87146646
 30
0.0
 11
-55.18567863
 21
-20.72146646
 31
0.0
  0
LINE
  5
250
100
AcDbEntity
  8
0
  6
CONTINUOUS
 62
       7
100
AcDbLine
 10
-56.78567863
 20
-22.49146646
 30
0.0
 11
-56.78567863
 21
-21.66146646
 31
0.0
  0
LINE
  5
251
100
AcDbEntity
  8
0
  6
CONTINUOUS
 62
       7
100
AcDbLine
 10
-56.16567863
 20
-22.64146646
 30
0.0
 11
-56.56567863
 21
-22.69146646
 31
0.0
  0
LINE
  5
252
100
AcDbEntity
  8
0
  6
CONTINUOUS
 62
       7
100
AcDbLine
 10
-55.98567863
 20
-22.22146646
 30
0.0
 11
-55.98567863
 21
-22.44146646
 31
0.0
  0
LINE
  5
253
100
AcDbEntity
  8
0
  6
CONTINUOUS
 62
       7
100
AcDbLine
 10
-55.28567863
 20
-22.12146646
 30
0.0
 11
-55.88567863
 21
-22.12146646
 31
0.0
  0
LINE
  5
254
100
AcDbEntity
  8
0
  6
CONTINUOUS
 62
       7
100
AcDbLine
 10
-55.18567863
 20
-27.10146646
 30
0.0
 11
-55.18567863
 21
-22.22146646
 31
0.0
  0
LINE
  5
255
100
AcDbEntity
  8
0
  6
CONTINUOUS
 62
       7
100
AcDbLine
 10
-14.48567863
 20
-20.12146646
 30
0.0
 11
-14.48567863
 21
-25.05146646
 31
0.0
  0
LINE
  5
256
100
AcDbEntity
  8
0
  6
CONTINUOUS
 62
       7
100
AcDbLine
 10
-13.29567863
 20
-17.65146646
 30
0.0
 11
-14.48567863
 21
-20.12146646
 31
0.0
  0
LINE
  5
257
100
AcDbEntity
  8
0
  6
CONTINUOUS
 62
       7
100
AcDbLine
 10
-13.63567863
 20
-17.12146646
 30
0.0
 11
-13.33567863
 21
-17.42146646
 31
0.0
  0
LINE
  5
258
100
AcDbEntity
  8
0
  6
CONTINUOUS
 62
       7
100
AcDbLine
 10
-14.03567863
 20
-17.12146646
 30
0.0
 11
-13.82567863
 21
-17.06146646
 31
0.0
  0
LINE
  5
259
100
AcDbEntity
  8
0
  6
CONTINUOUS
 62
       7
100
AcDbLine
 10
-14.48567863
 20
-17.12146646
 30
0.0
 11
-14.03567863
 21
-17.12146646
 31
0.0
  0
LINE
  5
25A
100
AcDbEntity
  8
0
  6
CONTINUOUS
 62
       7
100
AcDbLine
 10
-14.48567863
 20
-17.72146646
 30
0.0
 11
-14.48567863
 21
-17.12146646
 31
0.0
  0
LINE
  5
25B
100
AcDbEntity
  8
0
  6
CONTINUOUS
 62
       7
100
AcDbLine
 10
-14.98567863
 20
-17.72146646
 30
0.0
 11
-14.48567863
 21
-17.72146646
 31
0.0
  0
LINE
  5
25C
100
AcDbEntity
  8
0
  6
CONTINUOUS
 62
       7
100
AcDbLine
 10
-14.98567863
 20
-18.32146646
 30
0.0
 11
-14.98567863
 21
-17.72146646
 31
0.0
  0
LINE
  5
25D
100
AcDbEntity
  8
0
  6
CONTINUOUS
 62
       7
100
AcDbLine
 10
-15.48567863
 20
-18.32146646
 30
0.0
 11
-14.98567863
 21
-18.32146646
 31
0.0
  0
LINE
  5
25E
100
AcDbEntity
  8
0
  6
CONTINUOUS
 62
       7
100
AcDbLine
 10
-15.48567863
 20
-18.92146646
 30
0.0
 11
-15.48567863
 21
-18.32146646
 31
0.0
  0
LINE
  5
25F
100
AcDbEntity
  8
0
  6
CONTINUOUS
 62
       7
100
AcDbLine
 10
-15.98567863
 20
-18.92146646
 30
0.0
 11
-15.48567863
 21
-18.92146646
 31
0.0
  0
LINE
  5
260
100
AcDbEntity
  8
0
  6
CONTINUOUS
 62
       7
100
AcDbLine
 10
-15.98567863
 20
-19.52146646
 30
0.0
 11
-15.98567863
 21
-18.92146646
 31
0.0
  0
LINE
  5
261
100
AcDbEntity
  8
0
  6
CONTINUOUS
 62
       7
100
AcDbLine
 10
-16.48567863
 20
-19.52146646
 30
0.0
 11
-15.98567863
 21
-19.52146646
 31
0.0
  0
LINE
  5
262
100
AcDbEntity
  8
0
  6
CONTINUOUS
 62
       7
100
AcDbLine
 10
-16.48567863
 20
-20.12146646
 30
0.0
 11
-16.48567863
 21
-19.52146646
 31
0.0
  0
LINE
  5
263
100
AcDbEntity
  8
0
  6
CONTINUOUS
 62
       7
100
AcDbLine
 10
-16.98567863
 20
-20.12146646
 30
0.0
 11
-16.48567863
 21
-20.12146646
 31
0.0
  0
LINE
  5
264
100
AcDbEntity
  8
0
  6
CONTINUOUS
 62
       7
100
AcDbLine
 10
-16.98567863
 20
-20.72146646
 30
0.0
 11
-16.98567863
 21
-20.12146646
 31
0.0
  0
LINE
  5
265
100
AcDbEntity
  8
0
  6
CONTINUOUS
 62
       7
100
AcDbLine
 10
-17.90567863
 20
-20.87146646
 30
0.0
 11
-16.98567863
 21
-20.72146646
 31
0.0
  0
LINE
  5
266
100
AcDbEntity
  8
0
  6
CONTINUOUS
 62
       7
100
AcDbLine
 10
-18.58567863
 20
-22.49146646
 30
0.0
 11
-18.58567863
 21
-21.66146646
 31
0.0
  0
LINE
  5
267
100
AcDbEntity
  8
0
  6
CONTINUOUS
 62
       7
100
AcDbLine
 10
-17.95567863
 20
-22.64146646
 30
0.0
 11
-18.35567863
 21
-22.69146646
 31
0.0
  0
LINE
  5
268
100
AcDbEntity
  8
0
  6
CONTINUOUS
 62
       7
100
AcDbLine
 10
-17.78567863
 20
-22.22146646
 30
0.0
 11
-17.78567863
 21
-22.44146646
 31
0.0
  0
LINE
  5
269
100
AcDbEntity
  8
0
  6
CONTINUOUS
 62
       7
100
AcDbLine
 10
-17.08567863
 20
-22.12146646
 30
0.0
 11
-17.68567863
 21
-22.12146646
 31
0.0
  0
LINE
  5
26A
100
AcDbEntity
  8
0
  6
CONTINUOUS
 62
       7
100
AcDbLine
 10
-16.98567863
 20
-27.10146646
 30
0.0
 11
-16.98567863
 21
-22.22146646
 31
0.0
  0
LINE
  5
26B
100
AcDbEntity
  8
0
  6
CONTINUOUS
 62
       7
100
AcDbLine
 10
-39.49567863
 20
-20.12146646
 30
0.0
 11
-39.49567863
 21
-25.05146646
 31
0.0
  0
LINE
  5
26C
100
AcDbEntity
  8
0
  6
CONTINUOUS
 62
       7
100
AcDbLine
 10
-40.67567863
 20
-17.65146646
 30
0.0
 11
-39.49567863
 21
-20.12146646
 31
0.0
  0
LINE
  5
26D
100
AcDbEntity
  8
0
  6
CONTINUOUS
 62
       7
100
AcDbLine
 10
-40.33567863
 20
-17.12146646
 30
0.0
 11
-40.64567863
 21
-17.42146646
 31
0.0
  0
LINE
  5
26E
100
AcDbEntity
  8
0
  6
CONTINUOUS
 62
       7
100
AcDbLine
 10
-39.93567863
 20
-17.12146646
 30
0.0
 11
-40.14567863
 21
-17.06146646
 31
0.0
  0
LINE
  5
26F
100
AcDbEntity
  8
0
  6
CONTINUOUS
 62
       7
100
AcDbLine
 10
-39.49567863
 20
-17.12146646
 30
0.0
 11
-39.93567863
 21
-17.12146646
 31
0.0
  0
LINE
  5
270
100
AcDbEntity
  8
0
  6
CONTINUOUS
 62
       7
100
AcDbLine
 10
-39.49567863
 20
-17.72146646
 30
0.0
 11
-39.49567863
 21
-17.12146646
 31
0.0
  0
LINE
  5
271
100
AcDbEntity
  8
0
  6
CONTINUOUS
 62
       7
100
AcDbLine
 10
-38.99567863
 20
-17.72146646
 30
0.0
 11
-39.49567863
 21
-17.72146646
 31
0.0
  0
LINE
  5
272
100
AcDbEntity
  8
0
  6
CONTINUOUS
 62
       7
100
AcDbLine
 10
-38.99567863
 20
-18.32146646
 30
0.0
 11
-38.99567863
 21
-17.72146646
 31
0.0
  0
LINE
  5
273
100
AcDbEntity
  8
0
  6
CONTINUOUS
 62
       7
100
AcDbLine
 10
-38.49567863
 20
-18.32146646
 30
0.0
 11
-38.99567863
 21
-18.32146646
 31
0.0
  0
LINE
  5
274
100
AcDbEntity
  8
0
  6
CONTINUOUS
 62
       7
100
AcDbLine
 10
-38.49567863
 20
-18.92146646
 30
0.0
 11
-38.49567863
 21
-18.32146646
 31
0.0
  0
LINE
  5
275
100
AcDbEntity
  8
0
  6
CONTINUOUS
 62
       7
100
AcDbLine
 10
-37.99567863
 20
-18.92146646
 30
0.0
 11
-38.49567863
 21
-18.92146646
 31
0.0
  0
LINE
  5
276
100
AcDbEntity
  8
0
  6
CONTINUOUS
 62
       7
100
AcDbLine
 10
-37.99567863
 20
-19.52146646
 30
0.0
 11
-37.99567863
 21
-18.92146646
 31
0.0
  0
LINE
  5
277
100
AcDbEntity
  8
0
  6
CONTINUOUS
 62
       7
100
AcDbLine
 10
-37.49567863
 20
-19.52146646
 30
0.0
 11
-37.99567863
 21
-19.52146646
 31
0.0
  0
LINE
  5
278
100
AcDbEntity
  8
0
  6
CONTINUOUS
 62
       7
100
AcDbLine
 10
-37.49567863
 20
-20.12146646
 30
0.0
 11
-37.49567863
 21
-19.52146646
 31
0.0
  0
LINE
  5
279
100
AcDbEntity
  8
0
  6
CONTINUOUS
 62
       7
100
AcDbLine
 10
-36.99567863
 20
-20.12146646
 30
0.0
 11
-37.49567863
 21
-20.12146646
 31
0.0
  0
LINE
  5
27A
100
AcDbEntity
  8
0
  6
CONTINUOUS
 62
       7
100
AcDbLine
 10
-36.99567863
 20
-20.72146646
 30
0.0
 11
-36.99567863
 21
-20.12146646
 31
0.0
  0
LINE
  5
27B
100
AcDbEntity
  8
0
  6
CONTINUOUS
 62
       7
100
AcDbLine
 10
-36.06567863
 20
-20.87146646
 30
0.0
 11
-36.99567863
 21
-20.72146646
 31
0.0
  0
LINE
  5
27C
100
AcDbEntity
  8
0
  6
CONTINUOUS
 62
       7
100
AcDbLine
 10
-35.39567863
 20
-22.49146646
 30
0.0
 11
-35.39567863
 21
-21.66146646
 31
0.0
  0
LINE
  5
27D
100
AcDbEntity
  8
0
  6
CONTINUOUS
 62
       7
100
AcDbLine
 10
-36.01567863
 20
-22.64146646
 30
0.0
 11
-35.61567863
 21
-22.69146646
 31
0.0
  0
LINE
  5
27E
100
AcDbEntity
  8
0
  6
CONTINUOUS
 62
       7
100
AcDbLine
 10
-36.19567863
 20
-22.22146646
 30
0.0
 11
-36.19567863
 21
-22.44146646
 31
0.0
  0
LINE
  5
27F
100
AcDbEntity
  8
0
  6
CONTINUOUS
 62
       7
100
AcDbLine
 10
-36.89567863
 20
-22.12146646
 30
0.0
 11
-36.29567863
 21
-22.12146646
 31
0.0
  0
LINE
  5
280
100
AcDbEntity
  8
0
  6
CONTINUOUS
 62
       7
100
AcDbLine
 10
-36.99567863
 20
-27.10146646
 30
0.0
 11
-36.99567863
 21
-22.22146646
 31
0.0
  0
LINE
  5
281
100
AcDbEntity
  8
0
  6
CONTINUOUS
 62
       7
100
AcDbLine
 10
-33.07567863
 20
-34.31146646
 30
0.0
 11
-31.57567863
 21
-31.31146646
 31
0.0
  0
LINE
  5
282
100
AcDbEntity
  8
0
  6
CONTINUOUS
 62
       7
100
AcDbLine
 10
-34.57567863
 20
-31.31146646
 30
0.0
 11
-33.07567863
 21
-34.31146646
 31
0.0
  0
LINE
  5
283
100
AcDbEntity
  8
0
  6
CONTINUOUS
 62
       7
100
AcDbLine
 10
-20.05567863
 20
-31.81146646
 30
0.0
 11
-20.05567863
 21
-37.11146646
 31
0.0
  0
LINE
  5
284
100
AcDbEntity
  8
0
  6
CONTINUOUS
 62
       7
100
AcDbLine
 10
-20.21567863
 20
-31.31146646
 30
0.0
 11
-20.05567863
 21
-31.81146646
 31
0.0
  0
LINE
  5
285
100
AcDbEntity
  8
0
  6
CONTINUOUS
 62
       7
100
AcDbLine
 10
-20.69567863
 20
-31.81146646
 30
0.0
 11
-20.53567863
 21
-31.31146646
 31
0.0
  0
LINE
  5
286
100
AcDbEntity
  8
0
  6
CONTINUOUS
 62
       7
100
AcDbLine
 10
-20.69567863
 20
-37.11146646
 30
0.0
 11
-20.69567863
 21
-31.81146646
 31
0.0
  0
LINE
  5
287
100
AcDbEntity
  8
0
  6
CONTINUOUS
 62
       7
100
AcDbLine
 10
-19.64567863
 20
-37.81146646
 30
0.0
 11
-19.64567863
 21
-31.31146646
 31
0.0
  0
LINE
  5
288
100
AcDbEntity
  8
0
  6
CONTINUOUS
 62
       7
100
AcDbLine
 10
-23.14567863
 20
-38.31146646
 30
0.0
 11
-20.14567863
 21
-38.31146646
 31
0.0
  0
LINE
  5
289
100
AcDbEntity
  8
0
  6
CONTINUOUS
 62
       7
100
AcDbLine
 10
-23.64567863
 20
-31.31146646
 30
0.0
 11
-23.64567863
 21
-37.81146646
 31
0.0
  0
LINE
  5
28A
100
AcDbEntity
  8
0
  6
CONTINUOUS
 62
       7
100
AcDbLine
 10
-22.59567863
 20
-31.81146646
 30
0.0
 11
-22.59567863
 21
-37.11146646
 31
0.0
  0
LINE
  5
28B
100
AcDbEntity
  8
0
  6
CONTINUOUS
 62
       7
100
AcDbLine
 10
-22.75567863
 20
-31.31146646
 30
0.0
 11
-22.59567863
 21
-31.81146646
 31
0.0
  0
LINE
  5
28C
100
AcDbEntity
  8
0
  6
CONTINUOUS
 62
       7
100
AcDbLine
 10
-23.23567863
 20
-31.81146646
 30
0.0
 11
-23.07567863
 21
-31.31146646
 31
0.0
  0
LINE
  5
28D
100
AcDbEntity
  8
0
  6
CONTINUOUS
 62
       7
100
AcDbLine
 10
-23.23567863
 20
-37.11146646
 30
0.0
 11
-23.23567863
 21
-31.81146646
 31
0.0
  0
LINE
  5
28E
100
AcDbEntity
  8
0
  6
CONTINUOUS
 62
       7
100
AcDbLine
 10
-8.24567863
 20
-41.91146646
 30
0.0
 11
-8.24567863
 21
-39.91146646
 31
0.0
  0
LINE
  5
28F
100
AcDbEntity
  8
0
  6
CONTINUOUS
 62
       7
100
AcDbLine
 10
-34.54567863
 20
-42.41146646
 30
0.0
 11
-8.74567863
 21
-42.41146646
 31
0.0
  0
LINE
  5
290
100
AcDbEntity
  8
0
  6
CONTINUOUS
 62
       7
100
AcDbLine
 10
-35.04567863
 20
-39.91146646
 30
0.0
 11
-35.04567863
 21
-41.91146646
 31
0.0
  0
LINE
  5
291
100
AcDbEntity
  8
0
  6
CONTINUOUS
 62
       7
100
AcDbLine
 10
-8.74567863
 20
-39.41146646
 30
0.0
 11
-34.54567863
 21
-39.41146646
 31
0.0
  0
LINE
  5
292
100
AcDbEntity
  8
0
  6
CONTINUOUS
 62
       7
100
AcDbLine
 10
-92.98567863
 20
15.40853354
 30
0.0
 11
-92.98567863
 21
6.80853354
 31
0.0
  0
LINE
  5
293
100
AcDbEntity
  8
0
  6
CONTINUOUS
 62
       7
100
AcDbLine
 10
-48.08567863
 20
15.40853354
 30
0.0
 11
-92.98567863
 21
15.40853354
 31
0.0
  0
LINE
  5
294
100
AcDbEntity
  8
0
  6
CONTINUOUS
 62
       7
100
AcDbLine
 10
-48.08567863
 20
6.80853354
 30
0.0
 11
-48.08567863
 21
15.40853354
 31
0.0
  0
LINE
  5
295
100
AcDbEntity
  8
0
  6
CONTINUOUS
 62
       7
100
AcDbLine
 10
-92.98567863
 20
6.80853354
 30
0.0
 11
-48.08567863
 21
6.80853354
 31
0.0
  0
LINE
  5
296
100
AcDbEntity
  8
0
  6
CONTINUOUS
 62
       7
100
AcDbLine
 10
-70.53567863
 20
14.60853354
 30
0.0
 11
-55.18567863
 21
14.60853354
 31
0.0
  0
LINE
  5
297
100
AcDbEntity
  8
0
  6
CONTINUOUS
 62
       7
100
AcDbLine
 10
-85.88567863
 20
14.60853354
 30
0.0
 11
-70.53567863
 21
14.60853354
 31
0.0
  0
LINE
  5
298
100
AcDbEntity
  8
0
  6
CONTINUOUS
 62
       7
100
AcDbLine
 10
-72.53567863
 20
8.80853354
 30
0.0
 11
-72.53567863
 21
6.80853354
 31
0.0
  0
LINE
  5
299
100
AcDbEntity
  8
0
  6
CONTINUOUS
 62
       7
100
AcDbLine
 10
-68.53567863
 20
8.80853354
 30
0.0
 11
-72.53567863
 21
8.80853354
 31
0.0
  0
LINE
  5
29A
100
AcDbEntity
  8
0
  6
CONTINUOUS
 62
       7
100
AcDbLine
 10
-68.53567863
 20
6.80853354
 30
0.0
 11
-68.53567863
 21
8.80853354
 31
0.0
  0
LINE
  5
29B
100
AcDbEntity
  8
0
  6
CONTINUOUS
 62
       7
100
AcDbLine
 10
-56.78567863
 20
9.10853354
 30
0.0
 11
-56.78567863
 21
13.10853354
 31
0.0
  0
LINE
  5
29C
100
AcDbEntity
  8
0
  6
CONTINUOUS
 62
       7
100
AcDbLine
 10
-49.08567863
 20
9.10853354
 30
0.0
 11
-56.78567863
 21
9.10853354
 31
0.0
  0
LINE
  5
29D
100
AcDbEntity
  8
0
  6
CONTINUOUS
 62
       7
100
AcDbLine
 10
-49.08567863
 20
13.10853354
 30
0.0
 11
-49.08567863
 21
9.10853354
 31
0.0
  0
LINE
  5
29E
100
AcDbEntity
  8
0
  6
CONTINUOUS
 62
       7
100
AcDbLine
 10
-56.78567863
 20
13.10853354
 30
0.0
 11
-49.08567863
 21
13.10853354
 31
0.0
  0
LINE
  5
29F
100
AcDbEntity
  8
0
  6
CONTINUOUS
 62
       7
100
AcDbLine
 10
-84.28567863
 20
9.10853354
 30
0.0
 11
-84.28567863
 21
13.10853354
 31
0.0
  0
LINE
  5
2A0
100
AcDbEntity
  8
0
  6
CONTINUOUS
 62
       7
100
AcDbLine
 10
-91.98567863
 20
9.10853354
 30
0.0
 11
-84.28567863
 21
9.10853354
 31
0.0
  0
LINE
  5
2A1
100
AcDbEntity
  8
0
  6
CONTINUOUS
 62
       7
100
AcDbLine
 10
-91.98567863
 20
13.10853354
 30
0.0
 11
-91.98567863
 21
9.10853354
 31
0.0
  0
LINE
  5
2A2
100
AcDbEntity
  8
0
  6
CONTINUOUS
 62
       7
100
AcDbLine
 10
-84.28567863
 20
13.10853354
 30
0.0
 11
-91.98567863
 21
13.10853354
 31
0.0
  0
LINE
  5
2A3
100
AcDbEntity
  8
0
  6
CONTINUOUS
 62
       7
100
AcDbLine
 10
-35.39567863
 20
9.10853354
 30
0.0
 11
-35.39567863
 21
13.10853354
 31
0.0
  0
LINE
  5
2A4
100
AcDbEntity
  8
0
  6
CONTINUOUS
 62
       7
100
AcDbLine
 10
-43.09567863
 20
9.10853354
 30
0.0
 11
-35.39567863
 21
9.10853354
 31
0.0
  0
LINE
  5
2A5
100
AcDbEntity
  8
0
  6
CONTINUOUS
 62
       7
100
AcDbLine
 10
-43.09567863
 20
13.10853354
 30
0.0
 11
-43.09567863
 21
9.10853354
 31
0.0
  0
LINE
  5
2A6
100
AcDbEntity
  8
0
  6
CONTINUOUS
 62
       7
100
AcDbLine
 10
-35.39567863
 20
13.10853354
 30
0.0
 11
-43.09567863
 21
13.10853354
 31
0.0
  0
LINE
  5
2A7
100
AcDbEntity
  8
0
  6
CONTINUOUS
 62
       7
100
AcDbLine
 10
-7.89567863
 20
9.10853354
 30
0.0
 11
-7.89567863
 21
13.10853354
 31
0.0
  0
LINE
  5
2A8
100
AcDbEntity
  8
0
  6
CONTINUOUS
 62
       7
100
AcDbLine
 10
-0.20567863
 20
9.10853354
 30
0.0
 11
-7.89567863
 21
9.10853354
 31
0.0
  0
LINE
  5
2A9
100
AcDbEntity
  8
0
  6
CONTINUOUS
 62
       7
100
AcDbLine
 10
-0.20567863
 20
13.10853354
 30
0.0
 11
-0.20567863
 21
9.10853354
 31
0.0
  0
LINE
  5
2AA
100
AcDbEntity
  8
0
  6
CONTINUOUS
 62
       7
100
AcDbLine
 10
-7.89567863
 20
13.10853354
 30
0.0
 11
-0.20567863
 21
13.10853354
 31
0.0
  0
LINE
  5
2AB
100
AcDbEntity
  8
0
  6
CONTINUOUS
 62
       7
100
AcDbLine
 10
-23.64567863
 20
8.80853354
 30
0.0
 11
-23.64567863
 21
6.80853354
 31
0.0
  0
LINE
  5
2AC
100
AcDbEntity
  8
0
  6
CONTINUOUS
 62
       7
100
AcDbLine
 10
-19.64567863
 20
8.80853354
 30
0.0
 11
-23.64567863
 21
8.80853354
 31
0.0
  0
LINE
  5
2AD
100
AcDbEntity
  8
0
  6
CONTINUOUS
 62
       7
100
AcDbLine
 10
-19.64567863
 20
6.80853354
 30
0.0
 11
-19.64567863
 21
8.80853354
 31
0.0
  0
LINE
  5
2AE
100
AcDbEntity
  8
0
  6
CONTINUOUS
 62
       7
100
AcDbLine
 10
-21.64567863
 20
14.60853354
 30
0.0
 11
-6.30567863
 21
14.60853354
 31
0.0
  0
LINE
  5
2AF
100
AcDbEntity
  8
0
  6
CONTINUOUS
 62
       7
100
AcDbLine
 10
-36.99567863
 20
14.60853354
 30
0.0
 11
-21.64567863
 21
14.60853354
 31
0.0
  0
LINE
  5
2B0
100
AcDbEntity
  8
0
  6
CONTINUOUS
 62
       7
100
AcDbLine
 10
-44.09567863
 20
15.40853354
 30
0.0
 11
-44.09567863
 21
6.80853354
 31
0.0
  0
LINE
  5
2B1
100
AcDbEntity
  8
0
  6
CONTINUOUS
 62
       7
100
AcDbLine
 10
0.79432137
 20
15.40853354
 30
0.0
 11
-44.09567863
 21
15.40853354
 31
0.0
  0
LINE
  5
2B2
100
AcDbEntity
  8
0
  6
CONTINUOUS
 62
       7
100
AcDbLine
 10
0.79432137
 20
6.80853354
 30
0.0
 11
0.79432137
 21
15.40853354
 31
0.0
  0
LINE
  5
2B3
100
AcDbEntity
  8
0
  6
CONTINUOUS
 62
       7
100
AcDbLine
 10
-44.09567863
 20
6.80853354
 30
0.0
 11
0.79432137
 21
6.80853354
 31
0.0
  0
LINE
  5
2B4
100
AcDbEntity
  8
0
  6
CONTINUOUS
 62
       7
100
AcDbLine
 10
-97.27567863
 20
-49.96146646
 30
0.0
 11
-93.27567863
 21
-49.96146646
 31
0.0
  0
LINE
  5
2B5
100
AcDbEntity
  8
0
  6
CONTINUOUS
 62
       7
100
AcDbLine
 10
1.71432137
 20
-49.96146646
 30
0.0
 11
5.71432137
 21
-49.96146646
 31
0.0
  0
LINE
  5
2B6
100
AcDbEntity
  8
0
  6
CONTINUOUS
 62
       7
100
AcDbLine
 10
-3.10567863
 20
6.80853354
 30
0.0
 11
-3.10567863
 21
9.10853354
 31
0.0
  0
LINE
  5
2B7
100
AcDbEntity
  8
0
  6
CONTINUOUS
 62
       7
100
AcDbLine
 10
-3.10567863
 20
13.10853354
 30
0.0
 11
-3.10567863
 21
15.40853354
 31
0.0
  0
LINE
  5
2B8
100
AcDbEntity
  8
0
  6
CONTINUOUS
 62
       7
100
AcDbLine
 10
-6.30567863
 20
6.80853354
 30
0.0
 11
-6.30567863
 21
9.10853354
 31
0.0
  0
LINE
  5
2B9
100
AcDbEntity
  8
0
  6
CONTINUOUS
 62
       7
100
AcDbLine
 10
-6.30567863
 20
13.10853354
 30
0.0
 11
-6.30567863
 21
15.40853354
 31
0.0
  0
LINE
  5
2BA
100
AcDbEntity
  8
0
  6
CONTINUOUS
 62
       7
100
AcDbLine
 10
-6.30567863
 20
7.80853354
 30
0.0
 11
-19.64567863
 21
7.80853354
 31
0.0
  0
LINE
  5
2BB
100
AcDbEntity
  8
0
  6
CONTINUOUS
 62
       7
100
AcDbLine
 10
-2.59567863
 20
9.10853354
 30
0.0
 11
-2.59567863
 21
13.10853354
 31
0.0
  0
LINE
  5
2BC
100
AcDbEntity
  8
0
  6
CONTINUOUS
 62
       7
100
AcDbLine
 10
-36.99567863
 20
7.80853354
 30
0.0
 11
-23.64567863
 21
7.80853354
 31
0.0
  0
LINE
  5
2BD
100
AcDbEntity
  8
0
  6
CONTINUOUS
 62
       7
100
AcDbLine
 10
-36.99567863
 20
13.10853354
 30
0.0
 11
-36.99567863
 21
15.40853354
 31
0.0
  0
LINE
  5
2BE
100
AcDbEntity
  8
0
  6
CONTINUOUS
 62
       7
100
AcDbLine
 10
-36.99567863
 20
6.80853354
 30
0.0
 11
-36.99567863
 21
9.10853354
 31
0.0
  0
LINE
  5
2BF
100
AcDbEntity
  8
0
  6
CONTINUOUS
 62
       7
100
AcDbLine
 10
-40.19567863
 20
13.10853354
 30
0.0
 11
-40.19567863
 21
15.40853354
 31
0.0
  0
LINE
  5
2C0
100
AcDbEntity
  8
0
  6
CONTINUOUS
 62
       7
100
AcDbLine
 10
-40.19567863
 20
6.80853354
 30
0.0
 11
-40.19567863
 21
9.10853354
 31
0.0
  0
LINE
  5
2C1
100
AcDbEntity
  8
0
  6
CONTINUOUS
 62
       7
100
AcDbLine
 10
-3.14567863
 20
9.10853354
 30
0.0
 11
-3.14567863
 21
13.10853354
 31
0.0
  0
LINE
  5
2C2
100
AcDbEntity
  8
0
  6
CONTINUOUS
 62
       7
100
AcDbLine
 10
-3.80567863
 20
9.10853354
 30
0.0
 11
-3.80567863
 21
13.10853354
 31
0.0
  0
LINE
  5
2C3
100
AcDbEntity
  8
0
  6
CONTINUOUS
 62
       7
100
AcDbLine
 10
-4.30567863
 20
9.10853354
 30
0.0
 11
-4.30567863
 21
13.10853354
 31
0.0
  0
LINE
  5
2C4
100
AcDbEntity
  8
0
  6
CONTINUOUS
 62
       7
100
AcDbLine
 10
-4.80567863
 20
9.10853354
 30
0.0
 11
-4.80567863
 21
13.10853354
 31
0.0
  0
LINE
  5
2C5
100
AcDbEntity
  8
0
  6
CONTINUOUS
 62
       7
100
AcDbLine
 10
-5.30567863
 20
9.10853354
 30
0.0
 11
-5.30567863
 21
13.10853354
 31
0.0
  0
LINE
  5
2C6
100
AcDbEntity
  8
0
  6
CONTINUOUS
 62
       7
100
AcDbLine
 10
-5.80567863
 20
9.10853354
 30
0.0
 11
-5.80567863
 21
13.10853354
 31
0.0
  0
LINE
  5
2C7
100
AcDbEntity
  8
0
  6
CONTINUOUS
 62
       7
100
AcDbLine
 10
-6.30567863
 20
9.10853354
 30
0.0
 11
-6.30567863
 21
13.10853354
 31
0.0
  0
LINE
  5
2C8
100
AcDbEntity
  8
0
  6
CONTINUOUS
 62
       7
100
AcDbLine
 10
-36.99567863
 20
9.10853354
 30
0.0
 11
-36.99567863
 21
13.10853354
 31
0.0
  0
LINE
  5
2C9
100
AcDbEntity
  8
0
  6
CONTINUOUS
 62
       7
100
AcDbLine
 10
-37.49567863
 20
9.10853354
 30
0.0
 11
-37.49567863
 21
13.10853354
 31
0.0
  0
LINE
  5
2CA
100
AcDbEntity
  8
0
  6
CONTINUOUS
 62
       7
100
AcDbLine
 10
-37.99567863
 20
9.10853354
 30
0.0
 11
-37.99567863
 21
13.10853354
 31
0.0
  0
LINE
  5
2CB
100
AcDbEntity
  8
0
  6
CONTINUOUS
 62
       7
100
AcDbLine
 10
-38.49567863
 20
9.10853354
 30
0.0
 11
-38.49567863
 21
13.10853354
 31
0.0
  0
LINE
  5
2CC
100
AcDbEntity
  8
0
  6
CONTINUOUS
 62
       7
100
AcDbLine
 10
-38.99567863
 20
9.10853354
 30
0.0
 11
-38.99567863
 21
13.10853354
 31
0.0
  0
LINE
  5
2CD
100
AcDbEntity
  8
0
  6
CONTINUOUS
 62
       7
100
AcDbLine
 10
-39.49567863
 20
9.10853354
 30
0.0
 11
-39.49567863
 21
13.10853354
 31
0.0
  0
LINE
  5
2CE
100
AcDbEntity
  8
0
  6
CONTINUOUS
 62
       7
100
AcDbLine
 10
-40.14567863
 20
9.10853354
 30
0.0
 11
-40.14567863
 21
13.10853354
 31
0.0
  0
LINE
  5
2CF
100
AcDbEntity
  8
0
  6
CONTINUOUS
 62
       7
100
AcDbLine
 10
-40.69567863
 20
9.10853354
 30
0.0
 11
-40.69567863
 21
13.10853354
 31
0.0
  0
LINE
  5
2D0
100
AcDbEntity
  8
0
  6
CONTINUOUS
 62
       7
100
AcDbLine
 10
-89.59567863
 20
9.10853354
 30
0.0
 11
-89.59567863
 21
13.10853354
 31
0.0
  0
LINE
  5
2D1
100
AcDbEntity
  8
0
  6
CONTINUOUS
 62
       7
100
AcDbLine
 10
-89.03567863
 20
9.10853354
 30
0.0
 11
-89.03567863
 21
13.10853354
 31
0.0
  0
LINE
  5
2D2
100
AcDbEntity
  8
0
  6
CONTINUOUS
 62
       7
100
AcDbLine
 10
-88.38567863
 20
9.10853354
 30
0.0
 11
-88.38567863
 21
13.10853354
 31
0.0
  0
LINE
  5
2D3
100
AcDbEntity
  8
0
  6
CONTINUOUS
 62
       7
100
AcDbLine
 10
-87.88567863
 20
9.10853354
 30
0.0
 11
-87.88567863
 21
13.10853354
 31
0.0
  0
LINE
  5
2D4
100
AcDbEntity
  8
0
  6
CONTINUOUS
 62
       7
100
AcDbLine
 10
-87.38567863
 20
9.10853354
 30
0.0
 11
-87.38567863
 21
13.10853354
 31
0.0
  0
LINE
  5
2D5
100
AcDbEntity
  8
0
  6
CONTINUOUS
 62
       7
100
AcDbLine
 10
-86.88567863
 20
9.10853354
 30
0.0
 11
-86.88567863
 21
13.10853354
 31
0.0
  0
LINE
  5
2D6
100
AcDbEntity
  8
0
  6
CONTINUOUS
 62
       7
100
AcDbLine
 10
-86.38567863
 20
9.10853354
 30
0.0
 11
-86.38567863
 21
13.10853354
 31
0.0
  0
LINE
  5
2D7
100
AcDbEntity
  8
0
  6
CONTINUOUS
 62
       7
100
AcDbLine
 10
-85.88567863
 20
9.10853354
 30
0.0
 11
-85.88567863
 21
13.10853354
 31
0.0
  0
LINE
  5
2D8
100
AcDbEntity
  8
0
  6
CONTINUOUS
 62
       7
100
AcDbLine
 10
-55.18567863
 20
9.10853354
 30
0.0
 11
-55.18567863
 21
13.10853354
 31
0.0
  0
LINE
  5
2D9
100
AcDbEntity
  8
0
  6
CONTINUOUS
 62
       7
100
AcDbLine
 10
-54.68567863
 20
9.10853354
 30
0.0
 11
-54.68567863
 21
13.10853354
 31
0.0
  0
LINE
  5
2DA
100
AcDbEntity
  8
0
  6
CONTINUOUS
 62
       7
100
AcDbLine
 10
-54.18567863
 20
9.10853354
 30
0.0
 11
-54.18567863
 21
13.10853354
 31
0.0
  0
LINE
  5
2DB
100
AcDbEntity
  8
0
  6
CONTINUOUS
 62
       7
100
AcDbLine
 10
-53.68567863
 20
9.10853354
 30
0.0
 11
-53.68567863
 21
13.10853354
 31
0.0
  0
LINE
  5
2DC
100
AcDbEntity
  8
0
  6
CONTINUOUS
 62
       7
100
AcDbLine
 10
-53.18567863
 20
9.10853354
 30
0.0
 11
-53.18567863
 21
13.10853354
 31
0.0
  0
LINE
  5
2DD
100
AcDbEntity
  8
0
  6
CONTINUOUS
 62
       7
100
AcDbLine
 10
-52.68567863
 20
9.10853354
 30
0.0
 11
-52.68567863
 21
13.10853354
 31
0.0
  0
LINE
  5
2DE
100
AcDbEntity
  8
0
  6
CONTINUOUS
 62
       7
100
AcDbLine
 10
-52.03567863
 20
9.10853354
 30
0.0
 11
-52.03567863
 21
13.10853354
 31
0.0
  0
LINE
  5
2DF
100
AcDbEntity
  8
0
  6
CONTINUOUS
 62
       7
100
AcDbLine
 10
-89.08567863
 20
6.80853354
 30
0.0
 11
-89.08567863
 21
9.10853354
 31
0.0
  0
LINE
  5
2E0
100
AcDbEntity
  8
0
  6
CONTINUOUS
 62
       7
100
AcDbLine
 10
-89.08567863
 20
13.10853354
 30
0.0
 11
-89.08567863
 21
15.40853354
 31
0.0
  0
LINE
  5
2E1
100
AcDbEntity
  8
0
  6
CONTINUOUS
 62
       7
100
AcDbLine
 10
-85.88567863
 20
6.80853354
 30
0.0
 11
-85.88567863
 21
9.10853354
 31
0.0
  0
LINE
  5
2E2
100
AcDbEntity
  8
0
  6
CONTINUOUS
 62
       7
100
AcDbLine
 10
-85.88567863
 20
13.10853354
 30
0.0
 11
-85.88567863
 21
15.40853354
 31
0.0
  0
LINE
  5
2E3
100
AcDbEntity
  8
0
  6
CONTINUOUS
 62
       7
100
AcDbLine
 10
-85.88567863
 20
7.80853354
 30
0.0
 11
-72.53567863
 21
7.80853354
 31
0.0
  0
LINE
  5
2E4
100
AcDbEntity
  8
0
  6
CONTINUOUS
 62
       7
100
AcDbLine
 10
-51.47567863
 20
9.10853354
 30
0.0
 11
-51.47567863
 21
13.10853354
 31
0.0
  0
LINE
  5
2E5
100
AcDbEntity
  8
0
  6
CONTINUOUS
 62
       7
100
AcDbLine
 10
-55.18567863
 20
7.80853354
 30
0.0
 11
-68.53567863
 21
7.80853354
 31
0.0
  0
LINE
  5
2E6
100
AcDbEntity
  8
0
  6
CONTINUOUS
 62
       7
100
AcDbLine
 10
-55.18567863
 20
13.10853354
 30
0.0
 11
-55.18567863
 21
15.40853354
 31
0.0
  0
LINE
  5
2E7
100
AcDbEntity
  8
0
  6
CONTINUOUS
 62
       7
100
AcDbLine
 10
-55.18567863
 20
6.80853354
 30
0.0
 11
-55.18567863
 21
9.10853354
 31
0.0
  0
LINE
  5
2E8
100
AcDbEntity
  8
0
  6
CONTINUOUS
 62
       7
100
AcDbLine
 10
-51.98567863
 20
13.10853354
 30
0.0
 11
-51.98567863
 21
15.40853354
 31
0.0
  0
LINE
  5
2E9
100
AcDbEntity
  8
0
  6
CONTINUOUS
 62
       7
100
AcDbLine
 10
-51.98567863
 20
6.80853354
 30
0.0
 11
-51.98567863
 21
9.10853354
 31
0.0
  0
LINE
  5
2EA
100
AcDbEntity
  8
0
  6
CONTINUOUS
 62
       7
100
AcDbLine
 10
-23.64567863
 20
-37.11146646
 30
0.0
 11
-19.64567863
 21
-37.11146646
 31
0.0
  0
LINE
  5
2EB
100
AcDbEntity
  8
0
  6
CONTINUOUS
 62
       7
100
AcDbLine
 10
-72.53567863
 20
-37.11146646
 30
0.0
 11
-68.53567863
 21
-37.11146646
 31
0.0
  0
LINE
  5
2EC
100
AcDbEntity
  8
0
  6
CONTINUOUS
 62
       7
100
AcDbLine
 10
-79.30567863
 20
17.93853354
 30
0.0
 11
-78.80567863
 21
17.93853354
 31
0.0
  0
LINE
  5
2ED
100
AcDbEntity
  8
0
  6
CONTINUOUS
 62
       7
100
AcDbLine
 10
-70.00567863
 20
17.93853354
 30
0.0
 11
-69.50567863
 21
17.93853354
 31
0.0
  0
LINE
  5
2EE
100
AcDbEntity
  8
0
  6
CONTINUOUS
 62
       7
100
AcDbLine
 10
-79.16567863
 20
28.09853354
 30
0.0
 11
-79.16567863
 21
17.93853354
 31
0.0
  0
LINE
  5
2EF
100
AcDbEntity
  8
0
  6
CONTINUOUS
 62
       7
100
AcDbLine
 10
-78.95567863
 20
28.09853354
 30
0.0
 11
-78.95567863
 21
17.93853354
 31
0.0
  0
LINE
  5
2F0
100
AcDbEntity
  8
0
  6
CONTINUOUS
 62
       7
100
AcDbLine
 10
-79.72567863
 20
28.09853354
 30
0.0
 11
-79.72567863
 21
27.99853354
 31
0.0
  0
LINE
  5
2F1
100
AcDbEntity
  8
0
  6
CONTINUOUS
 62
       7
100
AcDbLine
 10
-79.72567863
 20
18.03853354
 30
0.0
 11
-79.72567863
 21
17.93853354
 31
0.0
  0
LINE
  5
2F2
100
AcDbEntity
  8
0
  6
CONTINUOUS
 62
       7
100
AcDbLine
 10
-79.72567863
 20
23.11853354
 30
0.0
 11
-79.72567863
 21
22.91853354
 31
0.0
  0
LINE
  5
2F3
100
AcDbEntity
  8
0
  6
CONTINUOUS
 62
       7
100
AcDbLine
 10
-79.73567863
 20
22.91853354
 30
0.0
 11
-79.16567863
 21
22.91853354
 31
0.0
  0
LINE
  5
2F4
100
AcDbEntity
  8
0
  6
CONTINUOUS
 62
       7
100
AcDbLine
 10
-79.16567863
 20
18.03853354
 30
0.0
 11
-79.73567863
 21
18.03853354
 31
0.0
  0
LINE
  5
2F5
100
AcDbEntity
  8
0
  6
CONTINUOUS
 62
       7
100
AcDbLine
 10
-79.16567863
 20
23.11853354
 30
0.0
 11
-79.73567863
 21
23.11853354
 31
0.0
  0
LINE
  5
2F6
100
AcDbEntity
  8
0
  6
CONTINUOUS
 62
       7
100
AcDbLine
 10
-79.73567863
 20
27.99853354
 30
0.0
 11
-79.16567863
 21
27.99853354
 31
0.0
  0
LINE
  5
2F7
100
AcDbEntity
  8
0
  6
CONTINUOUS
 62
       7
100
AcDbLine
 10
-12.44567863
 20
18.03853354
 30
0.0
 11
-13.01567863
 21
18.03853354
 31
0.0
  0
LINE
  5
2F8
100
AcDbEntity
  8
0
  6
CONTINUOUS
 62
       7
100
AcDbLine
 10
-13.01567863
 20
22.91853354
 30
0.0
 11
-12.44567863
 21
22.91853354
 31
0.0
  0
LINE
  5
2F9
100
AcDbEntity
  8
0
  6
CONTINUOUS
 62
       7
100
AcDbLine
 10
-13.01567863
 20
27.99853354
 30
0.0
 11
-12.44567863
 21
27.99853354
 31
0.0
  0
LINE
  5
2FA
100
AcDbEntity
  8
0
  6
CONTINUOUS
 62
       7
100
AcDbLine
 10
-12.44567863
 20
23.11853354
 30
0.0
 11
-13.01567863
 21
23.11853354
 31
0.0
  0
LINE
  5
2FB
100
AcDbEntity
  8
0
  6
CONTINUOUS
 62
       7
100
AcDbLine
 10
-12.45567863
 20
22.91853354
 30
0.0
 11
-12.45567863
 21
23.11853354
 31
0.0
  0
LINE
  5
2FC
100
AcDbEntity
  8
0
  6
CONTINUOUS
 62
       7
100
AcDbLine
 10
-12.45567863
 20
27.99853354
 30
0.0
 11
-12.45567863
 21
28.09853354
 31
0.0
  0
LINE
  5
2FD
100
AcDbEntity
  8
0
  6
CONTINUOUS
 62
       7
100
AcDbLine
 10
-12.45567863
 20
17.93853354
 30
0.0
 11
-12.45567863
 21
18.03853354
 31
0.0
  0
LINE
  5
2FE
100
AcDbEntity
  8
0
  6
CONTINUOUS
 62
       7
100
AcDbLine
 10
-13.22567863
 20
17.93853354
 30
0.0
 11
-13.22567863
 21
28.09853354
 31
0.0
  0
LINE
  5
2FF
100
AcDbEntity
  8
0
  6
CONTINUOUS
 62
       7
100
AcDbLine
 10
-13.01567863
 20
17.93853354
 30
0.0
 11
-13.01567863
 21
28.09853354
 31
0.0
  0
LINE
  5
300
100
AcDbEntity
  8
0
  6
CONTINUOUS
 62
       7
100
AcDbLine
 10
-22.17567863
 20
28.09853354
 30
0.0
 11
-22.67567863
 21
28.09853354
 31
0.0
  0
LINE
  5
301
100
AcDbEntity
  8
0
  6
CONTINUOUS
 62
       7
100
AcDbLine
 10
-12.87567863
 20
28.09853354
 30
0.0
 11
-13.37567863
 21
28.09853354
 31
0.0
  0
LINE
  5
302
100
AcDbEntity
  8
0
  6
CONTINUOUS
 62
       7
100
AcDbLine
 10
5.71432137
 20
34.65853354
 30
0.0
 11
14.80432137
 21
34.65853354
 31
0.0
  0
LINE
  5
303
100
AcDbEntity
  8
0
  6
CONTINUOUS
 62
       7
100
AcDbLine
 10
-97.27567863
 20
15.09853354
 30
0.0
 11
-106.36567863
 21
15.09853354
 31
0.0
  0
LINE
  5
304
100
AcDbEntity
  8
0
  6
CONTINUOUS
 62
       7
100
AcDbLine
 10
-104.82567863
 20
-66.01146646
 30
0.0
 11
-104.82567863
 21
-61.51146646
 31
0.0
  0
LINE
  5
305
100
AcDbEntity
  8
0
  6
CONTINUOUS
 62
       7
100
AcDbLine
 10
-99.72567863
 20
-66.01146646
 30
0.0
 11
-99.72567863
 21
-61.51146646
 31
0.0
  0
LINE
  5
306
100
AcDbEntity
  8
0
  6
CONTINUOUS
 62
       7
100
AcDbLine
 10
-97.27567863
 20
-60.51146646
 30
0.0
 11
-97.27567863
 21
-66.01146646
 31
0.0
  0
LINE
  5
307
100
AcDbEntity
  8
0
  6
CONTINUOUS
 62
       7
100
AcDbLine
 10
-97.27567863
 20
-60.51146646
 30
0.0
 11
-89.27567863
 21
-60.51146646
 31
0.0
  0
LINE
  5
308
100
AcDbEntity
  8
0
  6
CONTINUOUS
 62
       7
100
AcDbLine
 10
-93.27567863
 20
2.37853354
 30
0.0
 11
1.71432137
 21
2.37853354
 31
0.0
  0
LINE
  5
309
100
AcDbEntity
  8
0
  6
CONTINUOUS
 62
       7
100
AcDbLine
 10
1.71432137
 20
47.37853354
 30
0.0
 11
-93.27567863
 21
47.37853354
 31
0.0
  0
LINE
  5
30A
100
AcDbEntity
  8
0
  6
CONTINUOUS
 62
       7
100
AcDbLine
 10
5.71432137
 20
-60.51146646
 30
0.0
 11
-2.28567863
 21
-60.51146646
 31
0.0
  0
LINE
  5
30B
100
AcDbEntity
  8
0
  6
CONTINUOUS
 62
       7
100
AcDbLine
 10
5.71432137
 20
-60.51146646
 30
0.0
 11
5.71432137
 21
-66.01146646
 31
0.0
  0
LINE
  5
30C
100
AcDbEntity
  8
0
  6
CONTINUOUS
 62
       7
100
AcDbLine
 10
8.16432137
 20
-66.01146646
 30
0.0
 11
8.16432137
 21
-61.51146646
 31
0.0
  0
LINE
  5
30D
100
AcDbEntity
  8
0
  6
CONTINUOUS
 62
       7
100
AcDbLine
 10
13.26432137
 20
-66.01146646
 30
0.0
 11
13.26432137
 21
-61.51146646
 31
0.0
  0
LINE
  5
30E
100
AcDbEntity
  8
0
  6
CONTINUOUS
 62
       2
100
AcDbLine
 10
7.16432137
 20
30.67853354
 30
0.0
 11
14.26432137
 21
30.67853354
 31
0.0
  0
LINE
  5
30F
100
AcDbEntity
  8
0
  6
CONTINUOUS
 62
       2
100
AcDbLine
 10
10.71432137
 20
33.72853354
 30
0.0
 11
10.71432137
 21
27.62853354
 31
0.0
  0
LINE
  5
310
100
AcDbEntity
  8
0
  6
CONTINUOUS
 62
       2
100
AcDbLine
 10
-105.82567863
 20
19.07853354
 30
0.0
 11
-98.72567863
 21
19.07853354
 31
0.0
  0
LINE
  5
311
100
AcDbEntity
  8
0
  6
CONTINUOUS
 62
       2
100
AcDbLine
 10
-102.27567863
 20
22.12853354
 30
0.0
 11
-102.27567863
 21
16.02853354
 31
0.0
  0
LINE
  5
312
100
AcDbEntity
  8
0
  6
CONTINUOUS
 62
       2
100
AcDbLine
 10
10.71432137
 20
-60.51146646
 30
0.0
 11
10.71432137
 21
-67.01146646
 31
0.0
  0
LINE
  5
313
100
AcDbEntity
  8
0
  6
CONTINUOUS
 62
       2
100
AcDbLine
 10
-102.27567863
 20
-60.51146646
 30
0.0
 11
-102.27567863
 21
-67.01146646
 31
0.0
  0
LINE
  5
314
100
AcDbEntity
  8
0
  6
CONTINUOUS
 62
       7
100
AcDbLine
 10
-93.27567863
 20
-49.91146646
 30
0.0
 11
1.71432137
 21
-49.91146646
 31
0.0
  0
LINE
  5
315
100
AcDbEntity
  8
0
  6
CONTINUOUS
 62
       7
100
AcDbLine
 10
-93.27567863
 20
-58.31146646
 30
0.0
 11
1.71432137
 21
-58.31146646
 31
0.0
  0
LINE
  5
316
100
AcDbEntity
  8
0
  6
CONTINUOUS
 62
       7
100
AcDbLine
 10
-93.27567863
 20
-43.11146646
 30
0.0
 11
1.71432137
 21
-43.11146646
 31
0.0
  0
LINE
  5
317
100
AcDbEntity
  8
0
  6
CONTINUOUS
 62
       7
100
AcDbLine
 10
-43.03567863
 20
34.68853354
 30
0.0
 11
-43.03567863
 21
32.68853354
 31
0.0
  0
LINE
  5
318
100
AcDbEntity
  8
0
  6
CONTINUOUS
 62
       7
100
AcDbLine
 10
-47.03567863
 20
34.68853354
 30
0.0
 11
-43.03567863
 21
34.68853354
 31
0.0
  0
LINE
  5
319
100
AcDbEntity
  8
0
  6
CONTINUOUS
 62
       7
100
AcDbLine
 10
-47.03567863
 20
32.68853354
 30
0.0
 11
-47.03567863
 21
34.68853354
 31
0.0
  0
LINE
  5
31A
100
AcDbEntity
  8
0
  6
CONTINUOUS
 62
       7
100
AcDbLine
 10
-45.03567863
 20
40.48853354
 30
0.0
 11
-73.08567863
 21
40.48853354
 31
0.0
  0
LINE
  5
31B
100
AcDbEntity
  8
0
  6
CONTINUOUS
 62
       7
100
AcDbLine
 10
-16.98567863
 20
40.48853354
 30
0.0
 11
-45.03567863
 21
40.48853354
 31
0.0
  0
LINE
  5
31C
100
AcDbEntity
  8
0
  6
CONTINUOUS
 62
       7
100
AcDbLine
 10
-71.48567863
 20
34.98853354
 30
0.0
 11
-71.48567863
 21
38.98853354
 31
0.0
  0
LINE
  5
31D
100
AcDbEntity
  8
0
  6
CONTINUOUS
 62
       7
100
AcDbLine
 10
-79.18567863
 20
34.98853354
 30
0.0
 11
-71.48567863
 21
34.98853354
 31
0.0
  0
LINE
  5
31E
100
AcDbEntity
  8
0
  6
CONTINUOUS
 62
       7
100
AcDbLine
 10
-79.18567863
 20
38.98853354
 30
0.0
 11
-79.18567863
 21
34.98853354
 31
0.0
  0
LINE
  5
31F
100
AcDbEntity
  8
0
  6
CONTINUOUS
 62
       7
100
AcDbLine
 10
-71.48567863
 20
38.98853354
 30
0.0
 11
-79.18567863
 21
38.98853354
 31
0.0
  0
LINE
  5
320
100
AcDbEntity
  8
0
  6
CONTINUOUS
 62
       7
100
AcDbLine
 10
-18.58567863
 20
34.98853354
 30
0.0
 11
-18.58567863
 21
38.98853354
 31
0.0
  0
LINE
  5
321
100
AcDbEntity
  8
0
  6
CONTINUOUS
 62
       7
100
AcDbLine
 10
-10.88567863
 20
34.98853354
 30
0.0
 11
-18.58567863
 21
34.98853354
 31
0.0
  0
LINE
  5
322
100
AcDbEntity
  8
0
  6
CONTINUOUS
 62
       7
100
AcDbLine
 10
-10.88567863
 20
38.98853354
 30
0.0
 11
-10.88567863
 21
34.98853354
 31
0.0
  0
LINE
  5
323
100
AcDbEntity
  8
0
  6
CONTINUOUS
 62
       7
100
AcDbLine
 10
-18.58567863
 20
38.98853354
 30
0.0
 11
-10.88567863
 21
38.98853354
 31
0.0
  0
LINE
  5
324
100
AcDbEntity
  8
0
  6
CONTINUOUS
 62
       7
100
AcDbLine
 10
-80.18567863
 20
32.68853354
 30
0.0
 11
-80.18567863
 21
41.28853354
 31
0.0
  0
LINE
  5
325
100
AcDbEntity
  8
0
  6
CONTINUOUS
 62
       7
100
AcDbLine
 10
-9.88567863
 20
32.68853354
 30
0.0
 11
-80.18567863
 21
32.68853354
 31
0.0
  0
LINE
  5
326
100
AcDbEntity
  8
0
  6
CONTINUOUS
 62
       7
100
AcDbLine
 10
-9.88567863
 20
41.28853354
 30
0.0
 11
-9.88567863
 21
32.68853354
 31
0.0
  0
LINE
  5
327
100
AcDbEntity
  8
0
  6
CONTINUOUS
 62
       7
100
AcDbLine
 10
-80.18567863
 20
41.28853354
 30
0.0
 11
-9.88567863
 21
41.28853354
 31
0.0
  0
LINE
  5
328
100
AcDbEntity
  8
0
  6
CONTINUOUS
 62
       7
100
AcDbLine
 10
-82.10567863
 20
38.28853354
 30
0.0
 11
-80.18567863
 21
38.28853354
 31
0.0
  0
LINE
  5
329
100
AcDbEntity
  8
0
  6
CONTINUOUS
 62
       7
100
AcDbLine
 10
-80.18567863
 20
35.38853354
 30
0.0
 11
-82.10567863
 21
35.38853354
 31
0.0
  0
LINE
  5
32A
100
AcDbEntity
  8
0
  6
CONTINUOUS
 62
       7
100
AcDbLine
 10
-13.27567863
 20
34.98853354
 30
0.0
 11
-13.27567863
 21
38.98853354
 31
0.0
  0
LINE
  5
32B
100
AcDbEntity
  8
0
  6
CONTINUOUS
 62
       7
100
AcDbLine
 10
-13.82567863
 20
34.98853354
 30
0.0
 11
-13.82567863
 21
38.98853354
 31
0.0
  0
LINE
  5
32C
100
AcDbEntity
  8
0
  6
CONTINUOUS
 62
       7
100
AcDbLine
 10
-14.48567863
 20
34.98853354
 30
0.0
 11
-14.48567863
 21
38.98853354
 31
0.0
  0
LINE
  5
32D
100
AcDbEntity
  8
0
  6
CONTINUOUS
 62
       7
100
AcDbLine
 10
-14.98567863
 20
34.98853354
 30
0.0
 11
-14.98567863
 21
38.98853354
 31
0.0
  0
LINE
  5
32E
100
AcDbEntity
  8
0
  6
CONTINUOUS
 62
       7
100
AcDbLine
 10
-15.48567863
 20
34.98853354
 30
0.0
 11
-15.48567863
 21
38.98853354
 31
0.0
  0
LINE
  5
32F
100
AcDbEntity
  8
0
  6
CONTINUOUS
 62
       7
100
AcDbLine
 10
-15.98567863
 20
34.98853354
 30
0.0
 11
-15.98567863
 21
38.98853354
 31
0.0
  0
LINE
  5
330
100
AcDbEntity
  8
0
  6
CONTINUOUS
 62
       7
100
AcDbLine
 10
-16.48567863
 20
34.98853354
 30
0.0
 11
-16.48567863
 21
38.98853354
 31
0.0
  0
LINE
  5
331
100
AcDbEntity
  8
0
  6
CONTINUOUS
 62
       7
100
AcDbLine
 10
-16.98567863
 20
34.98853354
 30
0.0
 11
-16.98567863
 21
38.98853354
 31
0.0
  0
LINE
  5
332
100
AcDbEntity
  8
0
  6
CONTINUOUS
 62
       7
100
AcDbLine
 10
-73.08567863
 20
34.98853354
 30
0.0
 11
-73.08567863
 21
38.98853354
 31
0.0
  0
LINE
  5
333
100
AcDbEntity
  8
0
  6
CONTINUOUS
 62
       7
100
AcDbLine
 10
-73.58567863
 20
34.98853354
 30
0.0
 11
-73.58567863
 21
38.98853354
 31
0.0
  0
LINE
  5
334
100
AcDbEntity
  8
0
  6
CONTINUOUS
 62
       7
100
AcDbLine
 10
-74.08567863
 20
34.98853354
 30
0.0
 11
-74.08567863
 21
38.98853354
 31
0.0
  0
LINE
  5
335
100
AcDbEntity
  8
0
  6
CONTINUOUS
 62
       7
100
AcDbLine
 10
-74.58567863
 20
34.98853354
 30
0.0
 11
-74.58567863
 21
38.98853354
 31
0.0
  0
LINE
  5
336
100
AcDbEntity
  8
0
  6
CONTINUOUS
 62
       7
100
AcDbLine
 10
-75.08567863
 20
34.98853354
 30
0.0
 11
-75.08567863
 21
38.98853354
 31
0.0
  0
LINE
  5
337
100
AcDbEntity
  8
0
  6
CONTINUOUS
 62
       7
100
AcDbLine
 10
-75.58567863
 20
34.98853354
 30
0.0
 11
-75.58567863
 21
38.98853354
 31
0.0
  0
LINE
  5
338
100
AcDbEntity
  8
0
  6
CONTINUOUS
 62
       7
100
AcDbLine
 10
-76.23567863
 20
34.98853354
 30
0.0
 11
-76.23567863
 21
38.98853354
 31
0.0
  0
LINE
  5
339
100
AcDbEntity
  8
0
  6
CONTINUOUS
 62
       7
100
AcDbLine
 10
-13.78567863
 20
32.68853354
 30
0.0
 11
-13.78567863
 21
34.98853354
 31
0.0
  0
LINE
  5
33A
100
AcDbEntity
  8
0
  6
CONTINUOUS
 62
       7
100
AcDbLine
 10
-13.78567863
 20
38.98853354
 30
0.0
 11
-13.78567863
 21
41.28853354
 31
0.0
  0
LINE
  5
33B
100
AcDbEntity
  8
0
  6
CONTINUOUS
 62
       7
100
AcDbLine
 10
-16.98567863
 20
32.68853354
 30
0.0
 11
-16.98567863
 21
34.98853354
 31
0.0
  0
LINE
  5
33C
100
AcDbEntity
  8
0
  6
CONTINUOUS
 62
       7
100
AcDbLine
 10
-16.98567863
 20
38.98853354
 30
0.0
 11
-16.98567863
 21
41.28853354
 31
0.0
  0
LINE
  5
33D
100
AcDbEntity
  8
0
  6
CONTINUOUS
 62
       7
100
AcDbLine
 10
-16.98567863
 20
33.68853354
 30
0.0
 11
-43.03567863
 21
33.68853354
 31
0.0
  0
LINE
  5
33E
100
AcDbEntity
  8
0
  6
CONTINUOUS
 62
       7
100
AcDbLine
 10
-76.78567863
 20
34.98853354
 30
0.0
 11
-76.78567863
 21
38.98853354
 31
0.0
  0
LINE
  5
33F
100
AcDbEntity
  8
0
  6
CONTINUOUS
 62
       7
100
AcDbLine
 10
-73.08567863
 20
33.68853354
 30
0.0
 11
-47.03567863
 21
33.68853354
 31
0.0
  0
LINE
  5
340
100
AcDbEntity
  8
0
  6
CONTINUOUS
 62
       7
100
AcDbLine
 10
-73.08567863
 20
38.98853354
 30
0.0
 11
-73.08567863
 21
41.28853354
 31
0.0
  0
LINE
  5
341
100
AcDbEntity
  8
0
  6
CONTINUOUS
 62
       7
100
AcDbLine
 10
-73.08567863
 20
32.68853354
 30
0.0
 11
-73.08567863
 21
34.98853354
 31
0.0
  0
LINE
  5
342
100
AcDbEntity
  8
0
  6
CONTINUOUS
 62
       7
100
AcDbLine
 10
-76.28567863
 20
38.98853354
 30
0.0
 11
-76.28567863
 21
41.28853354
 31
0.0
  0
LINE
  5
343
100
AcDbEntity
  8
0
  6
CONTINUOUS
 62
       7
100
AcDbLine
 10
-76.28567863
 20
32.68853354
 30
0.0
 11
-76.28567863
 21
34.98853354
 31
0.0
  0
LINE
  5
344
100
AcDbEntity
  8
0
  6
CONTINUOUS
 62
       7
100
AcDbLine
 10
-85.79567863
 20
-27.29146646
 30
0.0
 11
-85.01567863
 21
-30.54146646
 31
0.0
  0
LINE
  5
345
100
AcDbEntity
  8
0
  6
CONTINUOUS
 62
       7
100
AcDbLine
 10
-88.75567863
 20
-26.91146646
 30
0.0
 11
-86.28567863
 21
-26.91146646
 31
0.0
  0
LINE
  5
346
100
AcDbEntity
  8
0
  6
CONTINUOUS
 62
       7
100
AcDbLine
 10
-92.98567863
 20
-37.01146646
 30
0.0
 11
-88.38567863
 21
-25.05146646
 31
0.0
  0
LINE
  5
347
100
AcDbEntity
  8
0
  6
CONTINUOUS
 62
       7
100
AcDbLine
 10
-88.38567863
 20
-20.12146646
 30
0.0
 11
-88.38567863
 21
-25.05146646
 31
0.0
  0
LINE
  5
348
100
AcDbEntity
  8
0
  6
CONTINUOUS
 62
       7
100
AcDbLine
 10
-89.57567863
 20
-17.65146646
 30
0.0
 11
-88.38567863
 21
-20.12146646
 31
0.0
  0
LINE
  5
349
100
AcDbEntity
  8
0
  6
CONTINUOUS
 62
       7
100
AcDbLine
 10
-89.23567863
 20
-17.12146646
 30
0.0
 11
-89.53567863
 21
-17.42146646
 31
0.0
  0
LINE
  5
34A
100
AcDbEntity
  8
0
  6
CONTINUOUS
 62
       7
100
AcDbLine
 10
-88.83567863
 20
-17.12146646
 30
0.0
 11
-89.03567863
 21
-17.06146646
 31
0.0
  0
LINE
  5
34B
100
AcDbEntity
  8
0
  6
CONTINUOUS
 62
       7
100
AcDbLine
 10
-88.38567863
 20
-17.12146646
 30
0.0
 11
-88.83567863
 21
-17.12146646
 31
0.0
  0
LINE
  5
34C
100
AcDbEntity
  8
0
  6
CONTINUOUS
 62
       7
100
AcDbLine
 10
-88.38567863
 20
-17.72146646
 30
0.0
 11
-88.38567863
 21
-17.12146646
 31
0.0
  0
LINE
  5
34D
100
AcDbEntity
  8
0
  6
CONTINUOUS
 62
       7
100
AcDbLine
 10
-87.88567863
 20
-17.72146646
 30
0.0
 11
-88.38567863
 21
-17.72146646
 31
0.0
  0
LINE
  5
34E
100
AcDbEntity
  8
0
  6
CONTINUOUS
 62
       7
100
AcDbLine
 10
-87.88567863
 20
-18.32146646
 30
0.0
 11
-87.88567863
 21
-17.72146646
 31
0.0
  0
LINE
  5
34F
100
AcDbEntity
  8
0
  6
CONTINUOUS
 62
       7
100
AcDbLine
 10
-87.38567863
 20
-18.32146646
 30
0.0
 11
-87.88567863
 21
-18.32146646
 31
0.0
  0
LINE
  5
350
100
AcDbEntity
  8
0
  6
CONTINUOUS
 62
       7
100
AcDbLine
 10
-87.38567863
 20
-18.92146646
 30
0.0
 11
-87.38567863
 21
-18.32146646
 31
0.0
  0
LINE
  5
351
100
AcDbEntity
  8
0
  6
CONTINUOUS
 62
       7
100
AcDbLine
 10
-86.88567863
 20
-18.92146646
 30
0.0
 11
-87.38567863
 21
-18.92146646
 31
0.0
  0
LINE
  5
352
100
AcDbEntity
  8
0
  6
CONTINUOUS
 62
       7
100
AcDbLine
 10
-86.88567863
 20
-19.52146646
 30
0.0
 11
-86.88567863
 21
-18.92146646
 31
0.0
  0
LINE
  5
353
100
AcDbEntity
  8
0
  6
CONTINUOUS
 62
       7
100
AcDbLine
 10
-86.38567863
 20
-19.52146646
 30
0.0
 11
-86.88567863
 21
-19.52146646
 31
0.0
  0
LINE
  5
354
100
AcDbEntity
  8
0
  6
CONTINUOUS
 62
       7
100
AcDbLine
 10
-86.38567863
 20
-20.12146646
 30
0.0
 11
-86.38567863
 21
-19.52146646
 31
0.0
  0
LINE
  5
355
100
AcDbEntity
  8
0
  6
CONTINUOUS
 62
       7
100
AcDbLine
 10
-85.88567863
 20
-20.12146646
 30
0.0
 11
-86.38567863
 21
-20.12146646
 31
0.0
  0
LINE
  5
356
100
AcDbEntity
  8
0
  6
CONTINUOUS
 62
       7
100
AcDbLine
 10
-85.88567863
 20
-20.72146646
 30
0.0
 11
-85.88567863
 21
-20.12146646
 31
0.0
  0
LINE
  5
357
100
AcDbEntity
  8
0
  6
CONTINUOUS
 62
       7
100
AcDbLine
 10
-84.95567863
 20
-20.87146646
 30
0.0
 11
-85.88567863
 21
-20.72146646
 31
0.0
  0
LINE
  5
358
100
AcDbEntity
  8
0
  6
CONTINUOUS
 62
       7
100
AcDbLine
 10
-84.28567863
 20
-22.49146646
 30
0.0
 11
-84.28567863
 21
-21.66146646
 31
0.0
  0
LINE
  5
359
100
AcDbEntity
  8
0
  6
CONTINUOUS
 62
       7
100
AcDbLine
 10
-84.91567863
 20
-22.64146646
 30
0.0
 11
-84.51567863
 21
-22.69146646
 31
0.0
  0
LINE
  5
35A
100
AcDbEntity
  8
0
  6
CONTINUOUS
 62
       7
100
AcDbLine
 10
-85.08567863
 20
-22.22146646
 30
0.0
 11
-85.08567863
 21
-22.44146646
 31
0.0
  0
LINE
  5
35B
100
AcDbEntity
  8
0
  6
CONTINUOUS
 62
       7
100
AcDbLine
 10
-85.78567863
 20
-22.12146646
 30
0.0
 11
-85.18567863
 21
-22.12146646
 31
0.0
  0
LINE
  5
35C
100
AcDbEntity
  8
0
  6
CONTINUOUS
 62
       7
100
AcDbLine
 10
-85.88567863
 20
-27.10146646
 30
0.0
 11
-85.88567863
 21
-22.22146646
 31
0.0
  0
LINE
  5
35D
100
AcDbEntity
  8
0
  6
CONTINUOUS
 62
       7
100
AcDbLine
 10
-3.80567863
 20
-25.05146646
 30
0.0
 11
0.79432137
 21
-37.01146646
 31
0.0
  0
LINE
  5
35E
100
AcDbEntity
  8
0
  6
CONTINUOUS
 62
       7
100
AcDbLine
 10
-5.90567863
 20
-26.91146646
 30
0.0
 11
-3.42567863
 21
-26.91146646
 31
0.0
  0
LINE
  5
35F
100
AcDbEntity
  8
0
  6
CONTINUOUS
 62
       7
100
AcDbLine
 10
-7.15567863
 20
-30.54146646
 30
0.0
 11
-6.39567863
 21
-27.29146646
 31
0.0
  0
LINE
  5
360
100
AcDbEntity
  8
0
  6
CONTINUOUS
 62
       7
100
AcDbLine
 10
-3.80567863
 20
-20.12146646
 30
0.0
 11
-3.80567863
 21
-25.05146646
 31
0.0
  0
LINE
  5
361
100
AcDbEntity
  8
0
  6
CONTINUOUS
 62
       7
100
AcDbLine
 10
-2.61567863
 20
-17.65146646
 30
0.0
 11
-3.80567863
 21
-20.12146646
 31
0.0
  0
LINE
  5
362
100
AcDbEntity
  8
0
  6
CONTINUOUS
 62
       7
100
AcDbLine
 10
-2.95567863
 20
-17.12146646
 30
0.0
 11
-2.65567863
 21
-17.42146646
 31
0.0
  0
LINE
  5
363
100
AcDbEntity
  8
0
  6
CONTINUOUS
 62
       7
100
AcDbLine
 10
-3.35567863
 20
-17.12146646
 30
0.0
 11
-3.14567863
 21
-17.06146646
 31
0.0
  0
LINE
  5
364
100
AcDbEntity
  8
0
  6
CONTINUOUS
 62
       7
100
AcDbLine
 10
-3.80567863
 20
-17.12146646
 30
0.0
 11
-3.35567863
 21
-17.12146646
 31
0.0
  0
LINE
  5
365
100
AcDbEntity
  8
0
  6
CONTINUOUS
 62
       7
100
AcDbLine
 10
-3.80567863
 20
-17.72146646
 30
0.0
 11
-3.80567863
 21
-17.12146646
 31
0.0
  0
LINE
  5
366
100
AcDbEntity
  8
0
  6
CONTINUOUS
 62
       7
100
AcDbLine
 10
-4.30567863
 20
-17.72146646
 30
0.0
 11
-3.80567863
 21
-17.72146646
 31
0.0
  0
LINE
  5
367
100
AcDbEntity
  8
0
  6
CONTINUOUS
 62
       7
100
AcDbLine
 10
-4.30567863
 20
-18.32146646
 30
0.0
 11
-4.30567863
 21
-17.72146646
 31
0.0
  0
LINE
  5
368
100
AcDbEntity
  8
0
  6
CONTINUOUS
 62
       7
100
AcDbLine
 10
-4.80567863
 20
-18.32146646
 30
0.0
 11
-4.30567863
 21
-18.32146646
 31
0.0
  0
LINE
  5
369
100
AcDbEntity
  8
0
  6
CONTINUOUS
 62
       7
100
AcDbLine
 10
-4.80567863
 20
-18.92146646
 30
0.0
 11
-4.80567863
 21
-18.32146646
 31
0.0
  0
LINE
  5
36A
100
AcDbEntity
  8
0
  6
CONTINUOUS
 62
       7
100
AcDbLine
 10
-5.30567863
 20
-18.92146646
 30
0.0
 11
-4.80567863
 21
-18.92146646
 31
0.0
  0
LINE
  5
36B
100
AcDbEntity
  8
0
  6
CONTINUOUS
 62
       7
100
AcDbLine
 10
-5.30567863
 20
-19.52146646
 30
0.0
 11
-5.30567863
 21
-18.92146646
 31
0.0
  0
LINE
  5
36C
100
AcDbEntity
  8
0
  6
CONTINUOUS
 62
       7
100
AcDbLine
 10
-5.80567863
 20
-19.52146646
 30
0.0
 11
-5.30567863
 21
-19.52146646
 31
0.0
  0
LINE
  5
36D
100
AcDbEntity
  8
0
  6
CONTINUOUS
 62
       7
100
AcDbLine
 10
-5.80567863
 20
-20.12146646
 30
0.0
 11
-5.80567863
 21
-19.52146646
 31
0.0
  0
LINE
  5
36E
100
AcDbEntity
  8
0
  6
CONTINUOUS
 62
       7
100
AcDbLine
 10
-6.30567863
 20
-20.12146646
 30
0.0
 11
-5.80567863
 21
-20.12146646
 31
0.0
  0
LINE
  5
36F
100
AcDbEntity
  8
0
  6
CONTINUOUS
 62
       7
100
AcDbLine
 10
-6.30567863
 20
-20.72146646
 30
0.0
 11
-6.30567863
 21
-20.12146646
 31
0.0
  0
LINE
  5
370
100
AcDbEntity
  8
0
  6
CONTINUOUS
 62
       7
100
AcDbLine
 10
-7.21567863
 20
-20.87146646
 30
0.0
 11
-6.30567863
 21
-20.72146646
 31
0.0
  0
LINE
  5
371
100
AcDbEntity
  8
0
  6
CONTINUOUS
 62
       7
100
AcDbLine
 10
-7.89567863
 20
-22.49146646
 30
0.0
 11
-7.89567863
 21
-21.66146646
 31
0.0
  0
LINE
  5
372
100
AcDbEntity
  8
0
  6
CONTINUOUS
 62
       7
100
AcDbLine
 10
-7.26567863
 20
-22.64146646
 30
0.0
 11
-7.66567863
 21
-22.69146646
 31
0.0
  0
LINE
  5
373
100
AcDbEntity
  8
0
  6
CONTINUOUS
 62
       7
100
AcDbLine
 10
-7.09567863
 20
-22.22146646
 30
0.0
 11
-7.09567863
 21
-22.44146646
 31
0.0
  0
LINE
  5
374
100
AcDbEntity
  8
0
  6
CONTINUOUS
 62
       7
100
AcDbLine
 10
-6.40567863
 20
-22.12146646
 30
0.0
 11
-7.00567863
 21
-22.12146646
 31
0.0
  0
LINE
  5
375
100
AcDbEntity
  8
0
  6
CONTINUOUS
 62
       7
100
AcDbLine
 10
-6.30567863
 20
-27.10146646
 30
0.0
 11
-6.30567863
 21
-22.22146646
 31
0.0
  0
ARC
  5
376
100
AcDbEntity
  8
0
  6
CONTINUOUS
 62
       7
100
AcDbCircle
 10
-14.11557855
 20
-27.41647573
 30
0.0
 40
0.50500928
100
AcDbArc
 50
21.49058025
 51
90.01135374
  0
ARC
  5
377
100
AcDbEntity
  8
0
  6
CONTINUOUS
 62
       7
100
AcDbCircle
 10
-16.58840734
 20
-27.4138689
 30
0.0
 40
0.50240985
100
AcDbArc
 50
89.68881029
 51
165.89907571
  0
ARC
  5
378
100
AcDbEntity
  8
0
  6
CONTINUOUS
 62
       7
100
AcDbCircle
 10
-35.15669169
 20
-30.31676862
 30
0.0
 40
0.99469835
100
AcDbArc
 50
193.05553963
 51
270.05835337
  0
ARC
  5
379
100
AcDbEntity
  8
0
  6
CONTINUOUS
 62
       7
100
AcDbCircle
 10
-37.38733353
 20
-27.41952147
 30
0.0
 40
0.5080577
100
AcDbArc
 50
14.59874488
 51
89.81336913
  0
ARC
  5
37A
100
AcDbEntity
  8
0
  6
CONTINUOUS
 62
       7
100
AcDbCircle
 10
-39.85947157
 20
-27.4110141
 30
0.0
 40
0.4995862
100
AcDbArc
 50
90.71188368
 51
158.93709464
  0
ARC
  5
37B
100
AcDbEntity
  8
0
  6
CONTINUOUS
 62
       7
100
AcDbCircle
 10
-52.3171707
 20
-27.41881419
 30
0.0
 40
0.50734992
100
AcDbArc
 50
21.67043596
 51
89.83149802
  0
ARC
  5
37C
100
AcDbEntity
  8
0
  6
CONTINUOUS
 62
       7
100
AcDbCircle
 10
-54.79031903
 20
-27.41139437
 30
0.0
 40
0.49995664
100
AcDbArc
 50
90.61422974
 51
166.12074103
  0
ARC
  5
37D
100
AcDbEntity
  8
0
  6
CONTINUOUS
 62
       7
100
AcDbCircle
 10
-57.02725971
 20
-30.31350068
 30
0.0
 40
0.99796703
100
AcDbArc
 50
270.09077405
 51
346.79533295
  0
ARC
  5
37E
100
AcDbEntity
  8
0
  6
CONTINUOUS
 62
       7
100
AcDbCircle
 10
-73.47726849
 20
-27.4194376
 30
0.0
 40
0.50797363
100
AcDbArc
 50
14.59143936
 51
89.82067464
  0
ARC
  5
37F
100
AcDbEntity
  8
0
  6
CONTINUOUS
 62
       7
100
AcDbCircle
 10
-75.94941692
 20
-27.41109266
 30
0.0
 40
0.49966544
100
AcDbArc
 50
90.71803781
 51
158.9309405
  0
ARC
  5
380
100
AcDbEntity
  8
0
  6
CONTINUOUS
 62
       7
100
AcDbCircle
 10
4.71637457
 20
-44.10941326
 30
0.0
 40
0.99794892
100
AcDbArc
 50
359.88211868
 51
90.11788132
  0
ARC
  5
381
100
AcDbEntity
  8
0
  6
CONTINUOUS
 62
       7
100
AcDbCircle
 10
6.7164277
 20
-60.50936013
 30
0.0
 40
1.00210854
100
AcDbArc
 50
180.12042989
 51
269.87957011
  0
ARC
  5
382
100
AcDbEntity
  8
0
  6
CONTINUOUS
 62
       7
100
AcDbCircle
 10
-96.27359611
 20
-44.11354897
 30
0.0
 40
1.00208468
100
AcDbArc
 50
90.1190712
 51
179.8809288
  0
ARC
  5
383
100
AcDbEntity
  8
0
  6
CONTINUOUS
 62
       7
100
AcDbCircle
 10
-98.27360769
 20
-60.51353739
 30
0.0
 40
0.99793121
100
AcDbArc
 50
269.88109804
 51
0.11890196
  0
ARC
  5
384
100
AcDbEntity
  8
0
  6
CONTINUOUS
 62
       7
100
AcDbCircle
 10
-98.27360921
 20
-61.71353587
 30
0.0
 40
0.99793273
100
AcDbArc
 50
269.88118558
 51
0.11881442
  0
ARC
  5
385
100
AcDbEntity
  8
0
  6
CONTINUOUS
 62
       7
100
AcDbCircle
 10
-102.77567863
 20
19.07853354
 30
0.0
 40
2.05000017
100
AcDbArc
 50
90.0
 51
270.0
  0
ARC
  5
386
100
AcDbEntity
  8
0
  6
CONTINUOUS
 62
       7
100
AcDbCircle
 10
-101.77567863
 20
19.07853354
 30
0.0
 40
2.05000017
100
AcDbArc
 50
270.0
 51
90.0
  0
ARC
  5
387
100
AcDbEntity
  8
0
  6
CONTINUOUS
 62
       7
100
AcDbCircle
 10
-96.27359611
 20
3.38061606
 30
0.0
 40
1.00208468
100
AcDbArc
 50
180.1190712
 51
269.8809288
  0
ARC
  5
388
100
AcDbEntity
  8
0
  6
CONTINUOUS
 62
       7
100
AcDbCircle
 10
-102.77360105
 20
18.58061112
 30
0.0
 40
5.00207801
100
AcDbArc
 50
180.02379735
 51
269.97620265
  0
ARC
  5
389
100
AcDbEntity
  8
0
  6
CONTINUOUS
 62
       7
100
AcDbCircle
 10
-102.7785969
 20
19.78145181
 30
0.0
 40
4.99708258
100
AcDbArc
 50
89.96653956
 51
180.03346044
  0
ARC
  5
38A
100
AcDbEntity
  8
0
  6
CONTINUOUS
 62
       7
100
AcDbCircle
 10
-96.27859822
 20
46.38145313
 30
0.0
 40
0.99708468
100
AcDbArc
 50
89.83223028
 51
180.16776972
  0
ARC
  5
38B
100
AcDbEntity
  8
0
  6
CONTINUOUS
 62
       7
100
AcDbCircle
 10
4.72139746
 20
46.38560963
 30
0.0
 40
0.99294913
100
AcDbArc
 50
359.59168765
 51
90.40831235
  0
ARC
  5
38C
100
AcDbEntity
  8
0
  6
CONTINUOUS
 62
       7
100
AcDbCircle
 10
11.22140071
 20
31.18561288
 30
0.0
 40
4.99292568
100
AcDbArc
 50
359.91876175
 51
90.08123825
  0
ARC
  5
38D
100
AcDbEntity
  8
0
  6
CONTINUOUS
 62
       7
100
AcDbCircle
 10
11.21639155
 20
29.97646336
 30
0.0
 40
4.99793025
100
AcDbArc
 50
269.97626765
 51
0.02373235
  0
ARC
  5
38E
100
AcDbEntity
  8
0
  6
CONTINUOUS
 62
       7
100
AcDbCircle
 10
4.71637457
 20
3.37648035
 30
0.0
 40
0.99794892
100
AcDbArc
 50
269.88211868
 51
0.11788132
  0
ARC
  5
38F
100
AcDbEntity
  8
0
  6
CONTINUOUS
 62
       7
100
AcDbCircle
 10
11.22347789
 20
30.67853354
 30
0.0
 40
2.05002045
100
AcDbArc
 50
269.74408461
 51
90.25591539
  0
ARC
  5
390
100
AcDbEntity
  8
0
  6
CONTINUOUS
 62
       7
100
AcDbCircle
 10
10.22347789
 20
30.67853354
 30
0.0
 40
2.05002045
100
AcDbArc
 50
90.25591539
 51
269.74408461
  0
ARC
  5
391
100
AcDbEntity
  8
0
  6
CONTINUOUS
 62
       7
100
AcDbCircle
 10
-20.17624692
 20
22.62796525
 30
0.0
 40
0.1005699
100
AcDbArc
 50
0.3237635
 51
89.6762365
  0
ARC
  5
392
100
AcDbEntity
  8
0
  6
CONTINUOUS
 62
       7
100
AcDbCircle
 10
-20.18109913
 20
18.33395405
 30
0.0
 40
0.10555977
100
AcDbArc
 50
272.94343883
 51
357.05656117
  0
ARC
  5
393
100
AcDbEntity
  8
0
  6
CONTINUOUS
 62
       7
100
AcDbCircle
 10
-20.18109913
 20
18.58395405
 30
0.0
 40
0.10555977
100
AcDbArc
 50
272.94343883
 51
357.05656117
  0
ARC
  5
394
100
AcDbEntity
  8
0
  6
CONTINUOUS
 62
       7
100
AcDbCircle
 10
-20.17624692
 20
22.37796525
 30
0.0
 40
0.1005699
100
AcDbArc
 50
0.3237635
 51
89.6762365
  0
ARC
  5
395
100
AcDbEntity
  8
0
  6
CONTINUOUS
 62
       7
100
AcDbCircle
 10
-21.8315254
 20
20.47853354
 30
0.0
 40
1.15142842
100
AcDbArc
 50
115.41460544
 51
244.58539456
  0
ARC
  5
396
100
AcDbEntity
  8
0
  6
CONTINUOUS
 62
       7
100
AcDbCircle
 10
-21.83153481
 20
20.47853354
 30
0.0
 40
1.15649923
100
AcDbArc
 50
295.93829638
 51
64.06170362
  0
ARC
  5
397
100
AcDbEntity
  8
0
  6
CONTINUOUS
 62
       7
100
AcDbCircle
 10
-21.83152542
 20
25.55853354
 30
0.0
 40
1.15142841
100
AcDbArc
 50
115.41460431
 51
244.58539569
  0
ARC
  5
398
100
AcDbEntity
  8
0
  6
CONTINUOUS
 62
       7
100
AcDbCircle
 10
-21.83153478
 20
25.55853354
 30
0.0
 40
1.15649922
100
AcDbArc
 50
295.93829524
 51
64.06170476
  0
ARC
  5
399
100
AcDbEntity
  8
0
  6
CONTINUOUS
 62
       7
100
AcDbCircle
 10
-20.17624605
 20
27.45796612
 30
0.0
 40
0.10056903
100
AcDbArc
 50
0.32327308
 51
89.67672692
  0
ARC
  5
39A
100
AcDbEntity
  8
0
  6
CONTINUOUS
 62
       7
100
AcDbCircle
 10
-20.18110004
 20
23.66395496
 30
0.0
 40
0.10556073
100
AcDbArc
 50
272.94390761
 51
357.05609239
  0
ARC
  5
39B
100
AcDbEntity
  8
0
  6
CONTINUOUS
 62
       7
100
AcDbCircle
 10
-20.17624605
 20
27.70796612
 30
0.0
 40
0.10056903
100
AcDbArc
 50
0.32327308
 51
89.67672692
  0
ARC
  5
39C
100
AcDbEntity
  8
0
  6
CONTINUOUS
 62
       7
100
AcDbCircle
 10
-20.18110004
 20
23.41395496
 30
0.0
 40
0.10556073
100
AcDbArc
 50
272.94390761
 51
357.05609239
  0
ARC
  5
39D
100
AcDbEntity
  8
0
  6
CONTINUOUS
 62
       7
100
AcDbCircle
 10
-11.21102072
 20
18.14387563
 30
0.0
 40
0.10547746
100
AcDbArc
 50
272.90308715
 51
357.09691285
  0
ARC
  5
39E
100
AcDbEntity
  8
0
  6
CONTINUOUS
 62
       7
100
AcDbCircle
 10
-12.44648982
 20
18.13772235
 30
0.0
 40
0.09919213
100
AcDbArc
 50
179.53143187
 51
270.46856813
  0
ARC
  5
39F
100
AcDbEntity
  8
0
  6
CONTINUOUS
 62
       7
100
AcDbCircle
 10
-12.45166287
 20
22.82451779
 30
0.0
 40
0.09420601
100
AcDbArc
 50
86.35794931
 51
183.64205069
  0
ARC
  5
3A0
100
AcDbEntity
  8
0
  6
CONTINUOUS
 62
       7
100
AcDbCircle
 10
-11.20616471
 20
22.81804746
 30
0.0
 40
0.10048726
100
AcDbArc
 50
0.27715581
 51
89.72284419
  0
ARC
  5
3A1
100
AcDbEntity
  8
0
  6
CONTINUOUS
 62
       7
100
AcDbCircle
 10
-11.21102163
 20
23.22387654
 30
0.0
 40
0.10547841
100
AcDbArc
 50
272.90355701
 51
357.09644299
  0
ARC
  5
3A2
100
AcDbEntity
  8
0
  6
CONTINUOUS
 62
       7
100
AcDbCircle
 10
-12.44648885
 20
23.21772332
 30
0.0
 40
0.09919309
100
AcDbArc
 50
179.53199705
 51
270.46800295
  0
ARC
  5
3A3
100
AcDbEntity
  8
0
  6
CONTINUOUS
 62
       7
100
AcDbCircle
 10
-12.4516638
 20
27.90451871
 30
0.0
 40
0.09420515
100
AcDbArc
 50
86.35735245
 51
183.64264755
  0
ARC
  5
3A4
100
AcDbEntity
  8
0
  6
CONTINUOUS
 62
       7
100
AcDbCircle
 10
-11.20616384
 20
27.89804832
 30
0.0
 40
0.10048639
100
AcDbArc
 50
0.27666419
 51
89.72333581
  0
ARC
  5
3A5
100
AcDbEntity
  8
0
  6
CONTINUOUS
 62
       7
100
AcDbCircle
 10
-80.97864853
 20
22.82150344
 30
0.0
 40
0.09707554
100
AcDbArc
 50
88.24683743
 51
181.75316257
  0
ARC
  5
3A6
100
AcDbEntity
  8
0
  6
CONTINUOUS
 62
       7
100
AcDbCircle
 10
-79.73305799
 20
22.82115418
 30
0.0
 40
0.09741462
100
AcDbArc
 50
358.45844894
 51
91.54155106
  0
ARC
  5
3A7
100
AcDbEntity
  8
0
  6
CONTINUOUS
 62
       7
100
AcDbCircle
 10
-79.73806372
 20
18.14091864
 30
0.0
 40
0.10241287
100
AcDbArc
 50
271.33448313
 51
358.66551687
  0
ARC
  5
3A8
100
AcDbEntity
  8
0
  6
CONTINUOUS
 62
       7
100
AcDbCircle
 10
-80.9736257
 20
18.14058647
 30
0.0
 40
0.10207358
100
AcDbArc
 50
181.15242522
 51
268.84757478
  0
ARC
  5
3A9
100
AcDbEntity
  8
0
  6
CONTINUOUS
 62
       7
100
AcDbCircle
 10
-80.97864942
 20
27.90150434
 30
0.0
 40
0.09707467
100
AcDbArc
 50
88.24629196
 51
181.75370804
  0
ARC
  5
3AA
100
AcDbEntity
  8
0
  6
CONTINUOUS
 62
       7
100
AcDbCircle
 10
-79.7330571
 20
27.90115507
 30
0.0
 40
0.09741375
100
AcDbArc
 50
358.45790915
 51
91.54209085
  0
ARC
  5
3AB
100
AcDbEntity
  8
0
  6
CONTINUOUS
 62
       7
100
AcDbCircle
 10
-79.73806466
 20
23.22091958
 30
0.0
 40
0.10241383
100
AcDbArc
 50
271.33499647
 51
358.66500353
  0
ARC
  5
3AC
100
AcDbEntity
  8
0
  6
CONTINUOUS
 62
       7
100
AcDbCircle
 10
-80.97362475
 20
23.22058741
 30
0.0
 40
0.10207454
100
AcDbArc
 50
181.15294369
 51
268.84705631
  0
ARC
  5
3AD
100
AcDbEntity
  8
0
  6
CONTINUOUS
 62
       7
100
AcDbCircle
 10
-72.00355721
 20
18.33065496
 30
0.0
 40
0.10214345
100
AcDbArc
 50
181.19005998
 51
268.80994002
  0
ARC
  5
3AE
100
AcDbEntity
  8
0
  6
CONTINUOUS
 62
       7
100
AcDbCircle
 10
-72.00857664
 20
22.63143155
 30
0.0
 40
0.09714523
100
AcDbArc
 50
88.29051407
 51
181.70948593
  0
ARC
  5
3AF
100
AcDbEntity
  8
0
  6
CONTINUOUS
 62
       7
100
AcDbCircle
 10
-72.00857664
 20
22.38143155
 30
0.0
 40
0.09714523
100
AcDbArc
 50
88.29051407
 51
181.70948593
  0
ARC
  5
3B0
100
AcDbEntity
  8
0
  6
CONTINUOUS
 62
       7
100
AcDbCircle
 10
-72.00355721
 20
18.58065496
 30
0.0
 40
0.10214345
100
AcDbArc
 50
181.19005998
 51
268.80994002
  0
ARC
  5
3B1
100
AcDbEntity
  8
0
  6
CONTINUOUS
 62
       7
100
AcDbCircle
 10
-70.35652867
 20
20.47853354
 30
0.0
 40
1.15431831
100
AcDbArc
 50
295.71484219
 51
64.28515781
  0
ARC
  5
3B2
100
AcDbEntity
  8
0
  6
CONTINUOUS
 62
       7
100
AcDbCircle
 10
-70.35651926
 20
20.47853354
 30
0.0
 40
1.15358574
100
AcDbArc
 50
115.63918625
 51
244.36081375
  0
ARC
  5
3B3
100
AcDbEntity
  8
0
  6
CONTINUOUS
 62
       7
100
AcDbCircle
 10
-70.35652865
 20
25.55853354
 30
0.0
 40
1.1543183
100
AcDbArc
 50
295.71484106
 51
64.28515894
  0
ARC
  5
3B4
100
AcDbEntity
  8
0
  6
CONTINUOUS
 62
       7
100
AcDbCircle
 10
-70.35651929
 20
25.55853354
 30
0.0
 40
1.15358573
100
AcDbArc
 50
115.63918513
 51
244.36081487
  0
ARC
  5
3B5
100
AcDbEntity
  8
0
  6
CONTINUOUS
 62
       7
100
AcDbCircle
 10
-72.00355627
 20
23.6606559
 30
0.0
 40
0.10214441
100
AcDbArc
 50
181.19057741
 51
268.80942259
  0
ARC
  5
3B6
100
AcDbEntity
  8
0
  6
CONTINUOUS
 62
       7
100
AcDbCircle
 10
-72.00857753
 20
27.46143245
 30
0.0
 40
0.09714436
100
AcDbArc
 50
88.28996976
 51
181.71003024
  0
ARC
  5
3B7
100
AcDbEntity
  8
0
  6
CONTINUOUS
 62
       7
100
AcDbCircle
 10
-72.00355627
 20
23.4106559
 30
0.0
 40
0.10214441
100
AcDbArc
 50
181.19057741
 51
268.80942259
  0
ARC
  5
3B8
100
AcDbEntity
  8
0
  6
CONTINUOUS
 62
       7
100
AcDbCircle
 10
-72.00857753
 20
27.71143245
 30
0.0
 40
0.09714436
100
AcDbArc
 50
88.28996976
 51
181.71003024
  0
ARC
  5
3B9
100
AcDbEntity
  8
0
  6
CONTINUOUS
 62
       7
100
AcDbCircle
 10
-57.64110483
 20
-39.91689266
 30
0.0
 40
0.50545533
100
AcDbArc
 50
0.61509802
 51
89.38490198
  0
ARC
  5
3BA
100
AcDbEntity
  8
0
  6
CONTINUOUS
 62
       7
100
AcDbCircle
 10
-57.63613104
 20
-41.91101404
 30
0.0
 40
0.50045262
100
AcDbArc
 50
270.0517963
 51
359.9482037
  0
ARC
  5
3BB
100
AcDbEntity
  8
0
  6
CONTINUOUS
 62
       7
100
AcDbCircle
 10
-83.44109838
 20
-41.91688621
 30
0.0
 40
0.49460995
100
AcDbArc
 50
179.37216202
 51
270.62783798
  0
ARC
  5
3BC
100
AcDbEntity
  8
0
  6
CONTINUOUS
 62
       7
100
AcDbCircle
 10
-83.43606612
 20
-39.91107897
 30
0.0
 40
0.49961266
100
AcDbArc
 50
89.95556216
 51
180.04443784
  0
ARC
  5
3BD
100
AcDbEntity
  8
0
  6
CONTINUOUS
 62
       7
100
AcDbCircle
 10
-69.03613098
 20
-37.81101411
 30
0.0
 40
0.50045256
100
AcDbArc
 50
270.05178872
 51
359.94821128
  0
ARC
  5
3BE
100
AcDbEntity
  8
0
  6
CONTINUOUS
 62
       7
100
AcDbCircle
 10
-72.04109837
 20
-37.8168862
 30
0.0
 40
0.49460995
100
AcDbArc
 50
179.37216262
 51
270.62783738
  0
ARC
  5
3BF
100
AcDbEntity
  8
0
  6
CONTINUOUS
 62
       7
100
AcDbCircle
 10
-76.59454831
 20
-17.55683128
 30
0.0
 40
0.19555409
100
AcDbArc
 50
136.19456183
 51
208.94262223
  0
ARC
  5
3C0
100
AcDbEntity
  8
0
  6
CONTINUOUS
 62
       7
100
AcDbCircle
 10
-76.28026176
 20
-17.25111987
 30
0.0
 40
0.19482319
100
AcDbArc
 50
76.77127492
 51
138.27986182
  0
ARC
  5
3C1
100
AcDbEntity
  8
0
  6
CONTINUOUS
 62
       7
100
AcDbCircle
 10
-72.28391978
 20
-21.65934187
 30
0.0
 40
0.79824398
100
AcDbArc
 50
359.84750253
 51
80.75513644
  0
ARC
  5
3C2
100
AcDbEntity
  8
0
  6
CONTINUOUS
 62
       7
100
AcDbCircle
 10
-71.68725322
 20
-22.4907344
 30
0.0
 40
0.20157592
100
AcDbArc
 50
264.75545715
 51
359.79192086
  0
ARC
  5
3C3
100
AcDbEntity
  8
0
  6
CONTINUOUS
 62
       7
100
AcDbCircle
 10
-72.08477031
 20
-22.44164897
 30
0.0
 40
0.2009084
100
AcDbArc
 50
179.94794943
 51
264.02647556
  0
ARC
  5
3C4
100
AcDbEntity
  8
0
  6
CONTINUOUS
 62
       7
100
AcDbCircle
 10
-72.38355627
 20
-22.21934411
 30
0.0
 40
0.09790066
100
AcDbArc
 50
358.75780849
 51
91.24219151
  0
ARC
  5
3C5
100
AcDbEntity
  8
0
  6
CONTINUOUS
 62
       7
100
AcDbCircle
 10
-72.9884895
 20
-22.21865559
 30
0.0
 40
0.09722977
100
AcDbArc
 50
88.34337357
 51
181.65662643
  0
ARC
  5
3C6
100
AcDbEntity
  8
0
  6
CONTINUOUS
 62
       7
100
AcDbCircle
 10
-51.68198932
 20
-17.56539006
 30
0.0
 40
0.20523358
100
AcDbArc
 50
335.20284489
 51
44.528769
  0
ARC
  5
3C7
100
AcDbEntity
  8
0
  6
CONTINUOUS
 62
       7
100
AcDbCircle
 10
-51.98470003
 20
-17.25487114
 30
0.0
 40
0.20001047
100
AcDbArc
 50
41.83505833
 51
104.7664532
  0
ARC
  5
3C8
100
AcDbEntity
  8
0
  6
CONTINUOUS
 62
       7
100
AcDbCircle
 10
-55.99122903
 20
-21.65612624
 30
0.0
 40
0.79446754
100
AcDbArc
 50
99.01222994
 51
180.3851311
  0
ARC
  5
3C9
100
AcDbEntity
  8
0
  6
CONTINUOUS
 62
       7
100
AcDbCircle
 10
-56.58701038
 20
-22.49393139
 30
0.0
 40
0.19868353
100
AcDbArc
 50
179.28915153
 51
276.16347046
  0
ARC
  5
3CA
100
AcDbEntity
  8
0
  6
CONTINUOUS
 62
       7
100
AcDbCircle
 10
-56.19019
 20
-22.43840622
 30
0.0
 40
0.20453427
100
AcDbArc
 50
276.88286495
 51
359.14271006
  0
ARC
  5
3CB
100
AcDbEntity
  8
0
  6
CONTINUOUS
 62
       7
100
AcDbCircle
 10
-55.891103
 20
-22.21604209
 30
0.0
 40
0.09473106
100
AcDbArc
 50
86.71740575
 51
183.28259425
  0
ARC
  5
3CC
100
AcDbEntity
  8
0
  6
CONTINUOUS
 62
       7
100
AcDbCircle
 10
-55.28625456
 20
-22.22204239
 30
0.0
 40
0.10057758
100
AcDbArc
 50
0.32809369
 51
89.67190631
  0
ARC
  5
3CD
100
AcDbEntity
  8
0
  6
CONTINUOUS
 62
       7
100
AcDbCircle
 10
-13.47711014
 20
-17.5645415
 30
0.0
 40
0.20117988
100
AcDbArc
 50
334.40063269
 51
45.3309812
  0
ARC
  5
3CE
100
AcDbEntity
  8
0
  6
CONTINUOUS
 62
       7
100
AcDbCircle
 10
-13.78205076
 20
-17.25414488
 30
0.0
 40
0.19755598
100
AcDbArc
 50
42.19060572
 51
102.75825753
  0
ARC
  5
3CF
100
AcDbEntity
  8
0
  6
CONTINUOUS
 62
       7
100
AcDbCircle
 10
-17.78909545
 20
-21.65947476
 30
0.0
 40
0.79658567
100
AcDbArc
 50
98.41567087
 51
180.14325619
  0
ARC
  5
3D0
100
AcDbEntity
  8
0
  6
CONTINUOUS
 62
       7
100
AcDbCircle
 10
-18.38414036
 20
-22.49194745
 30
0.0
 40
0.20153884
100
AcDbArc
 50
179.86325867
 51
278.11856752
  0
ARC
  5
3D1
100
AcDbEntity
  8
0
  6
CONTINUOUS
 62
       7
100
AcDbCircle
 10
-17.9880512
 20
-22.44169977
 30
0.0
 40
0.20237271
100
AcDbArc
 50
279.20487178
 51
0.06605508
  0
ARC
  5
3D2
100
AcDbEntity
  8
0
  6
CONTINUOUS
 62
       7
100
AcDbCircle
 10
-17.68857365
 20
-22.21857144
 30
0.0
 40
0.09714813
100
AcDbArc
 50
88.29233011
 51
181.70766989
  0
ARC
  5
3D3
100
AcDbEntity
  8
0
  6
CONTINUOUS
 62
       7
100
AcDbCircle
 10
-17.0836332
 20
-22.21942103
 30
0.0
 40
0.09797592
100
AcDbArc
 50
358.80375626
 51
91.19624374
  0
ARC
  5
3D4
100
AcDbEntity
  8
0
  6
CONTINUOUS
 62
       7
100
AcDbCircle
 10
-40.50471688
 20
-17.5568093
 30
0.0
 40
0.19541724
100
AcDbArc
 50
136.16500298
 51
208.97218108
  0
ARC
  5
3D5
100
AcDbEntity
  8
0
  6
CONTINUOUS
 62
       7
100
AcDbCircle
 10
-40.19027477
 20
-17.25107867
 30
0.0
 40
0.19478605
100
AcDbArc
 50
76.76477537
 51
138.28636138
  0
ARC
  5
3D6
100
AcDbEntity
  8
0
  6
CONTINUOUS
 62
       7
100
AcDbCircle
 10
-36.19401985
 20
-21.65942673
 30
0.0
 40
0.79834382
100
AcDbArc
 50
359.85361221
 51
80.74902676
  0
ARC
  5
3D7
100
AcDbEntity
  8
0
  6
CONTINUOUS
 62
       7
100
AcDbCircle
 10
-35.59733737
 20
-22.49064184
 30
0.0
 40
0.20166043
100
AcDbArc
 50
264.7816695
 51
359.76570851
  0
ARC
  5
3D8
100
AcDbEntity
  8
0
  6
CONTINUOUS
 62
       7
100
AcDbCircle
 10
-35.99486431
 20
-22.44173357
 30
0.0
 40
0.2008145
100
AcDbArc
 50
179.92378838
 51
264.05063661
  0
ARC
  5
3D9
100
AcDbEntity
  8
0
  6
CONTINUOUS
 62
       7
100
AcDbCircle
 10
-36.2936445
 20
-22.21943234
 30
0.0
 40
0.09798699
100
AcDbArc
 50
358.81050464
 51
91.18949536
  0
ARC
  5
3DA
100
AcDbEntity
  8
0
  6
CONTINUOUS
 62
       7
100
AcDbCircle
 10
-36.89857707
 20
-22.21856801
 30
0.0
 40
0.0971448
100
AcDbArc
 50
88.29024962
 51
181.70975038
  0
ARC
  5
3DB
100
AcDbEntity
  8
0
  6
CONTINUOUS
 62
       7
100
AcDbCircle
 10
-20.14360798
 20
-37.81353711
 30
0.0
 40
0.49793366
100
AcDbArc
 50
269.76173572
 51
0.23826428
  0
ARC
  5
3DC
100
AcDbEntity
  8
0
  6
CONTINUOUS
 62
       7
100
AcDbCircle
 10
-23.14859209
 20
-37.81437992
 30
0.0
 40
0.49709507
100
AcDbArc
 50
179.66418881
 51
270.33581119
  0
ARC
  5
3DD
100
AcDbEntity
  8
0
  6
CONTINUOUS
 62
       7
100
AcDbCircle
 10
-8.74860684
 20
-39.91439467
 30
0.0
 40
0.50293674
100
AcDbArc
 50
0.33359092
 51
89.66640908
  0
ARC
  5
3DE
100
AcDbEntity
  8
0
  6
CONTINUOUS
 62
       7
100
AcDbCircle
 10
-8.74360801
 20
-41.91353707
 30
0.0
 40
0.49793369
100
AcDbArc
 50
269.76173984
 51
0.23826016
  0
ARC
  5
3DF
100
AcDbEntity
  8
0
  6
CONTINUOUS
 62
       7
100
AcDbCircle
 10
-34.54859973
 20
-41.91438756
 30
0.0
 40
0.49708748
100
AcDbArc
 50
179.66330355
 51
270.33669645
  0
ARC
  5
3E0
100
AcDbEntity
  8
0
  6
CONTINUOUS
 62
       7
100
AcDbCircle
 10
-34.54359243
 20
-39.91355265
 30
0.0
 40
0.50209053
100
AcDbArc
 50
90.23806562
 51
179.76193438
  0
CIRCLE
  5
3E1
100
AcDbEntity
  8
0
  6
CONTINUOUS
 62
       7
100
AcDbCircle
 10
-10.21652457
 20
9.68852622
 30
0.0
 40
0.3500061
  0
CIRCLE
  5
3E2
100
AcDbEntity
  8
0
  6
CONTINUOUS
 62
       7
100
AcDbCircle
 10
-10.21652457
 20
12.22853476
 30
0.0
 40
0.3500061
  0
CIRCLE
  5
3E3
100
AcDbEntity
  8
0
  6
CONTINUOUS
 62
       7
100
AcDbCircle
 10
-12.75651786
 20
9.68852622
 30
0.0
 40
0.3500061
  0
CIRCLE
  5
3E4
100
AcDbEntity
  8
0
  6
CONTINUOUS
 62
       7
100
AcDbCircle
 10
-12.75651786
 20
12.22853476
 30
0.0
 40
0.3500061
  0
CIRCLE
  5
3E5
100
AcDbEntity
  8
0
  6
CONTINUOUS
 62
       7
100
AcDbCircle
 10
-15.29652641
 20
9.68852622
 30
0.0
 40
0.3500061
  0
CIRCLE
  5
3E6
100
AcDbEntity
  8
0
  6
CONTINUOUS
 62
       7
100
AcDbCircle
 10
-15.29652641
 20
12.22853476
 30
0.0
 40
0.3500061
  0
CIRCLE
  5
3E7
100
AcDbEntity
  8
0
  6
CONTINUOUS
 62
       7
100
AcDbCircle
 10
-17.83651969
 20
9.68852622
 30
0.0
 40
0.3500061
  0
CIRCLE
  5
3E8
100
AcDbEntity
  8
0
  6
CONTINUOUS
 62
       7
100
AcDbCircle
 10
-17.83651969
 20
12.22853476
 30
0.0
 40
0.3500061
  0
CIRCLE
  5
3E9
100
AcDbEntity
  8
0
  6
CONTINUOUS
 62
       7
100
AcDbCircle
 10
-20.37652824
 20
9.68852622
 30
0.0
 40
0.3500061
  0
CIRCLE
  5
3EA
100
AcDbEntity
  8
0
  6
CONTINUOUS
 62
       7
100
AcDbCircle
 10
-20.37652824
 20
12.22853476
 30
0.0
 40
0.3500061
  0
CIRCLE
  5
3EB
100
AcDbEntity
  8
0
  6
CONTINUOUS
 62
       7
100
AcDbCircle
 10
-22.91652152
 20
12.22853476
 30
0.0
 40
0.3500061
  0
CIRCLE
  5
3EC
100
AcDbEntity
  8
0
  6
CONTINUOUS
 62
       7
100
AcDbCircle
 10
-22.91652152
 20
9.68852622
 30
0.0
 40
0.3500061
  0
CIRCLE
  5
3ED
100
AcDbEntity
  8
0
  6
CONTINUOUS
 62
       7
100
AcDbCircle
 10
-25.45651481
 20
12.22853476
 30
0.0
 40
0.3500061
  0
CIRCLE
  5
3EE
100
AcDbEntity
  8
0
  6
CONTINUOUS
 62
       7
100
AcDbCircle
 10
-25.45651481
 20
9.68852622
 30
0.0
 40
0.3500061
  0
CIRCLE
  5
3EF
100
AcDbEntity
  8
0
  6
CONTINUOUS
 62
       7
100
AcDbCircle
 10
-27.99652335
 20
12.22853476
 30
0.0
 40
0.3500061
  0
CIRCLE
  5
3F0
100
AcDbEntity
  8
0
  6
CONTINUOUS
 62
       7
100
AcDbCircle
 10
-27.99652335
 20
9.68852622
 30
0.0
 40
0.3500061
  0
CIRCLE
  5
3F1
100
AcDbEntity
  8
0
  6
CONTINUOUS
 62
       7
100
AcDbCircle
 10
-30.53651664
 20
12.22853476
 30
0.0
 40
0.3500061
  0
CIRCLE
  5
3F2
100
AcDbEntity
  8
0
  6
CONTINUOUS
 62
       7
100
AcDbCircle
 10
-30.53651664
 20
9.68852622
 30
0.0
 40
0.3500061
  0
CIRCLE
  5
3F3
100
AcDbEntity
  8
0
  6
CONTINUOUS
 62
       7
100
AcDbCircle
 10
-33.07652518
 20
12.22853476
 30
0.0
 40
0.3500061
  0
CIRCLE
  5
3F4
100
AcDbEntity
  8
0
  6
CONTINUOUS
 62
       7
100
AcDbCircle
 10
-33.07652518
 20
9.68852622
 30
0.0
 40
0.3500061
  0
CIRCLE
  5
3F5
100
AcDbEntity
  8
0
  6
CONTINUOUS
 62
       7
100
AcDbCircle
 10
-81.9715142
 20
9.68852622
 30
0.0
 40
0.34999847
  0
CIRCLE
  5
3F6
100
AcDbEntity
  8
0
  6
CONTINUOUS
 62
       7
100
AcDbCircle
 10
-81.9715142
 20
12.22853476
 30
0.0
 40
0.34999847
  0
CIRCLE
  5
3F7
100
AcDbEntity
  8
0
  6
CONTINUOUS
 62
       7
100
AcDbCircle
 10
-79.43152091
 20
9.68852622
 30
0.0
 40
0.34999847
  0
CIRCLE
  5
3F8
100
AcDbEntity
  8
0
  6
CONTINUOUS
 62
       7
100
AcDbCircle
 10
-79.43152091
 20
12.22853476
 30
0.0
 40
0.34999847
  0
CIRCLE
  5
3F9
100
AcDbEntity
  8
0
  6
CONTINUOUS
 62
       7
100
AcDbCircle
 10
-76.89151237
 20
9.68852622
 30
0.0
 40
0.34999847
  0
CIRCLE
  5
3FA
100
AcDbEntity
  8
0
  6
CONTINUOUS
 62
       7
100
AcDbCircle
 10
-76.89151237
 20
12.22853476
 30
0.0
 40
0.34999847
  0
CIRCLE
  5
3FB
100
AcDbEntity
  8
0
  6
CONTINUOUS
 62
       7
100
AcDbCircle
 10
-74.35151908
 20
9.68852622
 30
0.0
 40
0.34999847
  0
CIRCLE
  5
3FC
100
AcDbEntity
  8
0
  6
CONTINUOUS
 62
       7
100
AcDbCircle
 10
-74.35151908
 20
12.22853476
 30
0.0
 40
0.34999847
  0
CIRCLE
  5
3FD
100
AcDbEntity
  8
0
  6
CONTINUOUS
 62
       7
100
AcDbCircle
 10
-71.8115258
 20
9.68852622
 30
0.0
 40
0.34999847
  0
CIRCLE
  5
3FE
100
AcDbEntity
  8
0
  6
CONTINUOUS
 62
       7
100
AcDbCircle
 10
-71.8115258
 20
12.22853476
 30
0.0
 40
0.34999847
  0
CIRCLE
  5
3FF
100
AcDbEntity
  8
0
  6
CONTINUOUS
 62
       7
100
AcDbCircle
 10
-69.27151725
 20
12.22853476
 30
0.0
 40
0.34999847
  0
CIRCLE
  5
400
100
AcDbEntity
  8
0
  6
CONTINUOUS
 62
       7
100
AcDbCircle
 10
-69.27151725
 20
9.68852622
 30
0.0
 40
0.34999847
  0
CIRCLE
  5
401
100
AcDbEntity
  8
0
  6
CONTINUOUS
 62
       7
100
AcDbCircle
 10
-66.73152396
 20
12.22853476
 30
0.0
 40
0.34999847
  0
CIRCLE
  5
402
100
AcDbEntity
  8
0
  6
CONTINUOUS
 62
       7
100
AcDbCircle
 10
-66.73152396
 20
9.68852622
 30
0.0
 40
0.34999847
  0
CIRCLE
  5
403
100
AcDbEntity
  8
0
  6
CONTINUOUS
 62
       7
100
AcDbCircle
 10
-64.19151542
 20
12.22853476
 30
0.0
 40
0.34999847
  0
CIRCLE
  5
404
100
AcDbEntity
  8
0
  6
CONTINUOUS
 62
       7
100
AcDbCircle
 10
-64.19151542
 20
9.68852622
 30
0.0
 40
0.34999847
  0
CIRCLE
  5
405
100
AcDbEntity
  8
0
  6
CONTINUOUS
 62
       7
100
AcDbCircle
 10
-61.65152213
 20
12.22853476
 30
0.0
 40
0.3500061
  0
CIRCLE
  5
406
100
AcDbEntity
  8
0
  6
CONTINUOUS
 62
       7
100
AcDbCircle
 10
-61.65152213
 20
9.68852622
 30
0.0
 40
0.3500061
  0
CIRCLE
  5
407
100
AcDbEntity
  8
0
  6
CONTINUOUS
 62
       7
100
AcDbCircle
 10
-59.11152885
 20
12.22853476
 30
0.0
 40
0.3500061
  0
CIRCLE
  5
408
100
AcDbEntity
  8
0
  6
CONTINUOUS
 62
       7
100
AcDbCircle
 10
-59.11152885
 20
9.68852622
 30
0.0
 40
0.3500061
  0
CIRCLE
  5
409
100
AcDbEntity
  8
0
  6
CONTINUOUS
 62
       7
100
AcDbCircle
 10
-4.39651725
 20
-41.31646341
 30
0.0
 40
1.25
  0
CIRCLE
  5
40A
100
AcDbEntity
  8
0
  6
CONTINUOUS
 62
       7
100
AcDbCircle
 10
-38.89651725
 20
-41.31646341
 30
0.0
 40
1.25
  0
CIRCLE
  5
40B
100
AcDbEntity
  8
0
  6
CONTINUOUS
 62
       7
100
AcDbCircle
 10
-87.79152152
 20
-41.31646341
 30
0.0
 40
1.25
  0
CIRCLE
  5
40C
100
AcDbEntity
  8
0
  6
CONTINUOUS
 62
       7
100
AcDbCircle
 10
-53.29153678
 20
-41.31646341
 30
0.0
 40
1.25
  0
CIRCLE
  5
40D
100
AcDbEntity
  8
0
  6
CONTINUOUS
 62
       7
100
AcDbCircle
 10
-74.75651786
 20
25.56352622
 30
0.0
 40
1.875
  0
CIRCLE
  5
40E
100
AcDbEntity
  8
0
  6
CONTINUOUS
 62
       7
100
AcDbCircle
 10
-74.75651786
 20
20.48353964
 30
0.0
 40
1.875
  0
CIRCLE
  5
40F
100
AcDbEntity
  8
0
  6
CONTINUOUS
 62
       7
100
AcDbCircle
 10
-17.43153617
 20
25.56352622
 30
0.0
 40
1.875
  0
CIRCLE
  5
410
100
AcDbEntity
  8
0
  6
CONTINUOUS
 62
       7
100
AcDbCircle
 10
-17.43153617
 20
20.48353964
 30
0.0
 40
1.875
  0
CIRCLE
  5
411
100
AcDbEntity
  8
0
  6
CONTINUOUS
 62
       7
100
AcDbCircle
 10
-90.77652213
 20
33.88353354
 30
0.0
 40
1.0
  0
CIRCLE
  5
412
100
AcDbEntity
  8
0
  6
CONTINUOUS
 62
       7
100
AcDbCircle
 10
-90.77652213
 20
27.88353354
 30
0.0
 40
1.0
  0
CIRCLE
  5
413
100
AcDbEntity
  8
0
  6
CONTINUOUS
 62
       7
100
AcDbCircle
 10
-90.77652213
 20
21.88353354
 30
0.0
 40
1.0
  0
CIRCLE
  5
414
100
AcDbEntity
  8
0
  6
CONTINUOUS
 62
       7
100
AcDbCircle
 10
-0.77652213
 20
39.88353354
 30
0.0
 40
1.0
  0
CIRCLE
  5
415
100
AcDbEntity
  8
0
  6
CONTINUOUS
 62
       7
100
AcDbCircle
 10
-0.77652213
 20
33.88353354
 30
0.0
 40
1.0
  0
CIRCLE
  5
416
100
AcDbEntity
  8
0
  6
CONTINUOUS
 62
       7
100
AcDbCircle
 10
-0.77652213
 20
27.88353354
 30
0.0
 40
1.0
  0
CIRCLE
  5
417
100
AcDbEntity
  8
0
  6
CONTINUOUS
 62
       7
100
AcDbCircle
 10
-0.77652213
 20
21.88353354
 30
0.0
 40
1.0
  0
CIRCLE
  5
418
100
AcDbEntity
  8
0
  6
CONTINUOUS
 62
       7
100
AcDbCircle
 10
-69.16636893
 20
35.57353598
 30
0.0
 40
0.34999758
  0
CIRCLE
  5
419
100
AcDbEntity
  8
0
  6
CONTINUOUS
 62
       7
100
AcDbCircle
 10
-69.16636893
 20
38.11351401
 30
0.0
 40
0.34999758
  0
ARC
  5
41A
100
AcDbEntity
  8
0
  6
CONTINUOUS
 62
       7
100
AcDbCircle
 10
-82.10567863
 20
36.83853354
 30
0.0
 40
1.45000015
100
AcDbArc
 50
90.0
 51
270.0
  0
CIRCLE
  5
41B
100
AcDbEntity
  8
0
  6
CONTINUOUS
 62
       7
100
AcDbCircle
 10
-20.90649459
 20
38.11351401
 30
0.0
 40
0.35000521
  0
CIRCLE
  5
41C
100
AcDbEntity
  8
0
  6
CONTINUOUS
 62
       7
100
AcDbCircle
 10
-20.90649459
 20
35.57353598
 30
0.0
 40
0.35000521
  0
CIRCLE
  5
41D
100
AcDbEntity
  8
0
  6
CONTINUOUS
 62
       7
100
AcDbCircle
 10
-23.44648978
 20
35.57353598
 30
0.0
 40
0.35000521
  0
CIRCLE
  5
41E
100
AcDbEntity
  8
0
  6
CONTINUOUS
 62
       7
100
AcDbCircle
 10
-23.44648978
 20
38.11351401
 30
0.0
 40
0.35000521
  0
CIRCLE
  5
41F
100
AcDbEntity
  8
0
  6
CONTINUOUS
 62
       7
100
AcDbCircle
 10
-25.98648307
 20
35.57353598
 30
0.0
 40
0.35000521
  0
CIRCLE
  5
420
100
AcDbEntity
  8
0
  6
CONTINUOUS
 62
       7
100
AcDbCircle
 10
-25.98648307
 20
38.11351401
 30
0.0
 40
0.35000521
  0
CIRCLE
  5
421
100
AcDbEntity
  8
0
  6
CONTINUOUS
 62
       7
100
AcDbCircle
 10
-28.52647636
 20
35.57353598
 30
0.0
 40
0.35000521
  0
CIRCLE
  5
422
100
AcDbEntity
  8
0
  6
CONTINUOUS
 62
       7
100
AcDbCircle
 10
-28.52647636
 20
38.11351401
 30
0.0
 40
0.35000521
  0
CIRCLE
  5
423
100
AcDbEntity
  8
0
  6
CONTINUOUS
 62
       7
100
AcDbCircle
 10
-31.06646964
 20
35.57353598
 30
0.0
 40
0.35000521
  0
CIRCLE
  5
424
100
AcDbEntity
  8
0
  6
CONTINUOUS
 62
       7
100
AcDbCircle
 10
-31.06646964
 20
38.11351401
 30
0.0
 40
0.35000521
  0
CIRCLE
  5
425
100
AcDbEntity
  8
0
  6
CONTINUOUS
 62
       7
100
AcDbCircle
 10
-33.60646293
 20
35.57353598
 30
0.0
 40
0.35000521
  0
CIRCLE
  5
426
100
AcDbEntity
  8
0
  6
CONTINUOUS
 62
       7
100
AcDbCircle
 10
-33.60646293
 20
38.11351401
 30
0.0
 40
0.35000521
  0
CIRCLE
  5
427
100
AcDbEntity
  8
0
  6
CONTINUOUS
 62
       7
100
AcDbCircle
 10
-36.14645622
 20
35.57353598
 30
0.0
 40
0.35000521
  0
CIRCLE
  5
428
100
AcDbEntity
  8
0
  6
CONTINUOUS
 62
       7
100
AcDbCircle
 10
-36.14645622
 20
38.11351401
 30
0.0
 40
0.35000521
  0
CIRCLE
  5
429
100
AcDbEntity
  8
0
  6
CONTINUOUS
 62
       7
100
AcDbCircle
 10
-38.68646476
 20
35.57353598
 30
0.0
 40
0.35000521
  0
CIRCLE
  5
42A
100
AcDbEntity
  8
0
  6
CONTINUOUS
 62
       7
100
AcDbCircle
 10
-38.68646476
 20
38.11351401
 30
0.0
 40
0.35000521
  0
CIRCLE
  5
42B
100
AcDbEntity
  8
0
  6
CONTINUOUS
 62
       7
100
AcDbCircle
 10
-41.22644279
 20
35.57353598
 30
0.0
 40
0.35000521
  0
CIRCLE
  5
42C
100
AcDbEntity
  8
0
  6
CONTINUOUS
 62
       7
100
AcDbCircle
 10
-41.22644279
 20
38.11351401
 30
0.0
 40
0.35000521
  0
CIRCLE
  5
42D
100
AcDbEntity
  8
0
  6
CONTINUOUS
 62
       7
100
AcDbCircle
 10
-43.76643607
 20
35.57353598
 30
0.0
 40
0.35000521
  0
CIRCLE
  5
42E
100
AcDbEntity
  8
0
  6
CONTINUOUS
 62
       7
100
AcDbCircle
 10
-43.76643607
 20
38.11351401
 30
0.0
 40
0.35000521
  0
CIRCLE
  5
42F
100
AcDbEntity
  8
0
  6
CONTINUOUS
 62
       7
100
AcDbCircle
 10
-46.30642936
 20
38.11351401
 30
0.0
 40
0.35000521
  0
CIRCLE
  5
430
100
AcDbEntity
  8
0
  6
CONTINUOUS
 62
       7
100
AcDbCircle
 10
-46.30642936
 20
35.57353598
 30
0.0
 40
0.35000521
  0
CIRCLE
  5
431
100
AcDbEntity
  8
0
  6
CONTINUOUS
 62
       7
100
AcDbCircle
 10
-48.84642265
 20
38.11351401
 30
0.0
 40
0.35000521
  0
CIRCLE
  5
432
100
AcDbEntity
  8
0
  6
CONTINUOUS
 62
       7
100
AcDbCircle
 10
-48.84642265
 20
35.57353598
 30
0.0
 40
0.35000521
  0
CIRCLE
  5
433
100
AcDbEntity
  8
0
  6
CONTINUOUS
 62
       7
100
AcDbCircle
 10
-51.38641593
 20
38.11351401
 30
0.0
 40
0.35000521
  0
CIRCLE
  5
434
100
AcDbEntity
  8
0
  6
CONTINUOUS
 62
       7
100
AcDbCircle
 10
-51.38641593
 20
35.57353598
 30
0.0
 40
0.35000521
  0
CIRCLE
  5
435
100
AcDbEntity
  8
0
  6
CONTINUOUS
 62
       7
100
AcDbCircle
 10
-53.92640922
 20
38.11351401
 30
0.0
 40
0.35000521
  0
CIRCLE
  5
436
100
AcDbEntity
  8
0
  6
CONTINUOUS
 62
       7
100
AcDbCircle
 10
-53.92640922
 20
35.57353598
 30
0.0
 40
0.35000521
  0
CIRCLE
  5
437
100
AcDbEntity
  8
0
  6
CONTINUOUS
 62
       7
100
AcDbCircle
 10
-56.46641776
 20
38.11351401
 30
0.0
 40
0.35000521
  0
CIRCLE
  5
438
100
AcDbEntity
  8
0
  6
CONTINUOUS
 62
       7
100
AcDbCircle
 10
-56.46641776
 20
35.57353598
 30
0.0
 40
0.35000521
  0
CIRCLE
  5
439
100
AcDbEntity
  8
0
  6
CONTINUOUS
 62
       7
100
AcDbCircle
 10
-59.00639579
 20
38.11351401
 30
0.0
 40
0.35000521
  0
CIRCLE
  5
43A
100
AcDbEntity
  8
0
  6
CONTINUOUS
 62
       7
100
AcDbCircle
 10
-59.00639579
 20
35.57353598
 30
0.0
 40
0.35000521
  0
CIRCLE
  5
43B
100
AcDbEntity
  8
0
  6
CONTINUOUS
 62
       7
100
AcDbCircle
 10
-61.54638908
 20
38.11351401
 30
0.0
 40
0.35000521
  0
CIRCLE
  5
43C
100
AcDbEntity
  8
0
  6
CONTINUOUS
 62
       7
100
AcDbCircle
 10
-61.54638908
 20
35.57353598
 30
0.0
 40
0.35000521
  0
CIRCLE
  5
43D
100
AcDbEntity
  8
0
  6
CONTINUOUS
 62
       7
100
AcDbCircle
 10
-64.08638236
 20
38.11351401
 30
0.0
 40
0.35000521
  0
CIRCLE
  5
43E
100
AcDbEntity
  8
0
  6
CONTINUOUS
 62
       7
100
AcDbCircle
 10
-64.08638236
 20
35.57353598
 30
0.0
 40
0.35000521
  0
CIRCLE
  5
43F
100
AcDbEntity
  8
0
  6
CONTINUOUS
 62
       7
100
AcDbCircle
 10
-66.62637565
 20
38.11351401
 30
0.0
 40
0.34999758
  0
CIRCLE
  5
440
100
AcDbEntity
  8
0
  6
CONTINUOUS
 62
       7
100
AcDbCircle
 10
-66.62637565
 20
35.57353598
 30
0.0
 40
0.34999758
  0
ARC
  5
441
100
AcDbEntity
  8
0
  6
CONTINUOUS
 62
       7
100
AcDbCircle
 10
-84.04862142
 20
-30.31919958
 30
0.0
 40
0.99227124
100
AcDbArc
 50
192.94397009
 51
270.16992291
  0
ARC
  5
442
100
AcDbEntity
  8
0
  6
CONTINUOUS
 62
       7
100
AcDbCircle
 10
-86.28544613
 20
-27.41708771
 30
0.0
 40
0.5056213
100
AcDbArc
 50
14.38576761
 51
90.02634639
  0
ARC
  5
443
100
AcDbEntity
  8
0
  6
CONTINUOUS
 62
       7
100
AcDbCircle
 10
-88.75788169
 20
-27.41338696
 30
0.0
 40
0.50192534
100
AcDbArc
 50
89.74851545
 51
158.74955057
  0
ARC
  5
444
100
AcDbEntity
  8
0
  6
CONTINUOUS
 62
       7
100
AcDbCircle
 10
-89.40076338
 20
-17.56340824
 30
0.0
 40
0.19583053
100
AcDbArc
 50
133.54616589
 51
206.72222023
  0
ARC
  5
445
100
AcDbEntity
  8
0
  6
CONTINUOUS
 62
       7
100
AcDbCircle
 10
-89.08757109
 20
-17.25182492
 30
0.0
 40
0.19730477
100
AcDbArc
 50
74.75146028
 51
138.64702819
  0
ARC
  5
446
100
AcDbEntity
  8
0
  6
CONTINUOUS
 62
       7
100
AcDbCircle
 10
-85.08694344
 20
-21.66190624
 30
0.0
 40
0.80126493
100
AcDbArc
 50
0.031447
 51
80.57119197
  0
ARC
  5
447
100
AcDbEntity
  8
0
  6
CONTINUOUS
 62
       7
100
AcDbCircle
 10
-84.49008175
 20
-22.48865287
 30
0.0
 40
0.20442249
100
AcDbArc
 50
262.8067957
 51
359.2113781
  0
ARC
  5
448
100
AcDbEntity
  8
0
  6
CONTINUOUS
 62
       7
100
AcDbCircle
 10
-84.88712129
 20
-22.44494272
 30
0.0
 40
0.19858776
100
AcDbArc
 50
178.9969899
 51
261.73208325
  0
ARC
  5
449
100
AcDbEntity
  8
0
  6
CONTINUOUS
 62
       7
100
AcDbCircle
 10
-85.1862433
 20
-22.22203113
 30
0.0
 40
0.10056626
100
AcDbArc
 50
0.32171434
 51
89.67828566
  0
ARC
  5
44A
100
AcDbEntity
  8
0
  6
CONTINUOUS
 62
       7
100
AcDbCircle
 10
-85.79109996
 20
-22.21604513
 30
0.0
 40
0.09473392
100
AcDbArc
 50
86.71934596
 51
183.28065404
  0
ARC
  5
44B
100
AcDbEntity
  8
0
  6
CONTINUOUS
 62
       7
100
AcDbCircle
 10
-3.43242581
 20
-27.41179053
 30
0.0
 40
0.50036957
100
AcDbArc
 50
21.12364427
 51
89.22737742
  0
ARC
  5
44C
100
AcDbEntity
  8
0
  6
CONTINUOUS
 62
       7
100
AcDbCircle
 10
-5.90465905
 20
-27.41870223
 30
0.0
 40
0.5072368
100
AcDbArc
 50
90.11516822
 51
165.47271777
  0
ARC
  5
44D
100
AcDbEntity
  8
0
  6
CONTINUOUS
 62
       7
100
AcDbCircle
 10
-8.12918025
 20
-30.31110076
 30
0.0
 40
1.00038681
100
AcDbArc
 50
269.62781178
 51
346.68664139
  0
ARC
  5
44E
100
AcDbEntity
  8
0
  6
CONTINUOUS
 62
       7
100
AcDbCircle
 10
-2.7873752
 20
-17.56284847
 30
0.0
 40
0.19321714
100
AcDbArc
 50
332.70032291
 51
47.03129098
  0
ARC
  5
44F
100
AcDbEntity
  8
0
  6
CONTINUOUS
 62
       7
100
AcDbCircle
 10
-3.10121248
 20
-17.25149032
 30
0.0
 40
0.19515713
100
AcDbArc
 50
41.77845997
 51
103.17040328
  0
ARC
  5
450
100
AcDbEntity
  8
0
  6
CONTINUOUS
 62
       7
100
AcDbCircle
 10
-7.09910284
 20
-21.65946841
 30
0.0
 40
0.7965783
100
AcDbArc
 50
98.41521225
 51
180.14371481
  0
ARC
  5
451
100
AcDbEntity
  8
0
  6
CONTINUOUS
 62
       7
100
AcDbCircle
 10
-7.69414581
 20
-22.49195372
 30
0.0
 40
0.2015334
100
AcDbArc
 50
179.86147169
 51
278.12035451
  0
ARC
  5
452
100
AcDbEntity
  8
0
  6
CONTINUOUS
 62
       7
100
AcDbCircle
 10
-7.29805859
 20
-22.44169349
 30
0.0
 40
0.20238009
100
AcDbArc
 50
279.20665133
 51
0.06427552
  0
ARC
  5
453
100
AcDbEntity
  8
0
  6
CONTINUOUS
 62
       7
100
AcDbCircle
 10
-6.99836231
 20
-22.21855114
 30
0.0
 40
0.09735997
100
AcDbArc
 50
94.30967297
 51
181.71590204
  0
ARC
  5
454
100
AcDbEntity
  8
0
  6
CONTINUOUS
 62
       7
100
AcDbCircle
 10
-6.39861856
 20
-22.21440639
 30
0.0
 40
0.0932077
100
AcDbArc
 50
355.65594206
 51
94.34405794
  0
LINE
  5
455
100
AcDbEntity
  8
0
  6
CONTINUOUS
 62
       2
100
AcDbLine
 10
-87.78567863
 20
-39.31146646
 30
0.0
 11
-87.78567863
 21
-43.31146646
 31
0.0
  0
LINE
  5
456
100
AcDbEntity
  8
0
  6
CONTINUOUS
 62
       2
100
AcDbLine
 10
-89.78567863
 20
-41.31146646
 30
0.0
 11
-85.78567863
 21
-41.31146646
 31
0.0
  0
LINE
  5
457
100
AcDbEntity
  8
0
  6
CONTINUOUS
 62
       2
100
AcDbLine
 10
-53.28567863
 20
-39.31146646
 30
0.0
 11
-53.28567863
 21
-43.31146646
 31
0.0
  0
LINE
  5
458
100
AcDbEntity
  8
0
  6
CONTINUOUS
 62
       2
100
AcDbLine
 10
-55.28567863
 20
-41.31146646
 30
0.0
 11
-51.28567863
 21
-41.31146646
 31
0.0
  0
LINE
  5
459
100
AcDbEntity
  8
0
  6
CONTINUOUS
 62
       2
100
AcDbLine
 10
-38.89567863
 20
-39.31146646
 30
0.0
 11
-38.89567863
 21
-43.31146646
 31
0.0
  0
LINE
  5
45A
100
AcDbEntity
  8
0
  6
CONTINUOUS
 62
       2
100
AcDbLine
 10
-40.89567863
 20
-41.31146646
 30
0.0
 11
-36.89567863
 21
-41.31146646
 31
0.0
  0
LINE
  5
45B
100
AcDbEntity
  8
0
  6
CONTINUOUS
 62
       2
100
AcDbLine
 10
-4.40567863
 20
-39.31146646
 30
0.0
 11
-4.40567863
 21
-43.31146646
 31
0.0
  0
LINE
  5
45C
100
AcDbEntity
  8
0
  6
CONTINUOUS
 62
       2
100
AcDbLine
 10
-6.40567863
 20
-41.31146646
 30
0.0
 11
-2.40567863
 21
-41.31146646
 31
0.0
  0
LINE
  5
45D
100
AcDbEntity
  8
0
  6
CONTINUOUS
 62
       7
100
AcDbLine
 10
-41.89567863
 20
-31.31146646
 30
0.0
 11
-50.27567863
 21
-31.31146646
 31
0.0
  0
LINE
  5
45E
100
AcDbEntity
  8
0
  6
CONTINUOUS
 62
       7
100
AcDbLine
 10
-43.44567863
 20
-31.81146646
 30
0.0
 11
-43.44567863
 21
-35.32146646
 31
0.0
  0
LINE
  5
45F
100
AcDbEntity
  8
0
  6
CONTINUOUS
 62
       7
100
AcDbLine
 10
-43.60567863
 20
-31.31146646
 30
0.0
 11
-43.44567863
 21
-31.81146646
 31
0.0
  0
LINE
  5
460
100
AcDbEntity
  8
0
  6
CONTINUOUS
 62
       7
100
AcDbLine
 10
-44.08567863
 20
-31.81146646
 30
0.0
 11
-43.92567863
 21
-31.31146646
 31
0.0
  0
LINE
  5
461
100
AcDbEntity
  8
0
  6
CONTINUOUS
 62
       7
100
AcDbLine
 10
-44.08567863
 20
-37.11146646
 30
0.0
 11
-44.08567863
 21
-31.81146646
 31
0.0
  0
LINE
  5
462
100
AcDbEntity
  8
0
  6
CONTINUOUS
 62
       7
100
AcDbLine
 10
-43.03567863
 20
-34.26146646
 30
0.0
 11
-43.03567863
 21
-31.31146646
 31
0.0
  0
LINE
  5
463
100
AcDbEntity
  8
0
  6
CONTINUOUS
 62
       7
100
AcDbLine
 10
-46.53567863
 20
-38.31146646
 30
0.0
 11
-44.09567863
 21
-38.31146646
 31
0.0
  0
LINE
  5
464
100
AcDbEntity
  8
0
  6
CONTINUOUS
 62
       7
100
AcDbLine
 10
-47.03567863
 20
-31.31146646
 30
0.0
 11
-47.03567863
 21
-37.81146646
 31
0.0
  0
LINE
  5
465
100
AcDbEntity
  8
0
  6
CONTINUOUS
 62
       7
100
AcDbLine
 10
-45.98567863
 20
-31.81146646
 30
0.0
 11
-45.98567863
 21
-37.11146646
 31
0.0
  0
LINE
  5
466
100
AcDbEntity
  8
0
  6
CONTINUOUS
 62
       7
100
AcDbLine
 10
-46.14567863
 20
-31.31146646
 30
0.0
 11
-45.98567863
 21
-31.81146646
 31
0.0
  0
LINE
  5
467
100
AcDbEntity
  8
0
  6
CONTINUOUS
 62
       7
100
AcDbLine
 10
-46.62567863
 20
-31.81146646
 30
0.0
 11
-46.46567863
 21
-31.31146646
 31
0.0
  0
LINE
  5
468
100
AcDbEntity
  8
0
  6
CONTINUOUS
 62
       7
100
AcDbLine
 10
-46.62567863
 20
-37.11146646
 30
0.0
 11
-46.62567863
 21
-31.81146646
 31
0.0
  0
LINE
  5
469
100
AcDbEntity
  8
0
  6
CONTINUOUS
 62
       7
100
AcDbLine
 10
-47.03567863
 20
-37.11146646
 30
0.0
 11
-44.09567863
 21
-37.11146646
 31
0.0
  0
ARC
  5
46A
100
AcDbEntity
  8
0
  6
CONTINUOUS
 62
       7
100
AcDbCircle
 10
-46.53855348
 20
-37.81434131
 30
0.0
 40
0.49713346
100
AcDbArc
 50
179.66866511
 51
270.33133489
  0
LINE
  5
46B
100
AcDbEntity
  8
0
  6
CONTINUOUS
 62
       7
100
AcDbLine
 10
-76.27567863
 20
26.65853354
 30
0.0
 11
-75.17335361
 21
25.55620852
 31
0.0
  0
LINE
  5
46C
100
AcDbEntity
  8
0
  6
CONTINUOUS
 62
       7
100
AcDbLine
 10
-75.84567863
 20
27.07853354
 30
0.0
 11
-74.74964469
 21
25.97830024
 31
0.0
  0
LINE
  5
46D
100
AcDbEntity
  8
0
  6
CONTINUOUS
 62
       7
100
AcDbLine
 10
-73.71628697
 20
26.16746656
 30
0.0
 11
-74.13721391
 21
26.5883935
 31
0.0
  0
LINE
  5
46E
100
AcDbEntity
  8
0
  6
CONTINUOUS
 62
       7
100
AcDbLine
 10
-74.75044931
 20
25.13330422
 30
0.0
 11
-73.65567863
 21
24.03853354
 31
0.0
  0
LINE
  5
46F
100
AcDbEntity
  8
0
  6
CONTINUOUS
 62
       7
100
AcDbLine
 10
-74.32835606
 20
25.55539747
 30
0.0
 11
-73.23567863
 21
24.45853354
 31
0.0
  0
LINE
  5
470
100
AcDbEntity
  8
0
  6
CONTINUOUS
 62
       7
100
AcDbLine
 10
-74.32835606
 20
25.55539747
 30
0.0
 11
-73.71628697
 21
26.16746656
 31
0.0
  0
LINE
  5
471
100
AcDbEntity
  8
0
  6
CONTINUOUS
 62
       7
100
AcDbLine
 10
-75.35754983
 20
24.5262037
 30
0.0
 11
-75.78161493
 21
24.95026881
 31
0.0
  0
LINE
  5
472
100
AcDbEntity
  8
0
  6
CONTINUOUS
 62
       7
100
AcDbLine
 10
-75.78161493
 20
24.95026881
 30
0.0
 11
-75.17335361
 21
25.55620852
 31
0.0
  0
LINE
  5
473
100
AcDbEntity
  8
0
  6
CONTINUOUS
 62
       7
100
AcDbLine
 10
-75.35754983
 20
24.5262037
 30
0.0
 11
-74.75044931
 21
25.13330422
 31
0.0
  0
LINE
  5
474
100
AcDbEntity
  8
0
  6
CONTINUOUS
 62
       7
100
AcDbLine
 10
-74.74964469
 20
25.97830024
 30
0.0
 11
-74.13721391
 21
26.5883935
 31
0.0
  0
LINE
  5
475
100
AcDbEntity
  8
0
  6
CONTINUOUS
 62
       7
100
AcDbLine
 10
-76.27567863
 20
21.57854697
 30
0.0
 11
-75.17335361
 21
20.47622195
 31
0.0
  0
LINE
  5
476
100
AcDbEntity
  8
0
  6
CONTINUOUS
 62
       7
100
AcDbLine
 10
-75.84567863
 20
21.99854697
 30
0.0
 11
-74.74964469
 21
20.89831367
 31
0.0
  0
LINE
  5
477
100
AcDbEntity
  8
0
  6
CONTINUOUS
 62
       7
100
AcDbLine
 10
-73.71628697
 20
21.08747999
 30
0.0
 11
-74.13721391
 21
21.50840692
 31
0.0
  0
LINE
  5
478
100
AcDbEntity
  8
0
  6
CONTINUOUS
 62
       7
100
AcDbLine
 10
-74.75044931
 20
20.05331765
 30
0.0
 11
-73.65567863
 21
18.95854697
 31
0.0
  0
LINE
  5
479
100
AcDbEntity
  8
0
  6
CONTINUOUS
 62
       7
100
AcDbLine
 10
-74.32835606
 20
20.4754109
 30
0.0
 11
-73.23567863
 21
19.37854697
 31
0.0
  0
LINE
  5
47A
100
AcDbEntity
  8
0
  6
CONTINUOUS
 62
       7
100
AcDbLine
 10
-74.32835606
 20
20.4754109
 30
0.0
 11
-73.71628697
 21
21.08747999
 31
0.0
  0
LINE
  5
47B
100
AcDbEntity
  8
0
  6
CONTINUOUS
 62
       7
100
AcDbLine
 10
-75.35754983
 20
19.44621713
 30
0.0
 11
-75.78161493
 21
19.87028224
 31
0.0
  0
LINE
  5
47C
100
AcDbEntity
  8
0
  6
CONTINUOUS
 62
       7
100
AcDbLine
 10
-75.78161493
 20
19.87028224
 30
0.0
 11
-75.17335361
 21
20.47622195
 31
0.0
  0
LINE
  5
47D
100
AcDbEntity
  8
0
  6
CONTINUOUS
 62
       7
100
AcDbLine
 10
-75.35754983
 20
19.44621713
 30
0.0
 11
-74.75044931
 21
20.05331765
 31
0.0
  0
LINE
  5
47E
100
AcDbEntity
  8
0
  6
CONTINUOUS
 62
       7
100
AcDbLine
 10
-74.74964469
 20
20.89831367
 30
0.0
 11
-74.13721391
 21
21.50840692
 31
0.0
  0
LINE
  5
47F
100
AcDbEntity
  8
0
  6
CONTINUOUS
 62
       7
100
AcDbLine
 10
-18.95069694
 20
26.65853354
 30
0.0
 11
-17.84837192
 21
25.55620852
 31
0.0
  0
LINE
  5
480
100
AcDbEntity
  8
0
  6
CONTINUOUS
 62
       7
100
AcDbLine
 10
-18.52069694
 20
27.07853354
 30
0.0
 11
-17.424663
 21
25.97830024
 31
0.0
  0
LINE
  5
481
100
AcDbEntity
  8
0
  6
CONTINUOUS
 62
       7
100
AcDbLine
 10
-16.39130528
 20
26.16746656
 30
0.0
 11
-16.81223222
 21
26.5883935
 31
0.0
  0
LINE
  5
482
100
AcDbEntity
  8
0
  6
CONTINUOUS
 62
       7
100
AcDbLine
 10
-17.42546762
 20
25.13330422
 30
0.0
 11
-16.33069694
 21
24.03853354
 31
0.0
  0
LINE
  5
483
100
AcDbEntity
  8
0
  6
CONTINUOUS
 62
       7
100
AcDbLine
 10
-17.00337437
 20
25.55539747
 30
0.0
 11
-15.91069694
 21
24.45853354
 31
0.0
  0
LINE
  5
484
100
AcDbEntity
  8
0
  6
CONTINUOUS
 62
       7
100
AcDbLine
 10
-17.00337437
 20
25.55539747
 30
0.0
 11
-16.39130528
 21
26.16746656
 31
0.0
  0
LINE
  5
485
100
AcDbEntity
  8
0
  6
CONTINUOUS
 62
       7
100
AcDbLine
 10
-18.03256814
 20
24.5262037
 30
0.0
 11
-18.45663324
 21
24.95026881
 31
0.0
  0
LINE
  5
486
100
AcDbEntity
  8
0
  6
CONTINUOUS
 62
       7
100
AcDbLine
 10
-18.45663324
 20
24.95026881
 30
0.0
 11
-17.84837192
 21
25.55620852
 31
0.0
  0
LINE
  5
487
100
AcDbEntity
  8
0
  6
CONTINUOUS
 62
       7
100
AcDbLine
 10
-18.03256814
 20
24.5262037
 30
0.0
 11
-17.42546762
 21
25.13330422
 31
0.0
  0
LINE
  5
488
100
AcDbEntity
  8
0
  6
CONTINUOUS
 62
       7
100
AcDbLine
 10
-17.424663
 20
25.97830024
 30
0.0
 11
-16.81223222
 21
26.5883935
 31
0.0
  0
LINE
  5
489
100
AcDbEntity
  8
0
  6
CONTINUOUS
 62
       7
100
AcDbLine
 10
-18.95069694
 20
21.57854697
 30
0.0
 11
-17.84837192
 21
20.47622195
 31
0.0
  0
LINE
  5
48A
100
AcDbEntity
  8
0
  6
CONTINUOUS
 62
       7
100
AcDbLine
 10
-18.52069694
 20
21.99854697
 30
0.0
 11
-17.424663
 21
20.89831367
 31
0.0
  0
LINE
  5
48B
100
AcDbEntity
  8
0
  6
CONTINUOUS
 62
       7
100
AcDbLine
 10
-16.39130528
 20
21.08747999
 30
0.0
 11
-16.81223222
 21
21.50840692
 31
0.0
  0
LINE
  5
48C
100
AcDbEntity
  8
0
  6
CONTINUOUS
 62
       7
100
AcDbLine
 10
-17.42546762
 20
20.05331765
 30
0.0
 11
-16.33069694
 21
18.95854697
 31
0.0
  0
LINE
  5
48D
100
AcDbEntity
  8
0
  6
CONTINUOUS
 62
       7
100
AcDbLine
 10
-17.00337437
 20
20.4754109
 30
0.0
 11
-15.91069694
 21
19.37854697
 31
0.0
  0
LINE
  5
48E
100
AcDbEntity
  8
0
  6
CONTINUOUS
 62
       7
100
AcDbLine
 10
-17.00337437
 20
20.4754109
 30
0.0
 11
-16.39130528
 21
21.08747999
 31
0.0
  0
LINE
  5
48F
100
AcDbEntity
  8
0
  6
CONTINUOUS
 62
       7
100
AcDbLine
 10
-18.03256814
 20
19.44621713
 30
0.0
 11
-18.45663324
 21
19.87028224
 31
0.0
  0
LINE
  5
490
100
AcDbEntity
  8
0
  6
CONTINUOUS
 62
       7
100
AcDbLine
 10
-18.45663324
 20
19.87028224
 30
0.0
 11
-17.84837192
 21
20.47622195
 31
0.0
  0
LINE
  5
491
100
AcDbEntity
  8
0
  6
CONTINUOUS
 62
       7
100
AcDbLine
 10
-18.03256814
 20
19.44621713
 30
0.0
 11
-17.42546762
 21
20.05331765
 31
0.0
  0
LINE
  5
492
100
AcDbEntity
  8
0
  6
CONTINUOUS
 62
       7
100
AcDbLine
 10
-17.424663
 20
20.89831367
 30
0.0
 11
-16.81223222
 21
21.50840692
 31
0.0
  0
LINE
  5
493
100
AcDbEntity
  8
0
  6
CONTINUOUS
 62
       7
100
AcDbLine
 10
-138.3999939
 20
94.5
 30
0.0
 11
138.3500061
 21
94.5
 31
0.0
  0
LINE
  5
494
100
AcDbEntity
  8
0
  6
CONTINUOUS
 62
       7
100
AcDbLine
 10
138.3500061
 20
94.5
 30
0.0
 11
138.3500061
 21
-94.80000305
 31
0.0
  0
LINE
  5
495
100
AcDbEntity
  8
0
  6
CONTINUOUS
 62
       7
100
AcDbLine
 10
-138.3999939
 20
-94.80000305
 30
0.0
 11
138.3500061
 21
-94.80000305
 31
0.0
  0
LINE
  5
496
100
AcDbEntity
  8
0
  6
CONTINUOUS
 62
       7
100
AcDbLine
 10
-138.3999939
 20
94.5
 30
0.0
 11
-138.3999939
 21
-94.80000305
 31
0.0
  0
MTEXT
  5
497
100
AcDbEntity
  8
0
  6
CONTINUOUS
 62
       7
100
AcDbMText
 10
-129.43176961
 20
74.5
 30
0.0
 40
3.20000005
 41
0.0
 71
       4
 72
       1
  1
\W1.065;\A1;MODEL:FMA-TE4120-OR
  0
ENDSEC
  0
SECTION
  2
OBJECTS
  0
DICTIONARY
  5
19
100
AcDbDictionary
  3
ACAD_GROUP
350
1A
  3
ACAD_MLINESTYLE
350
1B
  0
DICTIONARY
  5
1A
102
{ACAD_REACTORS
330
19
102
}
100
AcDbDictionary
  0
DICTIONARY
  5
1B
102
{ACAD_REACTORS
330
19
102
}
100
AcDbDictionary
  3
STANDARD
350
1C
  0
MLINESTYLE
  5
1C
102
{ACAD_REACTORS
330
1B
102
}
100
AcDbMlineStyle
  2
Standard
 70
       0
  3

 62
       0
 51
90.0
 52
90.0
 71
       2
 49
0.5
 62
     256
  6
ByLayer
 49
-0.5
 62
     256
  6
ByLayer
  0
ENDSEC
  0
EOF
