  0
SECTION
  2
HEADER
  9
$ACADVER
  1
AC1003
  9
$EXTMIN
 10
-2.81250000E+02
 20
-1.95000000E+02
  9
$EXTMAX
 10
2.82099854E+02
 20
1.95500000E+02
  9
$LIMMIN
 10
-2.81251000E+02
 20
-1.95001000E+02
  9
$LIMMAX
 10
2.82100854E+02
 20
1.95501000E+02
  9
$SNAPUNIT
 10
1
 20
1
  9
$SNAPBASE
 10
0
 20
0
  9
$GRIDMODE
 70
0
  9
$GRIDUNIT
 10
0
 20
0
  9
$LTSCALE
 40
9.38916423E+00
  9
$TEXTSIZE
 40
3.2
  9
$DIMTAD
 70
0
  9
$LUNITS
 70
2
  9
$LUPREC
 70
4
  9
$FILLETRAD
 40
0
  9
$AUNITS
 70
0
  9
$AUPREC
 70
0
  0
ENDSEC
  0
SECTION
  2
TABLES
  0
TABLE
  2
LTYPE
 70
2
  0
LTYPE
  2
CONTINUOUS
 70
64
  3
Solid-Line
 72
65
 73
0
 40
0
  0
LTYPE
  2
DASHED
 70
64
  3
DASHED
 72
65
 73
2
 40
.75
 49
.5
 49
-.25
  0
LTYPE
  2
HIDDEN
 70
64
  3
HIDDEN
 72
65
 73
2
 40
.375
 49
.25
 49
-.125
  0
LTYPE
  2
CENTER
 70
64
  3
CENTER
 72
65
 73
4
 40
2
 49
1.25
 49
-.25
 49
.25
 49
-.25
  0
LTYPE
  2
PHANTOM
 70
64
  3
PHANTOM
 72
65
 73
6
 40
2.5
 49
1.25
 49
-.25
 49
.25
 49
-.25
 49
.25
 49
-.25
  0
ENDTAB
  0
TABLE
  2
LAYER
 70
1
  0
LAYER
  2
0
 70
0
 62
3
  6
CONTINUOUS
 0
ENDTAB
  0
TABLE
  2
STYLE
 70
2
  0
STYLE
  2
MONOTXT
 70
0
 40
0
 41
1
 50
0
 71
0
 42
.2
  3
monotxt
  0
STYLE
  2
BIGFONT
 70
0
 40
0
 41
1
 50
0
 71
0
 42
.2
  3
txt
  4
bigfont
  0
ENDTAB
  0
ENDSEC
  0
SECTION
  2
ENTITIES
  0
LINE
  8
0
 62
7
 10
4.54249275E+01
 20
2.20287155E+01
 11
4.54249275E+01
 21
-2.64712853E+01
  0
LINE
  8
0
 62
7
 10
-4.45750740E+01
 20
2.20287155E+01
 11
-4.45750740E+01
 21
-2.64712853E+01
  0
LINE
  8
0
 62
7
 10
-4.30750740E+01
 20
2.35287156E+01
 11
4.39249275E+01
 21
2.35287156E+01
  0
LINE
  8
0
 62
7
 10
-3.80750739E+01
 20
-4.14712855E+01
 11
3.89249274E+01
 21
-4.14712855E+01
  0
LINE
  8
0
 62
7
 10
-4.45750740E+01
 20
2.20287155E+01
 11
-4.30750740E+01
 21
2.35287156E+01
  0
LINE
  8
0
 62
7
 10
4.39249275E+01
 20
2.35287156E+01
 11
4.54249275E+01
 21
2.20287155E+01
  0
LINE
  8
0
 62
7
 10
-4.45750740E+01
 20
-2.64712853E+01
 11
-3.01465023E+01
 21
-2.64712853E+01
  0
LINE
  8
0
 62
7
 10
3.10106416E+01
 20
-2.64712853E+01
 11
4.54249275E+01
 21
-2.64712853E+01
  0
LINE
  8
0
 62
7
 10
-3.90750739E+01
 20
-2.64712853E+01
 11
-3.90750739E+01
 21
-4.04712855E+01
  0
LINE
  8
0
 62
7
 10
3.99249274E+01
 20
-2.64712853E+01
 11
3.99249274E+01
 21
-4.04712855E+01
  0
LINE
  8
0
 62
7
 10
-3.90750739E+01
 20
-4.04712855E+01
 11
-3.80750739E+01
 21
-4.14712855E+01
  0
LINE
  8
0
 62
7
 10
3.99249274E+01
 20
-4.04712855E+01
 11
3.89249274E+01
 21
-4.14712855E+01
  0
LINE
  8
0
 62
7
 10
-3.90750739E+01
 20
-4.04712855E+01
 11
3.99249274E+01
 21
-4.04712855E+01
  0
LINE
  8
0
 62
7
 10
-4.45750740E+01
 20
2.20287155E+01
 11
4.54249275E+01
 21
2.20287155E+01
  0
LINE
  8
0
 62
7
 10
-4.30750740E+01
 20
2.35287156E+01
 11
-4.30750740E+01
 21
-2.64712853E+01
  0
LINE
  8
0
 62
7
 10
-3.01465023E+01
 20
-2.14712852E+01
 11
-3.01465023E+01
 21
-2.64712853E+01
  0
LINE
  8
0
 62
7
 10
3.10106416E+01
 20
-2.14712852E+01
 11
3.10106416E+01
 21
-2.64712853E+01
  0
LINE
  8
0
 62
7
 10
-2.91465023E+01
 20
-2.04712852E+01
 11
3.00106415E+01
 21
-2.04712852E+01
  0
LINE
  8
0
 62
7
 10
-3.01465023E+01
 20
-2.14712852E+01
 11
-2.91465023E+01
 21
-2.04712852E+01
  0
LINE
  8
0
 62
7
 10
3.10106416E+01
 20
-2.14712852E+01
 11
3.00106415E+01
 21
-2.04712852E+01
  0
LINE
  8
0
 62
7
 10
-3.01465023E+01
 20
-2.14712852E+01
 11
3.10106416E+01
 21
-2.14712852E+01
  0
LINE
  8
0
 62
7
 10
-9.76078770E+00
 20
2.05287155E+01
 11
1.06249269E+01
 21
2.05287155E+01
  0
LINE
  8
0
 62
7
 10
-1.32465020E+01
 20
1.90287155E+01
 11
1.41106413E+01
 21
1.90287155E+01
  0
LINE
  8
0
 62
7
 10
-3.95750739E+01
 20
2.45287156E+01
 11
-3.95750739E+01
 21
2.35287156E+01
  0
LINE
  8
0
 62
7
 10
-3.95750739E+01
 20
2.45287156E+01
 11
-2.85750737E+01
 21
2.45287156E+01
  0
LINE
  8
0
 62
7
 10
-3.75750739E+01
 20
1.35287154E+01
 11
-3.75750739E+01
 21
-1.64712851E+01
  0
LINE
  8
0
 62
7
 10
-2.35750737E+01
 20
1.35287154E+01
 11
-2.35750737E+01
 21
-1.64712851E+01
  0
LINE
  8
0
 62
7
 10
-3.66893596E+01
 20
1.29144297E+01
 11
-3.66893596E+01
 21
-1.58569994E+01
  0
LINE
  8
0
 62
7
 10
-2.44465022E+01
 20
1.29144297E+01
 11
-2.44465022E+01
 21
-1.58569994E+01
  0
LINE
  8
0
 62
7
 10
-3.75750739E+01
 20
1.35287154E+01
 11
-2.35750737E+01
 21
1.35287154E+01
  0
LINE
  8
0
 62
7
 10
-3.75750739E+01
 20
-1.64712851E+01
 11
-2.35750737E+01
 21
-1.64712851E+01
  0
LINE
  8
0
 62
7
 10
-3.66893596E+01
 20
-1.58569994E+01
 11
-2.44465022E+01
 21
-1.58569994E+01
  0
LINE
  8
0
 62
7
 10
-3.66893596E+01
 20
1.29144297E+01
 11
-2.44465022E+01
 21
1.29144297E+01
  0
LINE
  8
0
 62
7
 10
-3.75750739E+01
 20
1.35287154E+01
 11
-3.66893596E+01
 21
1.29144297E+01
  0
LINE
  8
0
 62
7
 10
-2.44465022E+01
 20
1.29144297E+01
 11
-2.35750737E+01
 21
1.35287154E+01
  0
LINE
  8
0
 62
7
 10
-2.44465022E+01
 20
-1.58569994E+01
 11
-2.35750737E+01
 21
-1.64712851E+01
  0
LINE
  8
0
 62
7
 10
-3.66893596E+01
 20
-1.58569994E+01
 11
-3.75750739E+01
 21
-1.64712851E+01
  0
LINE
  8
0
 62
7
 10
2.44249272E+01
 20
1.35287154E+01
 11
2.44249272E+01
 21
-1.64712851E+01
  0
LINE
  8
0
 62
7
 10
2.53106415E+01
 20
1.29144297E+01
 11
2.53106415E+01
 21
-1.58569994E+01
  0
LINE
  8
0
 62
7
 10
3.84249274E+01
 20
1.35287154E+01
 11
2.44249272E+01
 21
1.35287154E+01
  0
LINE
  8
0
 62
7
 10
3.84249274E+01
 20
-1.64712851E+01
 11
2.44249272E+01
 21
-1.64712851E+01
  0
LINE
  8
0
 62
7
 10
3.75534988E+01
 20
-1.58569994E+01
 11
2.53106415E+01
 21
-1.58569994E+01
  0
LINE
  8
0
 62
7
 10
3.75534988E+01
 20
1.29144297E+01
 11
2.53106415E+01
 21
1.29144297E+01
  0
LINE
  8
0
 62
7
 10
2.53106415E+01
 20
1.29144297E+01
 11
2.44249272E+01
 21
1.35287154E+01
  0
LINE
  8
0
 62
7
 10
2.53106415E+01
 20
-1.58569994E+01
 11
2.44249272E+01
 21
-1.64712851E+01
  0
LINE
  8
0
 62
7
 10
4.39249275E+01
 20
2.35287156E+01
 11
4.39249275E+01
 21
-2.64712853E+01
  0
LINE
  8
0
 62
7
 10
3.75534988E+01
 20
-1.58569994E+01
 11
3.84249274E+01
 21
-1.64712851E+01
  0
LINE
  8
0
 62
7
 10
3.84249274E+01
 20
1.35287154E+01
 11
3.75534988E+01
 21
1.29144297E+01
  0
LINE
  8
0
 62
7
 10
3.75534988E+01
 20
1.29144297E+01
 11
3.75534988E+01
 21
-1.58569994E+01
  0
LINE
  8
0
 62
7
 10
3.84249274E+01
 20
1.35287154E+01
 11
3.84249274E+01
 21
-1.64712851E+01
  0
LINE
  8
0
  6
CENTER
 62
2
 10
-6.30750743E+01
 20
-1.47128485E+00
 11
6.39249278E+01
 21
-1.47128485E+00
  0
LINE
  8
0
 62
7
 10
-2.85750737E+01
 20
2.45287156E+01
 11
-2.85750737E+01
 21
2.35287156E+01
  0
LINE
  8
0
 62
7
 10
-1.32465020E+01
 20
1.90287155E+01
 11
-1.58322164E+01
 21
-1.90855709E+01
  0
LINE
  8
0
 62
7
 10
-9.76078770E+00
 20
2.05287155E+01
 11
-1.32465020E+01
 21
1.90287155E+01
  0
LINE
  8
0
 62
7
 10
1.06249269E+01
 20
2.05287155E+01
 11
1.41106413E+01
 21
1.90287155E+01
  0
LINE
  8
0
 62
7
 10
1.41106413E+01
 20
1.90287155E+01
 11
1.66963556E+01
 21
-1.90855709E+01
  0
LINE
  8
0
  6
PHANTOM
 62
6
 10
5.39249277E+01
 20
1.80287155E+01
 11
5.39249277E+01
 21
-1.84712851E+01
  0
LINE
  8
0
  6
PHANTOM
 62
6
 10
4.89249276E+01
 20
1.80287155E+01
 11
4.89249276E+01
 21
-1.84712851E+01
  0
LINE
  8
0
  6
PHANTOM
 62
6
 10
5.39249277E+01
 20
-3.14712854E+01
 11
4.89249276E+01
 21
-3.14712854E+01
  0
LINE
  8
0
  6
PHANTOM
 62
6
 10
5.39249277E+01
 20
-1.14712850E+01
 11
4.89249276E+01
 21
-1.14712850E+01
  0
LINE
  8
0
  6
PHANTOM
 62
6
 10
5.34963562E+01
 20
-1.14712850E+01
 11
5.34963562E+01
 21
-1.84712851E+01
  0
LINE
  8
0
  6
PHANTOM
 62
6
 10
4.93677847E+01
 20
-1.14712850E+01
 11
4.93677847E+01
 21
-1.84712851E+01
  0
LINE
  8
0
  6
PHANTOM
 62
6
 10
4.93677847E+01
 20
-1.14712850E+01
 11
4.89249276E+01
 21
-1.04712850E+01
  0
LINE
  8
0
  6
PHANTOM
 62
6
 10
5.34963562E+01
 20
-1.14712850E+01
 11
5.39249277E+01
 21
-1.04712850E+01
  0
LINE
  8
0
  6
PHANTOM
 62
6
 10
4.64249275E+01
 20
-2.39712852E+01
 11
5.64249277E+01
 21
-2.39712852E+01
  0
LINE
  8
0
  6
PHANTOM
 62
6
 10
4.64249275E+01
 20
-2.29712852E+01
 11
4.64249275E+01
 21
-2.39712852E+01
  0
LINE
  8
0
  6
PHANTOM
 62
6
 10
5.64249277E+01
 20
-2.29712852E+01
 11
5.64249277E+01
 21
-2.39712852E+01
  0
LINE
  8
0
  6
PHANTOM
 62
6
 10
4.67820704E+01
 20
-2.52712853E+01
 11
5.60820706E+01
 21
-2.52712853E+01
  0
LINE
  8
0
  6
PHANTOM
 62
6
 10
5.60820706E+01
 20
-2.39712852E+01
 11
5.60820706E+01
 21
-2.52712853E+01
  0
LINE
  8
0
  6
PHANTOM
 62
6
 10
4.67820704E+01
 20
-2.39712852E+01
 11
4.67820704E+01
 21
-2.52712853E+01
  0
LINE
  8
0
  6
PHANTOM
 62
6
 10
4.68106418E+01
 20
-2.96141425E+01
 11
4.68106418E+01
 21
-2.56284281E+01
  0
LINE
  8
0
  6
PHANTOM
 62
6
 10
4.74249276E+01
 20
-2.99712853E+01
 11
4.68106418E+01
 21
-2.96141425E+01
  0
LINE
  8
0
  6
PHANTOM
 62
6
 10
4.74249276E+01
 20
-2.99712853E+01
 11
5.54249277E+01
 21
-2.99712853E+01
  0
LINE
  8
0
  6
PHANTOM
 62
6
 10
4.91249276E+01
 20
-2.96141425E+01
 11
4.91249276E+01
 21
-2.56284281E+01
  0
LINE
  8
0
  6
PHANTOM
 62
6
 10
5.37392134E+01
 20
-2.96141425E+01
 11
5.37392134E+01
 21
-2.56284281E+01
  0
LINE
  8
0
  6
PHANTOM
 62
6
 10
5.60534991E+01
 20
-2.96141425E+01
 11
5.60534991E+01
 21
-2.56284281E+01
  0
LINE
  8
0
  6
PHANTOM
 62
6
 10
5.54249277E+01
 20
-2.99712853E+01
 11
5.60534991E+01
 21
-2.96141425E+01
  0
LINE
  8
0
  6
PHANTOM
 62
6
 10
5.54249277E+01
 20
-2.52712853E+01
 11
5.60534991E+01
 21
-2.56284281E+01
  0
LINE
  8
0
  6
PHANTOM
 62
6
 10
4.74249276E+01
 20
-2.52712853E+01
 11
4.68106418E+01
 21
-2.56284281E+01
  0
LINE
  8
0
  6
PHANTOM
 62
6
 10
4.93677847E+01
 20
-2.99712853E+01
 11
4.93677847E+01
 21
-3.14712854E+01
  0
LINE
  8
0
  6
PHANTOM
 62
6
 10
4.89249276E+01
 20
-2.99712853E+01
 11
4.89249276E+01
 21
-3.14712854E+01
  0
LINE
  8
0
  6
PHANTOM
 62
6
 10
5.34963562E+01
 20
-2.99712853E+01
 11
5.34963562E+01
 21
-3.14712854E+01
  0
LINE
  8
0
  6
PHANTOM
 62
6
 10
5.39249277E+01
 20
-2.99712853E+01
 11
5.39249277E+01
 21
-3.14712854E+01
  0
LINE
  8
0
  6
PHANTOM
 62
6
 10
4.54249275E+01
 20
-2.64712853E+01
 11
4.54249275E+01
 21
-7.34712861E+01
  0
LINE
  8
0
  6
PHANTOM
 62
6
 10
4.54249275E+01
 20
-1.84712851E+01
 11
5.74249277E+01
 21
-1.84712851E+01
  0
LINE
  8
0
  6
PHANTOM
 62
6
 10
4.54249275E+01
 20
-2.29712852E+01
 11
5.74249277E+01
 21
-2.29712852E+01
  0
LINE
  8
0
  6
PHANTOM
 62
6
 10
4.54249275E+01
 20
-7.34712861E+01
 11
5.74249277E+01
 21
-7.34712861E+01
  0
LINE
  8
0
  6
PHANTOM
 62
6
 10
5.74249277E+01
 20
-1.84712851E+01
 11
5.74249277E+01
 21
-7.34712861E+01
  0
LINE
  8
0
  6
CENTER
 62
6
 10
4.66820704E+01
 20
-6.34712859E+01
 11
5.61820706E+01
 21
-6.34712859E+01
  0
LINE
  8
0
  6
CENTER
 62
6
 10
5.14249276E+01
 20
2.25287156E+01
 11
5.14249276E+01
 21
-7.54712861E+01
  0
LINE
  8
0
  6
PHANTOM
 62
6
 10
5.41820705E+01
 20
-5.99712858E+01
 11
5.41820705E+01
 21
-6.69712860E+01
  0
LINE
  8
0
  6
PHANTOM
 62
6
 10
4.86820704E+01
 20
-5.99712858E+01
 11
4.86820704E+01
 21
-6.69712860E+01
  0
LINE
  8
0
  6
CENTER
 62
6
 10
4.66820704E+01
 20
-6.69712860E+01
 11
5.61820706E+01
 21
-6.69712860E+01
  0
LINE
  8
0
  6
CENTER
 62
6
 10
4.66820704E+01
 20
-5.99712858E+01
 11
5.61820706E+01
 21
-5.99712858E+01
  0
LINE
  8
0
  6
CENTER
 62
6
 10
4.66820704E+01
 20
-4.19712855E+01
 11
5.61820706E+01
 21
-4.19712855E+01
  0
LINE
  8
0
  6
PHANTOM
 62
6
 10
5.41820705E+01
 20
-4.19712855E+01
 11
5.41820705E+01
 21
-3.49712854E+01
  0
LINE
  8
0
  6
CENTER
 62
6
 10
4.66820704E+01
 20
-3.84712855E+01
 11
5.61820706E+01
 21
-3.84712855E+01
  0
LINE
  8
0
  6
CENTER
 62
6
 10
4.66820704E+01
 20
-3.49712854E+01
 11
5.61820706E+01
 21
-3.49712854E+01
  0
LINE
  8
0
  6
PHANTOM
 62
6
 10
4.86820704E+01
 20
-4.19712855E+01
 11
4.86820704E+01
 21
-3.49712854E+01
  0
LINE
  8
0
  6
PHANTOM
 62
6
 10
-5.30750742E+01
 20
1.80287155E+01
 11
-5.30750742E+01
 21
-1.84712851E+01
  0
LINE
  8
0
  6
PHANTOM
 62
6
 10
-4.80750741E+01
 20
1.80287155E+01
 11
-4.80750741E+01
 21
-1.84712851E+01
  0
LINE
  8
0
  6
PHANTOM
 62
6
 10
-5.30750742E+01
 20
-3.14712854E+01
 11
-4.80750741E+01
 21
-3.14712854E+01
  0
LINE
  8
0
  6
PHANTOM
 62
6
 10
-5.30750742E+01
 20
-1.14712850E+01
 11
-4.80750741E+01
 21
-1.14712850E+01
  0
LINE
  8
0
  6
PHANTOM
 62
6
 10
-5.26322170E+01
 20
-1.14712850E+01
 11
-5.26322170E+01
 21
-1.84712851E+01
  0
LINE
  8
0
  6
PHANTOM
 62
6
 10
-4.85036455E+01
 20
-1.14712850E+01
 11
-4.85036455E+01
 21
-1.84712851E+01
  0
LINE
  8
0
  6
PHANTOM
 62
6
 10
-4.85036455E+01
 20
-1.14712850E+01
 11
-4.80750741E+01
 21
-1.04712850E+01
  0
LINE
  8
0
  6
PHANTOM
 62
6
 10
-5.26322170E+01
 20
-1.14712850E+01
 11
-5.30750742E+01
 21
-1.04712850E+01
  0
LINE
  8
0
  6
PHANTOM
 62
6
 10
-4.55750740E+01
 20
-2.39712852E+01
 11
-5.55750742E+01
 21
-2.39712852E+01
  0
LINE
  8
0
  6
PHANTOM
 62
6
 10
-4.55750740E+01
 20
-2.29712852E+01
 11
-4.55750740E+01
 21
-2.39712852E+01
  0
LINE
  8
0
  6
PHANTOM
 62
6
 10
-5.55750742E+01
 20
-2.29712852E+01
 11
-5.55750742E+01
 21
-2.39712852E+01
  0
LINE
  8
0
  6
PHANTOM
 62
6
 10
-4.59179312E+01
 20
-2.52712853E+01
 11
-5.52179313E+01
 21
-2.52712853E+01
  0
LINE
  8
0
  6
PHANTOM
 62
6
 10
-5.52179313E+01
 20
-2.39712852E+01
 11
-5.52179313E+01
 21
-2.52712853E+01
  0
LINE
  8
0
  6
PHANTOM
 62
6
 10
-4.59179312E+01
 20
-2.39712852E+01
 11
-4.59179312E+01
 21
-2.52712853E+01
  0
LINE
  8
0
  6
PHANTOM
 62
6
 10
-4.59465026E+01
 20
-2.96141425E+01
 11
-4.59465026E+01
 21
-2.56284281E+01
  0
LINE
  8
0
  6
PHANTOM
 62
6
 10
-4.65750740E+01
 20
-2.99712853E+01
 11
-4.59465026E+01
 21
-2.96141425E+01
  0
LINE
  8
0
  6
PHANTOM
 62
6
 10
-4.65750740E+01
 20
-2.99712853E+01
 11
-5.45750742E+01
 21
-2.99712853E+01
  0
LINE
  8
0
  6
PHANTOM
 62
6
 10
-4.82607884E+01
 20
-2.96141425E+01
 11
-4.82607884E+01
 21
-2.56284281E+01
  0
LINE
  8
0
  6
PHANTOM
 62
6
 10
-5.28750741E+01
 20
-2.96141425E+01
 11
-5.28750741E+01
 21
-2.56284281E+01
  0
LINE
  8
0
  6
PHANTOM
 62
6
 10
-5.51893599E+01
 20
-2.96141425E+01
 11
-5.51893599E+01
 21
-2.56284281E+01
  0
LINE
  8
0
  6
PHANTOM
 62
6
 10
-5.45750742E+01
 20
-2.99712853E+01
 11
-5.51893599E+01
 21
-2.96141425E+01
  0
LINE
  8
0
  6
PHANTOM
 62
6
 10
-5.45750742E+01
 20
-2.52712853E+01
 11
-5.51893599E+01
 21
-2.56284281E+01
  0
LINE
  8
0
  6
PHANTOM
 62
6
 10
-4.65750740E+01
 20
-2.52712853E+01
 11
-4.59465026E+01
 21
-2.56284281E+01
  0
LINE
  8
0
  6
PHANTOM
 62
6
 10
-4.85036455E+01
 20
-2.99712853E+01
 11
-4.85036455E+01
 21
-3.14712854E+01
  0
LINE
  8
0
  6
PHANTOM
 62
6
 10
-4.80750741E+01
 20
-2.99712853E+01
 11
-4.80750741E+01
 21
-3.14712854E+01
  0
LINE
  8
0
  6
PHANTOM
 62
6
 10
-5.26322170E+01
 20
-2.99712853E+01
 11
-5.26322170E+01
 21
-3.14712854E+01
  0
LINE
  8
0
  6
PHANTOM
 62
6
 10
-5.30750742E+01
 20
-2.99712853E+01
 11
-5.30750742E+01
 21
-3.14712854E+01
  0
LINE
  8
0
  6
PHANTOM
 62
6
 10
-4.45750740E+01
 20
-1.84712851E+01
 11
-5.65750742E+01
 21
-1.84712851E+01
  0
LINE
  8
0
  6
PHANTOM
 62
6
 10
-4.45750740E+01
 20
-2.64712853E+01
 11
-4.45750740E+01
 21
-7.34712861E+01
  0
LINE
  8
0
  6
PHANTOM
 62
6
 10
-4.45750740E+01
 20
-7.34712861E+01
 11
-5.65750742E+01
 21
-7.34712861E+01
  0
LINE
  8
0
  6
PHANTOM
 62
6
 10
-5.65750742E+01
 20
-1.84712851E+01
 11
-5.65750742E+01
 21
-7.34712861E+01
  0
LINE
  8
0
  6
CENTER
 62
6
 10
-4.58179312E+01
 20
-6.34712859E+01
 11
-5.53179313E+01
 21
-6.34712859E+01
  0
LINE
  8
0
  6
CENTER
 62
6
 10
-5.05750741E+01
 20
2.25287156E+01
 11
-5.05750741E+01
 21
-7.54712861E+01
  0
LINE
  8
0
  6
PHANTOM
 62
6
 10
-5.33179313E+01
 20
-5.99712858E+01
 11
-5.33179313E+01
 21
-6.69712860E+01
  0
LINE
  8
0
  6
PHANTOM
 62
6
 10
-4.78179312E+01
 20
-5.99712858E+01
 11
-4.78179312E+01
 21
-6.69712860E+01
  0
LINE
  8
0
  6
CENTER
 62
6
 10
-4.58179312E+01
 20
-6.69712860E+01
 11
-5.53179313E+01
 21
-6.69712860E+01
  0
LINE
  8
0
  6
CENTER
 62
6
 10
-4.58179312E+01
 20
-5.99712858E+01
 11
-5.53179313E+01
 21
-5.99712858E+01
  0
LINE
  8
0
  6
CENTER
 62
6
 10
-4.58179312E+01
 20
-4.19712855E+01
 11
-5.53179313E+01
 21
-4.19712855E+01
  0
LINE
  8
0
  6
PHANTOM
 62
6
 10
-5.33179313E+01
 20
-4.19712855E+01
 11
-5.33179313E+01
 21
-3.49712854E+01
  0
LINE
  8
0
  6
CENTER
 62
6
 10
-4.58179312E+01
 20
-3.84712855E+01
 11
-5.53179313E+01
 21
-3.84712855E+01
  0
LINE
  8
0
  6
CENTER
 62
6
 10
-4.58179312E+01
 20
-3.49712854E+01
 11
-5.53179313E+01
 21
-3.49712854E+01
  0
LINE
  8
0
  6
PHANTOM
 62
6
 10
-4.78179312E+01
 20
-4.19712855E+01
 11
-4.78179312E+01
 21
-3.49712854E+01
  0
LINE
  8
0
  6
PHANTOM
 62
6
 10
-4.45750740E+01
 20
-2.29712852E+01
 11
-5.65750742E+01
 21
-2.29712852E+01
  0
LINE
  8
0
  6
CENTER
 62
6
 10
-4.15750740E+01
 20
-5.09712857E+01
 11
-5.95750743E+01
 21
-5.09712857E+01
  0
LINE
  8
0
 62
7
 10
-4.00750739E+01
 20
-3.19712854E+01
 11
-4.00750739E+01
 21
-3.74712855E+01
  0
ARC
  8
0
 62
7
 10
-1.73338826E+01
 20
-1.89647687E+01
 40
1.50651737E+00
 50
2.70063369E+02
 51
3.55400722E+02
  0
ARC
  8
0
 62
7
 10
1.81914489E+01
 20
-1.89718838E+01
 40
1.49940941E+00
 50
1.84348410E+02
 51
2.70187499E+02
  0
ARC
  8
0
  6
PHANTOM
 62
6
 10
4.79676053E+01
 20
-2.79260957E+01
 40
2.04667944E+00
 50
2.44362935E+02
 51
3.04434476E+02
  0
ARC
  8
0
  6
PHANTOM
 62
6
 10
5.14320705E+01
 20
-2.23285426E+01
 40
7.64217729E+00
 50
2.52428482E+02
 51
2.87571518E+02
  0
ARC
  8
0
  6
PHANTOM
 62
6
 10
5.48964520E+01
 20
-2.79271835E+01
 40
2.04573502E+00
 50
2.35550229E+02
 51
2.95652360E+02
  0
ARC
  8
0
  6
PHANTOM
 62
6
 10
5.48836719E+01
 20
-2.73163279E+01
 40
2.03931144E+00
 50
6.38616478E+01
 51
1.24138723E+02
  0
ARC
  8
0
  6
PHANTOM
 62
6
 10
5.14320705E+01
 20
-3.29140289E+01
 40
7.64217812E+00
 50
7.24284841E+01
 51
1.07571516E+02
  0
ARC
  8
0
  6
PHANTOM
 62
6
 10
4.79803944E+01
 20
-2.73173947E+01
 40
2.04023634E+00
 50
5.58763554E+01
 51
1.16123273E+02
  0
ARC
  8
0
  6
PHANTOM
 62
6
 10
5.14249276E+01
 20
1.80287155E+01
 40
2.50000004E+00
 50
0.00000000E+00
 51
1.80000000E+02
  0
ARC
  8
0
  6
PHANTOM
 62
6
 10
5.14320705E+01
 20
-5.99712858E+01
 40
2.75000005E+00
 50
0.00000000E+00
 51
1.80000000E+02
  0
ARC
  8
0
  6
PHANTOM
 62
6
 10
5.14320705E+01
 20
-6.69712860E+01
 40
2.75000005E+00
 50
1.80000000E+02
 51
0.00000000E+00
  0
ARC
  8
0
  6
PHANTOM
 62
6
 10
5.14320705E+01
 20
-4.19712855E+01
 40
2.75000005E+00
 50
1.80000000E+02
 51
0.00000000E+00
  0
ARC
  8
0
  6
PHANTOM
 62
6
 10
5.14320705E+01
 20
-3.49712854E+01
 40
2.75000005E+00
 50
0.00000000E+00
 51
1.80000000E+02
  0
ARC
  8
0
  6
PHANTOM
 62
6
 10
-5.05679313E+01
 20
-4.19712855E+01
 40
2.75000005E+00
 50
1.80000000E+02
 51
0.00000000E+00
  0
ARC
  8
0
  6
PHANTOM
 62
6
 10
-5.05679313E+01
 20
-3.49712854E+01
 40
2.75000005E+00
 50
0.00000000E+00
 51
1.80000000E+02
  0
ARC
  8
0
  6
PHANTOM
 62
6
 10
-4.71035497E+01
 20
-2.79271829E+01
 40
2.04573557E+00
 50
2.35550238E+02
 51
2.95652351E+02
  0
ARC
  8
0
  6
PHANTOM
 62
6
 10
-5.05679313E+01
 20
-2.23285426E+01
 40
7.64217728E+00
 50
2.52428482E+02
 51
2.87571518E+02
  0
ARC
  8
0
  6
PHANTOM
 62
6
 10
-5.40323965E+01
 20
-2.79260947E+01
 40
2.04668034E+00
 50
2.44362949E+02
 51
3.04434462E+02
  0
ARC
  8
0
  6
PHANTOM
 62
6
 10
-5.40196074E+01
 20
-2.73173958E+01
 40
2.04023723E+00
 50
5.58763697E+01
 51
1.16123259E+02
  0
ARC
  8
0
  6
PHANTOM
 62
6
 10
-5.05679313E+01
 20
-3.29140289E+01
 40
7.64217812E+00
 50
7.24284841E+01
 51
1.07571516E+02
  0
ARC
  8
0
  6
PHANTOM
 62
6
 10
-4.71163298E+01
 20
-2.73163286E+01
 40
2.03931198E+00
 50
6.38616570E+01
 51
1.24138715E+02
  0
ARC
  8
0
  6
PHANTOM
 62
6
 10
-5.05750741E+01
 20
1.80287155E+01
 40
2.50000004E+00
 50
0.00000000E+00
 51
1.80000000E+02
  0
ARC
  8
0
  6
PHANTOM
 62
6
 10
-5.05679313E+01
 20
-5.99712858E+01
 40
2.75000005E+00
 50
0.00000000E+00
 51
1.80000000E+02
  0
ARC
  8
0
  6
PHANTOM
 62
6
 10
-5.05679313E+01
 20
-6.69712860E+01
 40
2.75000005E+00
 50
1.80000000E+02
 51
0.00000000E+00
  0
LINE
  8
0
 62
7
 10
-1.79893593E+01
 20
-1.40671287E+02
 11
1.88534985E+01
 21
-1.40671287E+02
  0
LINE
  8
0
 62
7
 10
-1.95322164E+01
 20
-1.23171287E+02
 11
-2.64322166E+01
 21
-1.23171287E+02
  0
LINE
  8
0
 62
7
 10
-1.95322164E+01
 20
-8.71712863E+01
 11
-2.64322166E+01
 21
-8.71712863E+01
  0
LINE
  8
0
 62
7
 10
-1.95322164E+01
 20
-8.11712862E+01
 11
-2.64322166E+01
 21
-8.11712862E+01
  0
LINE
  8
0
 62
7
 10
-2.64322166E+01
 20
-4.71712856E+01
 11
-1.95322164E+01
 21
-4.71712856E+01
  0
LINE
  8
0
 62
7
 10
3.38534988E+01
 20
-1.25799858E+02
 11
3.45820702E+01
 21
-4.14712855E+01
  0
LINE
  8
0
 62
7
 10
-3.29893595E+01
 20
-1.25799858E+02
 11
-3.34607881E+01
 21
-7.13712860E+01
  0
LINE
  8
0
 62
7
 10
-2.46036451E+01
 20
-4.76712856E+01
 11
-1.95322164E+01
 21
-4.76712856E+01
  0
LINE
  8
0
 62
7
 10
-1.95322164E+01
 20
-8.76712863E+01
 11
-2.46036451E+01
 21
-8.76712863E+01
  0
LINE
  8
0
 62
7
 10
-1.95322164E+01
 20
-8.06712862E+01
 11
-2.46036451E+01
 21
-8.06712862E+01
  0
LINE
  8
0
 62
7
 10
-1.95322164E+01
 20
-1.22671287E+02
 11
-2.46036451E+01
 21
-1.22671287E+02
  0
LINE
  8
0
 62
7
 10
-2.74322166E+01
 20
-8.81712863E+01
 11
-2.74322166E+01
 21
-1.22171287E+02
  0
LINE
  8
0
 62
7
 10
-2.56036451E+01
 20
-8.86712863E+01
 11
-2.56036451E+01
 21
-1.21671287E+02
  0
LINE
  8
0
 62
7
 10
-1.85322164E+01
 20
-8.81712863E+01
 11
-1.85322164E+01
 21
-1.22171287E+02
  0
LINE
  8
0
 62
7
 10
-1.91465021E+01
 20
-1.23671287E+02
 11
-2.66893594E+01
 21
-1.23671287E+02
  0
LINE
  8
0
 62
7
 10
-1.91465021E+01
 20
-1.24171287E+02
 11
-2.72893594E+01
 21
-1.24171287E+02
  0
LINE
  8
0
 62
7
 10
-2.66893594E+01
 20
-4.66712856E+01
 11
-1.91465021E+01
 21
-4.66712856E+01
  0
LINE
  8
0
 62
7
 10
-2.72893594E+01
 20
-4.61712856E+01
 11
-1.91465021E+01
 21
-4.61712856E+01
  0
LINE
  8
0
 62
7
 10
-1.81465021E+01
 20
-4.71712856E+01
 11
-1.81465021E+01
 21
-1.23171287E+02
  0
LINE
  8
0
 62
7
 10
-1.85322164E+01
 20
-4.81712856E+01
 11
-1.85322164E+01
 21
-8.01712862E+01
  0
LINE
  8
0
 62
7
 10
-2.56036451E+01
 20
-4.86712857E+01
 11
-2.56036451E+01
 21
-7.96712862E+01
  0
LINE
  8
0
 62
7
 10
-2.74322166E+01
 20
-4.81712856E+01
 11
-2.74322166E+01
 21
-8.01712862E+01
  0
LINE
  8
0
 62
7
 10
-2.76893594E+01
 20
-4.76712856E+01
 11
-2.76893594E+01
 21
-1.22671287E+02
  0
LINE
  8
0
 62
7
 10
-2.82893594E+01
 20
-4.71712856E+01
 11
-2.82893594E+01
 21
-1.23171287E+02
  0
LINE
  8
0
 62
7
 10
2.03820700E+01
 20
-1.23171287E+02
 11
2.72963558E+01
 21
-1.23171287E+02
  0
LINE
  8
0
 62
7
 10
2.03820700E+01
 20
-8.71712863E+01
 11
2.72963558E+01
 21
-8.71712863E+01
  0
LINE
  8
0
 62
7
 10
2.03820700E+01
 20
-8.11712862E+01
 11
2.72963558E+01
 21
-8.11712862E+01
  0
LINE
  8
0
 62
7
 10
2.72963558E+01
 20
-4.71712856E+01
 11
2.03820700E+01
 21
-4.71712856E+01
  0
LINE
  8
0
 62
7
 10
2.54534986E+01
 20
-4.76712856E+01
 11
2.03820700E+01
 21
-4.76712856E+01
  0
LINE
  8
0
 62
7
 10
2.03820700E+01
 20
-8.76712863E+01
 11
2.54534986E+01
 21
-8.76712863E+01
  0
LINE
  8
0
 62
7
 10
2.03820700E+01
 20
-8.06712862E+01
 11
2.54534986E+01
 21
-8.06712862E+01
  0
LINE
  8
0
 62
7
 10
2.03820700E+01
 20
-1.22671287E+02
 11
2.54534986E+01
 21
-1.22671287E+02
  0
LINE
  8
0
 62
7
 10
2.82963558E+01
 20
-8.81712863E+01
 11
2.82963558E+01
 21
-1.22171287E+02
  0
LINE
  8
0
 62
7
 10
2.64534986E+01
 20
-8.86712863E+01
 11
2.64534986E+01
 21
-1.21671287E+02
  0
LINE
  8
0
 62
7
 10
1.93820699E+01
 20
-8.81712863E+01
 11
1.93820699E+01
 21
-1.22171287E+02
  0
LINE
  8
0
 62
7
 10
2.00106414E+01
 20
-1.23671287E+02
 11
2.75534986E+01
 21
-1.23671287E+02
  0
LINE
  8
0
 62
7
 10
2.00106414E+01
 20
-1.24171287E+02
 11
2.81534987E+01
 21
-1.24171287E+02
  0
LINE
  8
0
 62
7
 10
2.75534986E+01
 20
-4.66712856E+01
 11
2.00106414E+01
 21
-4.66712856E+01
  0
LINE
  8
0
 62
7
 10
2.81534987E+01
 20
-4.61712856E+01
 11
2.00106414E+01
 21
-4.61712856E+01
  0
LINE
  8
0
 62
7
 10
1.90106414E+01
 20
-4.71712856E+01
 11
1.90106414E+01
 21
-1.23171287E+02
  0
LINE
  8
0
 62
7
 10
1.93820699E+01
 20
-4.81712856E+01
 11
1.93820699E+01
 21
-8.01712862E+01
  0
LINE
  8
0
 62
7
 10
2.64534986E+01
 20
-4.86712857E+01
 11
2.64534986E+01
 21
-7.96712862E+01
  0
LINE
  8
0
 62
7
 10
2.82963558E+01
 20
-4.81712856E+01
 11
2.82963558E+01
 21
-8.01712862E+01
  0
LINE
  8
0
 62
7
 10
2.85534987E+01
 20
-4.76712856E+01
 11
2.85534987E+01
 21
-1.22671287E+02
  0
LINE
  8
0
 62
7
 10
2.91534987E+01
 20
-4.71712856E+01
 11
2.91534987E+01
 21
-1.23171287E+02
  0
LINE
  8
0
 62
7
 10
-3.34607881E+01
 20
-7.13712860E+01
 11
-3.62465024E+01
 21
-6.73855717E+01
  0
LINE
  8
0
 62
7
 10
-3.62893596E+01
 20
-6.72141431E+01
 11
-3.63750739E+01
 21
-5.78712858E+01
  0
LINE
  8
0
 62
7
 10
-3.36179310E+01
 20
-5.35427143E+01
 11
-3.63750739E+01
 21
-5.78712858E+01
  0
LINE
  8
0
 62
7
 10
-3.36179310E+01
 20
-5.35427143E+01
 11
-3.37179310E+01
 21
-4.14712855E+01
  0
LINE
  8
0
 62
7
 10
-3.69750739E+01
 20
-4.39855713E+01
 11
-3.64322167E+01
 21
-6.59855717E+01
  0
LINE
  8
0
 62
7
 10
-3.64893596E+01
 20
-4.34712856E+01
 11
-3.54036453E+01
 21
-4.34427141E+01
  0
LINE
  8
0
 62
7
 10
-3.64322167E+01
 20
-6.59855717E+01
 11
-3.63036453E+01
 21
-6.60998574E+01
  0
LINE
  8
0
 62
7
 10
-3.69750739E+01
 20
-4.39855713E+01
 11
-3.64893596E+01
 21
-4.34712856E+01
  0
LINE
  8
0
 62
7
 10
-3.60322167E+01
 20
-4.14712855E+01
 11
-3.59893596E+01
 21
-4.34569999E+01
  0
LINE
  8
0
 62
7
 10
-3.54607881E+01
 20
-4.14712855E+01
 11
-3.54036453E+01
 21
-4.34427141E+01
  0
LINE
  8
0
 62
7
 10
-3.64893596E+01
 20
-4.34712856E+01
 11
-3.61465024E+01
 21
-5.74998572E+01
  0
LINE
  8
0
 62
4
 10
-7.14650194E+00
 20
-1.42171287E+02
 11
8.01064117E+00
 21
-1.42171287E+02
  0
LINE
  8
0
 62
4
 10
-7.64650195E+00
 20
-1.41671287E+02
 11
-7.64650195E+00
 21
-1.40671287E+02
  0
LINE
  8
0
 62
4
 10
8.51064118E+00
 20
-1.41671287E+02
 11
8.51064118E+00
 21
-1.40671287E+02
  0
LINE
  8
0
 62
4
 10
8.01064117E+00
 20
-1.42171287E+02
 11
8.51064118E+00
 21
-1.41671287E+02
  0
LINE
  8
0
 62
4
 10
-7.14650194E+00
 20
-1.42171287E+02
 11
-7.64650195E+00
 21
-1.41671287E+02
  0
LINE
  8
0
 62
4
 10
7.18206973E+00
 20
-1.56957002E+02
 11
-6.31793050E+00
 21
-1.56957002E+02
  0
LINE
  8
0
 62
4
 10
8.18206975E+00
 20
-1.43957002E+02
 11
8.18206975E+00
 21
-1.55957002E+02
  0
LINE
  8
0
 62
4
 10
-7.31793052E+00
 20
-1.43957002E+02
 11
-7.31793052E+00
 21
-1.55957002E+02
  0
LINE
  8
0
 62
4
 10
8.18206975E+00
 20
-1.55957002E+02
 11
7.18206973E+00
 21
-1.56957002E+02
  0
LINE
  8
0
 62
4
 10
-6.31793050E+00
 20
-1.56957002E+02
 11
-7.31793052E+00
 21
-1.55957002E+02
  0
LINE
  8
0
 62
4
 10
7.68206974E+00
 20
-1.43457002E+02
 11
-6.81793051E+00
 21
-1.43457002E+02
  0
LINE
  8
0
 62
4
 10
7.68206974E+00
 20
-1.43457002E+02
 11
8.18206975E+00
 21
-1.43957002E+02
  0
LINE
  8
0
 62
4
 10
-6.81793051E+00
 20
-1.43457002E+02
 11
-7.31793052E+00
 21
-1.43957002E+02
  0
LINE
  8
0
 62
4
 10
6.42492686E+00
 20
-1.42171287E+02
 11
6.42492686E+00
 21
-1.43457002E+02
  0
LINE
  8
0
 62
4
 10
-5.57507334E+00
 20
-1.42171287E+02
 11
-5.57507334E+00
 21
-1.43457002E+02
  0
LINE
  8
0
 62
6
 10
-4.81793047E+00
 20
-1.42171287E+02
 11
-4.81793047E+00
 21
-1.43457002E+02
  0
LINE
  8
0
 62
6
 10
5.68206970E+00
 20
-1.42171287E+02
 11
5.68206970E+00
 21
-1.43457002E+02
  0
LINE
  8
0
 62
4
 10
-1.07507327E+00
 20
-1.46457002E+02
 11
-1.07507327E+00
 21
-1.55957002E+02
  0
LINE
  8
0
 62
4
 10
1.92492678E+00
 20
-1.46457002E+02
 11
1.92492678E+00
 21
-1.55957002E+02
  0
LINE
  8
0
 62
4
 10
2.26778393E+00
 20
-1.46742716E+02
 11
2.26778393E+00
 21
-1.56457002E+02
  0
LINE
  8
0
 62
4
 10
-1.40364470E+00
 20
-1.46742716E+02
 11
-1.40364470E+00
 21
-1.56457002E+02
  0
LINE
  8
0
 62
4
 10
-3.21793045E+00
 20
-1.46742716E+02
 11
-3.21793045E+00
 21
-1.56457002E+02
  0
LINE
  8
0
 62
4
 10
-3.88935903E+00
 20
-1.46457002E+02
 11
-3.88935903E+00
 21
-1.55957002E+02
  0
LINE
  8
0
 62
4
 10
-6.00364478E+00
 20
-1.46457002E+02
 11
-6.00364478E+00
 21
-1.55957002E+02
  0
LINE
  8
0
 62
4
 10
-6.57507336E+00
 20
-1.46742716E+02
 11
-6.57507336E+00
 21
-1.56457002E+02
  0
LINE
  8
0
 62
4
 10
-7.17507337E+00
 20
-1.46457002E+02
 11
-7.17507337E+00
 21
-1.55957002E+02
  0
LINE
  8
0
 62
4
 10
4.08206968E+00
 20
-1.46742716E+02
 11
4.08206968E+00
 21
-1.56457002E+02
  0
LINE
  8
0
 62
4
 10
4.75349826E+00
 20
-1.46457002E+02
 11
4.75349826E+00
 21
-1.55957002E+02
  0
LINE
  8
0
 62
4
 10
6.86778401E+00
 20
-1.46457002E+02
 11
6.86778401E+00
 21
-1.55957002E+02
  0
LINE
  8
0
 62
4
 10
7.43921259E+00
 20
-1.46742716E+02
 11
7.43921259E+00
 21
-1.56457002E+02
  0
LINE
  8
0
 62
4
 10
8.03921260E+00
 20
-1.46457002E+02
 11
8.03921260E+00
 21
-1.55957002E+02
  0
LINE
  8
0
 62
4
 10
8.03921260E+00
 20
-1.46457002E+02
 11
6.86778401E+00
 21
-1.46457002E+02
  0
LINE
  8
0
 62
4
 10
7.43921259E+00
 20
-1.46742716E+02
 11
6.86778401E+00
 21
-1.46742716E+02
  0
LINE
  8
0
 62
4
 10
8.18206975E+00
 20
-1.55957002E+02
 11
8.03921260E+00
 21
-1.55957002E+02
  0
LINE
  8
0
 62
4
 10
-1.07507327E+00
 20
-1.46457002E+02
 11
-3.88935903E+00
 21
-1.46457002E+02
  0
LINE
  8
0
 62
4
 10
-1.40364470E+00
 20
-1.46742716E+02
 11
-3.21793045E+00
 21
-1.46742716E+02
  0
LINE
  8
0
 62
4
 10
4.75349826E+00
 20
-1.46457002E+02
 11
1.92492678E+00
 21
-1.46457002E+02
  0
LINE
  8
0
 62
4
 10
4.08206968E+00
 20
-1.46742716E+02
 11
2.26778393E+00
 21
-1.46742716E+02
  0
LINE
  8
0
 62
4
 10
-6.00364478E+00
 20
-1.46457002E+02
 11
-7.17507337E+00
 21
-1.46457002E+02
  0
LINE
  8
0
 62
4
 10
-6.00364478E+00
 20
-1.46742716E+02
 11
-6.57507336E+00
 21
-1.46742716E+02
  0
LINE
  8
0
 62
4
 10
1.92492678E+00
 20
-1.55957002E+02
 11
-1.07507327E+00
 21
-1.55957002E+02
  0
LINE
  8
0
 62
4
 10
-3.88935903E+00
 20
-1.55957002E+02
 11
-6.00364478E+00
 21
-1.55957002E+02
  0
LINE
  8
0
 62
4
 10
-7.17507337E+00
 20
-1.55957002E+02
 11
-7.31793052E+00
 21
-1.55957002E+02
  0
LINE
  8
0
 62
4
 10
6.86778401E+00
 20
-1.55957002E+02
 11
4.75349826E+00
 21
-1.55957002E+02
  0
LINE
  8
0
 62
4
 10
4.08206968E+00
 20
-1.56457002E+02
 11
2.26778393E+00
 21
-1.56457002E+02
  0
LINE
  8
0
 62
4
 10
7.43921259E+00
 20
-1.56457002E+02
 11
8.03921260E+00
 21
-1.55957002E+02
  0
LINE
  8
0
 62
4
 10
4.08206968E+00
 20
-1.56457002E+02
 11
4.75349826E+00
 21
-1.55957002E+02
  0
LINE
  8
0
 62
4
 10
2.26778393E+00
 20
-1.56457002E+02
 11
1.92492678E+00
 21
-1.55957002E+02
  0
LINE
  8
0
 62
4
 10
-1.07507327E+00
 20
-1.55957002E+02
 11
-1.40364470E+00
 21
-1.56457002E+02
  0
LINE
  8
0
 62
4
 10
-3.21793045E+00
 20
-1.56457002E+02
 11
-3.88935903E+00
 21
-1.55957002E+02
  0
LINE
  8
0
 62
4
 10
-6.57507336E+00
 20
-1.56457002E+02
 11
-7.17507337E+00
 21
-1.55957002E+02
  0
LINE
  8
0
 62
4
 10
-6.57507336E+00
 20
-1.46742716E+02
 11
-7.17507337E+00
 21
-1.46457002E+02
  0
LINE
  8
0
 62
4
 10
-3.23221616E+00
 20
-1.46742716E+02
 11
-3.88935903E+00
 21
-1.46457002E+02
  0
LINE
  8
0
 62
4
 10
-1.40364470E+00
 20
-1.46742716E+02
 11
-1.07507327E+00
 21
-1.46457002E+02
  0
LINE
  8
0
 62
4
 10
2.26778393E+00
 20
-1.46742716E+02
 11
1.92492678E+00
 21
-1.46457002E+02
  0
LINE
  8
0
 62
4
 10
4.08206968E+00
 20
-1.46742716E+02
 11
4.75349826E+00
 21
-1.46457002E+02
  0
LINE
  8
0
 62
4
 10
7.43921259E+00
 20
-1.46742716E+02
 11
8.03921260E+00
 21
-1.46457002E+02
  0
LINE
  8
0
 62
4
 10
6.86778401E+00
 20
-1.55957002E+02
 11
6.69635544E+00
 21
-1.56457002E+02
  0
LINE
  8
0
 62
4
 10
-6.00364478E+00
 20
-1.55957002E+02
 11
-5.83221621E+00
 21
-1.56457002E+02
  0
LINE
  8
0
 62
4
 10
-1.40364470E+00
 20
-1.56457002E+02
 11
-3.21793045E+00
 21
-1.56457002E+02
  0
LINE
  8
0
 62
4
 10
7.43921259E+00
 20
-1.56457002E+02
 11
6.69635544E+00
 21
-1.56457002E+02
  0
LINE
  8
0
 62
4
 10
-5.83221621E+00
 20
-1.56457002E+02
 11
-6.57507336E+00
 21
-1.56457002E+02
  0
LINE
  8
0
 62
4
 10
8.18206975E+00
 20
-1.43957002E+02
 11
-7.31793052E+00
 21
-1.43957002E+02
  0
LINE
  8
0
 62
4
 10
-7.64650195E+00
 20
-1.41671287E+02
 11
8.51064118E+00
 21
-1.41671287E+02
  0
ARC
  8
0
 62
7
 10
-1.79903407E+01
 20
-1.25671721E+02
 40
1.49995661E+01
 50
1.80489468E+02
 51
2.70000000E+02
  0
ARC
  8
0
 62
7
 10
1.88474079E+01
 20
-1.25664588E+02
 40
1.50067006E+01
 50
2.70023254E+02
 51
3.59483529E+02
  0
ARC
  8
0
 62
7
 10
-2.46034567E+01
 20
-8.86714747E+01
 40
1.00018839E+00
 50
9.00000002E+01
 51
1.79989210E+02
  0
ARC
  8
0
 62
7
 10
-1.95322016E+01
 20
-8.86712715E+01
 40
9.99985194E-01
 50
3.59999150E+02
 51
9.00000002E+01
  0
ARC
  8
0
 62
7
 10
-1.95322082E+01
 20
-8.81712780E+01
 40
9.99991734E-01
 50
3.59999525E+02
 51
9.00000002E+01
  0
ARC
  8
0
 62
7
 10
-1.95322177E+01
 20
-1.21671286E+02
 40
1.00000133E+00
 50
2.70000000E+02
 51
3.59999925E+02
  0
ARC
  8
0
 62
7
 10
-1.95322134E+01
 20
-1.22171290E+02
 40
9.99996965E-01
 50
2.70000000E+02
 51
1.74845095E-04
  0
ARC
  8
0
 62
7
 10
-1.91476149E+01
 20
-1.22670174E+02
 40
1.00111337E+00
 50
2.70063684E+02
 51
3.59936316E+02
  0
ARC
  8
0
 62
7
 10
-1.91476105E+01
 20
-1.23170179E+02
 40
1.00110901E+00
 50
2.70063435E+02
 51
3.59936565E+02
  0
ARC
  8
0
 62
7
 10
-2.46034406E+01
 20
-1.21671082E+02
 40
1.00020452E+00
 50
1.80011714E+02
 51
2.70000000E+02
  0
ARC
  8
0
 62
7
 10
-2.64348620E+01
 20
-8.81686409E+01
 40
9.97358117E-01
 50
8.98480277E+01
 51
1.80151972E+02
  0
ARC
  8
0
 62
7
 10
-2.64348567E+01
 20
-1.22173927E+02
 40
9.97363349E-01
 50
1.79848330E+02
 51
2.70151671E+02
  0
ARC
  8
0
 62
7
 10
-2.66919769E+01
 20
-1.22673904E+02
 40
9.97385934E-01
 50
1.79849634E+02
 51
2.70150366E+02
  0
ARC
  8
0
 62
7
 10
-2.72906421E+01
 20
-1.23172570E+02
 40
9.98718206E-01
 50
1.79926416E+02
 51
2.70073584E+02
  0
ARC
  8
0
 62
7
 10
-1.95322050E+01
 20
-4.86712742E+01
 40
9.99988600E-01
 50
3.59999346E+02
 51
9.00000002E+01
  0
ARC
  8
0
 62
7
 10
-1.95322047E+01
 20
-4.81712740E+01
 40
9.99988328E-01
 50
3.59999330E+02
 51
9.00000002E+01
  0
ARC
  8
0
 62
7
 10
-1.91476001E+01
 20
-4.76723836E+01
 40
1.00109860E+00
 50
6.28408421E-02
 51
8.99371593E+01
  0
ARC
  8
0
 62
7
 10
-1.91475999E+01
 20
-4.71723833E+01
 40
1.00109833E+00
 50
6.28252817E-02
 51
8.99371748E+01
  0
ARC
  8
0
 62
7
 10
-2.46034533E+01
 20
-4.86714774E+01
 40
1.00019180E+00
 50
9.00000002E+01
 51
1.79989015E+02
  0
ARC
  8
0
 62
7
 10
-2.64348654E+01
 20
-4.81686368E+01
 40
9.97354711E-01
 50
8.98478306E+01
 51
1.80152169E+02
  0
ARC
  8
0
 62
7
 10
-2.66919917E+01
 20
-4.76686533E+01
 40
9.97371165E-01
 50
8.98487812E+01
 51
1.80151219E+02
  0
ARC
  8
0
 62
7
 10
-2.72906528E+01
 20
-4.71699923E+01
 40
9.98707525E-01
 50
8.99258016E+01
 51
1.80074198E+02
  0
ARC
  8
0
 62
7
 10
-1.95322134E+01
 20
-7.96712892E+01
 40
9.99996965E-01
 50
2.70000000E+02
 51
1.74845095E-04
  0
ARC
  8
0
 62
7
 10
-1.95322090E+01
 20
-8.01712936E+01
 40
9.99992606E-01
 50
2.70000000E+02
 51
4.24641185E-04
  0
ARC
  8
0
 62
7
 10
-2.46034450E+01
 20
-7.96710861E+01
 40
1.00020016E+00
 50
1.80011464E+02
 51
2.70000000E+02
  0
ARC
  8
0
 62
7
 10
-2.64348611E+01
 20
-8.01739307E+01
 40
9.97358989E-01
 50
1.79848078E+02
 51
2.70151922E+02
  0
ARC
  8
0
 62
7
 10
2.54533321E+01
 20
-8.86714529E+01
 40
1.00016659E+00
 50
9.54126889E-03
 51
9.00000002E+01
  0
ARC
  8
0
 62
7
 10
2.03820769E+01
 20
-8.86712933E+01
 40
1.00000699E+00
 50
9.00000002E+01
 51
1.79999600E+02
  0
ARC
  8
0
 62
7
 10
2.03820835E+01
 20
-8.81712998E+01
 40
1.00001353E+00
 50
9.00000002E+01
 51
1.79999226E+02
  0
ARC
  8
0
 62
7
 10
2.03820931E+01
 20
-1.21671264E+02
 40
1.00002312E+00
 50
1.80001324E+02
 51
2.70000000E+02
  0
ARC
  8
0
 62
7
 10
2.03820887E+01
 20
-1.22171268E+02
 40
1.00001876E+00
 50
1.80001074E+02
 51
2.70000000E+02
  0
ARC
  8
0
 62
7
 10
2.00046507E+01
 20
-1.22677278E+02
 40
9.94027373E-01
 50
1.79654694E+02
 51
2.70345306E+02
  0
ARC
  8
0
 62
7
 10
2.00046463E+01
 20
-1.23177282E+02
 40
9.94023014E-01
 50
1.79654440E+02
 51
2.70345561E+02
  0
ARC
  8
0
 62
7
 10
2.54533159E+01
 20
-1.21671104E+02
 40
1.00018272E+00
 50
2.70000000E+02
 51
3.59989535E+02
  0
ARC
  8
0
 62
7
 10
2.72918737E+01
 20
-8.81757684E+01
 40
1.00449213E+00
 50
2.55658801E-01
 51
8.97443413E+01
  0
ARC
  8
0
 62
7
 10
2.72918685E+01
 20
-1.22166800E+02
 40
1.00449737E+00
 50
2.70255955E+02
 51
3.59744046E+02
  0
ARC
  8
0
 62
7
 10
2.75489886E+01
 20
-1.22666777E+02
 40
1.00452018E+00
 50
2.70257244E+02
 51
3.59742756E+02
  0
ARC
  8
0
 62
7
 10
2.81476442E+01
 20
-1.23165432E+02
 40
1.00587156E+00
 50
2.70333483E+02
 51
3.59666518E+02
  0
ARC
  8
0
 62
7
 10
2.03820803E+01
 20
-4.86712960E+01
 40
1.00001040E+00
 50
9.00000002E+01
 51
1.79999405E+02
  0
ARC
  8
0
 62
7
 10
2.03820801E+01
 20
-4.81712958E+01
 40
1.00001013E+00
 50
9.00000002E+01
 51
1.79999421E+02
  0
ARC
  8
0
 62
7
 10
2.00046358E+01
 20
-4.76652801E+01
 40
9.94012606E-01
 50
8.96538323E+01
 51
1.80346168E+02
  0
ARC
  8
0
 62
7
 10
2.00046355E+01
 20
-4.71652798E+01
 40
9.94012333E-01
 50
8.96538168E+01
 51
1.80346184E+02
  0
ARC
  8
0
 62
7
 10
2.54533287E+01
 20
-4.86714556E+01
 40
1.00016999E+00
 50
9.73631748E-03
 51
9.00000002E+01
  0
ARC
  8
0
 62
7
 10
2.72918771E+01
 20
-4.81757644E+01
 40
1.00448873E+00
 50
2.55466259E-01
 51
8.97445338E+01
  0
ARC
  8
0
 62
7
 10
2.75490033E+01
 20
-4.76757810E+01
 40
1.00450541E+00
 50
2.56409431E-01
 51
8.97435907E+01
  0
ARC
  8
0
 62
7
 10
2.81476548E+01
 20
-4.71771295E+01
 40
1.00586088E+00
 50
3.32881080E-01
 51
8.96671192E+01
  0
ARC
  8
0
 62
7
 10
2.03820887E+01
 20
-7.96712674E+01
 40
1.00001876E+00
 50
1.80001074E+02
 51
2.70000000E+02
  0
ARC
  8
0
 62
7
 10
2.03820843E+01
 20
-8.01712718E+01
 40
1.00001440E+00
 50
1.80000824E+02
 51
2.70000000E+02
  0
ARC
  8
0
 62
7
 10
2.54533203E+01
 20
-7.96711079E+01
 40
1.00017836E+00
 50
2.70000000E+02
 51
3.59989785E+02
  0
ARC
  8
0
 62
7
 10
2.72918728E+01
 20
-8.01668032E+01
 40
1.00449301E+00
 50
2.70255708E+02
 51
3.59744292E+02
  0
ARC
  8
0
 62
7
 10
-3.59985036E+01
 20
-6.72325005E+01
 40
2.91434740E-01
 50
1.76388557E+02
 51
2.11683930E+02
  0
LINE
  8
0
  6
CENTER
 62
2
 10
4.24926758E-01
 20
2.85287157E+01
 11
4.24926758E-01
 21
-1.61871288E+02
  0
POLYLINE
  8
0
 62
7
 66
1
  0
VERTEX
  8
0
 62
7
 10
-3.36179310E+01
 20
-5.35427143E+01
  0
VERTEX
  8
0
 62
7
 10
-3.33983515E+01
 20
-5.43060114E+01
  0
VERTEX
  8
0
 62
7
 10
-3.31967083E+01
 20
-5.50750254E+01
  0
VERTEX
  8
0
 62
7
 10
-3.30133829E+01
 20
-5.58492425E+01
  0
VERTEX
  8
0
 62
7
 10
-3.28487573E+01
 20
-5.66281487E+01
  0
VERTEX
  8
0
 62
7
 10
-3.27032130E+01
 20
-5.74112303E+01
  0
VERTEX
  8
0
 62
7
 10
-3.25771319E+01
 20
-5.81979736E+01
  0
VERTEX
  8
0
 62
7
 10
-3.24708957E+01
 20
-5.89878645E+01
  0
VERTEX
  8
0
 62
7
 10
-3.23848861E+01
 20
-5.97803895E+01
  0
VERTEX
  8
0
 62
7
 10
-3.23194849E+01
 20
-6.05750345E+01
  0
VERTEX
  8
0
 62
7
 10
-3.22750738E+01
 20
-6.13712859E+01
  0
VERTEX
  8
0
 62
7
 10
-3.22492477E+01
 20
-6.23823190E+01
  0
VERTEX
  8
0
 62
7
 10
-3.22570577E+01
 20
-6.33940482E+01
  0
VERTEX
  8
0
 62
7
 10
-3.22979233E+01
 20
-6.44052930E+01
  0
VERTEX
  8
0
 62
7
 10
-3.23712643E+01
 20
-6.54148730E+01
  0
VERTEX
  8
0
 62
7
 10
-3.24765001E+01
 20
-6.64216076E+01
  0
VERTEX
  8
0
 62
7
 10
-3.26130504E+01
 20
-6.74243165E+01
  0
VERTEX
  8
0
 62
7
 10
-3.27803347E+01
 20
-6.84218192E+01
  0
VERTEX
  8
0
 62
7
 10
-3.29777727E+01
 20
-6.94129354E+01
  0
VERTEX
  8
0
 62
7
 10
-3.32047840E+01
 20
-7.03964844E+01
  0
VERTEX
  8
0
 62
7
 10
-3.34607881E+01
 20
-7.13712860E+01
  0
SEQEND
  8
0
  0
LINE
  8
0
  6
CENTER
 62
2
 10
1.83423238E+02
 20
2.85287157E+01
 11
1.83423238E+02
 21
-1.61871288E+02
  0
LINE
  8
0
 62
7
 10
2.06923239E+02
 20
2.35287156E+01
 11
1.59923238E+02
 21
2.35287156E+01
  0
LINE
  8
0
 62
7
 10
2.21923239E+02
 20
-4.14712855E+01
 11
1.44923238E+02
 21
-4.14712855E+01
  0
LINE
  8
0
 62
7
 10
2.08423239E+02
 20
2.20287155E+01
 11
2.06923239E+02
 21
2.35287156E+01
  0
LINE
  8
0
 62
7
 10
1.59923238E+02
 20
2.35287156E+01
 11
1.58423238E+02
 21
2.20287155E+01
  0
LINE
  8
0
 62
7
 10
2.22923239E+02
 20
-2.14712852E+01
 11
2.22923239E+02
 21
-4.04712855E+01
  0
LINE
  8
0
 62
7
 10
1.43923238E+02
 20
-2.14712852E+01
 11
1.43923238E+02
 21
-4.04712855E+01
  0
LINE
  8
0
 62
7
 10
2.22923239E+02
 20
-4.04712855E+01
 11
2.21923239E+02
 21
-4.14712855E+01
  0
LINE
  8
0
 62
7
 10
1.43923238E+02
 20
-4.04712855E+01
 11
1.44923238E+02
 21
-4.14712855E+01
  0
LINE
  8
0
 62
7
 10
2.22923239E+02
 20
-4.04712855E+01
 11
1.43923238E+02
 21
-4.04712855E+01
  0
LINE
  8
0
 62
7
 10
2.08423239E+02
 20
2.20287155E+01
 11
1.58423238E+02
 21
2.20287155E+01
  0
LINE
  8
0
 62
7
 10
2.21923239E+02
 20
-2.04712852E+01
 11
2.09923239E+02
 21
-2.04712852E+01
  0
LINE
  8
0
 62
7
 10
2.22923239E+02
 20
-2.14712852E+01
 11
2.21923239E+02
 21
-2.04712852E+01
  0
LINE
  8
0
 62
7
 10
1.43923238E+02
 20
-2.14712852E+01
 11
1.44923238E+02
 21
-2.04712852E+01
  0
LINE
  8
0
 62
7
 10
2.22923239E+02
 20
-2.14712852E+01
 11
2.08423239E+02
 21
-2.14712852E+01
  0
LINE
  8
0
 62
7
 10
2.10294667E+02
 20
2.06572870E+01
 11
2.08423239E+02
 21
2.06572870E+01
  0
LINE
  8
0
 62
7
 10
1.56537524E+02
 20
2.06572870E+01
 11
1.54923238E+02
 21
1.90287155E+01
  0
LINE
  8
0
 62
7
 10
2.11923239E+02
 20
1.90287155E+01
 11
2.08423239E+02
 21
1.90287155E+01
  0
LINE
  8
0
 62
7
 10
1.87423238E+02
 20
2.45287156E+01
 11
1.79423238E+02
 21
2.45287156E+01
  0
LINE
  8
0
  6
CENTER
 62
2
 10
2.17637525E+02
 20
-1.47128485E+00
 11
1.49194666E+02
 21
-1.47128485E+00
  0
LINE
  8
0
 62
7
 10
2.10294667E+02
 20
2.06572870E+01
 11
2.11923239E+02
 21
1.90287155E+01
  0
LINE
  8
0
 62
7
 10
1.79423238E+02
 20
2.45287156E+01
 11
1.79423238E+02
 21
2.35287156E+01
  0
LINE
  8
0
 62
7
 10
1.87423238E+02
 20
2.45287156E+01
 11
1.87423238E+02
 21
2.35287156E+01
  0
LINE
  8
0
 62
7
 10
2.08423239E+02
 20
2.20287155E+01
 11
2.08423239E+02
 21
-2.64712853E+01
  0
LINE
  8
0
 62
7
 10
2.06923239E+02
 20
2.35287156E+01
 11
2.06923239E+02
 21
-2.64712853E+01
  0
LINE
  8
0
 62
7
 10
2.08423239E+02
 20
-2.64712853E+01
 11
1.58423238E+02
 21
-2.64712853E+01
  0
LINE
  8
0
 62
7
 10
1.58423238E+02
 20
2.20287155E+01
 11
1.58423238E+02
 21
-2.64712853E+01
  0
LINE
  8
0
 62
7
 10
1.59923238E+02
 20
2.35287156E+01
 11
1.59923238E+02
 21
-2.64712853E+01
  0
LINE
  8
0
 62
7
 10
1.58423238E+02
 20
-2.14712852E+01
 11
1.43923238E+02
 21
-2.14712852E+01
  0
LINE
  8
0
 62
7
 10
1.56923238E+02
 20
-2.04712852E+01
 11
1.44923238E+02
 21
-2.04712852E+01
  0
LINE
  8
0
 62
7
 10
1.58423238E+02
 20
2.06572870E+01
 11
1.56537524E+02
 21
2.06572870E+01
  0
LINE
  8
0
 62
7
 10
1.58423238E+02
 20
1.90287155E+01
 11
1.54923238E+02
 21
1.90287155E+01
  0
LINE
  8
0
 62
7
 10
1.53594666E+02
 20
-1.90284280E+01
 11
1.54923238E+02
 21
1.90287155E+01
  0
LINE
  8
0
 62
7
 10
2.11923239E+02
 20
1.90287155E+01
 11
2.13251810E+02
 21
-1.90284280E+01
  0
LINE
  8
0
  6
PHANTOM
 62
6
 10
2.05423239E+02
 20
-1.47128485E+00
 11
2.05423239E+02
 21
-1.84712851E+01
  0
LINE
  8
0
  6
PHANTOM
 62
6
 10
2.00423239E+02
 20
-1.47128485E+00
 11
2.00423239E+02
 21
-1.84712851E+01
  0
LINE
  8
0
  6
PHANTOM
 62
6
 10
2.05423239E+02
 20
-3.14712854E+01
 11
2.00423239E+02
 21
-3.14712854E+01
  0
LINE
  8
0
  6
PHANTOM
 62
6
 10
2.00423239E+02
 20
-1.14712850E+01
 11
2.05423239E+02
 21
-1.14712850E+01
  0
LINE
  8
0
  6
PHANTOM
 62
6
 10
2.04980382E+02
 20
-1.14712850E+01
 11
2.05423239E+02
 21
-1.04712850E+01
  0
LINE
  8
0
  6
PHANTOM
 62
6
 10
2.04980382E+02
 20
-1.14712850E+01
 11
2.04980382E+02
 21
-1.84712851E+01
  0
LINE
  8
0
  6
PHANTOM
 62
6
 10
2.00851810E+02
 20
-1.14712850E+01
 11
2.00423239E+02
 21
-1.04712850E+01
  0
LINE
  8
0
  6
PHANTOM
 62
6
 10
2.00851810E+02
 20
-1.14712850E+01
 11
2.00851810E+02
 21
-1.84712851E+01
  0
LINE
  8
0
  6
PHANTOM
 62
6
 10
1.56423238E+02
 20
-1.84712851E+01
 11
2.22923239E+02
 21
-1.84712851E+01
  0
LINE
  8
0
  6
PHANTOM
 62
6
 10
1.56423238E+02
 20
-2.29712852E+01
 11
2.22923239E+02
 21
-2.29712852E+01
  0
LINE
  8
0
  6
PHANTOM
 62
6
 10
2.28423239E+02
 20
-2.39712852E+01
 11
2.28423239E+02
 21
-7.34712861E+01
  0
LINE
  8
0
  6
PHANTOM
 62
6
 10
2.23923239E+02
 20
-2.39712852E+01
 11
2.23923239E+02
 21
-7.34712861E+01
  0
LINE
  8
0
  6
PHANTOM
 62
6
 10
2.23923239E+02
 20
-7.34712861E+01
 11
2.28423239E+02
 21
-7.34712861E+01
  0
LINE
  8
0
  6
PHANTOM
 62
6
 10
1.56423238E+02
 20
-1.84712851E+01
 11
1.56423238E+02
 21
-2.29712852E+01
  0
LINE
  8
0
  6
PHANTOM
 62
6
 10
2.07923239E+02
 20
-2.39712852E+01
 11
1.97923239E+02
 21
-2.39712852E+01
  0
LINE
  8
0
  6
PHANTOM
 62
6
 10
2.07923239E+02
 20
-2.29712852E+01
 11
2.07923239E+02
 21
-2.39712852E+01
  0
LINE
  8
0
  6
PHANTOM
 62
6
 10
1.97923239E+02
 20
-2.29712852E+01
 11
1.97923239E+02
 21
-2.39712852E+01
  0
LINE
  8
0
  6
PHANTOM
 62
6
 10
2.07566096E+02
 20
-2.52712853E+01
 11
1.98266096E+02
 21
-2.52712853E+01
  0
LINE
  8
0
  6
PHANTOM
 62
6
 10
1.98266096E+02
 20
-2.39712852E+01
 11
1.98266096E+02
 21
-2.52712853E+01
  0
LINE
  8
0
  6
PHANTOM
 62
6
 10
2.07566096E+02
 20
-2.39712852E+01
 11
2.07566096E+02
 21
-2.52712853E+01
  0
LINE
  8
0
  6
PHANTOM
 62
6
 10
2.04980382E+02
 20
-2.99712853E+01
 11
2.04980382E+02
 21
-3.14712854E+01
  0
LINE
  8
0
  6
PHANTOM
 62
6
 10
2.05423239E+02
 20
-2.99712853E+01
 11
2.05423239E+02
 21
-3.14712854E+01
  0
LINE
  8
0
  6
PHANTOM
 62
6
 10
2.00851810E+02
 20
-2.99712853E+01
 11
2.00851810E+02
 21
-3.14712854E+01
  0
LINE
  8
0
  6
PHANTOM
 62
6
 10
2.00423239E+02
 20
-2.99712853E+01
 11
2.00423239E+02
 21
-3.14712854E+01
  0
LINE
  8
0
  6
PHANTOM
 62
6
 10
1.58923238E+02
 20
-2.29712852E+01
 11
1.58923238E+02
 21
-2.39712852E+01
  0
LINE
  8
0
  6
PHANTOM
 62
6
 10
1.58923238E+02
 20
-2.39712852E+01
 11
1.68923238E+02
 21
-2.39712852E+01
  0
LINE
  8
0
  6
PHANTOM
 62
6
 10
1.59266095E+02
 20
-2.39712852E+01
 11
1.59266095E+02
 21
-2.52712853E+01
  0
LINE
  8
0
  6
PHANTOM
 62
6
 10
1.59266095E+02
 20
-2.52712853E+01
 11
1.68566095E+02
 21
-2.52712853E+01
  0
LINE
  8
0
  6
PHANTOM
 62
6
 10
1.66423238E+02
 20
-2.99712853E+01
 11
1.66423238E+02
 21
-3.14712854E+01
  0
LINE
  8
0
  6
PHANTOM
 62
6
 10
1.65980381E+02
 20
-2.99712853E+01
 11
1.65980381E+02
 21
-3.14712854E+01
  0
LINE
  8
0
  6
PHANTOM
 62
6
 10
1.66423238E+02
 20
-3.14712854E+01
 11
1.61423238E+02
 21
-3.14712854E+01
  0
LINE
  8
0
  6
PHANTOM
 62
6
 10
1.61851809E+02
 20
-2.99712853E+01
 11
1.61851809E+02
 21
-3.14712854E+01
  0
LINE
  8
0
  6
PHANTOM
 62
6
 10
1.61423238E+02
 20
-2.99712853E+01
 11
1.61423238E+02
 21
-3.14712854E+01
  0
LINE
  8
0
  6
PHANTOM
 62
6
 10
1.68566095E+02
 20
-2.39712852E+01
 11
1.68566095E+02
 21
-2.52712853E+01
  0
LINE
  8
0
  6
PHANTOM
 62
6
 10
1.68923238E+02
 20
-2.29712852E+01
 11
1.68923238E+02
 21
-2.39712852E+01
  0
LINE
  8
0
  6
PHANTOM
 62
6
 10
1.59923238E+02
 20
-2.99712853E+01
 11
1.59923238E+02
 21
-2.52712853E+01
  0
LINE
  8
0
  6
PHANTOM
 62
6
 10
1.63923238E+02
 20
-2.96141425E+01
 11
1.63923238E+02
 21
-2.56284281E+01
  0
LINE
  8
0
  6
PHANTOM
 62
6
 10
1.59923238E+02
 20
-2.99712853E+01
 11
1.67923238E+02
 21
-2.99712853E+01
  0
LINE
  8
0
  6
PHANTOM
 62
6
 10
1.67923238E+02
 20
-2.99712853E+01
 11
1.67923238E+02
 21
-2.52712853E+01
  0
LINE
  8
0
  6
PHANTOM
 62
6
 10
1.98923239E+02
 20
-2.99712853E+01
 11
1.98923239E+02
 21
-2.52712853E+01
  0
LINE
  8
0
  6
PHANTOM
 62
6
 10
2.02923239E+02
 20
-2.96141425E+01
 11
2.02923239E+02
 21
-2.56284281E+01
  0
LINE
  8
0
  6
PHANTOM
 62
6
 10
2.06923239E+02
 20
-2.99712853E+01
 11
2.06923239E+02
 21
-2.52712853E+01
  0
LINE
  8
0
  6
PHANTOM
 62
6
 10
2.06923239E+02
 20
-2.99712853E+01
 11
1.98923239E+02
 21
-2.99712853E+01
  0
LINE
  8
0
  6
PHANTOM
 62
6
 10
1.61423238E+02
 20
-1.47128485E+00
 11
1.61423238E+02
 21
-1.84712851E+01
  0
LINE
  8
0
  6
PHANTOM
 62
6
 10
1.61851809E+02
 20
-1.14712850E+01
 11
1.61851809E+02
 21
-1.84712851E+01
  0
LINE
  8
0
  6
PHANTOM
 62
6
 10
1.66423238E+02
 20
-1.14712850E+01
 11
1.61423238E+02
 21
-1.14712850E+01
  0
LINE
  8
0
  6
PHANTOM
 62
6
 10
1.61851809E+02
 20
-1.14712850E+01
 11
1.61423238E+02
 21
-1.04712850E+01
  0
LINE
  8
0
  6
PHANTOM
 62
6
 10
1.65980381E+02
 20
-1.14712850E+01
 11
1.66423238E+02
 21
-1.04712850E+01
  0
LINE
  8
0
  6
PHANTOM
 62
6
 10
1.66423238E+02
 20
-1.47128485E+00
 11
1.66423238E+02
 21
-1.84712851E+01
  0
LINE
  8
0
  6
PHANTOM
 62
6
 10
1.65980381E+02
 20
-1.14712850E+01
 11
1.65980381E+02
 21
-1.84712851E+01
  0
ARC
  8
0
 62
7
 10
1.56923247E+02
 20
-1.89712939E+01
 40
1.49999131E+00
 50
2.70000000E+02
 51
3.33054002E-04
  0
ARC
  8
0
 62
7
 10
2.09923241E+02
 20
-1.89712830E+01
 40
1.50000221E+00
 50
1.80000083E+02
 51
2.70000000E+02
  0
ARC
  8
0
 62
7
 10
2.14751010E+02
 20
-1.89709861E+01
 40
1.50029925E+00
 50
1.82194217E+02
 51
2.70000000E+02
  0
ARC
  8
0
 62
7
 10
1.52095488E+02
 20
-1.89710079E+01
 40
1.50027748E+00
 50
2.70000000E+02
 51
3.57806584E+02
  0
CIRCLE
  8
0
 62
7
 10
1.83423260E+02
 20
-1.47128485E+00
 40
2.10000001E+01
  0
CIRCLE
  8
0
 62
7
 10
1.83423260E+02
 20
-1.47128485E+00
 40
1.20585008E+01
  0
CIRCLE
  8
0
 62
2
 10
1.83423260E+02
 20
-1.47128485E+00
 40
1.32204998E+01
  0
ARC
  8
0
  6
PHANTOM
 62
6
 10
1.83423238E+02
 20
-1.47128485E+00
 40
1.70000003E+01
 50
0.00000000E+00
 51
1.80000000E+02
  0
ARC
  8
0
  6
PHANTOM
 62
6
 10
1.83423238E+02
 20
-1.47128485E+00
 40
2.20000004E+01
 50
0.00000000E+00
 51
1.80000000E+02
  0
ARC
  8
0
  6
PHANTOM
 62
6
 10
2.22923246E+02
 20
-2.39712787E+01
 40
9.99993478E-01
 50
3.59999625E+02
 51
9.00000002E+01
  0
ARC
  8
0
  6
PHANTOM
 62
6
 10
2.22923246E+02
 20
-2.39712787E+01
 40
5.49999355E+00
 50
3.59999932E+02
 51
9.00000002E+01
  0
ARC
  8
0
  6
PHANTOM
 62
6
 10
1.61923238E+02
 20
-2.41945649E+01
 40
5.77683486E+00
 50
2.49744302E+02
 51
2.90255698E+02
  0
ARC
  8
0
  6
PHANTOM
 62
6
 10
1.65923238E+02
 20
-2.41945649E+01
 40
5.77683486E+00
 50
2.49744302E+02
 51
2.90255698E+02
  0
ARC
  8
0
  6
PHANTOM
 62
6
 10
1.65923238E+02
 20
-3.10479848E+01
 40
5.77681523E+00
 50
6.97442307E+01
 51
1.10255770E+02
  0
ARC
  8
0
  6
PHANTOM
 62
6
 10
1.61923238E+02
 20
-3.10479848E+01
 40
5.77681523E+00
 50
6.97442307E+01
 51
1.10255770E+02
  0
ARC
  8
0
  6
PHANTOM
 62
6
 10
2.00923239E+02
 20
-3.10479848E+01
 40
5.77681523E+00
 50
6.97442307E+01
 51
1.10255770E+02
  0
ARC
  8
0
  6
PHANTOM
 62
6
 10
2.04923239E+02
 20
-3.10479848E+01
 40
5.77681523E+00
 50
6.97442307E+01
 51
1.10255770E+02
  0
ARC
  8
0
  6
PHANTOM
 62
6
 10
2.04923239E+02
 20
-2.41945649E+01
 40
5.77683486E+00
 50
2.49744302E+02
 51
2.90255698E+02
  0
ARC
  8
0
  6
PHANTOM
 62
6
 10
2.00923239E+02
 20
-2.41945649E+01
 40
5.77683486E+00
 50
2.49744302E+02
 51
2.90255698E+02
  0
LINE
  8
0
 62
4
 10
1.75837524E+02
 20
-1.42171287E+02
 11
1.90994667E+02
 21
-1.42171287E+02
  0
LINE
  8
0
 62
4
 10
1.75337524E+02
 20
-1.41671287E+02
 11
1.75337524E+02
 21
-1.40671287E+02
  0
LINE
  8
0
 62
4
 10
1.91494667E+02
 20
-1.41671287E+02
 11
1.91494667E+02
 21
-1.40671287E+02
  0
LINE
  8
0
 62
4
 10
1.90994667E+02
 20
-1.42171287E+02
 11
1.91494667E+02
 21
-1.41671287E+02
  0
LINE
  8
0
 62
4
 10
1.75837524E+02
 20
-1.42171287E+02
 11
1.75337524E+02
 21
-1.41671287E+02
  0
LINE
  8
0
 62
4
 10
1.90166096E+02
 20
-1.56957002E+02
 11
1.76666095E+02
 21
-1.56957002E+02
  0
LINE
  8
0
 62
4
 10
1.91166096E+02
 20
-1.43957002E+02
 11
1.91166096E+02
 21
-1.55957002E+02
  0
LINE
  8
0
 62
4
 10
1.75666095E+02
 20
-1.43957002E+02
 11
1.75666095E+02
 21
-1.55957002E+02
  0
LINE
  8
0
 62
4
 10
1.91166096E+02
 20
-1.55957002E+02
 11
1.90166096E+02
 21
-1.56957002E+02
  0
LINE
  8
0
 62
4
 10
1.76666095E+02
 20
-1.56957002E+02
 11
1.75666095E+02
 21
-1.55957002E+02
  0
LINE
  8
0
 62
4
 10
1.90666096E+02
 20
-1.43457002E+02
 11
1.76166095E+02
 21
-1.43457002E+02
  0
LINE
  8
0
 62
4
 10
1.90666096E+02
 20
-1.43457002E+02
 11
1.91166096E+02
 21
-1.43957002E+02
  0
LINE
  8
0
 62
4
 10
1.76166095E+02
 20
-1.43457002E+02
 11
1.75666095E+02
 21
-1.43957002E+02
  0
LINE
  8
0
 62
4
 10
1.89423239E+02
 20
-1.42171287E+02
 11
1.89423239E+02
 21
-1.43457002E+02
  0
LINE
  8
0
 62
4
 10
1.77423238E+02
 20
-1.42171287E+02
 11
1.77423238E+02
 21
-1.43457002E+02
  0
LINE
  8
0
 62
6
 10
1.78166095E+02
 20
-1.42171287E+02
 11
1.78166095E+02
 21
-1.43457002E+02
  0
LINE
  8
0
 62
6
 10
1.88666096E+02
 20
-1.42171287E+02
 11
1.88666096E+02
 21
-1.43457002E+02
  0
LINE
  8
0
 62
4
 10
1.81923238E+02
 20
-1.46457002E+02
 11
1.81923238E+02
 21
-1.55957002E+02
  0
LINE
  8
0
 62
4
 10
1.84923238E+02
 20
-1.46457002E+02
 11
1.84923238E+02
 21
-1.55957002E+02
  0
LINE
  8
0
 62
4
 10
1.85251810E+02
 20
-1.46742716E+02
 11
1.85251810E+02
 21
-1.56457002E+02
  0
LINE
  8
0
 62
4
 10
1.81580381E+02
 20
-1.46742716E+02
 11
1.81580381E+02
 21
-1.56457002E+02
  0
LINE
  8
0
 62
4
 10
1.79766095E+02
 20
-1.46742716E+02
 11
1.79766095E+02
 21
-1.56457002E+02
  0
LINE
  8
0
 62
4
 10
1.79094667E+02
 20
-1.46457002E+02
 11
1.79094667E+02
 21
-1.55957002E+02
  0
LINE
  8
0
 62
4
 10
1.76980381E+02
 20
-1.46457002E+02
 11
1.76980381E+02
 21
-1.55957002E+02
  0
LINE
  8
0
 62
4
 10
1.76408953E+02
 20
-1.46742716E+02
 11
1.76408953E+02
 21
-1.56457002E+02
  0
LINE
  8
0
 62
4
 10
1.75808953E+02
 20
-1.46457002E+02
 11
1.75808953E+02
 21
-1.55957002E+02
  0
LINE
  8
0
 62
4
 10
1.87080381E+02
 20
-1.46742716E+02
 11
1.87080381E+02
 21
-1.56457002E+02
  0
LINE
  8
0
 62
4
 10
1.87737524E+02
 20
-1.46457002E+02
 11
1.87737524E+02
 21
-1.55957002E+02
  0
LINE
  8
0
 62
4
 10
1.89851810E+02
 20
-1.46457002E+02
 11
1.89851810E+02
 21
-1.55957002E+02
  0
LINE
  8
0
 62
4
 10
1.90423239E+02
 20
-1.46742716E+02
 11
1.90423239E+02
 21
-1.56457002E+02
  0
LINE
  8
0
 62
4
 10
1.91023239E+02
 20
-1.46457002E+02
 11
1.91023239E+02
 21
-1.55957002E+02
  0
LINE
  8
0
 62
4
 10
1.91023239E+02
 20
-1.46457002E+02
 11
1.89851810E+02
 21
-1.46457002E+02
  0
LINE
  8
0
 62
4
 10
1.90423239E+02
 20
-1.46742716E+02
 11
1.89851810E+02
 21
-1.46742716E+02
  0
LINE
  8
0
 62
4
 10
1.91166096E+02
 20
-1.55957002E+02
 11
1.91023239E+02
 21
-1.55957002E+02
  0
LINE
  8
0
 62
4
 10
1.81923238E+02
 20
-1.46457002E+02
 11
1.79094667E+02
 21
-1.46457002E+02
  0
LINE
  8
0
 62
4
 10
1.81580381E+02
 20
-1.46742716E+02
 11
1.79766095E+02
 21
-1.46742716E+02
  0
LINE
  8
0
 62
4
 10
1.87737524E+02
 20
-1.46457002E+02
 11
1.84923238E+02
 21
-1.46457002E+02
  0
LINE
  8
0
 62
4
 10
1.87080381E+02
 20
-1.46742716E+02
 11
1.85251810E+02
 21
-1.46742716E+02
  0
LINE
  8
0
 62
4
 10
1.76980381E+02
 20
-1.46457002E+02
 11
1.75808953E+02
 21
-1.46457002E+02
  0
LINE
  8
0
 62
4
 10
1.76980381E+02
 20
-1.46742716E+02
 11
1.76408953E+02
 21
-1.46742716E+02
  0
LINE
  8
0
 62
4
 10
1.84923238E+02
 20
-1.55957002E+02
 11
1.81923238E+02
 21
-1.55957002E+02
  0
LINE
  8
0
 62
4
 10
1.79094667E+02
 20
-1.55957002E+02
 11
1.76980381E+02
 21
-1.55957002E+02
  0
LINE
  8
0
 62
4
 10
1.75808953E+02
 20
-1.55957002E+02
 11
1.75666095E+02
 21
-1.55957002E+02
  0
LINE
  8
0
 62
4
 10
1.89851810E+02
 20
-1.55957002E+02
 11
1.87737524E+02
 21
-1.55957002E+02
  0
LINE
  8
0
 62
4
 10
1.87080381E+02
 20
-1.56457002E+02
 11
1.85251810E+02
 21
-1.56457002E+02
  0
LINE
  8
0
 62
4
 10
1.90423239E+02
 20
-1.56457002E+02
 11
1.91023239E+02
 21
-1.55957002E+02
  0
LINE
  8
0
 62
4
 10
1.87080381E+02
 20
-1.56457002E+02
 11
1.87737524E+02
 21
-1.55957002E+02
  0
LINE
  8
0
 62
4
 10
1.85251810E+02
 20
-1.56457002E+02
 11
1.84923238E+02
 21
-1.55957002E+02
  0
LINE
  8
0
 62
4
 10
1.81923238E+02
 20
-1.55957002E+02
 11
1.81580381E+02
 21
-1.56457002E+02
  0
LINE
  8
0
 62
4
 10
1.79766095E+02
 20
-1.56457002E+02
 11
1.79108953E+02
 21
-1.55957002E+02
  0
LINE
  8
0
 62
4
 10
1.76408953E+02
 20
-1.56457002E+02
 11
1.75808953E+02
 21
-1.55957002E+02
  0
LINE
  8
0
 62
4
 10
1.76408953E+02
 20
-1.46742716E+02
 11
1.75808953E+02
 21
-1.46457002E+02
  0
LINE
  8
0
 62
4
 10
1.79766095E+02
 20
-1.46742716E+02
 11
1.79094667E+02
 21
-1.46457002E+02
  0
LINE
  8
0
 62
4
 10
1.81580381E+02
 20
-1.46742716E+02
 11
1.81923238E+02
 21
-1.46457002E+02
  0
LINE
  8
0
 62
4
 10
1.85266096E+02
 20
-1.46742716E+02
 11
1.84923238E+02
 21
-1.46457002E+02
  0
LINE
  8
0
 62
4
 10
1.87080381E+02
 20
-1.46742716E+02
 11
1.87737524E+02
 21
-1.46457002E+02
  0
LINE
  8
0
 62
4
 10
1.90423239E+02
 20
-1.46742716E+02
 11
1.91023239E+02
 21
-1.46457002E+02
  0
LINE
  8
0
 62
4
 10
1.89851810E+02
 20
-1.55957002E+02
 11
1.89680381E+02
 21
-1.56457002E+02
  0
LINE
  8
0
 62
4
 10
1.76980381E+02
 20
-1.55957002E+02
 11
1.77151810E+02
 21
-1.56457002E+02
  0
LINE
  8
0
 62
4
 10
1.81580381E+02
 20
-1.56457002E+02
 11
1.79766095E+02
 21
-1.56457002E+02
  0
LINE
  8
0
 62
4
 10
1.90423239E+02
 20
-1.56457002E+02
 11
1.89680381E+02
 21
-1.56457002E+02
  0
LINE
  8
0
 62
4
 10
1.77151810E+02
 20
-1.56457002E+02
 11
1.76408953E+02
 21
-1.56457002E+02
  0
LINE
  8
0
 62
4
 10
1.91166096E+02
 20
-1.43957002E+02
 11
1.75666095E+02
 21
-1.43957002E+02
  0
LINE
  8
0
 62
7
 10
2.01837524E+02
 20
-1.40671287E+02
 11
1.64994667E+02
 21
-1.40671287E+02
  0
LINE
  8
0
 62
7
 10
2.03380382E+02
 20
-1.23171287E+02
 11
2.10280382E+02
 21
-1.23171287E+02
  0
LINE
  8
0
 62
7
 10
2.03380382E+02
 20
-8.71712863E+01
 11
2.10280382E+02
 21
-8.71712863E+01
  0
LINE
  8
0
 62
7
 10
2.03380382E+02
 20
-8.11712862E+01
 11
2.10280382E+02
 21
-8.11712862E+01
  0
LINE
  8
0
 62
7
 10
2.10280382E+02
 20
-4.71712856E+01
 11
2.03380382E+02
 21
-4.71712856E+01
  0
LINE
  8
0
 62
7
 10
1.49994666E+02
 20
-1.25799858E+02
 11
1.49266095E+02
 21
-4.14712855E+01
  0
LINE
  8
0
 62
7
 10
2.16837525E+02
 20
-1.25799858E+02
 11
2.17566096E+02
 21
-4.14712855E+01
  0
LINE
  8
0
 62
7
 10
2.08451810E+02
 20
-4.76712856E+01
 11
2.03380382E+02
 21
-4.76712856E+01
  0
LINE
  8
0
 62
7
 10
2.03380382E+02
 20
-8.76712863E+01
 11
2.08451810E+02
 21
-8.76712863E+01
  0
LINE
  8
0
 62
7
 10
2.03380382E+02
 20
-8.06712862E+01
 11
2.08451810E+02
 21
-8.06712862E+01
  0
LINE
  8
0
 62
7
 10
2.03380382E+02
 20
-1.22671287E+02
 11
2.08451810E+02
 21
-1.22671287E+02
  0
LINE
  8
0
 62
7
 10
2.11280382E+02
 20
-8.81712863E+01
 11
2.11280382E+02
 21
-1.22171287E+02
  0
LINE
  8
0
 62
7
 10
2.09451810E+02
 20
-8.86712863E+01
 11
2.09451810E+02
 21
-1.21671287E+02
  0
LINE
  8
0
 62
7
 10
2.02380382E+02
 20
-8.81712863E+01
 11
2.02380382E+02
 21
-1.22171287E+02
  0
LINE
  8
0
 62
7
 10
2.02994667E+02
 20
-1.23671287E+02
 11
2.10537525E+02
 21
-1.23671287E+02
  0
LINE
  8
0
 62
7
 10
2.02994667E+02
 20
-1.24171287E+02
 11
2.11137525E+02
 21
-1.24171287E+02
  0
LINE
  8
0
 62
7
 10
2.10537525E+02
 20
-4.66712856E+01
 11
2.02994667E+02
 21
-4.66712856E+01
  0
LINE
  8
0
 62
7
 10
2.11137525E+02
 20
-4.61712856E+01
 11
2.02994667E+02
 21
-4.61712856E+01
  0
LINE
  8
0
 62
7
 10
2.01994667E+02
 20
-4.71712856E+01
 11
2.01994667E+02
 21
-1.23171287E+02
  0
LINE
  8
0
 62
7
 10
2.02380382E+02
 20
-4.81712856E+01
 11
2.02380382E+02
 21
-8.01712862E+01
  0
LINE
  8
0
 62
7
 10
2.09451810E+02
 20
-4.86712857E+01
 11
2.09451810E+02
 21
-7.96712862E+01
  0
LINE
  8
0
 62
7
 10
2.11280382E+02
 20
-4.81712856E+01
 11
2.11280382E+02
 21
-8.01712862E+01
  0
LINE
  8
0
 62
7
 10
2.11537525E+02
 20
-4.76712856E+01
 11
2.11537525E+02
 21
-1.22671287E+02
  0
LINE
  8
0
 62
7
 10
2.12137525E+02
 20
-4.71712856E+01
 11
2.12137525E+02
 21
-1.23171287E+02
  0
LINE
  8
0
 62
7
 10
1.63466095E+02
 20
-1.23171287E+02
 11
1.56551809E+02
 21
-1.23171287E+02
  0
LINE
  8
0
 62
7
 10
1.63466095E+02
 20
-8.71712863E+01
 11
1.56551809E+02
 21
-8.71712863E+01
  0
LINE
  8
0
 62
7
 10
1.63466095E+02
 20
-8.11712862E+01
 11
1.56551809E+02
 21
-8.11712862E+01
  0
LINE
  8
0
 62
7
 10
1.56551809E+02
 20
-4.71712856E+01
 11
1.63466095E+02
 21
-4.71712856E+01
  0
LINE
  8
0
 62
7
 10
1.58394667E+02
 20
-4.76712856E+01
 11
1.63466095E+02
 21
-4.76712856E+01
  0
LINE
  8
0
 62
7
 10
1.63466095E+02
 20
-8.76712863E+01
 11
1.58394667E+02
 21
-8.76712863E+01
  0
LINE
  8
0
 62
7
 10
1.63466095E+02
 20
-8.06712862E+01
 11
1.58394667E+02
 21
-8.06712862E+01
  0
LINE
  8
0
 62
7
 10
1.63466095E+02
 20
-1.22671287E+02
 11
1.58394667E+02
 21
-1.22671287E+02
  0
LINE
  8
0
 62
7
 10
1.55551809E+02
 20
-8.81712863E+01
 11
1.55551809E+02
 21
-1.22171287E+02
  0
LINE
  8
0
 62
7
 10
1.57394667E+02
 20
-8.86712863E+01
 11
1.57394667E+02
 21
-1.21671287E+02
  0
LINE
  8
0
 62
7
 10
1.64466095E+02
 20
-8.81712863E+01
 11
1.64466095E+02
 21
-1.22171287E+02
  0
LINE
  8
0
 62
7
 10
1.63837524E+02
 20
-1.23671287E+02
 11
1.56294667E+02
 21
-1.23671287E+02
  0
LINE
  8
0
 62
7
 10
1.63837524E+02
 20
-1.24171287E+02
 11
1.55694666E+02
 21
-1.24171287E+02
  0
LINE
  8
0
 62
7
 10
1.56294667E+02
 20
-4.66712856E+01
 11
1.63837524E+02
 21
-4.66712856E+01
  0
LINE
  8
0
 62
7
 10
1.55694666E+02
 20
-4.61712856E+01
 11
1.63837524E+02
 21
-4.61712856E+01
  0
LINE
  8
0
 62
7
 10
1.64837524E+02
 20
-4.71712856E+01
 11
1.64837524E+02
 21
-1.23171287E+02
  0
LINE
  8
0
 62
7
 10
1.64466095E+02
 20
-4.81712856E+01
 11
1.64466095E+02
 21
-8.01712862E+01
  0
LINE
  8
0
 62
7
 10
1.57394667E+02
 20
-4.86712857E+01
 11
1.57394667E+02
 21
-7.96712862E+01
  0
LINE
  8
0
 62
7
 10
1.55551809E+02
 20
-4.81712856E+01
 11
1.55551809E+02
 21
-8.01712862E+01
  0
LINE
  8
0
 62
7
 10
1.55294666E+02
 20
-4.76712856E+01
 11
1.55294666E+02
 21
-1.22671287E+02
  0
LINE
  8
0
 62
7
 10
1.54694666E+02
 20
-4.71712856E+01
 11
1.54694666E+02
 21
-1.23171287E+02
  0
LINE
  8
0
 62
4
 10
1.75337524E+02
 20
-1.41671287E+02
 11
1.91494667E+02
 21
-1.41671287E+02
  0
ARC
  8
0
 62
7
 10
2.01838527E+02
 20
-1.25671743E+02
 40
1.49995444E+01
 50
2.69996169E+02
 51
3.59510614E+02
  0
ARC
  8
0
 62
7
 10
1.65000779E+02
 20
-1.25664566E+02
 40
1.50067224E+01
 50
1.80516554E+02
 51
2.69976663E+02
  0
ARC
  8
0
 62
7
 10
2.08451546E+02
 20
-8.86715510E+01
 40
1.00026472E+00
 50
1.51603808E-02
 51
9.00000002E+01
  0
ARC
  8
0
 62
7
 10
2.03380301E+02
 20
-8.86712061E+01
 40
9.99919805E-01
 50
9.00000002E+01
 51
1.80004597E+02
  0
ARC
  8
0
 62
7
 10
2.03380308E+02
 20
-8.81712127E+01
 40
9.99926345E-01
 50
9.00000002E+01
 51
1.80004221E+02
  0
ARC
  8
0
 62
7
 10
2.03380318E+02
 20
-1.21671351E+02
 40
9.99935936E-01
 50
1.79996328E+02
 51
2.70000000E+02
  0
ARC
  8
0
 62
7
 10
2.03380313E+02
 20
-1.22171355E+02
 40
9.99931576E-01
 50
1.79996078E+02
 51
2.70000000E+02
  0
ARC
  8
0
 62
7
 10
2.02995693E+02
 20
-1.22670261E+02
 40
1.00102599E+00
 50
1.80058694E+02
 51
2.69941306E+02
  0
ARC
  8
0
 62
7
 10
2.02995688E+02
 20
-1.23170266E+02
 40
1.00102164E+00
 50
1.80058445E+02
 51
2.69941555E+02
  0
ARC
  8
0
 62
7
 10
2.08451529E+02
 20
-1.21671006E+02
 40
1.00028085E+00
 50
2.70000000E+02
 51
3.59983916E+02
  0
ARC
  8
0
 62
7
 10
2.10283060E+02
 20
-8.81686083E+01
 40
9.97325594E-01
 50
3.59846149E+02
 51
9.01538508E+01
  0
ARC
  8
0
 62
7
 10
2.10283054E+02
 20
-1.22173960E+02
 40
9.97330826E-01
 50
2.69846451E+02
 51
1.53548627E-01
  0
ARC
  8
0
 62
7
 10
2.10540164E+02
 20
-1.22673926E+02
 40
9.97364251E-01
 50
2.69848382E+02
 51
1.51618165E-01
  0
ARC
  8
0
 62
7
 10
2.11138753E+02
 20
-1.23172515E+02
 40
9.98772564E-01
 50
2.69929542E+02
 51
7.04576703E-02
  0
ARC
  8
0
 62
7
 10
2.03380305E+02
 20
-4.86712088E+01
 40
9.99923211E-01
 50
9.00000002E+01
 51
1.80004401E+02
  0
ARC
  8
0
 62
7
 10
2.03380305E+02
 20
-4.81712086E+01
 40
9.99922939E-01
 50
9.00000002E+01
 51
1.80004417E+02
  0
ARC
  8
0
 62
7
 10
2.02995678E+02
 20
-4.76722963E+01
 40
1.00101123E+00
 50
9.00578506E+01
 51
1.79942150E+02
  0
ARC
  8
0
 62
7
 10
2.02995678E+02
 20
-4.71722961E+01
 40
1.00101095E+00
 50
9.00578345E+01
 51
1.79942165E+02
  0
ARC
  8
0
 62
7
 10
2.08451542E+02
 20
-4.86715537E+01
 40
1.00026813E+00
 50
1.53553720E-02
 51
9.00000002E+01
  0
ARC
  8
0
 62
7
 10
2.10283063E+02
 20
-4.81686042E+01
 40
9.97322188E-01
 50
3.59845952E+02
 51
9.01540473E+01
  0
ARC
  8
0
 62
7
 10
2.10540179E+02
 20
-4.76686316E+01
 40
9.97349482E-01
 50
3.59847529E+02
 51
9.01524711E+01
  0
ARC
  8
0
 62
7
 10
2.11138763E+02
 20
-4.71700467E+01
 40
9.98761882E-01
 50
3.59928928E+02
 51
9.00710722E+01
  0
ARC
  8
0
 62
7
 10
2.03380313E+02
 20
-7.96713546E+01
 40
9.99931576E-01
 50
1.79996078E+02
 51
2.70000000E+02
  0
ARC
  8
0
 62
7
 10
2.03380309E+02
 20
-8.01713590E+01
 40
9.99927217E-01
 50
1.79995829E+02
 51
2.70000000E+02
  0
ARC
  8
0
 62
7
 10
2.08451534E+02
 20
-7.96710097E+01
 40
1.00027649E+00
 50
2.70000000E+02
 51
3.59984166E+02
  0
ARC
  8
0
 62
7
 10
2.10283059E+02
 20
-8.01739633E+01
 40
9.97326466E-01
 50
2.69846200E+02
 51
1.53800432E-01
  0
ARC
  8
0
 62
7
 10
1.58394855E+02
 20
-8.86714747E+01
 40
1.00018839E+00
 50
9.00000002E+01
 51
1.79989210E+02
  0
ARC
  8
0
 62
7
 10
1.63466110E+02
 20
-8.86712715E+01
 40
9.99985194E-01
 50
3.59999150E+02
 51
9.00000002E+01
  0
ARC
  8
0
 62
7
 10
1.63466103E+02
 20
-8.81712780E+01
 40
9.99991734E-01
 50
3.59999525E+02
 51
9.00000002E+01
  0
ARC
  8
0
 62
7
 10
1.63466094E+02
 20
-1.21671286E+02
 40
1.00000133E+00
 50
2.70000000E+02
 51
3.59999925E+02
  0
ARC
  8
0
 62
7
 10
1.63466098E+02
 20
-1.22171290E+02
 40
9.99996965E-01
 50
2.70000000E+02
 51
1.74845095E-04
  0
ARC
  8
0
 62
7
 10
1.63843536E+02
 20
-1.22677299E+02
 40
9.94005838E-01
 50
2.69653437E+02
 51
3.46562443E-01
  0
ARC
  8
0
 62
7
 10
1.63843541E+02
 20
-1.23177304E+02
 40
9.94001479E-01
 50
2.69653183E+02
 51
3.46816786E-01
  0
ARC
  8
0
 62
7
 10
1.58394871E+02
 20
-1.21671082E+02
 40
1.00020452E+00
 50
1.80011714E+02
 51
2.70000000E+02
  0
ARC
  8
0
 62
7
 10
1.56556313E+02
 20
-8.81757903E+01
 40
1.00451413E+00
 50
9.02569019E+01
 51
1.79743098E+02
  0
ARC
  8
0
 62
7
 10
1.56556319E+02
 20
-1.22166778E+02
 40
1.00451936E+00
 50
1.80257198E+02
 51
2.69742802E+02
  0
ARC
  8
0
 62
7
 10
1.56299198E+02
 20
-1.22666755E+02
 40
1.00454217E+00
 50
1.80258487E+02
 51
2.69741512E+02
  0
ARC
  8
0
 62
7
 10
1.55700543E+02
 20
-1.23165410E+02
 40
1.00589362E+00
 50
1.80334724E+02
 51
2.69665276E+02
  0
ARC
  8
0
 62
7
 10
1.63466107E+02
 20
-4.86712742E+01
 40
9.99988600E-01
 50
3.59999346E+02
 51
9.00000002E+01
  0
ARC
  8
0
 62
7
 10
1.63466107E+02
 20
-4.81712740E+01
 40
9.99988328E-01
 50
3.59999330E+02
 51
9.00000002E+01
  0
ARC
  8
0
 62
7
 10
1.63843551E+02
 20
-4.76652584E+01
 40
9.93991071E-01
 50
3.59652576E+02
 51
9.03474240E+01
  0
ARC
  8
0
 62
7
 10
1.63843551E+02
 20
-4.71652581E+01
 40
9.93990798E-01
 50
3.59652560E+02
 51
9.03474401E+01
  0
ARC
  8
0
 62
7
 10
1.58394858E+02
 20
-4.86714774E+01
 40
1.00019180E+00
 50
9.00000002E+01
 51
1.79989015E+02
  0
ARC
  8
0
 62
7
 10
1.56556310E+02
 20
-4.81757863E+01
 40
1.00451072E+00
 50
9.02567093E+01
 51
1.79743291E+02
  0
ARC
  8
0
 62
7
 10
1.56299184E+02
 20
-4.76758029E+01
 40
1.00452741E+00
 50
9.02576530E+01
 51
1.79742347E+02
  0
ARC
  8
0
 62
7
 10
1.55700532E+02
 20
-4.71771514E+01
 40
1.00588293E+00
 50
9.03341228E+01
 51
1.79665877E+02
  0
ARC
  8
0
 62
7
 10
1.63466098E+02
 20
-7.96712892E+01
 40
9.99996965E-01
 50
2.70000000E+02
 51
1.74845095E-04
  0
ARC
  8
0
 62
7
 10
1.63466103E+02
 20
-8.01712936E+01
 40
9.99992606E-01
 50
2.70000000E+02
 51
4.24641185E-04
  0
ARC
  8
0
 62
7
 10
1.58394867E+02
 20
-7.96710861E+01
 40
1.00020016E+00
 50
1.80011464E+02
 51
2.70000000E+02
  0
ARC
  8
0
 62
7
 10
1.56556314E+02
 20
-8.01667813E+01
 40
1.00451500E+00
 50
1.80256951E+02
 51
2.69743048E+02
  0
LINE
  8
0
  6
CENTER
 62
2
 10
-6.15750743E+01
 20
1.02100146E+02
 11
6.24249278E+01
 21
1.02100146E+02
  0
LINE
  8
0
 62
7
 10
-4.30750740E+01
 20
7.71001458E+01
 11
4.39249275E+01
 21
7.71001458E+01
  0
LINE
  8
0
 62
7
 10
-4.30750740E+01
 20
1.27100147E+02
 11
4.39249275E+01
 21
1.27100147E+02
  0
LINE
  8
0
  6
CENTER
 62
2
 10
4.24926758E-01
 20
1.46600147E+02
 11
4.24926758E-01
 21
5.76001455E+01
  0
LINE
  8
0
 62
7
 10
-4.45750740E+01
 20
1.25600147E+02
 11
-4.45750740E+01
 21
7.86001458E+01
  0
LINE
  8
0
 62
7
 10
4.54249275E+01
 20
1.25600147E+02
 11
4.54249275E+01
 21
7.86001458E+01
  0
LINE
  8
0
 62
7
 10
4.39249275E+01
 20
1.27100147E+02
 11
4.39249275E+01
 21
7.71001458E+01
  0
LINE
  8
0
 62
7
 10
-4.30750740E+01
 20
1.27100147E+02
 11
-4.30750740E+01
 21
7.71001458E+01
  0
LINE
  8
0
 62
7
 10
-4.30750740E+01
 20
1.27100147E+02
 11
-4.45750740E+01
 21
1.25600147E+02
  0
LINE
  8
0
 62
7
 10
-4.45750740E+01
 20
7.86001458E+01
 11
-4.30750740E+01
 21
7.71001458E+01
  0
LINE
  8
0
 62
7
 10
4.39249275E+01
 20
7.71001458E+01
 11
4.54249275E+01
 21
7.86001458E+01
  0
LINE
  8
0
 62
7
 10
4.39249275E+01
 20
1.27100147E+02
 11
4.54249275E+01
 21
1.25600147E+02
  0
LINE
  8
0
 62
7
 10
-4.45750740E+01
 20
7.86001458E+01
 11
4.54249275E+01
 21
7.86001458E+01
  0
LINE
  8
0
 62
7
 10
-4.45750740E+01
 20
1.25600147E+02
 11
4.54249275E+01
 21
1.25600147E+02
  0
LINE
  8
0
 62
7
 10
-3.95750739E+01
 20
1.06100146E+02
 11
-3.95750739E+01
 21
9.81001462E+01
  0
LINE
  8
0
 62
7
 10
-3.95750739E+01
 20
1.06100146E+02
 11
-2.85750737E+01
 21
1.02100146E+02
  0
LINE
  8
0
 62
7
 10
-3.95750739E+01
 20
9.81001462E+01
 11
-2.85750737E+01
 21
1.02100146E+02
  0
LINE
  8
0
  6
PHANTOM
 62
6
 10
5.74249277E+01
 20
1.47100147E+02
 11
5.74249277E+01
 21
7.51001458E+01
  0
LINE
  8
0
  6
PHANTOM
 62
6
 10
4.54249275E+01
 20
1.47100147E+02
 11
5.74249277E+01
 21
1.47100147E+02
  0
LINE
  8
0
  6
PHANTOM
 62
6
 10
4.54249275E+01
 20
7.51001458E+01
 11
5.74249277E+01
 21
7.51001458E+01
  0
LINE
  8
0
  6
PHANTOM
 62
6
 10
4.54249275E+01
 20
1.47100147E+02
 11
4.54249275E+01
 21
1.25600147E+02
  0
LINE
  8
0
  6
PHANTOM
 62
6
 10
4.54249275E+01
 20
7.86001458E+01
 11
4.54249275E+01
 21
7.51001458E+01
  0
LINE
  8
0
  6
PHANTOM
 62
6
 10
5.39249277E+01
 20
1.21600147E+02
 11
5.39249277E+01
 21
8.26001459E+01
  0
LINE
  8
0
  6
PHANTOM
 62
6
 10
4.89249276E+01
 20
1.21600147E+02
 11
4.89249276E+01
 21
8.26001459E+01
  0
LINE
  8
0
  6
PHANTOM
 62
6
 10
4.86820704E+01
 20
8.91001460E+01
 11
4.86820704E+01
 21
8.21001459E+01
  0
LINE
  8
0
  6
PHANTOM
 62
6
 10
5.41820705E+01
 20
8.91001460E+01
 11
5.41820705E+01
 21
8.21001459E+01
  0
LINE
  8
0
  6
PHANTOM
 62
6
 10
4.86820704E+01
 20
1.15100146E+02
 11
4.86820704E+01
 21
1.22100147E+02
  0
LINE
  8
0
  6
PHANTOM
 62
6
 10
5.41820705E+01
 20
1.15100146E+02
 11
5.41820705E+01
 21
1.22100147E+02
  0
LINE
  8
0
  6
PHANTOM
 62
6
 10
-5.65750742E+01
 20
1.47100147E+02
 11
-5.65750742E+01
 21
7.51001458E+01
  0
LINE
  8
0
  6
PHANTOM
 62
6
 10
-4.45750740E+01
 20
1.47100147E+02
 11
-5.65750742E+01
 21
1.47100147E+02
  0
LINE
  8
0
  6
PHANTOM
 62
6
 10
-4.45750740E+01
 20
7.51001458E+01
 11
-5.65750742E+01
 21
7.51001458E+01
  0
LINE
  8
0
  6
PHANTOM
 62
6
 10
-5.30750742E+01
 20
1.21600147E+02
 11
-5.30750742E+01
 21
8.26001459E+01
  0
LINE
  8
0
  6
PHANTOM
 62
6
 10
-4.80750741E+01
 20
1.21600147E+02
 11
-4.80750741E+01
 21
8.26001459E+01
  0
LINE
  8
0
  6
PHANTOM
 62
6
 10
-4.78179312E+01
 20
8.91001460E+01
 11
-4.78179312E+01
 21
8.21001459E+01
  0
LINE
  8
0
  6
PHANTOM
 62
6
 10
-5.33179313E+01
 20
8.91001460E+01
 11
-5.33179313E+01
 21
8.21001459E+01
  0
LINE
  8
0
  6
PHANTOM
 62
6
 10
-4.78179312E+01
 20
1.15100146E+02
 11
-4.78179312E+01
 21
1.22100147E+02
  0
LINE
  8
0
  6
PHANTOM
 62
6
 10
-5.33179313E+01
 20
1.15100146E+02
 11
-5.33179313E+01
 21
1.22100147E+02
  0
LINE
  8
0
  6
PHANTOM
 62
6
 10
-4.45750740E+01
 20
1.47100147E+02
 11
-4.45750740E+01
 21
1.25600147E+02
  0
LINE
  8
0
  6
PHANTOM
 62
6
 10
-4.45750740E+01
 20
7.86001458E+01
 11
-4.45750740E+01
 21
7.51001458E+01
  0
ARC
  8
0
 62
7
 10
4.32069615E-01
 20
1.02100124E+02
 40
3.94974707E+01
 50
3.92682897E+01
 51
1.40731710E+02
  0
ARC
  8
0
 62
7
 10
4.32069615E-01
 20
1.02100124E+02
 40
3.84998170E+01
 50
4.04929384E+01
 51
1.39507061E+02
  0
ARC
  8
0
 62
7
 10
4.32069615E-01
 20
1.02100125E+02
 40
3.84997887E+01
 50
2.20492889E+02
 51
3.19507111E+02
  0
ARC
  8
0
 62
7
 10
4.32069615E-01
 20
1.02100125E+02
 40
3.94974431E+01
 50
2.19268241E+02
 51
3.20731759E+02
  0
ARC
  8
0
 62
7
 10
4.32069615E-01
 20
1.02100124E+02
 40
2.84974468E+01
 50
6.13150630E+01
 51
1.18684937E+02
  0
ARC
  8
0
 62
7
 10
4.32069615E-01
 20
1.02100124E+02
 40
2.69980647E+01
 50
6.78185940E+01
 51
1.12181406E+02
  0
ARC
  8
0
 62
7
 10
4.32069615E-01
 20
1.02100125E+02
 40
2.69980243E+01
 50
2.47818559E+02
 51
2.92181441E+02
  0
ARC
  8
0
 62
7
 10
4.32069615E-01
 20
1.02100125E+02
 40
2.84974085E+01
 50
2.41315021E+02
 51
2.98684980E+02
  0
ARC
  8
0
 62
7
 10
4.32069615E-01
 20
1.02100124E+02
 40
2.98796085E+01
 50
5.67924115E+01
 51
1.23207588E+02
  0
ARC
  8
0
 62
7
 10
4.32069615E-01
 20
1.02100125E+02
 40
2.98795720E+01
 50
2.36792366E+02
 51
3.03207635E+02
  0
ARC
  8
0
  6
PHANTOM
 62
6
 10
5.14249276E+01
 20
1.21600147E+02
 40
2.50000004E+00
 50
0.00000000E+00
 51
1.80000000E+02
  0
ARC
  8
0
  6
PHANTOM
 62
6
 10
5.14249276E+01
 20
8.26001459E+01
 40
2.50000004E+00
 50
1.80000000E+02
 51
0.00000000E+00
  0
ARC
  8
0
  6
PHANTOM
 62
6
 10
5.14320705E+01
 20
8.21001459E+01
 40
2.75000005E+00
 50
1.80000000E+02
 51
0.00000000E+00
  0
ARC
  8
0
  6
PHANTOM
 62
6
 10
5.14291642E+01
 20
8.90810993E+01
 40
2.75297221E+00
 50
3.96410888E-01
 51
2.49643561E+01
  0
ARC
  8
0
  6
PHANTOM
 62
6
 10
5.14278987E+01
 20
8.91138897E+01
 40
2.74586265E+00
 50
1.55719422E+02
 51
1.80286779E+02
  0
ARC
  8
0
  6
PHANTOM
 62
6
 10
5.14307838E+01
 20
1.15072980E+02
 40
2.74884764E+00
 50
1.79433755E+02
 51
2.04272253E+02
  0
ARC
  8
0
  6
PHANTOM
 62
6
 10
5.14320705E+01
 20
1.22100147E+02
 40
2.75000005E+00
 50
0.00000000E+00
 51
1.80000000E+02
  0
ARC
  8
0
  6
PHANTOM
 62
6
 10
5.14261184E+01
 20
1.15105437E+02
 40
2.75595723E+00
 50
3.35052382E+02
 51
3.59890003E+02
  0
ARC
  8
0
  6
PHANTOM
 62
6
 10
-5.05692096E+01
 20
1.15072982E+02
 40
2.74885595E+00
 50
1.79433793E+02
 51
2.04272215E+02
  0
ARC
  8
0
  6
PHANTOM
 62
6
 10
-5.05750741E+01
 20
1.21600147E+02
 40
2.50000004E+00
 50
0.00000000E+00
 51
1.80000000E+02
  0
ARC
  8
0
  6
PHANTOM
 62
6
 10
-5.05750741E+01
 20
8.26001459E+01
 40
2.50000004E+00
 50
1.80000000E+02
 51
0.00000000E+00
  0
ARC
  8
0
  6
PHANTOM
 62
6
 10
-5.05679313E+01
 20
8.21001459E+01
 40
2.75000005E+00
 50
1.80000000E+02
 51
0.00000000E+00
  0
ARC
  8
0
  6
PHANTOM
 62
6
 10
-5.05720947E+01
 20
8.91138879E+01
 40
2.74587097E+00
 50
1.55719460E+02
 51
1.80286742E+02
  0
ARC
  8
0
  6
PHANTOM
 62
6
 10
-5.05708292E+01
 20
8.90811011E+01
 40
2.75296388E+00
 50
3.96373162E-01
 51
2.49643938E+01
  0
ARC
  8
0
  6
PHANTOM
 62
6
 10
-5.05738750E+01
 20
1.15105436E+02
 40
2.75594891E+00
 50
3.35052344E+02
 51
3.59890040E+02
  0
ARC
  8
0
  6
PHANTOM
 62
6
 10
-5.05679313E+01
 20
1.22100147E+02
 40
2.75000005E+00
 50
0.00000000E+00
 51
1.80000000E+02
  0
LINE
  8
0
 62
4
 10
-1.59726612E+02
 20
-1.41671287E+02
 11
-1.43569469E+02
 21
-1.41671287E+02
  0
LINE
  8
0
 62
4
 10
-1.58140898E+02
 20
-1.57971288E+02
 11
-1.45140898E+02
 21
-1.57971288E+02
  0
LINE
  8
0
 62
4
 10
-1.54498041E+02
 20
-1.60271288E+02
 11
-1.54498041E+02
 21
-1.58471288E+02
  0
LINE
  8
0
 62
4
 10
-1.48798041E+02
 20
-1.60271288E+02
 11
-1.48798041E+02
 21
-1.58471288E+02
  0
LINE
  8
0
 62
4
 10
-1.48398041E+02
 20
-1.60471288E+02
 11
-1.48826612E+02
 21
-1.62871288E+02
  0
LINE
  8
0
 62
4
 10
-1.48398041E+02
 20
-1.63071288E+02
 11
-1.48826612E+02
 21
-1.65471288E+02
  0
LINE
  8
0
 62
4
 10
-1.54898041E+02
 20
-1.63071288E+02
 11
-1.54469469E+02
 21
-1.65471288E+02
  0
LINE
  8
0
 62
4
 10
-1.54898041E+02
 20
-1.60471288E+02
 11
-1.54469469E+02
 21
-1.62871288E+02
  0
LINE
  8
0
 62
4
 10
-1.48398041E+02
 20
-1.60471288E+02
 11
-1.48398041E+02
 21
-1.60271288E+02
  0
LINE
  8
0
 62
4
 10
-1.54898041E+02
 20
-1.60471288E+02
 11
-1.54898041E+02
 21
-1.60271288E+02
  0
LINE
  8
0
 62
4
 10
-1.48398041E+02
 20
-1.63071288E+02
 11
-1.54898041E+02
 21
-1.63071288E+02
  0
LINE
  8
0
 62
4
 10
-1.48398041E+02
 20
-1.60471288E+02
 11
-1.54898041E+02
 21
-1.60471288E+02
  0
LINE
  8
0
 62
4
 10
-1.48398041E+02
 20
-1.60271288E+02
 11
-1.54898041E+02
 21
-1.60271288E+02
  0
LINE
  8
0
 62
4
 10
-1.48398041E+02
 20
-1.62871288E+02
 11
-1.54898041E+02
 21
-1.62871288E+02
  0
LINE
  8
0
 62
4
 10
-1.48398041E+02
 20
-1.63071288E+02
 11
-1.48398041E+02
 21
-1.62871288E+02
  0
LINE
  8
0
 62
4
 10
-1.54898041E+02
 20
-1.63071288E+02
 11
-1.54898041E+02
 21
-1.62871288E+02
  0
LINE
  8
0
 62
4
 10
-1.48826612E+02
 20
-1.65471288E+02
 11
-1.54469469E+02
 21
-1.65471288E+02
  0
LINE
  8
0
 62
4
 10
-1.45640898E+02
 20
-1.58471288E+02
 11
-1.45140898E+02
 21
-1.57971288E+02
  0
LINE
  8
0
 62
4
 10
-1.58140898E+02
 20
-1.57971288E+02
 11
-1.57640898E+02
 21
-1.58471288E+02
  0
LINE
  8
0
 62
4
 10
-1.58140898E+02
 20
-1.57971288E+02
 11
-1.58140898E+02
 21
-1.56971288E+02
  0
LINE
  8
0
 62
4
 10
-1.45140898E+02
 20
-1.57971288E+02
 11
-1.45140898E+02
 21
-1.56971288E+02
  0
LINE
  8
0
 62
4
 10
-1.45640898E+02
 20
-1.58471288E+02
 11
-1.57640898E+02
 21
-1.58471288E+02
  0
LINE
  8
0
 62
4
 10
-1.43898041E+02
 20
-1.43971287E+02
 11
-1.59398041E+02
 21
-1.43971287E+02
  0
LINE
  8
0
 62
4
 10
-1.57912327E+02
 20
-1.56471287E+02
 11
-1.58655184E+02
 21
-1.56471287E+02
  0
LINE
  8
0
 62
4
 10
-1.44640898E+02
 20
-1.56471287E+02
 11
-1.45383755E+02
 21
-1.56471287E+02
  0
LINE
  8
0
 62
4
 10
-1.53483755E+02
 20
-1.56471287E+02
 11
-1.55298041E+02
 21
-1.56471287E+02
  0
LINE
  8
0
 62
4
 10
-1.58083755E+02
 20
-1.55971287E+02
 11
-1.57912327E+02
 21
-1.56471287E+02
  0
LINE
  8
0
 62
4
 10
-1.45212326E+02
 20
-1.55971287E+02
 11
-1.45383755E+02
 21
-1.56471287E+02
  0
LINE
  8
0
 62
4
 10
-1.44640898E+02
 20
-1.46757002E+02
 11
-1.44040898E+02
 21
-1.46471287E+02
  0
LINE
  8
0
 62
4
 10
-1.47983755E+02
 20
-1.46757002E+02
 11
-1.47326612E+02
 21
-1.46471287E+02
  0
LINE
  8
0
 62
4
 10
-1.49812327E+02
 20
-1.46757002E+02
 11
-1.50140898E+02
 21
-1.46471287E+02
  0
LINE
  8
0
 62
4
 10
-1.53483755E+02
 20
-1.46757002E+02
 11
-1.53140898E+02
 21
-1.46471287E+02
  0
LINE
  8
0
 62
4
 10
-1.55298041E+02
 20
-1.46757002E+02
 11
-1.55969469E+02
 21
-1.46471287E+02
  0
LINE
  8
0
 62
4
 10
-1.58655184E+02
 20
-1.46757002E+02
 11
-1.59255184E+02
 21
-1.46471287E+02
  0
LINE
  8
0
 62
4
 10
-1.58655184E+02
 20
-1.56471287E+02
 11
-1.59255184E+02
 21
-1.55971287E+02
  0
LINE
  8
0
 62
4
 10
-1.55298041E+02
 20
-1.56471287E+02
 11
-1.55969469E+02
 21
-1.55971287E+02
  0
LINE
  8
0
 62
4
 10
-1.53140898E+02
 20
-1.55971287E+02
 11
-1.53483755E+02
 21
-1.56471287E+02
  0
LINE
  8
0
 62
4
 10
-1.49812327E+02
 20
-1.56471287E+02
 11
-1.50140898E+02
 21
-1.55971287E+02
  0
LINE
  8
0
 62
4
 10
-1.47983755E+02
 20
-1.56471287E+02
 11
-1.47326612E+02
 21
-1.55971287E+02
  0
LINE
  8
0
 62
4
 10
-1.44640898E+02
 20
-1.56471287E+02
 11
-1.44040898E+02
 21
-1.55971287E+02
  0
LINE
  8
0
 62
4
 10
-1.47983755E+02
 20
-1.56471287E+02
 11
-1.49812327E+02
 21
-1.56471287E+02
  0
LINE
  8
0
 62
4
 10
-1.45212326E+02
 20
-1.55971287E+02
 11
-1.47326612E+02
 21
-1.55971287E+02
  0
LINE
  8
0
 62
4
 10
-1.59255184E+02
 20
-1.55971287E+02
 11
-1.59398041E+02
 21
-1.55971287E+02
  0
LINE
  8
0
 62
4
 10
-1.55969469E+02
 20
-1.55971287E+02
 11
-1.58083755E+02
 21
-1.55971287E+02
  0
LINE
  8
0
 62
4
 10
-1.50140898E+02
 20
-1.55971287E+02
 11
-1.53140898E+02
 21
-1.55971287E+02
  0
LINE
  8
0
 62
4
 10
-1.58083755E+02
 20
-1.46757002E+02
 11
-1.58655184E+02
 21
-1.46757002E+02
  0
LINE
  8
0
 62
4
 10
-1.58083755E+02
 20
-1.46471287E+02
 11
-1.59255184E+02
 21
-1.46471287E+02
  0
LINE
  8
0
 62
4
 10
-1.47983755E+02
 20
-1.46757002E+02
 11
-1.49812327E+02
 21
-1.46757002E+02
  0
LINE
  8
0
 62
4
 10
-1.47326612E+02
 20
-1.46471287E+02
 11
-1.50140898E+02
 21
-1.46471287E+02
  0
LINE
  8
0
 62
4
 10
-1.53483755E+02
 20
-1.46757002E+02
 11
-1.55298041E+02
 21
-1.46757002E+02
  0
LINE
  8
0
 62
4
 10
-1.53140898E+02
 20
-1.46471287E+02
 11
-1.55969469E+02
 21
-1.46471287E+02
  0
LINE
  8
0
 62
4
 10
-1.43898041E+02
 20
-1.55971287E+02
 11
-1.44040898E+02
 21
-1.55971287E+02
  0
LINE
  8
0
 62
4
 10
-1.44640898E+02
 20
-1.46757002E+02
 11
-1.45212326E+02
 21
-1.46757002E+02
  0
LINE
  8
0
 62
4
 10
-1.44040898E+02
 20
-1.46471287E+02
 11
-1.45212326E+02
 21
-1.46471287E+02
  0
LINE
  8
0
 62
4
 10
-1.44040898E+02
 20
-1.46471287E+02
 11
-1.44040898E+02
 21
-1.55971287E+02
  0
LINE
  8
0
 62
4
 10
-1.44640898E+02
 20
-1.46757002E+02
 11
-1.44640898E+02
 21
-1.56471287E+02
  0
LINE
  8
0
 62
4
 10
-1.45212326E+02
 20
-1.46471287E+02
 11
-1.45212326E+02
 21
-1.55971287E+02
  0
LINE
  8
0
 62
4
 10
-1.47326612E+02
 20
-1.46471287E+02
 11
-1.47326612E+02
 21
-1.55971287E+02
  0
LINE
  8
0
 62
4
 10
-1.47983755E+02
 20
-1.46757002E+02
 11
-1.47983755E+02
 21
-1.56471287E+02
  0
LINE
  8
0
 62
4
 10
-1.59255184E+02
 20
-1.46471287E+02
 11
-1.59255184E+02
 21
-1.55971287E+02
  0
LINE
  8
0
 62
4
 10
-1.58655184E+02
 20
-1.46757002E+02
 11
-1.58655184E+02
 21
-1.56471287E+02
  0
LINE
  8
0
 62
4
 10
-1.58083755E+02
 20
-1.46471287E+02
 11
-1.58083755E+02
 21
-1.55971287E+02
  0
LINE
  8
0
 62
4
 10
-1.55969469E+02
 20
-1.46471287E+02
 11
-1.55969469E+02
 21
-1.55971287E+02
  0
LINE
  8
0
 62
4
 10
-1.55298041E+02
 20
-1.46757002E+02
 11
-1.55298041E+02
 21
-1.56471287E+02
  0
LINE
  8
0
 62
4
 10
-1.53483755E+02
 20
-1.46757002E+02
 11
-1.53483755E+02
 21
-1.56471287E+02
  0
LINE
  8
0
 62
4
 10
-1.49812327E+02
 20
-1.46757002E+02
 11
-1.49812327E+02
 21
-1.56471287E+02
  0
LINE
  8
0
 62
4
 10
-1.50140898E+02
 20
-1.46471287E+02
 11
-1.50140898E+02
 21
-1.55971287E+02
  0
LINE
  8
0
 62
4
 10
-1.53140898E+02
 20
-1.46471287E+02
 11
-1.53140898E+02
 21
-1.55971287E+02
  0
LINE
  8
0
 62
6
 10
-1.46398041E+02
 20
-1.42171287E+02
 11
-1.46398041E+02
 21
-1.43471287E+02
  0
LINE
  8
0
 62
6
 10
-1.56898041E+02
 20
-1.42171287E+02
 11
-1.56898041E+02
 21
-1.43471287E+02
  0
LINE
  8
0
 62
4
 10
-1.57640898E+02
 20
-1.42171287E+02
 11
-1.57640898E+02
 21
-1.43471287E+02
  0
LINE
  8
0
 62
4
 10
-1.45640898E+02
 20
-1.42171287E+02
 11
-1.45640898E+02
 21
-1.43471287E+02
  0
LINE
  8
0
 62
4
 10
-1.58898041E+02
 20
-1.43471287E+02
 11
-1.59398041E+02
 21
-1.43971287E+02
  0
LINE
  8
0
 62
4
 10
-1.44398041E+02
 20
-1.43471287E+02
 11
-1.43898041E+02
 21
-1.43971287E+02
  0
LINE
  8
0
 62
4
 10
-1.44398041E+02
 20
-1.43471287E+02
 11
-1.58898041E+02
 21
-1.43471287E+02
  0
LINE
  8
0
 62
4
 10
-1.58398041E+02
 20
-1.56971288E+02
 11
-1.59398041E+02
 21
-1.55971287E+02
  0
LINE
  8
0
 62
4
 10
-1.43898041E+02
 20
-1.55971287E+02
 11
-1.44898041E+02
 21
-1.56971288E+02
  0
LINE
  8
0
 62
4
 10
-1.59398041E+02
 20
-1.43971287E+02
 11
-1.59398041E+02
 21
-1.55971287E+02
  0
LINE
  8
0
 62
4
 10
-1.43898041E+02
 20
-1.43971287E+02
 11
-1.43898041E+02
 21
-1.55971287E+02
  0
LINE
  8
0
 62
4
 10
-1.44898041E+02
 20
-1.56971288E+02
 11
-1.58398041E+02
 21
-1.56971288E+02
  0
LINE
  8
0
 62
4
 10
-1.59226612E+02
 20
-1.42171287E+02
 11
-1.59726612E+02
 21
-1.41671287E+02
  0
LINE
  8
0
 62
4
 10
-1.44069469E+02
 20
-1.42171287E+02
 11
-1.43569469E+02
 21
-1.41671287E+02
  0
LINE
  8
0
 62
4
 10
-1.43569469E+02
 20
-1.41671287E+02
 11
-1.43569469E+02
 21
-1.40671287E+02
  0
LINE
  8
0
 62
4
 10
-1.59726612E+02
 20
-1.41671287E+02
 11
-1.59726612E+02
 21
-1.40671287E+02
  0
LINE
  8
0
 62
4
 10
-1.59226612E+02
 20
-1.42171287E+02
 11
-1.44069469E+02
 21
-1.42171287E+02
  0
TEXT
  8
0
 62
7
 10
-8.07181994E+01
 20
5.28715150E-01
 40
6.00000000E+00
  1
IN
 41
1.00000000E+00
  7
MONOTXT
  0
TEXT
  8
0
 62
7
 10
6.82818027E+01
 20
5.28715150E-01
 40
6.00000000E+00
  1
OUT
 41
1.00000000E+00
  7
MONOTXT
  0
LINE
  8
0
 62
7
 10
-1.31250000E+02
 20
1.95500000E+02
 11
-1.31250000E+02
 21
1.75500000E+02
  0
ARC
  8
0
 62
7
 10
-1.79367380E+02
 20
-1.23169197E+02
 40
1.00209182E+00
 50
1.80119477E+02
 51
2.69880523E+02
  0
ARC
  8
0
 62
7
 10
-1.78768730E+02
 20
-1.22670547E+02
 40
1.00074033E+00
 50
1.80042369E+02
 51
2.70000000E+02
  0
ARC
  8
0
 62
7
 10
-1.78511610E+02
 20
-1.22170570E+02
 40
1.00071756E+00
 50
1.80041068E+02
 51
2.70000000E+02
  0
ARC
  8
0
 62
7
 10
-1.76673074E+02
 20
-1.21674891E+02
 40
9.96402831E-01
 50
1.79792777E+02
 51
2.70207223E+02
  0
ARC
  8
0
 62
7
 10
-1.71216792E+02
 20
-1.23181107E+02
 40
9.90228503E-01
 50
2.69431782E+02
 51
5.68218138E-01
  0
ARC
  8
0
 62
7
 10
-1.71216797E+02
 20
-1.22681103E+02
 40
9.90232828E-01
 50
2.69432037E+02
 51
5.67962822E-01
  0
ARC
  8
0
 62
7
 10
-1.71594258E+02
 20
-1.22175070E+02
 40
9.96223657E-01
 50
2.69782396E+02
 51
2.17603399E-01
  0
ARC
  8
0
 62
7
 10
-1.71594262E+02
 20
-1.21675066E+02
 40
9.96227984E-01
 50
2.69782647E+02
 51
2.17352666E-01
  0
ARC
  8
0
 62
7
 10
-1.23921598E+02
 20
-1.23176300E+02
 40
9.94999264E-01
 50
2.69711309E+02
 51
2.88690563E-01
  0
ARC
  8
0
 62
7
 10
-1.24520182E+02
 20
-1.22677717E+02
 40
9.93590977E-01
 50
2.69629218E+02
 51
3.70781928E-01
  0
ARC
  8
0
 62
7
 10
-1.24777291E+02
 20
-1.22177750E+02
 40
9.93557603E-01
 50
2.69627269E+02
 51
3.72731605E-01
  0
ARC
  8
0
 62
7
 10
-1.26608827E+02
 20
-1.21674786E+02
 40
9.96507508E-01
 50
2.69798839E+02
 51
2.01160907E-01
  0
ARC
  8
0
 62
7
 10
-1.32072242E+02
 20
-1.23174060E+02
 40
9.97230833E-01
 50
1.79840675E+02
 51
2.70159325E+02
  0
ARC
  8
0
 62
7
 10
-1.32072238E+02
 20
-1.22674056E+02
 40
9.97235160E-01
 50
1.79840925E+02
 51
2.70159075E+02
  0
ARC
  8
0
 62
7
 10
-1.31687621E+02
 20
-1.22175154E+02
 40
9.96140833E-01
 50
1.79777596E+02
 51
2.70222404E+02
  0
ARC
  8
0
 62
7
 10
-1.31687617E+02
 20
-1.21675149E+02
 40
9.96145160E-01
 50
1.79777847E+02
 51
2.70222153E+02
  0
ARC
  8
0
 62
7
 10
-1.70059967E+02
 20
-1.25675558E+02
 40
1.49957322E+01
 50
1.80474933E+02
 51
2.69963693E+02
  0
ARC
  8
0
 62
7
 10
-1.33221822E+02
 20
-1.25675563E+02
 40
1.49957251E+01
 50
2.69981697E+02
 51
3.59525085E+02
  0
LINE
  8
0
 62
7
 10
-1.80369470E+02
 20
-1.02973490E+02
 11
-1.80369470E+02
 21
-1.23171287E+02
  0
LINE
  8
0
 62
7
 10
-1.79769470E+02
 20
-1.03134259E+02
 11
-1.79769470E+02
 21
-1.22671287E+02
  0
LINE
  8
0
 62
7
 10
-1.70226613E+02
 20
-1.05691260E+02
 11
-1.70226613E+02
 21
-1.23171287E+02
  0
LINE
  8
0
 62
7
 10
-1.71226613E+02
 20
-1.24171287E+02
 11
-1.79369470E+02
 21
-1.24171287E+02
  0
LINE
  8
0
 62
7
 10
-1.71226613E+02
 20
-1.23671287E+02
 11
-1.78769470E+02
 21
-1.23671287E+02
  0
LINE
  8
0
 62
7
 10
-1.70598041E+02
 20
-1.05591736E+02
 11
-1.70598041E+02
 21
-1.22171287E+02
  0
LINE
  8
0
 62
7
 10
-1.77669470E+02
 20
-1.03696952E+02
 11
-1.77669470E+02
 21
-1.21671287E+02
  0
LINE
  8
0
 62
7
 10
-1.79512327E+02
 20
-1.03203160E+02
 11
-1.79512327E+02
 21
-1.22171287E+02
  0
LINE
  8
0
 62
7
 10
-1.71598041E+02
 20
-1.22671287E+02
 11
-1.76669470E+02
 21
-1.22671287E+02
  0
LINE
  8
0
 62
7
 10
-1.71598041E+02
 20
-1.23171287E+02
 11
-1.78512327E+02
 21
-1.23171287E+02
  0
LINE
  8
0
 62
7
 10
-1.22926612E+02
 20
-1.18365257E+02
 11
-1.22926612E+02
 21
-1.23171287E+02
  0
LINE
  8
0
 62
7
 10
-1.23526612E+02
 20
-1.18204488E+02
 11
-1.23526612E+02
 21
-1.22671287E+02
  0
LINE
  8
0
 62
7
 10
-1.33069469E+02
 20
-1.15647487E+02
 11
-1.33069469E+02
 21
-1.23171287E+02
  0
LINE
  8
0
 62
7
 10
-1.32069469E+02
 20
-1.24171287E+02
 11
-1.23926612E+02
 21
-1.24171287E+02
  0
LINE
  8
0
 62
7
 10
-1.32069469E+02
 20
-1.23671287E+02
 11
-1.24526612E+02
 21
-1.23671287E+02
  0
LINE
  8
0
 62
7
 10
-1.32683755E+02
 20
-1.15750838E+02
 11
-1.32683755E+02
 21
-1.22171287E+02
  0
LINE
  8
0
 62
7
 10
-1.25612326E+02
 20
-1.17645622E+02
 11
-1.25612326E+02
 21
-1.21671287E+02
  0
LINE
  8
0
 62
7
 10
-1.23783755E+02
 20
-1.18135586E+02
 11
-1.23783755E+02
 21
-1.22171287E+02
  0
LINE
  8
0
 62
7
 10
-1.31683755E+02
 20
-1.22671287E+02
 11
-1.26612326E+02
 21
-1.22671287E+02
  0
LINE
  8
0
 62
7
 10
-1.18226612E+02
 20
-1.25799858E+02
 11
-1.18175313E+02
 21
-1.19638364E+02
  0
LINE
  8
0
 62
7
 10
-1.85055184E+02
 20
-1.25799858E+02
 11
-1.85278512E+02
 21
-1.01658116E+02
  0
LINE
  8
0
 62
7
 10
-1.31683755E+02
 20
-1.23171287E+02
 11
-1.24783755E+02
 21
-1.23171287E+02
  0
LINE
  8
0
 62
7
 10
-1.33226612E+02
 20
-1.40671287E+02
 11
-1.70069470E+02
 21
-1.40671287E+02
  0
TEXT
  8
0
 62
7
 10
-1.41258402E+02
 20
-1.74545721E+02
 40
6.40000010E+00
  1
-F,-A
 41
1.00000000E+00
  7
MONOTXT
  0
LINE
  8
0
 62
2
 10
-1.85278512E+02
 20
-1.01658116E+02
 11
-1.18175313E+02
 21
-1.19638364E+02
  0
LINE
  8
0
  6
CENTER
 62
2
 10
-1.51640898E+02
 20
-1.07214144E+02
 11
-1.51640898E+02
 21
-1.71879439E+02
  0
TEXT
  8
0
 62
7
 10
-2.36850282E+02
 20
1.78350000E+02
 40
6.30000019E+00
  1
AIR FILTER
 41
1.06382979E+00
  7
MONOTXT
  0
LINE
  8
0
 62
7
 10
2.82099854E+02
 20
1.95500000E+02
 11
2.82099854E+02
 21
-1.95000000E+02
  0
LINE
  8
0
 62
7
 10
-2.81250000E+02
 20
1.95500000E+02
 11
2.82099854E+02
 21
1.95500000E+02
  0
LINE
  8
0
 62
7
 10
-2.81250000E+02
 20
1.95500000E+02
 11
-2.81250000E+02
 21
-1.95000000E+02
  0
LINE
  8
0
 62
7
 10
-2.81250000E+02
 20
-1.95000000E+02
 11
2.82099854E+02
 21
-1.95000000E+02
  0
LINE
  8
0
 62
7
 10
1.62099976E+02
 20
-1.75000000E+02
 11
1.62099976E+02
 21
-1.95000000E+02
  0
LINE
  8
0
 62
7
 10
1.62099976E+02
 20
-1.75000000E+02
 11
2.82099854E+02
 21
-1.75000000E+02
  0
LINE
  8
0
 62
7
 10
1.62099976E+02
 20
1.75500000E+02
 11
2.82099854E+02
 21
1.75500000E+02
  0
LINE
  8
0
 62
7
 10
-2.81250000E+02
 20
1.75500000E+02
 11
-1.31250000E+02
 21
1.75500000E+02
  0
LINE
  8
0
 62
7
 10
1.62099976E+02
 20
1.95500000E+02
 11
1.62099976E+02
 21
1.75500000E+02
  0
TEXT
  8
0
 62
7
 10
1.97799694E+02
 20
1.82350000E+02
 40
6.30000019E+00
  1
Ver. 1.0
 41
1.08108108E+00
  7
MONOTXT
  0
TEXT
  8
0
 62
7
 10
1.69885289E+02
 20
-1.89500000E+02
 40
9.00000000E+00
  1
KOGANEI CORP.
 41
1.04838710E+00
  7
MONOTXT
  0
TEXT
  8
0
 62
7
 10
-2.77800283E+02
 20
1.86350000E+02
 40
6.30000019E+00
  1
F.R.L.LARGE FLOW SERIES
 41
1.05504587E+00
  7
MONOTXT
  0
TEXT
  8
0
 62
7
 10
-2.67600562E+02
 20
1.57350000E+02
 40
6.30000019E+00
  1
MODEL:FN650-06
 41
1.00000000E+00
  7
MONOTXT
  0
ENDSEC
  0
EOF
