  0
SECTION
  2
HEADER
  9
$ACADVER
  1
AC1003
  9
$EXTMIN
 10
-2.81250000E+02
 20
-1.95000000E+02
  9
$EXTMAX
 10
2.82099854E+02
 20
1.95500000E+02
  9
$LIMMIN
 10
-2.81251000E+02
 20
-1.95001000E+02
  9
$LIMMAX
 10
2.82100854E+02
 20
1.95501000E+02
  9
$SNAPUNIT
 10
1
 20
1
  9
$SNAPBASE
 10
0
 20
0
  9
$GRIDMODE
 70
0
  9
$GRIDUNIT
 10
0
 20
0
  9
$LTSCALE
 40
9.38916423E+00
  9
$TEXTSIZE
 40
3.2
  9
$DIMTAD
 70
0
  9
$LUNITS
 70
2
  9
$LUPREC
 70
4
  9
$FILLETRAD
 40
0
  9
$AUNITS
 70
0
  9
$AUPREC
 70
0
  0
ENDSEC
  0
SECTION
  2
TABLES
  0
TABLE
  2
LTYPE
 70
2
  0
LTYPE
  2
CONTINUOUS
 70
64
  3
Solid-Line
 72
65
 73
0
 40
0
  0
LTYPE
  2
DASHED
 70
64
  3
DASHED
 72
65
 73
2
 40
.75
 49
.5
 49
-.25
  0
LTYPE
  2
HIDDEN
 70
64
  3
HIDDEN
 72
65
 73
2
 40
.375
 49
.25
 49
-.125
  0
LTYPE
  2
CENTER
 70
64
  3
CENTER
 72
65
 73
4
 40
2
 49
1.25
 49
-.25
 49
.25
 49
-.25
  0
LTYPE
  2
PHANTOM
 70
64
  3
PHANTOM
 72
65
 73
6
 40
2.5
 49
1.25
 49
-.25
 49
.25
 49
-.25
 49
.25
 49
-.25
  0
ENDTAB
  0
TABLE
  2
LAYER
 70
1
  0
LAYER
  2
0
 70
0
 62
3
  6
CONTINUOUS
 0
ENDTAB
  0
TABLE
  2
STYLE
 70
2
  0
STYLE
  2
MONOTXT
 70
0
 40
0
 41
1
 50
0
 71
0
 42
.2
  3
monotxt
  0
STYLE
  2
BIGFONT
 70
0
 40
0
 41
1
 50
0
 71
0
 42
.2
  3
txt
  4
bigfont
  0
ENDTAB
  0
ENDSEC
  0
SECTION
  2
ENTITIES
  0
LINE
  8
0
  6
CENTER
 62
2
 10
-1.84293764E+01
 20
7.43180125E+01
 11
-1.84293764E+01
 21
-1.92881992E+02
  0
LINE
  8
0
  6
CENTER
 62
2
 10
-7.77150917E+01
 20
2.75180117E+01
 11
4.08563389E+01
 21
2.75180117E+01
  0
LINE
  8
0
 62
7
 10
-6.34293772E+01
 20
-1.24819890E+01
 11
2.65706243E+01
 21
-1.24819890E+01
  0
LINE
  8
0
 62
7
 10
-6.34293772E+01
 20
5.10180121E+01
 11
-6.34293772E+01
 21
-1.24819890E+01
  0
LINE
  8
0
 62
7
 10
2.65706243E+01
 20
5.10180121E+01
 11
2.65706243E+01
 21
-1.24819890E+01
  0
LINE
  8
0
 62
7
 10
-6.34293772E+01
 20
5.10180121E+01
 11
-6.19293772E+01
 21
5.25180121E+01
  0
LINE
  8
0
 62
7
 10
2.50706243E+01
 20
5.25180121E+01
 11
2.65706243E+01
 21
5.10180121E+01
  0
LINE
  8
0
 62
7
 10
-6.19293772E+01
 20
5.25180121E+01
 11
2.50706243E+01
 21
5.25180121E+01
  0
LINE
  8
0
 62
7
 10
-6.24293772E+01
 20
2.51801126E+00
 11
2.55706243E+01
 21
2.51801126E+00
  0
LINE
  8
0
 62
7
 10
9.57062405E+00
 20
4.25180119E+01
 11
1.95706242E+01
 21
4.25180119E+01
  0
LINE
  8
0
 62
7
 10
9.57062405E+00
 20
1.25180114E+01
 11
1.95706242E+01
 21
1.25180114E+01
  0
LINE
  8
0
 62
7
 10
1.95706242E+01
 20
4.25180119E+01
 11
1.95706242E+01
 21
1.25180114E+01
  0
LINE
  8
0
 62
7
 10
1.86991956E+01
 20
4.19037262E+01
 11
1.86991956E+01
 21
1.31322972E+01
  0
LINE
  8
0
 62
7
 10
1.04563383E+01
 20
4.19037262E+01
 11
1.04563383E+01
 21
1.31322972E+01
  0
LINE
  8
0
 62
7
 10
1.04563383E+01
 20
4.19037262E+01
 11
1.86991956E+01
 21
4.19037262E+01
  0
LINE
  8
0
 62
7
 10
1.04563383E+01
 20
1.31322972E+01
 11
1.86991956E+01
 21
1.31322972E+01
  0
LINE
  8
0
 62
7
 10
-6.19293772E+01
 20
5.25180121E+01
 11
-6.19293772E+01
 21
2.44658269E+00
  0
LINE
  8
0
 62
7
 10
2.50706243E+01
 20
5.25180121E+01
 11
2.50706243E+01
 21
2.44658269E+00
  0
LINE
  8
0
 62
7
 10
2.65706243E+01
 20
5.10180121E+01
 11
-6.34293772E+01
 21
5.10180121E+01
  0
LINE
  8
0
 62
7
 10
9.57062405E+00
 20
5.10180121E+01
 11
9.57062405E+00
 21
4.25180119E+01
  0
LINE
  8
0
 62
7
 10
9.57062405E+00
 20
1.25180114E+01
 11
9.57062405E+00
 21
2.51801126E+00
  0
LINE
  8
0
 62
7
 10
-4.73008055E+01
 20
4.19037262E+01
 11
-4.73008055E+01
 21
1.31322972E+01
  0
LINE
  8
0
 62
7
 10
-4.64293769E+01
 20
4.25180119E+01
 11
-5.64293771E+01
 21
4.25180119E+01
  0
LINE
  8
0
 62
7
 10
-5.55436628E+01
 20
4.19037262E+01
 11
-5.55436628E+01
 21
1.31322972E+01
  0
LINE
  8
0
 62
7
 10
-5.64293771E+01
 20
4.25180119E+01
 11
-5.64293771E+01
 21
1.25180114E+01
  0
LINE
  8
0
 62
7
 10
-4.64293769E+01
 20
1.25180114E+01
 11
-5.64293771E+01
 21
1.25180114E+01
  0
LINE
  8
0
 62
7
 10
-4.73008055E+01
 20
1.31322972E+01
 11
-5.55436628E+01
 21
1.31322972E+01
  0
LINE
  8
0
 62
7
 10
-4.64293769E+01
 20
1.25180114E+01
 11
-4.64293769E+01
 21
2.51801126E+00
  0
LINE
  8
0
 62
7
 10
-4.73008055E+01
 20
4.19037262E+01
 11
-5.55436628E+01
 21
4.19037262E+01
  0
LINE
  8
0
 62
7
 10
-4.64293769E+01
 20
5.10180121E+01
 11
-4.64293769E+01
 21
4.25180119E+01
  0
LINE
  8
0
 62
7
 10
-5.55436628E+01
 20
4.19037262E+01
 11
-5.64293771E+01
 21
4.25180119E+01
  0
LINE
  8
0
 62
7
 10
-5.55436628E+01
 20
1.31322972E+01
 11
-5.64293771E+01
 21
1.25180114E+01
  0
LINE
  8
0
 62
7
 10
-4.73008055E+01
 20
4.19037262E+01
 11
-4.64293769E+01
 21
4.25180119E+01
  0
LINE
  8
0
 62
7
 10
-4.73008055E+01
 20
1.31322972E+01
 11
-4.64293769E+01
 21
1.25180114E+01
  0
LINE
  8
0
 62
7
 10
-6.24293772E+01
 20
-4.98198887E+00
 11
-4.89293770E+01
 21
-4.98198887E+00
  0
LINE
  8
0
 62
7
 10
1.20706241E+01
 20
-4.98198887E+00
 11
2.55706243E+01
 21
-4.98198887E+00
  0
LINE
  8
0
 62
7
 10
1.15706241E+01
 20
1.51801124E+00
 11
1.15706241E+01
 21
-4.48198886E+00
  0
LINE
  8
0
  6
CENTER
 62
2
 10
1.85706242E+01
 20
5.51801131E+00
 11
1.85706242E+01
 21
-7.98198892E+00
  0
LINE
  8
0
  6
CENTER
 62
2
 10
-5.54293771E+01
 20
5.51801131E+00
 11
-5.54293771E+01
 21
-7.98198892E+00
  0
LINE
  8
0
 62
7
 10
-4.84293769E+01
 20
1.51801124E+00
 11
-4.84293769E+01
 21
-4.48198886E+00
  0
LINE
  8
0
 62
7
 10
-4.51579483E+01
 20
5.25180121E+01
 11
-4.64293769E+01
 21
5.10180121E+01
  0
LINE
  8
0
 62
7
 10
-4.40008054E+01
 20
5.25180121E+01
 11
-4.53865197E+01
 21
5.10180121E+01
  0
LINE
  8
0
 62
7
 10
-4.48436626E+01
 20
2.51801126E+00
 11
-4.53865197E+01
 21
5.10180121E+01
  0
LINE
  8
0
 62
7
 10
7.99919545E+00
 20
2.51801126E+00
 11
8.54205260E+00
 21
5.10180121E+01
  0
LINE
  8
0
 62
7
 10
7.15633829E+00
 20
5.25180121E+01
 11
8.54205260E+00
 21
5.10180121E+01
  0
LINE
  8
0
 62
7
 10
8.31348117E+00
 20
5.25180121E+01
 11
9.57062405E+00
 21
5.10180121E+01
  0
LINE
  8
0
 62
7
 10
-5.84293771E+01
 20
5.35180121E+01
 11
-4.74293769E+01
 21
5.35180121E+01
  0
LINE
  8
0
 62
7
 10
-5.84293771E+01
 20
5.35180121E+01
 11
-5.84293771E+01
 21
5.25180121E+01
  0
LINE
  8
0
 62
7
 10
-4.74293769E+01
 20
5.35180121E+01
 11
-4.74293769E+01
 21
5.25180121E+01
  0
LINE
  8
0
 62
7
 10
-6.34293772E+01
 20
-1.24819890E+01
 11
-6.34293772E+01
 21
-2.64819892E+01
  0
LINE
  8
0
 62
7
 10
2.65706243E+01
 20
-1.24819890E+01
 11
2.65706243E+01
 21
-2.64819892E+01
  0
LINE
  8
0
 62
7
 10
-5.64008056E+01
 20
-7.24819900E+01
 11
1.95563385E+01
 21
-7.24819900E+01
  0
LINE
  8
0
 62
7
 10
-6.24293772E+01
 20
-2.74819893E+01
 11
2.55706243E+01
 21
-2.74819893E+01
  0
LINE
  8
0
 62
7
 10
-5.74436628E+01
 20
-7.14819900E+01
 11
-5.85722343E+01
 21
-2.84534178E+01
  0
LINE
  8
0
 62
7
 10
2.05991957E+01
 20
-7.14819900E+01
 11
2.17277671E+01
 21
-2.84534178E+01
  0
LINE
  8
0
 62
7
 10
-5.74436628E+01
 20
-7.14819900E+01
 11
-5.64008056E+01
 21
-7.24819900E+01
  0
LINE
  8
0
 62
7
 10
2.05991957E+01
 20
-7.14819900E+01
 11
1.95563385E+01
 21
-7.24819900E+01
  0
LINE
  8
0
 62
7
 10
-5.74436628E+01
 20
-7.14819900E+01
 11
2.05991957E+01
 21
-7.14819900E+01
  0
LINE
  8
0
 62
7
 10
-6.04293771E+01
 20
1.91801125E+00
 11
-6.04293771E+01
 21
-3.48198884E+00
  0
LINE
  8
0
 62
7
 10
-5.04293770E+01
 20
1.91801125E+00
 11
-5.04293770E+01
 21
-3.48198884E+00
  0
LINE
  8
0
 62
7
 10
-4.93293770E+01
 20
-3.48198884E+00
 11
-6.15293772E+01
 21
-3.48198884E+00
  0
LINE
  8
0
 62
7
 10
-4.93293770E+01
 20
-3.48198884E+00
 11
-4.93293770E+01
 21
-4.98198887E+00
  0
LINE
  8
0
 62
7
 10
-6.15293772E+01
 20
-3.48198884E+00
 11
-6.15293772E+01
 21
-4.98198887E+00
  0
LINE
  8
0
 62
7
 10
-6.04293771E+01
 20
1.91801125E+00
 11
-5.04293770E+01
 21
1.91801125E+00
  0
LINE
  8
0
 62
7
 10
-6.04293771E+01
 20
1.91801125E+00
 11
-5.98293771E+01
 21
2.51801126E+00
  0
LINE
  8
0
 62
7
 10
-5.04293770E+01
 20
1.91801125E+00
 11
-5.10293770E+01
 21
2.51801126E+00
  0
LINE
  8
0
 62
7
 10
1.35706241E+01
 20
1.91801125E+00
 11
1.35706241E+01
 21
-3.48198884E+00
  0
LINE
  8
0
 62
7
 10
2.35706243E+01
 20
1.91801125E+00
 11
2.35706243E+01
 21
-3.48198884E+00
  0
LINE
  8
0
 62
7
 10
2.46706243E+01
 20
-3.48198884E+00
 11
1.24706241E+01
 21
-3.48198884E+00
  0
LINE
  8
0
 62
7
 10
2.46706243E+01
 20
-3.48198884E+00
 11
2.46706243E+01
 21
-4.98198887E+00
  0
LINE
  8
0
 62
7
 10
1.24706241E+01
 20
-3.48198884E+00
 11
1.24706241E+01
 21
-4.98198887E+00
  0
LINE
  8
0
 62
7
 10
1.35706241E+01
 20
1.91801125E+00
 11
2.35706243E+01
 21
1.91801125E+00
  0
LINE
  8
0
 62
7
 10
1.35706241E+01
 20
1.91801125E+00
 11
1.41706241E+01
 21
2.51801126E+00
  0
LINE
  8
0
 62
7
 10
2.35706243E+01
 20
1.91801125E+00
 11
2.29706243E+01
 21
2.51801126E+00
  0
LINE
  8
0
 62
7
 10
1.04563383E+01
 20
4.19037262E+01
 11
9.57062405E+00
 21
4.25180119E+01
  0
LINE
  8
0
 62
7
 10
1.04563383E+01
 20
1.31322972E+01
 11
9.57062405E+00
 21
1.25180114E+01
  0
LINE
  8
0
 62
7
 10
1.86991956E+01
 20
4.19037262E+01
 11
1.95706242E+01
 21
4.25180119E+01
  0
LINE
  8
0
 62
7
 10
1.86991956E+01
 20
1.31322972E+01
 11
1.95706242E+01
 21
1.25180114E+01
  0
LINE
  8
0
  6
PHANTOM
 62
6
 10
-6.24293772E+01
 20
6.43180123E+01
 11
-5.74293771E+01
 21
6.93180124E+01
  0
LINE
  8
0
  6
PHANTOM
 62
6
 10
-6.24293772E+01
 20
5.20180121E+01
 11
-6.24293772E+01
 21
6.43180123E+01
  0
LINE
  8
0
  6
PHANTOM
 62
6
 10
-6.24293772E+01
 20
-3.06819893E+01
 11
-6.24293772E+01
 21
-2.74819893E+01
  0
LINE
  8
0
  6
PHANTOM
 62
6
 10
-6.24293772E+01
 20
-3.06819893E+01
 11
-5.85150914E+01
 21
-3.06819893E+01
  0
LINE
  8
0
  6
CENTER
 62
6
 10
-4.69293769E+01
 20
5.32608693E+01
 11
-4.69293769E+01
 21
6.57608695E+01
  0
LINE
  8
0
  6
CENTER
 62
6
 10
-4.94293770E+01
 20
5.32608693E+01
 11
-4.94293770E+01
 21
6.57608695E+01
  0
LINE
  8
0
  6
CENTER
 62
6
 10
-5.19293770E+01
 20
5.32608693E+01
 11
-5.19293770E+01
 21
6.57608695E+01
  0
LINE
  8
0
  6
PHANTOM
 62
6
 10
-5.19293770E+01
 20
6.35608694E+01
 11
-4.69293769E+01
 21
6.35608694E+01
  0
LINE
  8
0
  6
CENTER
 62
6
 10
-5.81722343E+01
 20
5.93180122E+01
 11
-4.06722340E+01
 21
5.93180122E+01
  0
LINE
  8
0
  6
PHANTOM
 62
6
 10
-5.19293770E+01
 20
5.50608693E+01
 11
-4.69293769E+01
 21
5.50608693E+01
  0
LINE
  8
0
  6
PHANTOM
 62
6
 10
-5.74293771E+01
 20
6.93180124E+01
 11
2.05706242E+01
 21
6.93180124E+01
  0
LINE
  8
0
  6
PHANTOM
 62
6
 10
2.05706242E+01
 20
6.93180124E+01
 11
2.55706243E+01
 21
6.43180123E+01
  0
LINE
  8
0
  6
PHANTOM
 62
6
 10
2.55706243E+01
 20
5.20180121E+01
 11
2.55706243E+01
 21
6.43180123E+01
  0
LINE
  8
0
  6
CENTER
 62
6
 10
1.50706241E+01
 20
5.30608693E+01
 11
1.50706241E+01
 21
6.55608695E+01
  0
LINE
  8
0
  6
PHANTOM
 62
6
 10
1.00706241E+01
 20
6.35608694E+01
 11
1.50706241E+01
 21
6.35608694E+01
  0
LINE
  8
0
  6
CENTER
 62
6
 10
1.25706241E+01
 20
5.30608693E+01
 11
1.25706241E+01
 21
6.55608695E+01
  0
LINE
  8
0
  6
CENTER
 62
6
 10
1.00706241E+01
 20
5.30608693E+01
 11
1.00706241E+01
 21
6.55608695E+01
  0
LINE
  8
0
  6
CENTER
 62
6
 10
3.82776681E+00
 20
5.93180122E+01
 11
2.13277671E+01
 21
5.93180122E+01
  0
LINE
  8
0
  6
PHANTOM
 62
6
 10
1.00706241E+01
 20
5.50608693E+01
 11
1.50706241E+01
 21
5.50608693E+01
  0
LINE
  8
0
  6
PHANTOM
 62
6
 10
2.55706243E+01
 20
-3.06819893E+01
 11
2.55706243E+01
 21
-2.74819893E+01
  0
LINE
  8
0
  6
PHANTOM
 62
6
 10
2.16706243E+01
 20
-3.06819893E+01
 11
2.55706243E+01
 21
-3.06819893E+01
  0
ARC
  8
0
 62
7
 10
-4.89293748E+01
 20
-4.48199104E+00
 40
4.99997829E-01
 50
2.70000000E+02
 51
2.49777252E-04
  0
ARC
  8
0
 62
7
 10
1.20706219E+01
 20
-4.48199104E+00
 40
4.99997829E-01
 50
1.79999750E+02
 51
2.70000000E+02
  0
ARC
  8
0
 62
7
 10
-4.74293813E+01
 20
1.51801560E+00
 40
9.99995657E-01
 50
9.00000002E+01
 51
1.80000250E+02
  0
ARC
  8
0
 62
7
 10
1.05706175E+01
 20
1.51800470E+00
 40
1.00000656E+00
 50
3.74685616E-04
 51
9.00000002E+01
  0
ARC
  8
0
 62
7
 10
2.55706178E+01
 20
-5.98199542E+00
 40
1.00000656E+00
 50
3.74685616E-04
 51
9.00000002E+01
  0
ARC
  8
0
 62
7
 10
-6.24293815E+01
 20
-5.98198453E+00
 40
9.99995657E-01
 50
9.00000002E+01
 51
1.80000250E+02
  0
ARC
  8
0
 62
7
 10
-6.24293815E+01
 20
1.51801560E+00
 40
9.99995657E-01
 50
9.00000002E+01
 51
1.80000250E+02
  0
ARC
  8
0
 62
7
 10
2.55706178E+01
 20
1.51800470E+00
 40
1.00000656E+00
 50
3.74685616E-04
 51
9.00000002E+01
  0
ARC
  8
0
 62
7
 10
-6.24293706E+01
 20
-2.64819827E+01
 40
1.00000656E+00
 50
1.80000375E+02
 51
2.70000000E+02
  0
ARC
  8
0
 62
7
 10
2.55706287E+01
 20
-2.64819936E+01
 40
9.99995657E-01
 50
2.70000000E+02
 51
2.49790864E-04
  0
ARC
  8
0
 62
7
 10
-5.95767363E+01
 20
-2.84870439E+01
 40
1.00506469E+00
 50
1.91727839E+00
 51
8.97433523E+01
  0
ARC
  8
0
 62
7
 10
2.27253119E+01
 20
-2.84798820E+01
 40
9.97895749E-01
 50
8.98590279E+01
 51
1.78480341E+02
  0
ARC
  8
0
  6
PHANTOM
 62
6
 10
-5.19293770E+01
 20
5.93108694E+01
 40
4.25000007E+00
 50
9.00000002E+01
 51
2.70000000E+02
  0
ARC
  8
0
  6
PHANTOM
 62
6
 10
1.50706241E+01
 20
5.93108694E+01
 40
4.25000007E+00
 50
2.70000000E+02
 51
9.00000002E+01
  0
ARC
  8
0
  6
PHANTOM
 62
6
 10
1.00706241E+01
 20
5.93108694E+01
 40
4.25000007E+00
 50
9.00000002E+01
 51
2.70000000E+02
  0
ARC
  8
0
  6
PHANTOM
 62
6
 10
-4.69293769E+01
 20
5.93108694E+01
 40
4.25000007E+00
 50
2.70000000E+02
 51
9.00000002E+01
  0
LINE
  8
0
 62
7
 10
-3.68436625E+01
 20
-1.71681992E+02
 11
-8.04688761E-04
 21
-1.71681992E+02
  0
LINE
  8
0
 62
7
 10
-3.83865196E+01
 20
-1.54181991E+02
 11
-4.52865197E+01
 21
-1.54181991E+02
  0
LINE
  8
0
 62
7
 10
-3.83865196E+01
 20
-1.18181991E+02
 11
-4.52865197E+01
 21
-1.18181991E+02
  0
LINE
  8
0
 62
7
 10
-3.83865196E+01
 20
-1.12181991E+02
 11
-4.52865197E+01
 21
-1.12181991E+02
  0
LINE
  8
0
 62
7
 10
-4.52865197E+01
 20
-7.81819901E+01
 11
-3.83865196E+01
 21
-7.81819901E+01
  0
LINE
  8
0
 62
7
 10
1.49991956E+01
 20
-1.56810563E+02
 11
1.57277670E+01
 21
-7.24819900E+01
  0
LINE
  8
0
 62
7
 10
-5.18436627E+01
 20
-1.56810563E+02
 11
-5.23150913E+01
 21
-1.02381991E+02
  0
LINE
  8
0
 62
7
 10
-4.34579483E+01
 20
-7.86819901E+01
 11
-3.83865196E+01
 21
-7.86819901E+01
  0
LINE
  8
0
 62
7
 10
-3.83865196E+01
 20
-1.18681991E+02
 11
-4.34579483E+01
 21
-1.18681991E+02
  0
LINE
  8
0
 62
7
 10
-3.83865196E+01
 20
-1.11681991E+02
 11
-4.34579483E+01
 21
-1.11681991E+02
  0
LINE
  8
0
 62
7
 10
-3.83865196E+01
 20
-1.53681991E+02
 11
-4.34579483E+01
 21
-1.53681991E+02
  0
LINE
  8
0
 62
7
 10
-4.62865198E+01
 20
-1.19181991E+02
 11
-4.62865198E+01
 21
-1.53181991E+02
  0
LINE
  8
0
 62
7
 10
-4.44579483E+01
 20
-1.19681991E+02
 11
-4.44579483E+01
 21
-1.52681991E+02
  0
LINE
  8
0
 62
7
 10
-3.73865196E+01
 20
-1.19181991E+02
 11
-3.73865196E+01
 21
-1.53181991E+02
  0
LINE
  8
0
 62
7
 10
-3.80008053E+01
 20
-1.54681991E+02
 11
-4.55436626E+01
 21
-1.54681991E+02
  0
LINE
  8
0
 62
7
 10
-3.80008053E+01
 20
-1.55181991E+02
 11
-4.61436626E+01
 21
-1.55181991E+02
  0
LINE
  8
0
 62
7
 10
-4.55436626E+01
 20
-7.76819901E+01
 11
-3.80008053E+01
 21
-7.76819901E+01
  0
LINE
  8
0
 62
7
 10
-4.61436626E+01
 20
-7.71819901E+01
 11
-3.80008053E+01
 21
-7.71819901E+01
  0
LINE
  8
0
 62
7
 10
-3.70008053E+01
 20
-7.81819901E+01
 11
-3.70008053E+01
 21
-1.54181991E+02
  0
LINE
  8
0
 62
7
 10
-3.73865196E+01
 20
-7.91819901E+01
 11
-3.73865196E+01
 21
-1.11181991E+02
  0
LINE
  8
0
 62
7
 10
-4.44579483E+01
 20
-7.96819901E+01
 11
-4.44579483E+01
 21
-1.10681991E+02
  0
LINE
  8
0
 62
7
 10
-4.62865198E+01
 20
-7.91819901E+01
 11
-4.62865198E+01
 21
-1.11181991E+02
  0
LINE
  8
0
 62
7
 10
-4.65436626E+01
 20
-7.86819901E+01
 11
-4.65436626E+01
 21
-1.53681991E+02
  0
LINE
  8
0
 62
7
 10
-4.71436626E+01
 20
-7.81819901E+01
 11
-4.71436626E+01
 21
-1.54181991E+02
  0
LINE
  8
0
 62
7
 10
1.52776677E+00
 20
-1.54181991E+02
 11
8.44205260E+00
 21
-1.54181991E+02
  0
LINE
  8
0
 62
7
 10
1.52776677E+00
 20
-1.18181991E+02
 11
8.44205260E+00
 21
-1.18181991E+02
  0
LINE
  8
0
 62
7
 10
1.52776677E+00
 20
-1.12181991E+02
 11
8.44205260E+00
 21
-1.12181991E+02
  0
LINE
  8
0
 62
7
 10
8.44205260E+00
 20
-7.81819901E+01
 11
1.52776677E+00
 21
-7.81819901E+01
  0
LINE
  8
0
 62
7
 10
6.59919542E+00
 20
-7.86819901E+01
 11
1.52776677E+00
 21
-7.86819901E+01
  0
LINE
  8
0
 62
7
 10
1.52776677E+00
 20
-1.18681991E+02
 11
6.59919542E+00
 21
-1.18681991E+02
  0
LINE
  8
0
 62
7
 10
1.52776677E+00
 20
-1.11681991E+02
 11
6.59919542E+00
 21
-1.11681991E+02
  0
LINE
  8
0
 62
7
 10
1.52776677E+00
 20
-1.53681991E+02
 11
6.59919542E+00
 21
-1.53681991E+02
  0
LINE
  8
0
 62
7
 10
9.44205261E+00
 20
-1.19181991E+02
 11
9.44205261E+00
 21
-1.53181991E+02
  0
LINE
  8
0
 62
7
 10
7.59919544E+00
 20
-1.19681991E+02
 11
7.59919544E+00
 21
-1.52681991E+02
  0
LINE
  8
0
 62
7
 10
5.27766749E-01
 20
-1.19181991E+02
 11
5.27766749E-01
 21
-1.53181991E+02
  0
LINE
  8
0
 62
7
 10
1.15633819E+00
 20
-1.54681991E+02
 11
8.69919546E+00
 21
-1.54681991E+02
  0
LINE
  8
0
 62
7
 10
1.15633819E+00
 20
-1.55181991E+02
 11
9.29919547E+00
 21
-1.55181991E+02
  0
LINE
  8
0
 62
7
 10
8.69919546E+00
 20
-7.76819901E+01
 11
1.15633819E+00
 21
-7.76819901E+01
  0
LINE
  8
0
 62
7
 10
9.29919547E+00
 20
-7.71819901E+01
 11
1.15633819E+00
 21
-7.71819901E+01
  0
LINE
  8
0
 62
7
 10
1.56338171E-01
 20
-7.81819901E+01
 11
1.56338171E-01
 21
-1.54181991E+02
  0
LINE
  8
0
 62
7
 10
5.27766749E-01
 20
-7.91819901E+01
 11
5.27766749E-01
 21
-1.11181991E+02
  0
LINE
  8
0
 62
7
 10
7.59919544E+00
 20
-7.96819901E+01
 11
7.59919544E+00
 21
-1.10681991E+02
  0
LINE
  8
0
 62
7
 10
9.44205261E+00
 20
-7.91819901E+01
 11
9.44205261E+00
 21
-1.11181991E+02
  0
LINE
  8
0
 62
7
 10
9.69919548E+00
 20
-7.86819901E+01
 11
9.69919548E+00
 21
-1.53681991E+02
  0
LINE
  8
0
 62
7
 10
1.02991955E+01
 20
-7.81819901E+01
 11
1.02991955E+01
 21
-1.54181991E+02
  0
LINE
  8
0
 62
7
 10
-5.23150913E+01
 20
-1.02381991E+02
 11
-5.51008056E+01
 21
-9.83962762E+01
  0
LINE
  8
0
 62
7
 10
-5.51436628E+01
 20
-9.82248476E+01
 11
-5.52293771E+01
 21
-8.88819903E+01
  0
LINE
  8
0
 62
7
 10
-5.24722342E+01
 20
-8.45534188E+01
 11
-5.52293771E+01
 21
-8.88819903E+01
  0
LINE
  8
0
 62
7
 10
-5.24722342E+01
 20
-8.45534188E+01
 11
-5.25722342E+01
 21
-7.24819900E+01
  0
LINE
  8
0
 62
7
 10
-5.58293771E+01
 20
-7.49962758E+01
 11
-5.52865199E+01
 21
-9.69962761E+01
  0
LINE
  8
0
 62
7
 10
-5.53436628E+01
 20
-7.44819901E+01
 11
-5.42579485E+01
 21
-7.44534186E+01
  0
LINE
  8
0
 62
7
 10
-5.52865199E+01
 20
-9.69962761E+01
 11
-5.51538522E+01
 21
-9.71142030E+01
  0
LINE
  8
0
 62
7
 10
-5.58293771E+01
 20
-7.49962758E+01
 11
-5.53436628E+01
 21
-7.44819901E+01
  0
LINE
  8
0
 62
7
 10
-5.48865199E+01
 20
-7.24819900E+01
 11
-5.48436628E+01
 21
-7.44677043E+01
  0
LINE
  8
0
 62
7
 10
-5.43150913E+01
 20
-7.24819900E+01
 11
-5.42579485E+01
 21
-7.44534186E+01
  0
LINE
  8
0
 62
7
 10
-5.53436628E+01
 20
-7.44819901E+01
 11
-5.50008056E+01
 21
-8.85105617E+01
  0
LINE
  8
0
 62
4
 10
-2.60008051E+01
 20
-1.73181992E+02
 11
-1.08436620E+01
 21
-1.73181992E+02
  0
LINE
  8
0
 62
4
 10
-2.65008051E+01
 20
-1.72681992E+02
 11
-2.65008051E+01
 21
-1.71681992E+02
  0
LINE
  8
0
 62
4
 10
-1.03436620E+01
 20
-1.72681992E+02
 11
-1.03436620E+01
 21
-1.71681992E+02
  0
LINE
  8
0
 62
4
 10
-1.08436620E+01
 20
-1.73181992E+02
 11
-1.03436620E+01
 21
-1.72681992E+02
  0
LINE
  8
0
 62
4
 10
-2.60008051E+01
 20
-1.73181992E+02
 11
-2.65008051E+01
 21
-1.72681992E+02
  0
LINE
  8
0
 62
4
 10
-1.16722335E+01
 20
-1.87967706E+02
 11
-2.51722337E+01
 21
-1.87967706E+02
  0
LINE
  8
0
 62
4
 10
-1.06722334E+01
 20
-1.74967706E+02
 11
-1.06722334E+01
 21
-1.86967706E+02
  0
LINE
  8
0
 62
4
 10
-2.61722337E+01
 20
-1.74967706E+02
 11
-2.61722337E+01
 21
-1.86967706E+02
  0
LINE
  8
0
 62
4
 10
-1.06722334E+01
 20
-1.86967706E+02
 11
-1.16722335E+01
 21
-1.87967706E+02
  0
LINE
  8
0
 62
4
 10
-2.51722337E+01
 20
-1.87967706E+02
 11
-2.61722337E+01
 21
-1.86967706E+02
  0
LINE
  8
0
 62
4
 10
-1.11722335E+01
 20
-1.74467706E+02
 11
-2.56722337E+01
 21
-1.74467706E+02
  0
LINE
  8
0
 62
4
 10
-1.11722335E+01
 20
-1.74467706E+02
 11
-1.06722334E+01
 21
-1.74967706E+02
  0
LINE
  8
0
 62
4
 10
-2.56722337E+01
 20
-1.74467706E+02
 11
-2.61722337E+01
 21
-1.74967706E+02
  0
LINE
  8
0
 62
4
 10
-1.24293763E+01
 20
-1.73181992E+02
 11
-1.24293763E+01
 21
-1.74467706E+02
  0
LINE
  8
0
 62
4
 10
-2.44293765E+01
 20
-1.73181992E+02
 11
-2.44293765E+01
 21
-1.74467706E+02
  0
LINE
  8
0
 62
6
 10
-2.36722337E+01
 20
-1.73181992E+02
 11
-2.36722337E+01
 21
-1.74467706E+02
  0
LINE
  8
0
 62
6
 10
-1.31722335E+01
 20
-1.73181992E+02
 11
-1.31722335E+01
 21
-1.74467706E+02
  0
LINE
  8
0
 62
4
 10
-1.99293765E+01
 20
-1.77467706E+02
 11
-1.99293765E+01
 21
-1.86967706E+02
  0
LINE
  8
0
 62
4
 10
-1.69293764E+01
 20
-1.77467706E+02
 11
-1.69293764E+01
 21
-1.86967706E+02
  0
LINE
  8
0
 62
4
 10
-1.65865193E+01
 20
-1.77753420E+02
 11
-1.65865193E+01
 21
-1.87467706E+02
  0
LINE
  8
0
 62
4
 10
-2.02579479E+01
 20
-1.77753420E+02
 11
-2.02579479E+01
 21
-1.87467706E+02
  0
LINE
  8
0
 62
4
 10
-2.20722336E+01
 20
-1.77753420E+02
 11
-2.20722336E+01
 21
-1.87467706E+02
  0
LINE
  8
0
 62
4
 10
-2.27436622E+01
 20
-1.77467706E+02
 11
-2.27436622E+01
 21
-1.86967706E+02
  0
LINE
  8
0
 62
4
 10
-2.48579480E+01
 20
-1.77467706E+02
 11
-2.48579480E+01
 21
-1.86967706E+02
  0
LINE
  8
0
 62
4
 10
-2.54293766E+01
 20
-1.77753420E+02
 11
-2.54293766E+01
 21
-1.87467706E+02
  0
LINE
  8
0
 62
4
 10
-2.60293766E+01
 20
-1.77467706E+02
 11
-2.60293766E+01
 21
-1.86967706E+02
  0
LINE
  8
0
 62
4
 10
-1.47722335E+01
 20
-1.77753420E+02
 11
-1.47722335E+01
 21
-1.87467706E+02
  0
LINE
  8
0
 62
4
 10
-1.41008049E+01
 20
-1.77467706E+02
 11
-1.41008049E+01
 21
-1.86967706E+02
  0
LINE
  8
0
 62
4
 10
-1.19865192E+01
 20
-1.77467706E+02
 11
-1.19865192E+01
 21
-1.86967706E+02
  0
LINE
  8
0
 62
4
 10
-1.14150906E+01
 20
-1.77753420E+02
 11
-1.14150906E+01
 21
-1.87467706E+02
  0
LINE
  8
0
 62
4
 10
-1.08150906E+01
 20
-1.77467706E+02
 11
-1.08150906E+01
 21
-1.86967706E+02
  0
LINE
  8
0
 62
4
 10
-1.08150906E+01
 20
-1.77467706E+02
 11
-1.19865192E+01
 21
-1.77467706E+02
  0
LINE
  8
0
 62
4
 10
-1.14150906E+01
 20
-1.77753420E+02
 11
-1.19865192E+01
 21
-1.77753420E+02
  0
LINE
  8
0
 62
4
 10
-1.06722334E+01
 20
-1.86967706E+02
 11
-1.08150906E+01
 21
-1.86967706E+02
  0
LINE
  8
0
 62
4
 10
-1.99293765E+01
 20
-1.77467706E+02
 11
-2.27436622E+01
 21
-1.77467706E+02
  0
LINE
  8
0
 62
4
 10
-2.02579479E+01
 20
-1.77753420E+02
 11
-2.20722336E+01
 21
-1.77753420E+02
  0
LINE
  8
0
 62
4
 10
-1.41008049E+01
 20
-1.77467706E+02
 11
-1.69293764E+01
 21
-1.77467706E+02
  0
LINE
  8
0
 62
4
 10
-1.47722335E+01
 20
-1.77753420E+02
 11
-1.65865193E+01
 21
-1.77753420E+02
  0
LINE
  8
0
 62
4
 10
-2.48579480E+01
 20
-1.77467706E+02
 11
-2.60293766E+01
 21
-1.77467706E+02
  0
LINE
  8
0
 62
4
 10
-2.48579480E+01
 20
-1.77753420E+02
 11
-2.54293766E+01
 21
-1.77753420E+02
  0
LINE
  8
0
 62
4
 10
-1.69293764E+01
 20
-1.86967706E+02
 11
-1.99293765E+01
 21
-1.86967706E+02
  0
LINE
  8
0
 62
4
 10
-2.27436622E+01
 20
-1.86967706E+02
 11
-2.48579480E+01
 21
-1.86967706E+02
  0
LINE
  8
0
 62
4
 10
-2.60293766E+01
 20
-1.86967706E+02
 11
-2.61722337E+01
 21
-1.86967706E+02
  0
LINE
  8
0
 62
4
 10
-1.19865192E+01
 20
-1.86967706E+02
 11
-1.41008049E+01
 21
-1.86967706E+02
  0
LINE
  8
0
 62
4
 10
-1.47722335E+01
 20
-1.87467706E+02
 11
-1.65865193E+01
 21
-1.87467706E+02
  0
LINE
  8
0
 62
4
 10
-1.14150906E+01
 20
-1.87467706E+02
 11
-1.08150906E+01
 21
-1.86967706E+02
  0
LINE
  8
0
 62
4
 10
-1.47722335E+01
 20
-1.87467706E+02
 11
-1.41008049E+01
 21
-1.86967706E+02
  0
LINE
  8
0
 62
4
 10
-1.65865193E+01
 20
-1.87467706E+02
 11
-1.69293764E+01
 21
-1.86967706E+02
  0
LINE
  8
0
 62
4
 10
-1.99293765E+01
 20
-1.86967706E+02
 11
-2.02579479E+01
 21
-1.87467706E+02
  0
LINE
  8
0
 62
4
 10
-2.20722336E+01
 20
-1.87467706E+02
 11
-2.27436622E+01
 21
-1.86967706E+02
  0
LINE
  8
0
 62
4
 10
-2.54293766E+01
 20
-1.87467706E+02
 11
-2.60293766E+01
 21
-1.86967706E+02
  0
LINE
  8
0
 62
4
 10
-2.54293766E+01
 20
-1.77753420E+02
 11
-2.60293766E+01
 21
-1.77467706E+02
  0
LINE
  8
0
 62
4
 10
-2.20865194E+01
 20
-1.77753420E+02
 11
-2.27436622E+01
 21
-1.77467706E+02
  0
LINE
  8
0
 62
4
 10
-2.02579479E+01
 20
-1.77753420E+02
 11
-1.99293765E+01
 21
-1.77467706E+02
  0
LINE
  8
0
 62
4
 10
-1.65865193E+01
 20
-1.77753420E+02
 11
-1.69293764E+01
 21
-1.77467706E+02
  0
LINE
  8
0
 62
4
 10
-1.47722335E+01
 20
-1.77753420E+02
 11
-1.41008049E+01
 21
-1.77467706E+02
  0
LINE
  8
0
 62
4
 10
-1.14150906E+01
 20
-1.77753420E+02
 11
-1.08150906E+01
 21
-1.77467706E+02
  0
LINE
  8
0
 62
4
 10
-1.19865192E+01
 20
-1.86967706E+02
 11
-1.21579478E+01
 21
-1.87467706E+02
  0
LINE
  8
0
 62
4
 10
-2.48579480E+01
 20
-1.86967706E+02
 11
-2.46865194E+01
 21
-1.87467706E+02
  0
LINE
  8
0
 62
4
 10
-2.02579479E+01
 20
-1.87467706E+02
 11
-2.20722336E+01
 21
-1.87467706E+02
  0
LINE
  8
0
 62
4
 10
-1.14150906E+01
 20
-1.87467706E+02
 11
-1.21579478E+01
 21
-1.87467706E+02
  0
LINE
  8
0
 62
4
 10
-2.46865194E+01
 20
-1.87467706E+02
 11
-2.54293766E+01
 21
-1.87467706E+02
  0
LINE
  8
0
 62
4
 10
-1.06722334E+01
 20
-1.74967706E+02
 11
-2.61722337E+01
 21
-1.74967706E+02
  0
LINE
  8
0
 62
4
 10
-2.65008051E+01
 20
-1.72681992E+02
 11
-1.03436620E+01
 21
-1.72681992E+02
  0
ARC
  8
0
 62
7
 10
-3.68446330E+01
 20
-1.56682415E+02
 40
1.49995771E+01
 50
1.80489510E+02
 51
2.70000000E+02
  0
ARC
  8
0
 62
7
 10
-6.90620218E-03
 20
-1.56675281E+02
 40
1.50067115E+01
 50
2.70023296E+02
 51
3.59483487E+02
  0
ARC
  8
0
 62
7
 10
-4.34577708E+01
 20
-1.19682168E+02
 40
1.00017749E+00
 50
9.00000002E+01
 51
1.79989834E+02
  0
ARC
  8
0
 62
7
 10
-3.83864939E+01
 20
-1.19681965E+02
 40
9.99974295E-01
 50
3.59998526E+02
 51
9.00000002E+01
  0
ARC
  8
0
 62
7
 10
-3.83865004E+01
 20
-1.19181972E+02
 40
9.99980835E-01
 50
3.59998901E+02
 51
9.00000002E+01
  0
ARC
  8
0
 62
7
 10
-3.83865318E+01
 20
-1.52681979E+02
 40
1.00001222E+00
 50
2.70000000E+02
 51
3.59999301E+02
  0
ARC
  8
0
 62
7
 10
-3.83865275E+01
 20
-1.53181984E+02
 40
1.00000786E+00
 50
2.70000000E+02
 51
3.59999550E+02
  0
ARC
  8
0
 62
7
 10
-3.80019290E+01
 20
-1.53680868E+02
 40
1.00112427E+00
 50
2.70064306E+02
 51
3.59935693E+02
  0
ARC
  8
0
 62
7
 10
-3.80019246E+01
 20
-1.54180872E+02
 40
1.00111991E+00
 50
2.70064058E+02
 51
3.59935942E+02
  0
ARC
  8
0
 62
7
 10
-4.34577329E+01
 20
-1.52681776E+02
 40
1.00021542E+00
 50
1.80012338E+02
 51
2.70000000E+02
  0
ARC
  8
0
 62
7
 10
-4.52891761E+01
 20
-1.19179334E+02
 40
9.97347218E-01
 50
8.98473980E+01
 51
1.80152602E+02
  0
ARC
  8
0
 62
7
 10
-4.52891490E+01
 20
-1.53184621E+02
 40
9.97374248E-01
 50
1.79848959E+02
 51
2.70151041E+02
  0
ARC
  8
0
 62
7
 10
-4.55462692E+01
 20
-1.53684598E+02
 40
9.97396833E-01
 50
1.79850264E+02
 51
2.70149737E+02
  0
ARC
  8
0
 62
7
 10
-4.61449343E+01
 20
-1.54183263E+02
 40
9.98729105E-01
 50
1.79927043E+02
 51
2.70072957E+02
  0
ARC
  8
0
 62
7
 10
-3.83864939E+01
 20
-7.96819644E+01
 40
9.99974295E-01
 50
3.59998526E+02
 51
9.00000002E+01
  0
ARC
  8
0
 62
7
 10
-3.83865004E+01
 20
-7.91819709E+01
 40
9.99980835E-01
 50
3.59998901E+02
 51
9.00000002E+01
  0
ARC
  8
0
 62
7
 10
-3.80018911E+01
 20
-7.86830759E+01
 40
1.00108634E+00
 50
6.21406161E-02
 51
8.99378595E+01
  0
ARC
  8
0
 62
7
 10
-3.80018867E+01
 20
-7.81830715E+01
 40
1.00108198E+00
 50
6.18916447E-02
 51
8.99381081E+01
  0
ARC
  8
0
 62
7
 10
-4.34577708E+01
 20
-7.96821676E+01
 40
1.00017749E+00
 50
9.00000002E+01
 51
1.79989834E+02
  0
ARC
  8
0
 62
7
 10
-4.52891761E+01
 20
-7.91793338E+01
 40
9.97347218E-01
 50
8.98473980E+01
 51
1.80152602E+02
  0
ARC
  8
0
 62
7
 10
-4.55463072E+01
 20
-7.86793455E+01
 40
9.97358904E-01
 50
8.98480730E+01
 51
1.80151927E+02
  0
ARC
  8
0
 62
7
 10
-4.61449723E+01
 20
-7.81806804E+01
 40
9.98691176E-01
 50
8.99248614E+01
 51
1.80075139E+02
  0
ARC
  8
0
 62
7
 10
-3.83865275E+01
 20
-1.10681983E+02
 40
1.00000786E+00
 50
2.70000000E+02
 51
3.59999550E+02
  0
ARC
  8
0
 62
7
 10
-3.83865231E+01
 20
-1.11181987E+02
 40
1.00000351E+00
 50
2.70000000E+02
 51
3.59999800E+02
  0
ARC
  8
0
 62
7
 10
-4.34577373E+01
 20
-1.10681780E+02
 40
1.00021106E+00
 50
1.80012088E+02
 51
2.70000000E+02
  0
ARC
  8
0
 62
7
 10
-4.52891534E+01
 20
-1.11184624E+02
 40
9.97369888E-01
 50
1.79848707E+02
 51
2.70151292E+02
  0
ARC
  8
0
 62
7
 10
6.59903977E+00
 20
-1.19682146E+02
 40
1.00015569E+00
 50
8.91710901E-03
 51
9.00000002E+01
  0
ARC
  8
0
 62
7
 10
1.52776284E+00
 20
-1.19681987E+02
 40
9.99996094E-01
 50
9.00000002E+01
 51
1.80000225E+02
  0
ARC
  8
0
 62
7
 10
1.52776938E+00
 20
-1.19181993E+02
 40
1.00000263E+00
 50
9.00000002E+01
 51
1.79999850E+02
  0
ARC
  8
0
 62
7
 10
1.52780077E+00
 20
-1.52681957E+02
 40
1.00003402E+00
 50
1.80001948E+02
 51
2.70000000E+02
  0
ARC
  8
0
 62
7
 10
1.52779641E+00
 20
-1.53181962E+02
 40
1.00002966E+00
 50
1.80001699E+02
 51
2.70000000E+02
  0
ARC
  8
0
 62
7
 10
1.15035846E+00
 20
-1.53687971E+02
 40
9.94038272E-01
 50
1.79655330E+02
 51
2.70344670E+02
  0
ARC
  8
0
 62
7
 10
1.15035407E+00
 20
-1.54187976E+02
 40
9.94033913E-01
 50
1.79655075E+02
 51
2.70344925E+02
  0
ARC
  8
0
 62
7
 10
6.59900184E+00
 20
-1.52681798E+02
 40
1.00019362E+00
 50
2.70000000E+02
 51
3.59988911E+02
  0
ARC
  8
0
 62
7
 10
8.43758133E+00
 20
-1.19186462E+02
 40
1.00448124E+00
 50
2.55042662E-01
 51
8.97449572E+01
  0
ARC
  8
0
 62
7
 10
8.43755442E+00
 20
-1.53177493E+02
 40
1.00450826E+00
 50
2.70256570E+02
 51
3.59743429E+02
  0
ARC
  8
0
 62
7
 10
8.69467457E+00
 20
-1.53677471E+02
 40
1.00453108E+00
 50
2.70257860E+02
 51
3.59742140E+02
  0
ARC
  8
0
 62
7
 10
9.29333013E+00
 20
-1.54176126E+02
 40
1.00588246E+00
 50
2.70334096E+02
 51
3.59665904E+02
  0
ARC
  8
0
 62
7
 10
1.52776284E+00
 20
-7.96819862E+01
 40
9.99996094E-01
 50
9.00000002E+01
 51
1.80000225E+02
  0
ARC
  8
0
 62
7
 10
1.52776938E+00
 20
-7.91819927E+01
 40
1.00000263E+00
 50
9.00000002E+01
 51
1.79999850E+02
  0
ARC
  8
0
 62
7
 10
1.15032030E+00
 20
-7.86759722E+01
 40
9.94000345E-01
 50
8.96531172E+01
 51
1.80346883E+02
  0
ARC
  8
0
 62
7
 10
1.15031591E+00
 20
-7.81759678E+01
 40
9.93995986E-01
 50
8.96528628E+01
 51
1.80347137E+02
  0
ARC
  8
0
 62
7
 10
6.59903977E+00
 20
-7.96821458E+01
 40
1.00015569E+00
 50
8.91710901E-03
 51
9.00000002E+01
  0
ARC
  8
0
 62
7
 10
8.43758133E+00
 20
-7.91864614E+01
 40
1.00448124E+00
 50
2.55042662E-01
 51
8.97449572E+01
  0
ARC
  8
0
 62
7
 10
8.69471233E+00
 20
-7.86864733E+01
 40
1.00449315E+00
 50
2.55716306E-01
 51
8.97442840E+01
  0
ARC
  8
0
 62
7
 10
9.29336783E+00
 20
-7.81878178E+01
 40
1.00584453E+00
 50
3.31960643E-01
 51
8.96680393E+01
  0
ARC
  8
0
 62
7
 10
1.52779641E+00
 20
-1.10681961E+02
 40
1.00002966E+00
 50
1.80001699E+02
 51
2.70000000E+02
  0
ARC
  8
0
 62
7
 10
1.52779205E+00
 20
-1.11181965E+02
 40
1.00002530E+00
 50
1.80001449E+02
 51
2.70000000E+02
  0
ARC
  8
0
 62
7
 10
6.59900620E+00
 20
-1.10681801E+02
 40
1.00018926E+00
 50
2.70000000E+02
 51
3.59989160E+02
  0
ARC
  8
0
 62
7
 10
8.43755876E+00
 20
-1.11177497E+02
 40
1.00450390E+00
 50
2.70256324E+02
 51
3.59743676E+02
  0
ARC
  8
0
 62
7
 10
-5.48528009E+01
 20
-9.82432036E+01
 40
2.91440540E-01
 50
1.76388920E+02
 51
2.11683568E+02
  0
POLYLINE
  8
0
 62
7
 66
1
  0
VERTEX
  8
0
 62
7
 10
-5.24722342E+01
 20
-8.45534188E+01
  0
VERTEX
  8
0
 62
7
 10
-5.22526547E+01
 20
-8.53167159E+01
  0
VERTEX
  8
0
 62
7
 10
-5.20510114E+01
 20
-8.60857299E+01
  0
VERTEX
  8
0
 62
7
 10
-5.18676861E+01
 20
-8.68599469E+01
  0
VERTEX
  8
0
 62
7
 10
-5.17030605E+01
 20
-8.76388532E+01
  0
VERTEX
  8
0
 62
7
 10
-5.15575162E+01
 20
-8.84219348E+01
  0
VERTEX
  8
0
 62
7
 10
-5.14314351E+01
 20
-8.92086780E+01
  0
VERTEX
  8
0
 62
7
 10
-5.13251989E+01
 20
-8.99985690E+01
  0
VERTEX
  8
0
 62
7
 10
-5.12391893E+01
 20
-9.07910940E+01
  0
VERTEX
  8
0
 62
7
 10
-5.11737881E+01
 20
-9.15857390E+01
  0
VERTEX
  8
0
 62
7
 10
-5.11293770E+01
 20
-9.23819904E+01
  0
VERTEX
  8
0
 62
7
 10
-5.11035509E+01
 20
-9.33930235E+01
  0
VERTEX
  8
0
 62
7
 10
-5.11113609E+01
 20
-9.44047527E+01
  0
VERTEX
  8
0
 62
7
 10
-5.11522265E+01
 20
-9.54159975E+01
  0
VERTEX
  8
0
 62
7
 10
-5.12255675E+01
 20
-9.64255774E+01
  0
VERTEX
  8
0
 62
7
 10
-5.13308033E+01
 20
-9.74323121E+01
  0
VERTEX
  8
0
 62
7
 10
-5.14673536E+01
 20
-9.84350210E+01
  0
VERTEX
  8
0
 62
7
 10
-5.16346379E+01
 20
-9.94325237E+01
  0
VERTEX
  8
0
 62
7
 10
-5.18320759E+01
 20
-1.00423640E+02
  0
VERTEX
  8
0
 62
7
 10
-5.20590872E+01
 20
-1.01407189E+02
  0
VERTEX
  8
0
 62
7
 10
-5.23150913E+01
 20
-1.02381991E+02
  0
SEQEND
  8
0
  0
LINE
  8
0
 62
7
 10
1.62099976E+02
 20
-1.75000000E+02
 11
2.82099854E+02
 21
-1.75000000E+02
  0
LINE
  8
0
 62
7
 10
1.62099976E+02
 20
-1.75000000E+02
 11
1.62099976E+02
 21
-1.95000000E+02
  0
LINE
  8
0
  6
CENTER
 62
2
 10
1.33856342E+02
 20
5.85180122E+01
 11
1.33856342E+02
 21
-1.92881992E+02
  0
LINE
  8
0
 62
7
 10
9.58706266E+01
 20
-7.24819900E+01
 11
1.71827771E+02
 21
-7.24819900E+01
  0
LINE
  8
0
 62
7
 10
9.48277694E+01
 20
-7.14819900E+01
 11
9.58706266E+01
 21
-7.24819900E+01
  0
LINE
  8
0
 62
7
 10
1.72870628E+02
 20
-7.14819900E+01
 11
1.71827771E+02
 21
-7.24819900E+01
  0
LINE
  8
0
 62
7
 10
9.48277694E+01
 20
-7.14819900E+01
 11
1.72870628E+02
 21
-7.14819900E+01
  0
LINE
  8
0
 62
7
 10
8.88563407E+01
 20
-1.24819890E+01
 11
1.78856342E+02
 21
-1.24819890E+01
  0
LINE
  8
0
 62
7
 10
9.43563408E+01
 20
5.25180121E+01
 11
1.73356342E+02
 21
5.25180121E+01
  0
LINE
  8
0
 62
7
 10
8.98563408E+01
 20
2.51801126E+00
 11
1.09356341E+02
 21
2.51801126E+00
  0
LINE
  8
0
 62
7
 10
1.08856341E+02
 20
5.10180121E+01
 11
1.08856341E+02
 21
2.51801126E+00
  0
LINE
  8
0
 62
7
 10
1.58856342E+02
 20
5.10180121E+01
 11
1.58856342E+02
 21
2.51801126E+00
  0
LINE
  8
0
 62
7
 10
1.78856342E+02
 20
1.51801124E+00
 11
1.78856342E+02
 21
-1.24819890E+01
  0
LINE
  8
0
 62
7
 10
8.88563407E+01
 20
1.51801124E+00
 11
8.88563407E+01
 21
-1.24819890E+01
  0
LINE
  8
0
 62
7
 10
1.10356341E+02
 20
5.25180121E+01
 11
1.08856341E+02
 21
5.10180121E+01
  0
LINE
  8
0
  6
CENTER
 62
2
 10
8.68706264E+01
 20
2.75180117E+01
 11
1.80827771E+02
 21
2.75180117E+01
  0
LINE
  8
0
  6
CENTER
 62
2
 10
1.70856342E+02
 20
5.51801131E+00
 11
1.70856342E+02
 21
-7.98198892E+00
  0
LINE
  8
0
  6
CENTER
 62
2
 10
9.68563409E+01
 20
5.51801131E+00
 11
9.68563409E+01
 21
-7.98198892E+00
  0
LINE
  8
0
 62
7
 10
8.98563408E+01
 20
-4.98198887E+00
 11
1.03356341E+02
 21
-4.98198887E+00
  0
LINE
  8
0
 62
7
 10
1.64356342E+02
 20
-4.98198887E+00
 11
1.77856342E+02
 21
-4.98198887E+00
  0
LINE
  8
0
 62
7
 10
1.03856341E+02
 20
1.51801124E+00
 11
1.03856341E+02
 21
-4.48198886E+00
  0
LINE
  8
0
 62
7
 10
1.63856342E+02
 20
1.51801124E+00
 11
1.63856342E+02
 21
-4.48198886E+00
  0
LINE
  8
0
 62
7
 10
1.58856342E+02
 20
5.10180121E+01
 11
1.57356342E+02
 21
5.25180121E+01
  0
LINE
  8
0
 62
7
 10
9.28563408E+01
 20
5.10180121E+01
 11
1.74856342E+02
 21
5.10180121E+01
  0
LINE
  8
0
 62
7
 10
1.10356341E+02
 20
5.25180121E+01
 11
1.10356341E+02
 21
1.51801124E+00
  0
LINE
  8
0
 62
7
 10
1.57356342E+02
 20
5.25180121E+01
 11
1.57356342E+02
 21
1.51801124E+00
  0
LINE
  8
0
 62
7
 10
1.58356342E+02
 20
2.51801126E+00
 11
1.77856342E+02
 21
2.51801126E+00
  0
LINE
  8
0
 62
7
 10
9.28563408E+01
 20
5.10180121E+01
 11
9.08849122E+01
 21
3.47515413E+00
  0
LINE
  8
0
 62
7
 10
1.02956341E+02
 20
5.10180121E+01
 11
9.99277695E+01
 21
2.51801126E+00
  0
LINE
  8
0
 62
7
 10
1.64742056E+02
 20
5.10180121E+01
 11
1.67770628E+02
 21
2.51801126E+00
  0
LINE
  8
0
 62
7
 10
1.74856342E+02
 20
5.09465835E+01
 11
1.76813485E+02
 21
3.47515413E+00
  0
LINE
  8
0
 62
7
 10
1.74856342E+02
 20
5.10180121E+01
 11
1.73356342E+02
 21
5.25180121E+01
  0
LINE
  8
0
 62
7
 10
9.28563408E+01
 20
5.10180121E+01
 11
9.43563408E+01
 21
5.25180121E+01
  0
LINE
  8
0
 62
7
 10
1.03756341E+02
 20
5.25180121E+01
 11
1.02956341E+02
 21
5.10180121E+01
  0
LINE
  8
0
 62
7
 10
1.63956342E+02
 20
5.25180121E+01
 11
1.64742056E+02
 21
5.10180121E+01
  0
LINE
  8
0
 62
7
 10
1.29856341E+02
 20
5.35180121E+01
 11
1.37856342E+02
 21
5.35180121E+01
  0
LINE
  8
0
 62
7
 10
1.37856342E+02
 20
5.35180121E+01
 11
1.37856342E+02
 21
5.25180121E+01
  0
LINE
  8
0
 62
7
 10
1.29856341E+02
 20
5.35180121E+01
 11
1.29856341E+02
 21
5.25180121E+01
  0
LINE
  8
0
 62
7
 10
1.33856342E+02
 20
5.35180121E+01
 11
1.33856342E+02
 21
5.25180121E+01
  0
LINE
  8
0
 62
7
 10
8.88563407E+01
 20
-1.24819890E+01
 11
8.88563407E+01
 21
-2.64819892E+01
  0
LINE
  8
0
 62
7
 10
1.78856342E+02
 20
-1.24819890E+01
 11
1.78856342E+02
 21
-2.64819892E+01
  0
LINE
  8
0
 62
7
 10
8.98563408E+01
 20
-2.74819893E+01
 11
1.77856342E+02
 21
-2.74819893E+01
  0
LINE
  8
0
 62
7
 10
1.72870628E+02
 20
-7.14819900E+01
 11
1.73999199E+02
 21
-2.84534178E+01
  0
LINE
  8
0
 62
7
 10
1.76956342E+02
 20
-3.48198884E+00
 11
1.76956342E+02
 21
-4.98198887E+00
  0
LINE
  8
0
 62
7
 10
1.64756342E+02
 20
-3.48198884E+00
 11
1.64756342E+02
 21
-4.98198887E+00
  0
LINE
  8
0
 62
7
 10
1.76956342E+02
 20
-3.48198884E+00
 11
1.64756342E+02
 21
-3.48198884E+00
  0
LINE
  8
0
 62
7
 10
1.75856342E+02
 20
1.91801125E+00
 11
1.75856342E+02
 21
-3.48198884E+00
  0
LINE
  8
0
 62
7
 10
1.65856342E+02
 20
1.91801125E+00
 11
1.65856342E+02
 21
-3.48198884E+00
  0
LINE
  8
0
 62
7
 10
1.65856342E+02
 20
1.91801125E+00
 11
1.66456342E+02
 21
2.51801126E+00
  0
LINE
  8
0
 62
7
 10
1.75856342E+02
 20
1.91801125E+00
 11
1.75256342E+02
 21
2.51801126E+00
  0
LINE
  8
0
 62
7
 10
1.65856342E+02
 20
1.91801125E+00
 11
1.75856342E+02
 21
1.91801125E+00
  0
LINE
  8
0
 62
7
 10
9.18563408E+01
 20
1.91801125E+00
 11
9.18563408E+01
 21
-3.48198884E+00
  0
LINE
  8
0
 62
7
 10
1.01856341E+02
 20
1.91801125E+00
 11
1.01856341E+02
 21
-3.48198884E+00
  0
LINE
  8
0
 62
7
 10
1.02956341E+02
 20
-3.48198884E+00
 11
9.07563408E+01
 21
-3.48198884E+00
  0
LINE
  8
0
 62
7
 10
1.02956341E+02
 20
-3.48198884E+00
 11
1.02956341E+02
 21
-4.98198887E+00
  0
LINE
  8
0
 62
7
 10
9.07563408E+01
 20
-3.48198884E+00
 11
9.07563408E+01
 21
-4.98198887E+00
  0
LINE
  8
0
 62
7
 10
9.18563408E+01
 20
1.91801125E+00
 11
1.01856341E+02
 21
1.91801125E+00
  0
LINE
  8
0
 62
7
 10
9.18563408E+01
 20
1.91801125E+00
 11
9.24563408E+01
 21
2.51801126E+00
  0
LINE
  8
0
 62
7
 10
1.01856341E+02
 20
1.91801125E+00
 11
1.01256341E+02
 21
2.51801126E+00
  0
LINE
  8
0
  6
PHANTOM
 62
6
 10
1.93856343E+02
 20
6.93180124E+01
 11
1.90656342E+02
 21
6.93180124E+01
  0
LINE
  8
0
  6
PHANTOM
 62
6
 10
1.93856343E+02
 20
6.93180124E+01
 11
1.93856343E+02
 21
-2.54819892E+01
  0
LINE
  8
0
  6
PHANTOM
 62
6
 10
1.93856343E+02
 20
6.43180123E+01
 11
1.90656342E+02
 21
6.43180123E+01
  0
LINE
  8
0
  6
PHANTOM
 62
6
 10
1.90656342E+02
 20
6.93180124E+01
 11
1.90656342E+02
 21
-2.54819892E+01
  0
LINE
  8
0
  6
PHANTOM
 62
6
 10
1.88656342E+02
 20
-2.74819893E+01
 11
1.77856342E+02
 21
-2.74819893E+01
  0
LINE
  8
0
  6
PHANTOM
 62
6
 10
1.88656342E+02
 20
-3.06819893E+01
 11
1.62856342E+02
 21
-3.06819893E+01
  0
LINE
  8
0
  6
PHANTOM
 62
6
 10
1.65856342E+02
 20
-2.74819893E+01
 11
1.65856342E+02
 21
-3.06819893E+01
  0
LINE
  8
0
  6
PHANTOM
 62
6
 10
1.62856342E+02
 20
-2.74819893E+01
 11
1.62856342E+02
 21
-3.06819893E+01
  0
LINE
  8
0
  6
PHANTOM
 62
6
 10
1.65099199E+02
 20
-3.21819893E+01
 11
1.65099199E+02
 21
-3.06819893E+01
  0
LINE
  8
0
  6
PHANTOM
 62
6
 10
1.65099199E+02
 20
-3.21819893E+01
 11
1.76599199E+02
 21
-3.21819893E+01
  0
LINE
  8
0
  6
PHANTOM
 62
6
 10
1.65856342E+02
 20
-3.78819894E+01
 11
1.65856342E+02
 21
-3.21819893E+01
  0
LINE
  8
0
  6
CENTER
 62
6
 10
1.70856342E+02
 20
-4.11819895E+01
 11
1.70856342E+02
 21
-2.44819892E+01
  0
LINE
  8
0
  6
PHANTOM
 62
6
 10
1.75856342E+02
 20
-3.78819894E+01
 11
1.75856342E+02
 21
-3.21819893E+01
  0
LINE
  8
0
  6
PHANTOM
 62
6
 10
1.76599199E+02
 20
-3.21819893E+01
 11
1.76599199E+02
 21
-3.06819893E+01
  0
LINE
  8
0
  6
PHANTOM
 62
6
 10
1.75856342E+02
 20
-3.78819894E+01
 11
1.75327771E+02
 21
-3.81819894E+01
  0
LINE
  8
0
  6
PHANTOM
 62
6
 10
1.65856342E+02
 20
-3.78819894E+01
 11
1.66370628E+02
 21
-3.81819894E+01
  0
LINE
  8
0
  6
PHANTOM
 62
6
 10
1.65856342E+02
 20
-3.78819894E+01
 11
1.75856342E+02
 21
-3.78819894E+01
  0
LINE
  8
0
  6
PHANTOM
 62
6
 10
1.66370628E+02
 20
-3.81819894E+01
 11
1.75327771E+02
 21
-3.81819894E+01
  0
LINE
  8
0
 62
7
 10
9.48277694E+01
 20
-7.14819900E+01
 11
9.36991980E+01
 21
-2.84534178E+01
  0
LINE
  8
0
  6
PHANTOM
 62
6
 10
1.80656342E+02
 20
-2.74819893E+01
 11
1.90656342E+02
 21
-1.74819891E+01
  0
CIRCLE
  8
0
 62
7
 10
1.33856342E+02
 20
2.75180117E+01
 40
1.20585008E+01
  0
ARC
  8
0
  6
PHANTOM
 62
6
 10
1.88656336E+02
 20
-2.54819831E+01
 40
5.20000619E+00
 50
2.70000000E+02
 51
3.59999933E+02
  0
CIRCLE
  8
0
 62
2
 10
1.33856342E+02
 20
2.75180117E+01
 40
1.32204998E+01
  0
CIRCLE
  8
0
 62
7
 10
1.33856342E+02
 20
2.75180335E+01
 40
2.10000001E+01
  0
ARC
  8
0
 62
7
 10
8.98563364E+01
 20
1.51801560E+00
 40
9.99995657E-01
 50
9.00000002E+01
 51
1.80000250E+02
  0
ARC
  8
0
 62
7
 10
8.98910272E+01
 20
3.51258197E+00
 40
9.94589512E-01
 50
2.69647729E+02
 51
3.57843368E+02
  0
ARC
  8
0
 62
7
 10
1.77856347E+02
 20
1.51801560E+00
 40
9.99995657E-01
 50
3.59999750E+02
 51
9.00000002E+01
  0
ARC
  8
0
 62
7
 10
1.77814155E+02
 20
3.51967050E+00
 40
1.00165947E+00
 50
1.82547214E+02
 51
2.70000000E+02
  0
ARC
  8
0
 62
7
 10
1.77856347E+02
 20
-5.98198453E+00
 40
9.99995657E-01
 50
3.59999750E+02
 51
9.00000002E+01
  0
ARC
  8
0
 62
7
 10
1.62856346E+02
 20
1.51801560E+00
 40
9.99995657E-01
 50
3.59999750E+02
 51
9.00000002E+01
  0
ARC
  8
0
 62
7
 10
1.04856337E+02
 20
1.51801560E+00
 40
9.99995657E-01
 50
9.00000002E+01
 51
1.80000250E+02
  0
ARC
  8
0
 62
7
 10
8.98563364E+01
 20
-5.98198453E+00
 40
9.99995657E-01
 50
9.00000002E+01
 51
1.80000250E+02
  0
ARC
  8
0
 62
7
 10
1.03356343E+02
 20
-4.48199104E+00
 40
4.99997829E-01
 50
2.70000000E+02
 51
2.49777252E-04
  0
ARC
  8
0
 62
7
 10
1.64356340E+02
 20
-4.48199104E+00
 40
4.99997829E-01
 50
1.79999750E+02
 51
2.70000000E+02
  0
ARC
  8
0
 62
7
 10
8.98563582E+01
 20
-2.64819718E+01
 40
1.00001746E+00
 50
1.80000999E+02
 51
2.70000000E+02
  0
ARC
  8
0
 62
7
 10
1.77856347E+02
 20
-2.64819936E+01
 40
9.99995657E-01
 50
2.70000000E+02
 51
2.49790864E-04
  0
ARC
  8
0
 62
7
 10
9.27016426E+01
 20
-2.84798929E+01
 40
9.97906593E-01
 50
1.52026692E+00
 51
9.01403640E+01
  0
ARC
  8
0
 62
7
 10
1.75003680E+02
 20
-2.84870220E+01
 40
1.00504269E+00
 50
9.02554397E+01
 51
1.78083929E+02
  0
ARC
  8
0
 62
7
 10
1.58356335E+02
 20
1.51801778E+00
 40
9.99993478E-01
 50
9.00000002E+01
 51
1.80000375E+02
  0
ARC
  8
0
 62
7
 10
1.09356337E+02
 20
1.51800688E+00
 40
1.00000438E+00
 50
2.49790864E-04
 51
9.00000002E+01
  0
ARC
  8
0
  6
PHANTOM
 62
6
 10
1.88656336E+02
 20
-2.54819831E+01
 40
2.00000614E+00
 50
2.70000000E+02
 51
3.59999825E+02
  0
LINE
  8
0
 62
4
 10
1.26270627E+02
 20
-1.73181992E+02
 11
1.41427770E+02
 21
-1.73181992E+02
  0
LINE
  8
0
 62
4
 10
1.25770627E+02
 20
-1.72681992E+02
 11
1.25770627E+02
 21
-1.71681992E+02
  0
LINE
  8
0
 62
4
 10
1.41927770E+02
 20
-1.72681992E+02
 11
1.41927770E+02
 21
-1.71681992E+02
  0
LINE
  8
0
 62
4
 10
1.41427770E+02
 20
-1.73181992E+02
 11
1.41927770E+02
 21
-1.72681992E+02
  0
LINE
  8
0
 62
4
 10
1.26270627E+02
 20
-1.73181992E+02
 11
1.25770627E+02
 21
-1.72681992E+02
  0
LINE
  8
0
 62
4
 10
1.40599199E+02
 20
-1.87967706E+02
 11
1.27099199E+02
 21
-1.87967706E+02
  0
LINE
  8
0
 62
4
 10
1.41599199E+02
 20
-1.74967706E+02
 11
1.41599199E+02
 21
-1.86967706E+02
  0
LINE
  8
0
 62
4
 10
1.26099199E+02
 20
-1.74967706E+02
 11
1.26099199E+02
 21
-1.86967706E+02
  0
LINE
  8
0
 62
4
 10
1.41599199E+02
 20
-1.86967706E+02
 11
1.40599199E+02
 21
-1.87967706E+02
  0
LINE
  8
0
 62
4
 10
1.27099199E+02
 20
-1.87967706E+02
 11
1.26099199E+02
 21
-1.86967706E+02
  0
LINE
  8
0
 62
4
 10
1.41099199E+02
 20
-1.74467706E+02
 11
1.26599199E+02
 21
-1.74467706E+02
  0
LINE
  8
0
 62
4
 10
1.41099199E+02
 20
-1.74467706E+02
 11
1.41599199E+02
 21
-1.74967706E+02
  0
LINE
  8
0
 62
4
 10
1.26599199E+02
 20
-1.74467706E+02
 11
1.26099199E+02
 21
-1.74967706E+02
  0
LINE
  8
0
 62
4
 10
1.39856342E+02
 20
-1.73181992E+02
 11
1.39856342E+02
 21
-1.74467706E+02
  0
LINE
  8
0
 62
4
 10
1.27856341E+02
 20
-1.73181992E+02
 11
1.27856341E+02
 21
-1.74467706E+02
  0
LINE
  8
0
 62
6
 10
1.28599199E+02
 20
-1.73181992E+02
 11
1.28599199E+02
 21
-1.74467706E+02
  0
LINE
  8
0
 62
6
 10
1.39099199E+02
 20
-1.73181992E+02
 11
1.39099199E+02
 21
-1.74467706E+02
  0
LINE
  8
0
 62
4
 10
1.32356341E+02
 20
-1.77467706E+02
 11
1.32356341E+02
 21
-1.86967706E+02
  0
LINE
  8
0
 62
4
 10
1.35356342E+02
 20
-1.77467706E+02
 11
1.35356342E+02
 21
-1.86967706E+02
  0
LINE
  8
0
 62
4
 10
1.35684913E+02
 20
-1.77753420E+02
 11
1.35684913E+02
 21
-1.87467706E+02
  0
LINE
  8
0
 62
4
 10
1.32013484E+02
 20
-1.77753420E+02
 11
1.32013484E+02
 21
-1.87467706E+02
  0
LINE
  8
0
 62
4
 10
1.30199199E+02
 20
-1.77753420E+02
 11
1.30199199E+02
 21
-1.87467706E+02
  0
LINE
  8
0
 62
4
 10
1.29527770E+02
 20
-1.77467706E+02
 11
1.29527770E+02
 21
-1.86967706E+02
  0
LINE
  8
0
 62
4
 10
1.27413484E+02
 20
-1.77467706E+02
 11
1.27413484E+02
 21
-1.86967706E+02
  0
LINE
  8
0
 62
4
 10
1.26842056E+02
 20
-1.77753420E+02
 11
1.26842056E+02
 21
-1.87467706E+02
  0
LINE
  8
0
 62
4
 10
1.26242056E+02
 20
-1.77467706E+02
 11
1.26242056E+02
 21
-1.86967706E+02
  0
LINE
  8
0
 62
4
 10
1.37513484E+02
 20
-1.77753420E+02
 11
1.37513484E+02
 21
-1.87467706E+02
  0
LINE
  8
0
 62
4
 10
1.38170627E+02
 20
-1.77467706E+02
 11
1.38170627E+02
 21
-1.86967706E+02
  0
LINE
  8
0
 62
4
 10
1.40284913E+02
 20
-1.77467706E+02
 11
1.40284913E+02
 21
-1.86967706E+02
  0
LINE
  8
0
 62
4
 10
1.40856342E+02
 20
-1.77753420E+02
 11
1.40856342E+02
 21
-1.87467706E+02
  0
LINE
  8
0
 62
4
 10
1.41456342E+02
 20
-1.77467706E+02
 11
1.41456342E+02
 21
-1.86967706E+02
  0
LINE
  8
0
 62
4
 10
1.41456342E+02
 20
-1.77467706E+02
 11
1.40284913E+02
 21
-1.77467706E+02
  0
LINE
  8
0
 62
4
 10
1.40856342E+02
 20
-1.77753420E+02
 11
1.40284913E+02
 21
-1.77753420E+02
  0
LINE
  8
0
 62
4
 10
1.41599199E+02
 20
-1.86967706E+02
 11
1.41456342E+02
 21
-1.86967706E+02
  0
LINE
  8
0
 62
4
 10
1.32356341E+02
 20
-1.77467706E+02
 11
1.29527770E+02
 21
-1.77467706E+02
  0
LINE
  8
0
 62
4
 10
1.32013484E+02
 20
-1.77753420E+02
 11
1.30199199E+02
 21
-1.77753420E+02
  0
LINE
  8
0
 62
4
 10
1.38170627E+02
 20
-1.77467706E+02
 11
1.35356342E+02
 21
-1.77467706E+02
  0
LINE
  8
0
 62
4
 10
1.37513484E+02
 20
-1.77753420E+02
 11
1.35684913E+02
 21
-1.77753420E+02
  0
LINE
  8
0
 62
4
 10
1.27413484E+02
 20
-1.77467706E+02
 11
1.26242056E+02
 21
-1.77467706E+02
  0
LINE
  8
0
 62
4
 10
1.27413484E+02
 20
-1.77753420E+02
 11
1.26842056E+02
 21
-1.77753420E+02
  0
LINE
  8
0
 62
4
 10
1.35356342E+02
 20
-1.86967706E+02
 11
1.32356341E+02
 21
-1.86967706E+02
  0
LINE
  8
0
 62
4
 10
1.29527770E+02
 20
-1.86967706E+02
 11
1.27413484E+02
 21
-1.86967706E+02
  0
LINE
  8
0
 62
4
 10
1.26242056E+02
 20
-1.86967706E+02
 11
1.26099199E+02
 21
-1.86967706E+02
  0
LINE
  8
0
 62
4
 10
1.40284913E+02
 20
-1.86967706E+02
 11
1.38170627E+02
 21
-1.86967706E+02
  0
LINE
  8
0
 62
4
 10
1.37513484E+02
 20
-1.87467706E+02
 11
1.35684913E+02
 21
-1.87467706E+02
  0
LINE
  8
0
 62
4
 10
1.40856342E+02
 20
-1.87467706E+02
 11
1.41456342E+02
 21
-1.86967706E+02
  0
LINE
  8
0
 62
4
 10
1.37513484E+02
 20
-1.87467706E+02
 11
1.38170627E+02
 21
-1.86967706E+02
  0
LINE
  8
0
 62
4
 10
1.35684913E+02
 20
-1.87467706E+02
 11
1.35356342E+02
 21
-1.86967706E+02
  0
LINE
  8
0
 62
4
 10
1.32356341E+02
 20
-1.86967706E+02
 11
1.32013484E+02
 21
-1.87467706E+02
  0
LINE
  8
0
 62
4
 10
1.30199199E+02
 20
-1.87467706E+02
 11
1.29527770E+02
 21
-1.86967706E+02
  0
LINE
  8
0
 62
4
 10
1.26842056E+02
 20
-1.87467706E+02
 11
1.26242056E+02
 21
-1.86967706E+02
  0
LINE
  8
0
 62
4
 10
1.26842056E+02
 20
-1.77753420E+02
 11
1.26242056E+02
 21
-1.77467706E+02
  0
LINE
  8
0
 62
4
 10
1.30199199E+02
 20
-1.77753420E+02
 11
1.29527770E+02
 21
-1.77467706E+02
  0
LINE
  8
0
 62
4
 10
1.32013484E+02
 20
-1.77753420E+02
 11
1.32356341E+02
 21
-1.77467706E+02
  0
LINE
  8
0
 62
4
 10
1.35684913E+02
 20
-1.77753420E+02
 11
1.35356342E+02
 21
-1.77467706E+02
  0
LINE
  8
0
 62
4
 10
1.37513484E+02
 20
-1.77753420E+02
 11
1.38170627E+02
 21
-1.77467706E+02
  0
LINE
  8
0
 62
4
 10
1.40856342E+02
 20
-1.77753420E+02
 11
1.41456342E+02
 21
-1.77467706E+02
  0
LINE
  8
0
 62
4
 10
1.40284913E+02
 20
-1.86967706E+02
 11
1.40113484E+02
 21
-1.87467706E+02
  0
LINE
  8
0
 62
4
 10
1.27413484E+02
 20
-1.86967706E+02
 11
1.27584913E+02
 21
-1.87467706E+02
  0
LINE
  8
0
 62
4
 10
1.32013484E+02
 20
-1.87467706E+02
 11
1.30199199E+02
 21
-1.87467706E+02
  0
LINE
  8
0
 62
4
 10
1.40856342E+02
 20
-1.87467706E+02
 11
1.40113484E+02
 21
-1.87467706E+02
  0
LINE
  8
0
 62
4
 10
1.27584913E+02
 20
-1.87467706E+02
 11
1.26842056E+02
 21
-1.87467706E+02
  0
LINE
  8
0
 62
4
 10
1.41599199E+02
 20
-1.74967706E+02
 11
1.26099199E+02
 21
-1.74967706E+02
  0
LINE
  8
0
 62
7
 10
1.52270628E+02
 20
-1.71681992E+02
 11
1.15427770E+02
 21
-1.71681992E+02
  0
LINE
  8
0
 62
7
 10
1.53813485E+02
 20
-1.54181991E+02
 11
1.60713485E+02
 21
-1.54181991E+02
  0
LINE
  8
0
 62
7
 10
1.53813485E+02
 20
-1.18181991E+02
 11
1.60713485E+02
 21
-1.18181991E+02
  0
LINE
  8
0
 62
7
 10
1.53813485E+02
 20
-1.12181991E+02
 11
1.60713485E+02
 21
-1.12181991E+02
  0
LINE
  8
0
 62
7
 10
1.60713485E+02
 20
-7.81819901E+01
 11
1.53813485E+02
 21
-7.81819901E+01
  0
LINE
  8
0
 62
7
 10
1.00427770E+02
 20
-1.56810563E+02
 11
9.96991981E+01
 21
-7.24819900E+01
  0
LINE
  8
0
 62
7
 10
1.67270628E+02
 20
-1.56810563E+02
 11
1.67999199E+02
 21
-7.24819900E+01
  0
LINE
  8
0
 62
7
 10
1.58884913E+02
 20
-7.86819901E+01
 11
1.53813485E+02
 21
-7.86819901E+01
  0
LINE
  8
0
 62
7
 10
1.53813485E+02
 20
-1.18681991E+02
 11
1.58884913E+02
 21
-1.18681991E+02
  0
LINE
  8
0
 62
7
 10
1.53813485E+02
 20
-1.11681991E+02
 11
1.58884913E+02
 21
-1.11681991E+02
  0
LINE
  8
0
 62
7
 10
1.53813485E+02
 20
-1.53681991E+02
 11
1.58884913E+02
 21
-1.53681991E+02
  0
LINE
  8
0
 62
7
 10
1.61713485E+02
 20
-1.19181991E+02
 11
1.61713485E+02
 21
-1.53181991E+02
  0
LINE
  8
0
 62
7
 10
1.59884913E+02
 20
-1.19681991E+02
 11
1.59884913E+02
 21
-1.52681991E+02
  0
LINE
  8
0
 62
7
 10
1.52813485E+02
 20
-1.19181991E+02
 11
1.52813485E+02
 21
-1.53181991E+02
  0
LINE
  8
0
 62
7
 10
1.53427770E+02
 20
-1.54681991E+02
 11
1.60970628E+02
 21
-1.54681991E+02
  0
LINE
  8
0
 62
7
 10
1.53427770E+02
 20
-1.55181991E+02
 11
1.61570628E+02
 21
-1.55181991E+02
  0
LINE
  8
0
 62
7
 10
1.60970628E+02
 20
-7.76819901E+01
 11
1.53427770E+02
 21
-7.76819901E+01
  0
LINE
  8
0
 62
7
 10
1.61570628E+02
 20
-7.71819901E+01
 11
1.53427770E+02
 21
-7.71819901E+01
  0
LINE
  8
0
 62
7
 10
1.52427770E+02
 20
-7.81819901E+01
 11
1.52427770E+02
 21
-1.54181991E+02
  0
LINE
  8
0
 62
7
 10
1.52813485E+02
 20
-7.91819901E+01
 11
1.52813485E+02
 21
-1.11181991E+02
  0
LINE
  8
0
 62
7
 10
1.59884913E+02
 20
-7.96819901E+01
 11
1.59884913E+02
 21
-1.10681991E+02
  0
LINE
  8
0
 62
7
 10
1.61713485E+02
 20
-7.91819901E+01
 11
1.61713485E+02
 21
-1.11181991E+02
  0
LINE
  8
0
 62
7
 10
1.61970628E+02
 20
-7.86819901E+01
 11
1.61970628E+02
 21
-1.53681991E+02
  0
LINE
  8
0
 62
7
 10
1.62570628E+02
 20
-7.81819901E+01
 11
1.62570628E+02
 21
-1.54181991E+02
  0
LINE
  8
0
 62
7
 10
1.13899198E+02
 20
-1.54181991E+02
 11
1.06984912E+02
 21
-1.54181991E+02
  0
LINE
  8
0
 62
7
 10
1.13899198E+02
 20
-1.18181991E+02
 11
1.06984912E+02
 21
-1.18181991E+02
  0
LINE
  8
0
 62
7
 10
1.13899198E+02
 20
-1.12181991E+02
 11
1.06984912E+02
 21
-1.12181991E+02
  0
LINE
  8
0
 62
7
 10
1.06984912E+02
 20
-7.81819901E+01
 11
1.13899198E+02
 21
-7.81819901E+01
  0
LINE
  8
0
 62
7
 10
1.08827770E+02
 20
-7.86819901E+01
 11
1.13899198E+02
 21
-7.86819901E+01
  0
LINE
  8
0
 62
7
 10
1.13899198E+02
 20
-1.18681991E+02
 11
1.08827770E+02
 21
-1.18681991E+02
  0
LINE
  8
0
 62
7
 10
1.13899198E+02
 20
-1.11681991E+02
 11
1.08827770E+02
 21
-1.11681991E+02
  0
LINE
  8
0
 62
7
 10
1.13899198E+02
 20
-1.53681991E+02
 11
1.08827770E+02
 21
-1.53681991E+02
  0
LINE
  8
0
 62
7
 10
1.05984912E+02
 20
-1.19181991E+02
 11
1.05984912E+02
 21
-1.53181991E+02
  0
LINE
  8
0
 62
7
 10
1.07827770E+02
 20
-1.19681991E+02
 11
1.07827770E+02
 21
-1.52681991E+02
  0
LINE
  8
0
 62
7
 10
1.14899198E+02
 20
-1.19181991E+02
 11
1.14899198E+02
 21
-1.53181991E+02
  0
LINE
  8
0
 62
7
 10
1.14270627E+02
 20
-1.54681991E+02
 11
1.06727770E+02
 21
-1.54681991E+02
  0
LINE
  8
0
 62
7
 10
1.14270627E+02
 20
-1.55181991E+02
 11
1.06127770E+02
 21
-1.55181991E+02
  0
LINE
  8
0
 62
7
 10
1.06727770E+02
 20
-7.76819901E+01
 11
1.14270627E+02
 21
-7.76819901E+01
  0
LINE
  8
0
 62
7
 10
1.06127770E+02
 20
-7.71819901E+01
 11
1.14270627E+02
 21
-7.71819901E+01
  0
LINE
  8
0
 62
7
 10
1.15270627E+02
 20
-7.81819901E+01
 11
1.15270627E+02
 21
-1.54181991E+02
  0
LINE
  8
0
 62
7
 10
1.14899198E+02
 20
-7.91819901E+01
 11
1.14899198E+02
 21
-1.11181991E+02
  0
LINE
  8
0
 62
7
 10
1.07827770E+02
 20
-7.96819901E+01
 11
1.07827770E+02
 21
-1.10681991E+02
  0
LINE
  8
0
 62
7
 10
1.05984912E+02
 20
-7.91819901E+01
 11
1.05984912E+02
 21
-1.11181991E+02
  0
LINE
  8
0
 62
7
 10
1.05727770E+02
 20
-7.86819901E+01
 11
1.05727770E+02
 21
-1.53681991E+02
  0
LINE
  8
0
 62
7
 10
1.05127770E+02
 20
-7.81819901E+01
 11
1.05127770E+02
 21
-1.54181991E+02
  0
LINE
  8
0
 62
4
 10
1.25770627E+02
 20
-1.72681992E+02
 11
1.41927770E+02
 21
-1.72681992E+02
  0
ARC
  8
0
 62
7
 10
1.52271609E+02
 20
-1.56682425E+02
 40
1.49995662E+01
 50
2.70000000E+02
 51
3.59510531E+02
  0
ARC
  8
0
 62
7
 10
1.15433882E+02
 20
-1.56675270E+02
 40
1.50067225E+01
 50
1.80516554E+02
 51
2.69976663E+02
  0
ARC
  8
0
 62
7
 10
1.58884649E+02
 20
-1.19682255E+02
 40
1.00026473E+00
 50
1.51607367E-02
 51
9.00000002E+01
  0
ARC
  8
0
 62
7
 10
1.53813383E+02
 20
-1.19681889E+02
 40
9.99898009E-01
 50
9.00000002E+01
 51
1.80005846E+02
  0
ARC
  8
0
 62
7
 10
1.53813389E+02
 20
-1.19181895E+02
 40
9.99904548E-01
 50
9.00000002E+01
 51
1.80005471E+02
  0
ARC
  8
0
 62
7
 10
1.53813421E+02
 20
-1.52682055E+02
 40
9.99935938E-01
 50
1.79996328E+02
 51
2.70000000E+02
  0
ARC
  8
0
 62
7
 10
1.53813416E+02
 20
-1.53182060E+02
 40
9.99931578E-01
 50
1.79996078E+02
 51
2.70000000E+02
  0
ARC
  8
0
 62
7
 10
1.53428796E+02
 20
-1.53680966E+02
 40
1.00102597E+00
 50
1.80058692E+02
 51
2.69941307E+02
  0
ARC
  8
0
 62
7
 10
1.53428791E+02
 20
-1.54180970E+02
 40
1.00102161E+00
 50
1.80058444E+02
 51
2.69941557E+02
  0
ARC
  8
0
 62
7
 10
1.58884611E+02
 20
-1.52681689E+02
 40
1.00030266E+00
 50
2.70000000E+02
 51
3.59982668E+02
  0
ARC
  8
0
 62
7
 10
1.60716163E+02
 20
-1.19179313E+02
 40
9.97325536E-01
 50
3.59846146E+02
 51
9.01538542E+01
  0
ARC
  8
0
 62
7
 10
1.60716136E+02
 20
-1.53184642E+02
 40
9.97352566E-01
 50
2.69847707E+02
 51
1.52293012E-01
  0
ARC
  8
0
 62
7
 10
1.60973245E+02
 20
-1.53684609E+02
 40
9.97385992E-01
 50
2.69849638E+02
 51
1.50362634E-01
  0
ARC
  8
0
 62
7
 10
1.61571834E+02
 20
-1.54183198E+02
 40
9.98794335E-01
 50
2.69930794E+02
 51
6.92056767E-02
  0
ARC
  8
0
 62
7
 10
1.53813383E+02
 20
-7.96818881E+01
 40
9.99898009E-01
 50
9.00000002E+01
 51
1.80005846E+02
  0
ARC
  8
0
 62
7
 10
1.53813389E+02
 20
-7.91818947E+01
 40
9.99904548E-01
 50
9.00000002E+01
 51
1.80005471E+02
  0
ARC
  8
0
 62
7
 10
1.53428758E+02
 20
-7.86829777E+01
 40
1.00098804E+00
 50
9.00000002E+01
 51
1.79943474E+02
  0
ARC
  8
0
 62
7
 10
1.53428754E+02
 20
-7.81829733E+01
 40
1.00098368E+00
 50
9.00000002E+01
 51
1.79943723E+02
  0
ARC
  8
0
 62
7
 10
1.58884649E+02
 20
-7.96822548E+01
 40
1.00026473E+00
 50
1.51607367E-02
 51
9.00000002E+01
  0
ARC
  8
0
 62
7
 10
1.60716163E+02
 20
-7.91793121E+01
 40
9.97325536E-01
 50
3.59846146E+02
 51
9.01538542E+01
  0
ARC
  8
0
 62
7
 10
1.60973283E+02
 20
-7.86793346E+01
 40
9.97348063E-01
 50
3.59847447E+02
 51
9.01525531E+01
  0
ARC
  8
0
 62
7
 10
1.61571872E+02
 20
-7.81807457E+01
 40
9.98756406E-01
 50
3.59928613E+02
 51
9.00713867E+01
  0
ARC
  8
0
 62
7
 10
1.53813416E+02
 20
-1.10682059E+02
 40
9.99931578E-01
 50
1.79996078E+02
 51
2.70000000E+02
  0
ARC
  8
0
 62
7
 10
1.53813412E+02
 20
-1.11182063E+02
 40
9.99927218E-01
 50
1.79995829E+02
 51
2.70000000E+02
  0
ARC
  8
0
 62
7
 10
1.58884615E+02
 20
-1.10681692E+02
 40
1.00029830E+00
 50
2.70000000E+02
 51
3.59982917E+02
  0
ARC
  8
0
 62
7
 10
1.60716140E+02
 20
-1.11184646E+02
 40
9.97348206E-01
 50
2.69847455E+02
 51
1.52544805E-01
  0
ARC
  8
0
 62
7
 10
1.08827936E+02
 20
-1.19682157E+02
 40
1.00016659E+00
 50
9.00000002E+01
 51
1.79990458E+02
  0
ARC
  8
0
 62
7
 10
1.13899213E+02
 20
-1.19681976E+02
 40
9.99985194E-01
 50
3.59999150E+02
 51
9.00000002E+01
  0
ARC
  8
0
 62
7
 10
1.13899207E+02
 20
-1.19181983E+02
 40
9.99991734E-01
 50
3.59999525E+02
 51
9.00000002E+01
  0
ARC
  8
0
 62
7
 10
1.13899175E+02
 20
-1.52681968E+02
 40
1.00002312E+00
 50
2.70000000E+02
 51
3.59998676E+02
  0
ARC
  8
0
 62
7
 10
1.13899180E+02
 20
-1.53181973E+02
 40
1.00001876E+00
 50
2.70000000E+02
 51
3.59998926E+02
  0
ARC
  8
0
 62
7
 10
1.14276617E+02
 20
-1.53687982E+02
 40
9.94027504E-01
 50
2.69654702E+02
 51
3.45298412E-01
  0
ARC
  8
0
 62
7
 10
1.14276622E+02
 20
-1.54187986E+02
 40
9.94023145E-01
 50
2.69654447E+02
 51
3.45552744E-01
  0
ARC
  8
0
 62
7
 10
1.08827974E+02
 20
-1.52681787E+02
 40
1.00020452E+00
 50
1.80011713E+02
 51
2.70000000E+02
  0
ARC
  8
0
 62
7
 10
1.06989395E+02
 20
-1.19186473E+02
 40
1.00449223E+00
 50
9.02556643E+01
 51
1.79744336E+02
  0
ARC
  8
0
 62
7
 10
1.06989422E+02
 20
-1.53177482E+02
 40
1.00451926E+00
 50
1.80257193E+02
 51
2.69742808E+02
  0
ARC
  8
0
 62
7
 10
1.06732301E+02
 20
-1.53677460E+02
 40
1.00454208E+00
 50
1.80258482E+02
 51
2.69741518E+02
  0
ARC
  8
0
 62
7
 10
1.06133646E+02
 20
-1.54176115E+02
 40
1.00589349E+00
 50
1.80334717E+02
 51
2.69665283E+02
  0
ARC
  8
0
 62
7
 10
1.13899213E+02
 20
-7.96819753E+01
 40
9.99985194E-01
 50
3.59999150E+02
 51
9.00000002E+01
  0
ARC
  8
0
 62
7
 10
1.13899207E+02
 20
-7.91819818E+01
 40
9.99991734E-01
 50
3.59999525E+02
 51
9.00000002E+01
  0
ARC
  8
0
 62
7
 10
1.14276656E+02
 20
-7.86759614E+01
 40
9.93989578E-01
 50
3.59652489E+02
 51
9.03475111E+01
  0
ARC
  8
0
 62
7
 10
1.14276660E+02
 20
-7.81759570E+01
 40
9.93985218E-01
 50
3.59652234E+02
 51
9.03477655E+01
  0
ARC
  8
0
 62
7
 10
1.08827936E+02
 20
-7.96821567E+01
 40
1.00016659E+00
 50
9.00000002E+01
 51
1.79990458E+02
  0
ARC
  8
0
 62
7
 10
1.06989395E+02
 20
-7.91864723E+01
 40
1.00449223E+00
 50
9.02556643E+01
 51
1.79744336E+02
  0
ARC
  8
0
 62
7
 10
1.06732264E+02
 20
-7.86864842E+01
 40
1.00450415E+00
 50
9.02563381E+01
 51
1.79743662E+02
  0
ARC
  8
0
 62
7
 10
1.06133608E+02
 20
-7.81878287E+01
 40
1.00585556E+00
 50
9.03325816E+01
 51
1.79667418E+02
  0
ARC
  8
0
 62
7
 10
1.13899180E+02
 20
-1.10681972E+02
 40
1.00001876E+00
 50
2.70000000E+02
 51
3.59998926E+02
  0
ARC
  8
0
 62
7
 10
1.13899184E+02
 20
-1.11181976E+02
 40
1.00001440E+00
 50
2.70000000E+02
 51
3.59999176E+02
  0
ARC
  8
0
 62
7
 10
1.08827970E+02
 20
-1.10681791E+02
 40
1.00020016E+00
 50
1.80011464E+02
 51
2.70000000E+02
  0
ARC
  8
0
 62
7
 10
1.06989417E+02
 20
-1.11177486E+02
 40
1.00451490E+00
 50
1.80256946E+02
 51
2.69743054E+02
  0
LINE
  8
0
  6
CENTER
 62
2
 10
-1.84293764E+01
 20
7.90322993E+01
 11
-1.84293764E+01
 21
1.94032301E+02
  0
LINE
  8
0
  6
CENTER
 62
2
 10
-6.84293773E+01
 20
1.29032300E+02
 11
3.15706244E+01
 21
1.29032300E+02
  0
LINE
  8
0
 62
7
 10
-5.54293771E+01
 20
1.74032301E+02
 11
1.85706242E+01
 21
1.74032301E+02
  0
LINE
  8
0
 62
7
 10
-5.54293771E+01
 20
8.40322994E+01
 11
1.85706242E+01
 21
8.40322994E+01
  0
LINE
  8
0
 62
7
 10
-6.34293772E+01
 20
9.20322995E+01
 11
-6.34293772E+01
 21
1.66032301E+02
  0
LINE
  8
0
 62
7
 10
2.65706243E+01
 20
9.20322995E+01
 11
2.65706243E+01
 21
1.66032301E+02
  0
LINE
  8
0
 62
7
 10
-6.19293772E+01
 20
1.04032300E+02
 11
-4.64293769E+01
 21
1.04032300E+02
  0
LINE
  8
0
 62
7
 10
-6.19293772E+01
 20
1.04032300E+02
 11
-6.34293772E+01
 21
1.05532300E+02
  0
LINE
  8
0
 62
7
 10
2.50706243E+01
 20
1.04032300E+02
 11
2.65706243E+01
 21
1.05532300E+02
  0
LINE
  8
0
 62
7
 10
2.65706243E+01
 20
1.52532301E+02
 11
2.50706243E+01
 21
1.54032301E+02
  0
LINE
  8
0
 62
7
 10
-6.34293772E+01
 20
1.52532301E+02
 11
-6.19293772E+01
 21
1.54032301E+02
  0
LINE
  8
0
  6
CENTER
 62
2
 10
-6.45293772E+01
 20
9.20322995E+01
 11
-4.63293769E+01
 21
9.20322995E+01
  0
LINE
  8
0
  6
CENTER
 62
2
 10
-6.45293772E+01
 20
1.66032301E+02
 11
-4.63293769E+01
 21
1.66032301E+02
  0
LINE
  8
0
  6
CENTER
 62
2
 10
9.47062404E+00
 20
1.66032301E+02
 11
2.76706244E+01
 21
1.66032301E+02
  0
LINE
  8
0
  6
CENTER
 62
2
 10
9.47062404E+00
 20
9.20322995E+01
 11
2.76706244E+01
 21
9.20322995E+01
  0
LINE
  8
0
  6
CENTER
 62
2
 10
-5.54293771E+01
 20
8.29322993E+01
 11
-5.54293771E+01
 21
1.01132300E+02
  0
LINE
  8
0
  6
CENTER
 62
2
 10
-5.54293771E+01
 20
1.56932301E+02
 11
-5.54293771E+01
 21
1.75132301E+02
  0
LINE
  8
0
  6
CENTER
 62
2
 10
1.85706242E+01
 20
1.56932301E+02
 11
1.85706242E+01
 21
1.75132301E+02
  0
LINE
  8
0
  6
CENTER
 62
2
 10
1.85706242E+01
 20
8.29322993E+01
 11
1.85706242E+01
 21
1.01132300E+02
  0
LINE
  8
0
 62
7
 10
-4.48436626E+01
 20
1.62960872E+02
 11
-4.64293769E+01
 21
1.54032301E+02
  0
LINE
  8
0
 62
7
 10
7.99919545E+00
 20
1.62960872E+02
 11
9.57062405E+00
 21
1.54032301E+02
  0
LINE
  8
0
 62
7
 10
2.50706243E+01
 20
1.54032301E+02
 11
9.57062405E+00
 21
1.54032301E+02
  0
LINE
  8
0
 62
7
 10
9.57062405E+00
 20
1.04032300E+02
 11
2.50706243E+01
 21
1.04032300E+02
  0
LINE
  8
0
 62
7
 10
-4.64293769E+01
 20
1.54032301E+02
 11
-6.19293772E+01
 21
1.54032301E+02
  0
LINE
  8
0
 62
7
 10
2.65706243E+01
 20
1.52532301E+02
 11
8.31348117E+00
 21
1.52532301E+02
  0
LINE
  8
0
 62
7
 10
7.15633829E+00
 20
1.59132301E+02
 11
8.31348117E+00
 21
1.52532301E+02
  0
LINE
  8
0
 62
7
 10
-6.19293772E+01
 20
1.04032300E+02
 11
-6.19293772E+01
 21
1.54032301E+02
  0
LINE
  8
0
 62
7
 10
2.50706243E+01
 20
1.04032300E+02
 11
2.50706243E+01
 21
1.54032301E+02
  0
LINE
  8
0
 62
7
 10
9.57062405E+00
 20
1.54032301E+02
 11
8.31348117E+00
 21
1.52532301E+02
  0
LINE
  8
0
 62
7
 10
2.65706243E+01
 20
1.05532300E+02
 11
8.31348117E+00
 21
1.05532300E+02
  0
LINE
  8
0
 62
7
 10
9.57062405E+00
 20
1.04032300E+02
 11
8.31348117E+00
 21
1.05532300E+02
  0
LINE
  8
0
 62
7
 10
-6.34293772E+01
 20
1.52532301E+02
 11
-4.51579483E+01
 21
1.52532301E+02
  0
LINE
  8
0
 62
7
 10
-4.40008054E+01
 20
1.59132301E+02
 11
-4.51579483E+01
 21
1.52532301E+02
  0
LINE
  8
0
 62
7
 10
-4.64293769E+01
 20
1.54032301E+02
 11
-4.51579483E+01
 21
1.52532301E+02
  0
LINE
  8
0
 62
7
 10
-6.34293772E+01
 20
1.05532300E+02
 11
-4.51579483E+01
 21
1.05532300E+02
  0
LINE
  8
0
 62
7
 10
-4.64293769E+01
 20
1.04032300E+02
 11
-4.51579483E+01
 21
1.05532300E+02
  0
LINE
  8
0
 62
7
 10
-5.84293771E+01
 20
1.25032300E+02
 11
-5.84293771E+01
 21
1.33032300E+02
  0
LINE
  8
0
 62
7
 10
-5.54293771E+01
 20
1.59032301E+02
 11
-6.24293772E+01
 21
1.59032301E+02
  0
LINE
  8
0
 62
7
 10
-5.54293771E+01
 20
9.90322996E+01
 11
-6.24293772E+01
 21
9.90322996E+01
  0
LINE
  8
0
 62
7
 10
1.85706242E+01
 20
1.59032301E+02
 11
2.55706243E+01
 21
1.59032301E+02
  0
LINE
  8
0
 62
7
 10
1.85706242E+01
 20
9.90322996E+01
 11
2.55706243E+01
 21
9.90322996E+01
  0
LINE
  8
0
 62
7
 10
-4.84293769E+01
 20
9.20322995E+01
 11
-4.84293769E+01
 21
8.50322994E+01
  0
LINE
  8
0
 62
7
 10
1.15706241E+01
 20
9.20322995E+01
 11
1.15706241E+01
 21
8.50322994E+01
  0
LINE
  8
0
 62
7
 10
1.15706241E+01
 20
1.66032301E+02
 11
1.15706241E+01
 21
1.73032301E+02
  0
LINE
  8
0
 62
7
 10
-4.84293769E+01
 20
1.66032301E+02
 11
-4.84293769E+01
 21
1.73032301E+02
  0
LINE
  8
0
 62
7
 10
-5.84293771E+01
 20
1.33032300E+02
 11
-4.74293769E+01
 21
1.29032300E+02
  0
LINE
  8
0
 62
7
 10
-5.84293771E+01
 20
1.25032300E+02
 11
-4.74293769E+01
 21
1.29032300E+02
  0
LINE
  8
0
 62
7
 10
1.60706242E+01
 20
1.67475158E+02
 11
1.60706242E+01
 21
1.64589444E+02
  0
LINE
  8
0
 62
7
 10
2.10706242E+01
 20
1.67475158E+02
 11
2.10706242E+01
 21
1.64589444E+02
  0
LINE
  8
0
 62
7
 10
1.60706242E+01
 20
1.67475158E+02
 11
1.85706242E+01
 21
1.68918015E+02
  0
LINE
  8
0
 62
7
 10
1.85706242E+01
 20
1.63146586E+02
 11
2.10706242E+01
 21
1.64589444E+02
  0
LINE
  8
0
 62
7
 10
1.60706242E+01
 20
1.64589444E+02
 11
1.85706242E+01
 21
1.63146586E+02
  0
LINE
  8
0
 62
7
 10
1.85706242E+01
 20
1.68918015E+02
 11
2.10706242E+01
 21
1.67475158E+02
  0
LINE
  8
0
 62
7
 10
-5.54293771E+01
 20
1.63146586E+02
 11
-5.29293770E+01
 21
1.64589444E+02
  0
LINE
  8
0
 62
7
 10
-5.29293770E+01
 20
1.67475158E+02
 11
-5.29293770E+01
 21
1.64589444E+02
  0
LINE
  8
0
 62
7
 10
-5.54293771E+01
 20
1.68918015E+02
 11
-5.29293770E+01
 21
1.67475158E+02
  0
LINE
  8
0
 62
7
 10
-5.79293771E+01
 20
1.67475158E+02
 11
-5.54293771E+01
 21
1.68918015E+02
  0
LINE
  8
0
 62
7
 10
-5.79293771E+01
 20
1.67475158E+02
 11
-5.79293771E+01
 21
1.64589444E+02
  0
LINE
  8
0
 62
7
 10
-5.79293771E+01
 20
1.64589444E+02
 11
-5.54293771E+01
 21
1.63146586E+02
  0
LINE
  8
0
 62
7
 10
-5.54293771E+01
 20
8.91465852E+01
 11
-5.29293770E+01
 21
9.05894423E+01
  0
LINE
  8
0
 62
7
 10
-5.29293770E+01
 20
9.34751567E+01
 11
-5.29293770E+01
 21
9.05894423E+01
  0
LINE
  8
0
 62
7
 10
-5.54293771E+01
 20
9.49180138E+01
 11
-5.29293770E+01
 21
9.34751567E+01
  0
LINE
  8
0
 62
7
 10
-5.79293771E+01
 20
9.34751567E+01
 11
-5.54293771E+01
 21
9.49180138E+01
  0
LINE
  8
0
 62
7
 10
-5.79293771E+01
 20
9.34751567E+01
 11
-5.79293771E+01
 21
9.05894423E+01
  0
LINE
  8
0
 62
7
 10
-5.79293771E+01
 20
9.05894423E+01
 11
-5.54293771E+01
 21
8.91465852E+01
  0
LINE
  8
0
 62
7
 10
1.85706242E+01
 20
8.91465852E+01
 11
2.10706242E+01
 21
9.05894423E+01
  0
LINE
  8
0
 62
7
 10
2.10706242E+01
 20
9.34751567E+01
 11
2.10706242E+01
 21
9.05894423E+01
  0
LINE
  8
0
 62
7
 10
1.85706242E+01
 20
9.49180138E+01
 11
2.10706242E+01
 21
9.34751567E+01
  0
LINE
  8
0
 62
7
 10
1.60706242E+01
 20
9.34751567E+01
 11
1.85706242E+01
 21
9.49180138E+01
  0
LINE
  8
0
 62
7
 10
1.60706242E+01
 20
9.34751567E+01
 11
1.60706242E+01
 21
9.05894423E+01
  0
LINE
  8
0
 62
7
 10
1.60706242E+01
 20
9.05894423E+01
 11
1.85706242E+01
 21
8.91465852E+01
  0
LINE
  8
0
 62
7
 10
-4.40008054E+01
 20
1.59132301E+02
 11
-4.53865197E+01
 21
1.59918015E+02
  0
LINE
  8
0
 62
7
 10
7.15633829E+00
 20
1.59132301E+02
 11
8.54205260E+00
 21
1.59918015E+02
  0
LINE
  8
0
 62
7
 10
-4.48436626E+01
 20
9.51180138E+01
 11
-4.64293769E+01
 21
1.04032300E+02
  0
LINE
  8
0
 62
7
 10
-4.40008054E+01
 20
9.89322996E+01
 11
-4.51579483E+01
 21
1.05532300E+02
  0
LINE
  8
0
 62
7
 10
-4.40008054E+01
 20
9.89322996E+01
 11
-4.53865197E+01
 21
9.81465853E+01
  0
LINE
  8
0
 62
7
 10
7.99919545E+00
 20
9.51180138E+01
 11
9.57062405E+00
 21
1.04032300E+02
  0
LINE
  8
0
 62
7
 10
7.15633829E+00
 20
9.89322996E+01
 11
8.31348117E+00
 21
1.05532300E+02
  0
LINE
  8
0
 62
7
 10
7.15633829E+00
 20
9.89322996E+01
 11
8.54205260E+00
 21
9.81465853E+01
  0
LINE
  8
0
  6
PHANTOM
 62
6
 10
-6.24293772E+01
 20
1.89032301E+02
 11
2.55706243E+01
 21
1.89032301E+02
  0
LINE
  8
0
  6
PHANTOM
 62
6
 10
2.55706243E+01
 20
1.69903729E+02
 11
2.55706243E+01
 21
1.89032301E+02
  0
LINE
  8
0
  6
PHANTOM
 62
6
 10
-6.24293772E+01
 20
1.69903729E+02
 11
-6.24293772E+01
 21
1.89032301E+02
  0
LINE
  8
0
  6
PHANTOM
 62
6
 10
-6.24293772E+01
 20
1.85832301E+02
 11
2.55706243E+01
 21
1.85832301E+02
  0
LINE
  8
0
  6
PHANTOM
 62
6
 10
-5.74293771E+01
 20
1.85832301E+02
 11
-5.74293771E+01
 21
1.89032301E+02
  0
LINE
  8
0
  6
PHANTOM
 62
6
 10
2.05706242E+01
 20
1.85832301E+02
 11
2.05706242E+01
 21
1.89032301E+02
  0
ARC
  8
0
 62
7
 10
-5.54327141E+01
 20
1.66035638E+02
 40
7.99666379E+00
 50
8.99760901E+01
 51
1.80023910E+02
  0
ARC
  8
0
 62
7
 10
-5.54259994E+01
 20
9.20356772E+01
 40
8.00337854E+00
 50
1.80024181E+02
 51
2.69975819E+02
  0
ARC
  8
0
 62
7
 10
1.85672683E+01
 20
9.20356554E+01
 40
8.00335674E+00
 50
2.70024025E+02
 51
3.59975975E+02
  0
ARC
  8
0
 62
7
 10
1.85739830E+01
 20
1.66035660E+02
 40
7.99664199E+00
 50
3.59975934E+02
 51
9.00240661E+01
  0
ARC
  8
0
 62
7
 10
-5.54327156E+01
 20
1.66035639E+02
 40
7.00333948E+00
 50
2.70027313E+02
 51
3.59972687E+02
  0
ARC
  8
0
 62
7
 10
1.85739845E+01
 20
1.66035661E+02
 40
7.00336127E+00
 50
1.80027491E+02
 51
2.69972508E+02
  0
ARC
  8
0
 62
7
 10
1.85672589E+01
 20
9.20356648E+01
 40
6.99663564E+00
 50
8.99724415E+01
 51
1.80027558E+02
  0
ARC
  8
0
 62
7
 10
-5.54260227E+01
 20
9.20356539E+01
 40
6.99664654E+00
 50
3.59972531E+02
 51
9.00274689E+01
  0
CIRCLE
  8
0
 62
7
 10
-5.54293465E+01
 20
1.66039007E+02
 40
5.00000009E+00
  0
CIRCLE
  8
0
 62
7
 10
-5.54293465E+01
 20
1.66039007E+02
 40
6.09999940E+00
  0
CIRCLE
  8
0
 62
7
 10
1.85706373E+01
 20
1.66039007E+02
 40
6.09999940E+00
  0
CIRCLE
  8
0
 62
7
 10
1.85706373E+01
 20
9.20390230E+01
 40
6.09999940E+00
  0
CIRCLE
  8
0
 62
7
 10
-5.54293465E+01
 20
9.20390230E+01
 40
6.09999940E+00
  0
CIRCLE
  8
0
 62
7
 10
-5.54293465E+01
 20
9.20390230E+01
 40
5.00000009E+00
  0
CIRCLE
  8
0
 62
7
 10
1.85706373E+01
 20
9.20390230E+01
 40
5.00000009E+00
  0
CIRCLE
  8
0
 62
7
 10
1.85706373E+01
 20
1.66039007E+02
 40
5.00000009E+00
  0
CIRCLE
  8
0
 62
7
 10
1.85706373E+01
 20
1.66039007E+02
 40
4.39999997E+00
  0
CIRCLE
  8
0
 62
7
 10
-5.54293465E+01
 20
1.66039007E+02
 40
4.39999997E+00
  0
CIRCLE
  8
0
 62
7
 10
-5.54293465E+01
 20
9.20390230E+01
 40
4.39999997E+00
  0
CIRCLE
  8
0
 62
7
 10
1.85706373E+01
 20
9.20390230E+01
 40
4.39999997E+00
  0
CIRCLE
  8
0
 62
7
 10
1.85706373E+01
 20
1.66039007E+02
 40
2.50000004E+00
  0
CIRCLE
  8
0
 62
7
 10
-5.54293465E+01
 20
1.66039007E+02
 40
2.50000004E+00
  0
CIRCLE
  8
0
 62
7
 10
-5.54293465E+01
 20
9.20390230E+01
 40
2.50000004E+00
  0
CIRCLE
  8
0
 62
7
 10
1.85706373E+01
 20
9.20390230E+01
 40
2.50000004E+00
  0
ARC
  8
0
 62
7
 10
-4.74327003E+01
 20
1.73035624E+02
 40
9.96682198E-01
 50
8.98089514E+01
 51
1.80191049E+02
  0
ARC
  8
0
 62
7
 10
-6.24327005E+01
 20
1.58035624E+02
 40
9.96682198E-01
 50
8.98089514E+01
 51
1.80191049E+02
  0
ARC
  8
0
 62
7
 10
-6.24260077E+01
 20
1.00035669E+02
 40
1.00337511E+00
 50
1.80192405E+02
 51
2.69807594E+02
  0
ARC
  8
0
 62
7
 10
-4.74260292E+01
 20
8.50356471E+01
 40
1.00335331E+00
 50
1.80191169E+02
 51
2.69808831E+02
  0
ARC
  8
0
 62
7
 10
1.05672655E+01
 20
8.50356580E+01
 40
1.00336421E+00
 50
2.70191787E+02
 51
3.59808213E+02
  0
ARC
  8
0
 62
7
 10
2.55672766E+01
 20
1.00035647E+02
 40
1.00335331E+00
 50
2.70191169E+02
 51
3.59808831E+02
  0
ARC
  8
0
 62
7
 10
2.55739695E+01
 20
1.58035646E+02
 40
9.96660400E-01
 50
3.59807690E+02
 51
9.01923100E+01
  0
ARC
  8
0
 62
7
 10
1.05739693E+01
 20
1.73035646E+02
 40
9.96660400E-01
 50
3.59807690E+02
 51
9.01923100E+01
  0
ARC
  8
0
 62
7
 10
-1.84222336E+01
 20
1.29039014E+02
 40
4.29974923E+01
 50
5.20852968E+01
 51
1.27914703E+02
  0
ARC
  8
0
 62
7
 10
-1.84222336E+01
 20
1.29039014E+02
 40
4.09949436E+01
 50
4.88717561E+01
 51
1.31128244E+02
  0
ARC
  8
0
 62
7
 10
-1.84222336E+01
 20
1.29039014E+02
 40
3.94951797E+01
 50
4.96362609E+01
 51
1.30363739E+02
  0
ARC
  8
0
 62
7
 10
-1.84222336E+01
 20
1.29039015E+02
 40
3.95054132E+01
 50
2.29648875E+02
 51
3.10351125E+02
  0
ARC
  8
0
 62
7
 10
-1.84222336E+01
 20
1.29039015E+02
 40
4.10050602E+01
 50
2.28884099E+02
 51
3.11115901E+02
  0
ARC
  8
0
 62
7
 10
-1.84222336E+01
 20
1.29039015E+02
 40
4.29968168E+01
 50
2.32084596E+02
 51
3.07915404E+02
  0
ARC
  8
0
  6
PHANTOM
 62
6
 10
-4.34222340E+01
 20
1.85838987E+02
 40
7.99874112E+00
 50
1.91587683E+02
 51
3.48412317E+02
  0
ARC
  8
0
  6
PHANTOM
 62
6
 10
6.57776685E+00
 20
1.85838987E+02
 40
7.99874113E+00
 50
1.91587683E+02
 51
3.48412317E+02
  0
ARC
  8
0
  6
PHANTOM
 62
6
 10
-3.36320084E+01
 20
1.83838518E+02
 40
1.99378517E+00
 50
8.99243720E+01
 51
1.68608879E+02
  0
ARC
  8
0
  6
PHANTOM
 62
6
 10
-5.32181995E+01
 20
1.83831497E+02
 40
2.00080698E+00
 50
1.15557566E+01
 51
8.99109929E+01
  0
ARC
  8
0
  6
PHANTOM
 62
6
 10
-3.21819864E+00
 20
1.83831497E+02
 40
2.00080698E+00
 50
1.15557566E+01
 51
8.99109929E+01
  0
ARC
  8
0
  6
PHANTOM
 62
6
 10
1.63679924E+01
 20
1.83838518E+02
 40
1.99378517E+00
 50
8.99243720E+01
 51
1.68608879E+02
  0
LINE
  8
0
 62
4
 10
-1.67729369E+02
 20
-1.43867705E+02
 11
-1.52572226E+02
 21
-1.43867705E+02
  0
LINE
  8
0
 62
4
 10
-1.68229369E+02
 20
-1.43367705E+02
 11
-1.68229369E+02
 21
-1.42367705E+02
  0
LINE
  8
0
 62
4
 10
-1.52072226E+02
 20
-1.43367705E+02
 11
-1.52072226E+02
 21
-1.42367705E+02
  0
LINE
  8
0
 62
4
 10
-1.52572226E+02
 20
-1.43867705E+02
 11
-1.52072226E+02
 21
-1.43367705E+02
  0
LINE
  8
0
 62
4
 10
-1.67729369E+02
 20
-1.43867705E+02
 11
-1.68229369E+02
 21
-1.43367705E+02
  0
LINE
  8
0
 62
4
 10
-1.53400798E+02
 20
-1.58667705E+02
 11
-1.66900798E+02
 21
-1.58667705E+02
  0
LINE
  8
0
 62
4
 10
-1.52400798E+02
 20
-1.45667705E+02
 11
-1.52400798E+02
 21
-1.57667705E+02
  0
LINE
  8
0
 62
4
 10
-1.67900798E+02
 20
-1.45667705E+02
 11
-1.67900798E+02
 21
-1.57667705E+02
  0
LINE
  8
0
 62
4
 10
-1.52400798E+02
 20
-1.57667705E+02
 11
-1.53400798E+02
 21
-1.58667705E+02
  0
LINE
  8
0
 62
4
 10
-1.66900798E+02
 20
-1.58667705E+02
 11
-1.67900798E+02
 21
-1.57667705E+02
  0
LINE
  8
0
 62
4
 10
-1.52900798E+02
 20
-1.45167705E+02
 11
-1.67400798E+02
 21
-1.45167705E+02
  0
LINE
  8
0
 62
4
 10
-1.52900798E+02
 20
-1.45167705E+02
 11
-1.52400798E+02
 21
-1.45667705E+02
  0
LINE
  8
0
 62
4
 10
-1.67400798E+02
 20
-1.45167705E+02
 11
-1.67900798E+02
 21
-1.45667705E+02
  0
LINE
  8
0
 62
4
 10
-1.54143655E+02
 20
-1.43867705E+02
 11
-1.54143655E+02
 21
-1.45167705E+02
  0
LINE
  8
0
 62
4
 10
-1.66143655E+02
 20
-1.43867705E+02
 11
-1.66143655E+02
 21
-1.45167705E+02
  0
LINE
  8
0
 62
6
 10
-1.65400798E+02
 20
-1.43867705E+02
 11
-1.65400798E+02
 21
-1.45167705E+02
  0
LINE
  8
0
 62
6
 10
-1.54900798E+02
 20
-1.43867705E+02
 11
-1.54900798E+02
 21
-1.45167705E+02
  0
LINE
  8
0
 62
4
 10
-1.61643655E+02
 20
-1.48167705E+02
 11
-1.61643655E+02
 21
-1.57667705E+02
  0
LINE
  8
0
 62
4
 10
-1.58643655E+02
 20
-1.48167705E+02
 11
-1.58643655E+02
 21
-1.57667705E+02
  0
LINE
  8
0
 62
4
 10
-1.58300798E+02
 20
-1.48453419E+02
 11
-1.58300798E+02
 21
-1.58167705E+02
  0
LINE
  8
0
 62
4
 10
-1.61986512E+02
 20
-1.48453419E+02
 11
-1.61986512E+02
 21
-1.58167705E+02
  0
LINE
  8
0
 62
4
 10
-1.63800798E+02
 20
-1.48453419E+02
 11
-1.63800798E+02
 21
-1.58167705E+02
  0
LINE
  8
0
 62
4
 10
-1.64472227E+02
 20
-1.48167705E+02
 11
-1.64472227E+02
 21
-1.57667705E+02
  0
LINE
  8
0
 62
4
 10
-1.66586512E+02
 20
-1.48167705E+02
 11
-1.66586512E+02
 21
-1.57667705E+02
  0
LINE
  8
0
 62
4
 10
-1.67157941E+02
 20
-1.48453419E+02
 11
-1.67157941E+02
 21
-1.58167705E+02
  0
LINE
  8
0
 62
4
 10
-1.67757941E+02
 20
-1.48167705E+02
 11
-1.67757941E+02
 21
-1.57667705E+02
  0
LINE
  8
0
 62
4
 10
-1.56486512E+02
 20
-1.48453419E+02
 11
-1.56486512E+02
 21
-1.58167705E+02
  0
LINE
  8
0
 62
4
 10
-1.55829369E+02
 20
-1.48167705E+02
 11
-1.55829369E+02
 21
-1.57667705E+02
  0
LINE
  8
0
 62
4
 10
-1.53715083E+02
 20
-1.48167705E+02
 11
-1.53715083E+02
 21
-1.57667705E+02
  0
LINE
  8
0
 62
4
 10
-1.53143655E+02
 20
-1.48453419E+02
 11
-1.53143655E+02
 21
-1.58167705E+02
  0
LINE
  8
0
 62
4
 10
-1.52543655E+02
 20
-1.48167705E+02
 11
-1.52543655E+02
 21
-1.57667705E+02
  0
LINE
  8
0
 62
4
 10
-1.52543655E+02
 20
-1.48167705E+02
 11
-1.53715083E+02
 21
-1.48167705E+02
  0
LINE
  8
0
 62
4
 10
-1.53143655E+02
 20
-1.48453419E+02
 11
-1.53715083E+02
 21
-1.48453419E+02
  0
LINE
  8
0
 62
4
 10
-1.52400798E+02
 20
-1.57667705E+02
 11
-1.52543655E+02
 21
-1.57667705E+02
  0
LINE
  8
0
 62
4
 10
-1.61643655E+02
 20
-1.48167705E+02
 11
-1.64472227E+02
 21
-1.48167705E+02
  0
LINE
  8
0
 62
4
 10
-1.61986512E+02
 20
-1.48453419E+02
 11
-1.63800798E+02
 21
-1.48453419E+02
  0
LINE
  8
0
 62
4
 10
-1.55829369E+02
 20
-1.48167705E+02
 11
-1.58643655E+02
 21
-1.48167705E+02
  0
LINE
  8
0
 62
4
 10
-1.56486512E+02
 20
-1.48453419E+02
 11
-1.58300798E+02
 21
-1.48453419E+02
  0
LINE
  8
0
 62
4
 10
-1.66586512E+02
 20
-1.48167705E+02
 11
-1.67757941E+02
 21
-1.48167705E+02
  0
LINE
  8
0
 62
4
 10
-1.66586512E+02
 20
-1.48453419E+02
 11
-1.67157941E+02
 21
-1.48453419E+02
  0
LINE
  8
0
 62
4
 10
-1.58643655E+02
 20
-1.57667705E+02
 11
-1.61643655E+02
 21
-1.57667705E+02
  0
LINE
  8
0
 62
4
 10
-1.64472227E+02
 20
-1.57667705E+02
 11
-1.66586512E+02
 21
-1.57667705E+02
  0
LINE
  8
0
 62
4
 10
-1.67757941E+02
 20
-1.57667705E+02
 11
-1.67900798E+02
 21
-1.57667705E+02
  0
LINE
  8
0
 62
4
 10
-1.53715083E+02
 20
-1.57667705E+02
 11
-1.55829369E+02
 21
-1.57667705E+02
  0
LINE
  8
0
 62
4
 10
-1.56486512E+02
 20
-1.58167705E+02
 11
-1.58300798E+02
 21
-1.58167705E+02
  0
LINE
  8
0
 62
4
 10
-1.53143655E+02
 20
-1.58167705E+02
 11
-1.52543655E+02
 21
-1.57667705E+02
  0
LINE
  8
0
 62
4
 10
-1.56486512E+02
 20
-1.58167705E+02
 11
-1.55829369E+02
 21
-1.57667705E+02
  0
LINE
  8
0
 62
4
 10
-1.58315084E+02
 20
-1.58167705E+02
 11
-1.58643655E+02
 21
-1.57667705E+02
  0
LINE
  8
0
 62
4
 10
-1.61643655E+02
 20
-1.57667705E+02
 11
-1.61986512E+02
 21
-1.58167705E+02
  0
LINE
  8
0
 62
4
 10
-1.63800798E+02
 20
-1.58167705E+02
 11
-1.64457941E+02
 21
-1.57667705E+02
  0
LINE
  8
0
 62
4
 10
-1.67157941E+02
 20
-1.58167705E+02
 11
-1.67757941E+02
 21
-1.57667705E+02
  0
LINE
  8
0
 62
4
 10
-1.67157941E+02
 20
-1.48453419E+02
 11
-1.67757941E+02
 21
-1.48167705E+02
  0
LINE
  8
0
 62
4
 10
-1.63800798E+02
 20
-1.48453419E+02
 11
-1.64472227E+02
 21
-1.48167705E+02
  0
LINE
  8
0
 62
4
 10
-1.61986512E+02
 20
-1.48453419E+02
 11
-1.61643655E+02
 21
-1.48167705E+02
  0
LINE
  8
0
 62
4
 10
-1.58315084E+02
 20
-1.48453419E+02
 11
-1.58643655E+02
 21
-1.48167705E+02
  0
LINE
  8
0
 62
4
 10
-1.56486512E+02
 20
-1.48453419E+02
 11
-1.55829369E+02
 21
-1.48167705E+02
  0
LINE
  8
0
 62
4
 10
-1.53143655E+02
 20
-1.48453419E+02
 11
-1.52543655E+02
 21
-1.48167705E+02
  0
LINE
  8
0
 62
4
 10
-1.53715083E+02
 20
-1.57667705E+02
 11
-1.53886512E+02
 21
-1.58167705E+02
  0
LINE
  8
0
 62
4
 10
-1.66586512E+02
 20
-1.57667705E+02
 11
-1.66415084E+02
 21
-1.58167705E+02
  0
LINE
  8
0
 62
4
 10
-1.61986512E+02
 20
-1.58167705E+02
 11
-1.63800798E+02
 21
-1.58167705E+02
  0
LINE
  8
0
 62
4
 10
-1.53143655E+02
 20
-1.58167705E+02
 11
-1.53886512E+02
 21
-1.58167705E+02
  0
LINE
  8
0
 62
4
 10
-1.66415084E+02
 20
-1.58167705E+02
 11
-1.67157941E+02
 21
-1.58167705E+02
  0
LINE
  8
0
 62
4
 10
-1.52400798E+02
 20
-1.45667705E+02
 11
-1.67900798E+02
 21
-1.45667705E+02
  0
LINE
  8
0
 62
4
 10
-1.54143655E+02
 20
-1.60167705E+02
 11
-1.66143655E+02
 21
-1.60167705E+02
  0
LINE
  8
0
 62
4
 10
-1.53643655E+02
 20
-1.59667705E+02
 11
-1.53643655E+02
 21
-1.58667705E+02
  0
LINE
  8
0
 62
4
 10
-1.66643655E+02
 20
-1.59667705E+02
 11
-1.66643655E+02
 21
-1.58667705E+02
  0
LINE
  8
0
 62
4
 10
-1.66643655E+02
 20
-1.59667705E+02
 11
-1.66143655E+02
 21
-1.60167705E+02
  0
LINE
  8
0
 62
4
 10
-1.54143655E+02
 20
-1.60167705E+02
 11
-1.53643655E+02
 21
-1.59667705E+02
  0
LINE
  8
0
 62
4
 10
-1.57329369E+02
 20
-1.67167705E+02
 11
-1.62972226E+02
 21
-1.67167705E+02
  0
LINE
  8
0
 62
4
 10
-1.63400798E+02
 20
-1.64767705E+02
 11
-1.63400798E+02
 21
-1.64567705E+02
  0
LINE
  8
0
 62
4
 10
-1.56900798E+02
 20
-1.64767705E+02
 11
-1.56900798E+02
 21
-1.64567705E+02
  0
LINE
  8
0
 62
4
 10
-1.56900798E+02
 20
-1.64567705E+02
 11
-1.63400798E+02
 21
-1.64567705E+02
  0
LINE
  8
0
 62
4
 10
-1.56900798E+02
 20
-1.61967705E+02
 11
-1.63400798E+02
 21
-1.61967705E+02
  0
LINE
  8
0
 62
4
 10
-1.56900798E+02
 20
-1.62167705E+02
 11
-1.63400798E+02
 21
-1.62167705E+02
  0
LINE
  8
0
 62
4
 10
-1.56900798E+02
 20
-1.64767705E+02
 11
-1.63400798E+02
 21
-1.64767705E+02
  0
LINE
  8
0
 62
4
 10
-1.63400798E+02
 20
-1.62167705E+02
 11
-1.63400798E+02
 21
-1.61967705E+02
  0
LINE
  8
0
 62
4
 10
-1.56900798E+02
 20
-1.62167705E+02
 11
-1.56900798E+02
 21
-1.61967705E+02
  0
LINE
  8
0
 62
4
 10
-1.63400798E+02
 20
-1.62167705E+02
 11
-1.62972226E+02
 21
-1.64567705E+02
  0
LINE
  8
0
 62
4
 10
-1.63400798E+02
 20
-1.64767705E+02
 11
-1.62972226E+02
 21
-1.67167705E+02
  0
LINE
  8
0
 62
4
 10
-1.56900798E+02
 20
-1.64767705E+02
 11
-1.57329369E+02
 21
-1.67167705E+02
  0
LINE
  8
0
 62
4
 10
-1.56900798E+02
 20
-1.62167705E+02
 11
-1.57329369E+02
 21
-1.64567705E+02
  0
LINE
  8
0
 62
4
 10
-1.57300798E+02
 20
-1.61967705E+02
 11
-1.57300798E+02
 21
-1.60167705E+02
  0
LINE
  8
0
 62
4
 10
-1.63000798E+02
 20
-1.61967705E+02
 11
-1.63000798E+02
 21
-1.60167705E+02
  0
LINE
  8
0
 62
4
 10
-1.66643655E+02
 20
-1.59667705E+02
 11
-1.53643655E+02
 21
-1.59667705E+02
  0
LINE
  8
0
 62
4
 10
-1.68229369E+02
 20
-1.43367705E+02
 11
-1.52072226E+02
 21
-1.43367705E+02
  0
TEXT
  8
0
 62
7
 10
-1.50985693E+02
 20
-1.82975397E+02
 40
6.30000019E+00
  1
-F,-A
 41
1.00000000E+00
  7
MONOTXT
  0
TEXT
  8
0
 62
7
 10
-1.50985693E+02
 20
-1.82975397E+02
 40
6.30000019E+00
  1
-F,-A
 41
1.00000000E+00
  7
MONOTXT
  0
TEXT
  8
0
 62
7
 10
-2.29800561E+02
 20
1.47350000E+02
 40
6.30000019E+00
  1
FN901-06
 41
1.00000000E+00
  7
MONOTXT
  0
TEXT
  8
0
 62
7
 10
4.48060574E+01
 20
2.93680116E+01
 40
6.30000019E+00
  1
OUT
 41
1.00000000E+00
  7
MONOTXT
  0
TEXT
  8
0
 62
7
 10
-9.56153731E+01
 20
2.93680116E+01
 40
6.30000019E+00
  1
IN
 41
1.00000000E+00
  7
MONOTXT
  0
LINE
  8
0
 62
7
 10
-1.31250000E+02
 20
1.95500000E+02
 11
-1.31250000E+02
 21
1.75500000E+02
  0
TEXT
  8
0
 62
7
 10
-2.36850282E+02
 20
1.77350000E+02
 40
6.30000019E+00
  1
AIR FILTER
 41
1.06382979E+00
  7
MONOTXT
  0
TEXT
  8
0
 62
7
 10
-2.77800283E+02
 20
1.87350000E+02
 40
6.30000019E+00
  1
F.R.L.LARGE FLOW SERIES
 41
1.05504587E+00
  7
MONOTXT
  0
LINE
  8
0
 62
2
 10
-1.93781269E+02
 20
-1.03354533E+02
 11
-1.26678070E+02
 21
-1.21334781E+02
  0
LINE
  8
0
 62
7
 10
-1.41729369E+02
 20
-1.42367705E+02
 11
-1.78572227E+02
 21
-1.42367705E+02
  0
LINE
  8
0
 62
7
 10
-1.40186512E+02
 20
-1.24867704E+02
 11
-1.33286512E+02
 21
-1.24867704E+02
  0
LINE
  8
0
 62
7
 10
-1.93557941E+02
 20
-1.27496276E+02
 11
-1.93781269E+02
 21
-1.03354533E+02
  0
LINE
  8
0
 62
7
 10
-1.26729369E+02
 20
-1.27496276E+02
 11
-1.26678070E+02
 21
-1.21334781E+02
  0
LINE
  8
0
 62
7
 10
-1.40186512E+02
 20
-1.24367704E+02
 11
-1.35115083E+02
 21
-1.24367704E+02
  0
LINE
  8
0
 62
7
 10
-1.32286512E+02
 20
-1.19832004E+02
 11
-1.32286512E+02
 21
-1.23867704E+02
  0
LINE
  8
0
 62
7
 10
-1.34115083E+02
 20
-1.19342039E+02
 11
-1.34115083E+02
 21
-1.23367704E+02
  0
LINE
  8
0
 62
7
 10
-1.41186512E+02
 20
-1.17447256E+02
 11
-1.41186512E+02
 21
-1.23867704E+02
  0
LINE
  8
0
 62
7
 10
-1.40572226E+02
 20
-1.25367704E+02
 11
-1.33029369E+02
 21
-1.25367704E+02
  0
LINE
  8
0
 62
7
 10
-1.40572226E+02
 20
-1.25867704E+02
 11
-1.32429369E+02
 21
-1.25867704E+02
  0
LINE
  8
0
 62
7
 10
-1.41572226E+02
 20
-1.17343904E+02
 11
-1.41572226E+02
 21
-1.24867704E+02
  0
LINE
  8
0
 62
7
 10
-1.32029369E+02
 20
-1.19900905E+02
 11
-1.32029369E+02
 21
-1.24367704E+02
  0
LINE
  8
0
 62
7
 10
-1.31429369E+02
 20
-1.20061674E+02
 11
-1.31429369E+02
 21
-1.24867704E+02
  0
LINE
  8
0
 62
7
 10
-1.80100798E+02
 20
-1.24867704E+02
 11
-1.87015084E+02
 21
-1.24867704E+02
  0
LINE
  8
0
 62
7
 10
-1.80100798E+02
 20
-1.24367704E+02
 11
-1.85172227E+02
 21
-1.24367704E+02
  0
LINE
  8
0
 62
7
 10
-1.88015084E+02
 20
-1.04899578E+02
 11
-1.88015084E+02
 21
-1.23867704E+02
  0
LINE
  8
0
 62
7
 10
-1.86172227E+02
 20
-1.05393370E+02
 11
-1.86172227E+02
 21
-1.23367704E+02
  0
LINE
  8
0
 62
7
 10
-1.79100798E+02
 20
-1.07288153E+02
 11
-1.79100798E+02
 21
-1.23867704E+02
  0
LINE
  8
0
 62
7
 10
-1.79729370E+02
 20
-1.25367704E+02
 11
-1.87272227E+02
 21
-1.25367704E+02
  0
LINE
  8
0
 62
7
 10
-1.79729370E+02
 20
-1.25867704E+02
 11
-1.87872227E+02
 21
-1.25867704E+02
  0
LINE
  8
0
 62
7
 10
-1.78729370E+02
 20
-1.07387677E+02
 11
-1.78729370E+02
 21
-1.24867704E+02
  0
LINE
  8
0
 62
7
 10
-1.88272227E+02
 20
-1.04830676E+02
 11
-1.88272227E+02
 21
-1.24367704E+02
  0
LINE
  8
0
 62
7
 10
-1.88872227E+02
 20
-1.04669907E+02
 11
-1.88872227E+02
 21
-1.24867704E+02
  0
ARC
  8
0
 62
7
 10
-1.41724600E+02
 20
-1.27371958E+02
 40
1.49957469E+01
 50
2.69981780E+02
 51
3.59525003E+02
  0
ARC
  8
0
 62
7
 10
-1.78562778E+02
 20
-1.27372030E+02
 40
1.49956776E+01
 50
1.80474726E+02
 51
2.69963900E+02
  0
ARC
  8
0
 62
7
 10
-1.40190385E+02
 20
-1.23371578E+02
 40
9.96134263E-01
 50
1.79777215E+02
 51
2.70222785E+02
  0
ARC
  8
0
 62
7
 10
-1.40190389E+02
 20
-1.23871582E+02
 40
9.96129936E-01
 50
1.79776965E+02
 51
2.70223035E+02
  0
ARC
  8
0
 62
7
 10
-1.40575006E+02
 20
-1.24370484E+02
 40
9.97224239E-01
 50
1.79840294E+02
 51
2.70159706E+02
  0
ARC
  8
0
 62
7
 10
-1.40575010E+02
 20
-1.24870488E+02
 40
9.97219913E-01
 50
1.79840044E+02
 51
2.70159956E+02
  0
ARC
  8
0
 62
7
 10
-1.35111595E+02
 20
-1.23371192E+02
 40
9.96518413E-01
 50
2.69799470E+02
 51
2.00529496E-01
  0
ARC
  8
0
 62
7
 10
-1.33280059E+02
 20
-1.23874157E+02
 40
9.93568443E-01
 50
2.69627902E+02
 51
3.72098305E-01
  0
ARC
  8
0
 62
7
 10
-1.33022950E+02
 20
-1.24374123E+02
 40
9.93601817E-01
 50
2.69629851E+02
 51
3.70148657E-01
  0
ARC
  8
0
 62
7
 10
-1.32424366E+02
 20
-1.24872707E+02
 40
9.95010136E-01
 50
2.69711942E+02
 51
2.88058186E-01
  0
ARC
  8
0
 62
7
 10
-1.80096997E+02
 20
-1.23371505E+02
 40
9.96206187E-01
 50
2.69781384E+02
 51
2.18615866E-01
  0
ARC
  8
0
 62
7
 10
-1.80096993E+02
 20
-1.23871510E+02
 40
9.96201860E-01
 50
2.69781134E+02
 51
2.18866616E-01
  0
ARC
  8
0
 62
7
 10
-1.79719510E+02
 20
-1.24377564E+02
 40
9.90189765E-01
 50
2.69429496E+02
 51
5.70504557E-01
  0
ARC
  8
0
 62
7
 10
-1.79719506E+02
 20
-1.24877568E+02
 40
9.90185439E-01
 50
2.69429240E+02
 51
5.70759907E-01
  0
ARC
  8
0
 62
7
 10
-1.85175798E+02
 20
-1.23371275E+02
 40
9.96435540E-01
 50
1.79794672E+02
 51
2.70205329E+02
  0
ARC
  8
0
 62
7
 10
-1.87014312E+02
 20
-1.23866932E+02
 40
1.00077255E+00
 50
1.80044212E+02
 51
2.70000000E+02
  0
ARC
  8
0
 62
7
 10
-1.87271542E+02
 20
-1.24367019E+02
 40
1.00068535E+00
 50
1.80039226E+02
 51
2.70000000E+02
  0
ARC
  8
0
 62
7
 10
-1.87870115E+02
 20
-1.24865593E+02
 40
1.00211387E+00
 50
1.80120732E+02
 51
2.69879267E+02
  0
LINE
  8
0
  6
CENTER
 62
2
 10
-1.60143655E+02
 20
-1.08910561E+02
 11
-1.60143655E+02
 21
-1.70754040E+02
  0
LINE
  8
0
 62
7
 10
2.82099854E+02
 20
1.95500000E+02
 11
2.82099854E+02
 21
-1.95000000E+02
  0
LINE
  8
0
 62
7
 10
-2.81250000E+02
 20
1.95500000E+02
 11
2.82099854E+02
 21
1.95500000E+02
  0
LINE
  8
0
 62
7
 10
-2.81250000E+02
 20
1.95500000E+02
 11
-2.81250000E+02
 21
-1.95000000E+02
  0
LINE
  8
0
 62
7
 10
-2.81250000E+02
 20
-1.95000000E+02
 11
2.82099854E+02
 21
-1.95000000E+02
  0
LINE
  8
0
 62
7
 10
1.62099976E+02
 20
-1.75000000E+02
 11
1.62099976E+02
 21
-1.95000000E+02
  0
LINE
  8
0
 62
7
 10
1.62099976E+02
 20
-1.75000000E+02
 11
2.82099854E+02
 21
-1.75000000E+02
  0
LINE
  8
0
 62
7
 10
1.62099976E+02
 20
1.75500000E+02
 11
2.82099854E+02
 21
1.75500000E+02
  0
LINE
  8
0
 62
7
 10
-2.81250000E+02
 20
1.75500000E+02
 11
-1.31250000E+02
 21
1.75500000E+02
  0
LINE
  8
0
 62
7
 10
1.62099976E+02
 20
1.95500000E+02
 11
1.62099976E+02
 21
1.75500000E+02
  0
TEXT
  8
0
 62
7
 10
1.97799694E+02
 20
1.82350000E+02
 40
6.30000019E+00
  1
Ver. 1.0
 41
1.08108108E+00
  7
MONOTXT
  0
TEXT
  8
0
 62
7
 10
1.69885289E+02
 20
-1.89500000E+02
 40
9.00000000E+00
  1
KOGANEI CORP.
 41
1.04838710E+00
  7
MONOTXT
  0
TEXT
  8
0
 62
7
 10
-2.67600562E+02
 20
1.57350000E+02
 40
6.30000019E+00
  1
MODEL:FN900-06
 41
1.00000000E+00
  7
MONOTXT
  0
ENDSEC
  0
EOF
