  0
SECTION
  2
HEADER
  0
ENDSEC
  0
SECTION
  2
TABLES
  0
TABLE
  2
LTYPE
 70
     4
  0
LTYPE
  2
CONTINUOUS
 70
    64
  3
Solid line
 72
    65
 73
     0
 40
0.000000
  0
LTYPE
  2
DASHED
 70
    64
  3
__ __ __ __ __ __ __ __ __ __ __ __ __ __ __
 72
    65
 73
     2
 40
3.500000
 49
2.000000
 49
-1.500000
  0
LTYPE
  2
CENTER
 70
    64
  3
____ _ ____ _ ____ _ ____ _ ____ _ ____ _ ____
 72
    65
 73
     4
 40
17.500000
 49
13.000000
 49
-1.500000
 49
1.500000
 49
-1.500000
  0
LTYPE
  2
PHANTOM
 70
    64
  3
_____ _ _ _____ _ _ _____ _ _ _____ _ _ ____  
 72
    65
 73
     6
 40
15.500000
 49
8.000000
 49
-1.500000
 49
1.500000
 49
-1.500000
 49
1.500000
 49
-1.500000
  0
LTYPE
  2
DASHED1
 70
    64
  3
__ __ __ __ __ __ __ __ __ __ __ __ __ __ __
 72
    65
 73
     2
 40
1.500000
 49
1.000000
 49
-0.500000
  0
LTYPE
  2
DASHED2
 70
    64
  3
__ __ __ __ __ __ __ __ __ __ __ __ __ __ __
 72
    65
 73
     2
 40
3.500000
 49
2.500000
 49
-1.000000
  0
LTYPE
  2
DASHED3
 70
    64
  3
__ __ __ __ __ __ __ __ __ __ __ __ __ __ __
 72
    65
 73
     2
 40
6.000000
 49
4.000000
 49
-2.000000
  0
LTYPE
  2
DASHED4
 70
    64
  3
__ __ __ __ __ __ __ __ __ __ __ __ __ __ __
 72
    65
 73
     2
 40
12.000000
 49
10.000000
 49
-2.000000
  0
LTYPE
  2
DASHED5
 70
    64
  3
__ __ __ __ __ __ __ __ __ __ __ __ __ __ __
 72
    65
 73
     2
 40
17.000000
 49
15.000000
 49
-2.000000
  0
LTYPE
  2
DASHED6
 70
    64
  3
__ __ __ __ __ __ __ __ __ __ __ __ __ __ __
 72
    65
 73
     2
 40
29.000000
 49
27.000000
 49
-2.000000
  0
LTYPE
  2
PHANTOM1
 70
    64
  3
_____ _ _ _____ _ _ _____ _ _ _____ _ _ ____  
 72
    65
 73
     6
 40
31.000000
 49
25.000000
 49
-1.500000
 49
1.000000
 49
-1.000000
 49
1.000000
 49
-1.500000
  0
LTYPE
  2
PHANTOM2
 70
    64
  3
_____ _ _ _____ _ _ _____ _ _ _____ _ _ ____  
 72
    65
 73
     6
 40
36.000000
 49
27.000000
 49
-1.500000
 49
2.500000
 49
-1.000000
 49
2.500000
 49
-1.500000
  0
LTYPE
  2
PHANTOM3
 70
    64
  3
_____ _ _ _____ _ _ _____ _ _ _____ _ _ ____  
 72
    65
 73
     6
 40
78.000000
 49
64.000000
 49
-2.000000
 49
4.000000
 49
-2.000000
 49
4.000000
 49
-2.000000
  0
LTYPE
  2
CENTER1
 70
    64
  3
____ _ ____ _ ____ _ ____ _ ____ _ ____ _ ____
 72
    65
 73
     4
 40
19.000000
 49
14.000000
 49
-1.000000
 49
3.000000
 49
-1.000000
  0
LTYPE
  2
CENTER2
 70
    64
  3
____ _ ____ _ ____ _ ____ _ ____ _ ____ _ ____
 72
    65
 73
     4
 40
28.500000
 49
25.000000
 49
-1.000000
 49
1.500000
 49
-1.000000
  0
LTYPE
  2
CENTER3
 70
    64
  3
____ _ ____ _ ____ _ ____ _ ____ _ ____ _ ____
 72
    65
 73
     4
 40
31.500000
 49
27.000000
 49
-1.000000
 49
2.500000
 49
-1.000000
  0
LTYPE
  2
CENTER4
 70
    64
  3
____ _ ____ _ ____ _ ____ _ ____ _ ____ _ ____
 72
    65
 73
     4
 40
50.000000
 49
45.000000
 49
-1.000000
 49
3.000000
 49
-1.000000
  0
LTYPE
  2
CENTER5
 70
    64
  3
____ _ ____ _ ____ _ ____ _ ____ _ ____ _ ____
 72
    65
 73
     4
 40
100.000000
 49
92.000000
 49
-2.000000
 49
4.000000
 49
-2.000000
  0
LTYPE
  2
SBK1
 70
    64
  3
______ _ _ _ ______ _ _ _ ______ _ _ _ _____  
 72
    65
 73
     8
 40
60.500000
 49
45.000000
 49
-2.000000
 49
2.500000
 49
-2.000000
 49
2.500000
 49
-2.000000
 49
2.500000
 49
-2.000000
  0
LTYPE
  2
SBK2
 70
    64
  3
______ _ _ _ ______ _ _ _ ______ _ _ _ _____  
 72
    65
 73
     8
 40
84.000000
 49
64.000000
 49
-2.000000
 49
4.000000
 49
-2.000000
 49
4.000000
 49
-2.000000
 49
4.000000
 49
-2.000000
  0
LTYPE
  2
STCH
 70
    64
  3
__ __ __ __ __ __ __ __ __ __ __ __ __ __ __
 72
    65
 73
     2
 40
3.000000
 49
1.000000
 49
-2.000000
  0
LTYPE
  2
MTCH
 70
    64
  3
_____ _ _ _____ _ _ _____ _ _ _____ _ _ ____  
 72
    65
 73
     6
 40
80.000000
 49
66.000000
 49
-2.000000
 49
4.000000
 49
-2.000000
 49
4.000000
 49
-2.000000
  0
ENDTAB
  0
TABLE
  2
LAYER
 70
     1
  0
LAYER
  2
0
 70
     0
 62
     7
  6
CONTINUOUS
  0
ENDTAB
  0
TABLE
  2
STYLE
 70
     1
  0
STYLE
  2
STANDARD
 70
     0
 40
0.000000
 41
1.000000
 50
0.000000
 71
     0
 42
0.200000
  3
txt
  4
BIGFONT
  0
ENDTAB
  0
TABLE
  2
VIEW
 70
     0
  0
ENDTAB
  0
ENDSEC
  0
SECTION
  2
BLOCKS
  0
ENDSEC
  0
SECTION
  2
ENTITIES
  0
LINE
  8
0
 10
-194.250000
 20
132.600006
 11
194.800003
 21
132.600006
  0
LINE
  8
0
 10
194.800003
 20
132.600006
 11
194.800003
 21
-133.500000
  0
LINE
  8
0
 10
-194.250000
 20
132.600006
 11
-194.250000
 21
-133.500000
  0
LINE
  8
0
 10
-194.250000
 20
-133.500000
 11
194.800003
 21
-133.500000
  0
LINE
  8
0
 10
210.000000
 20
148.500000
 11
210.000000
 21
-148.500000
  0
LINE
  8
0
 10
-210.000000
 20
148.500000
 11
-210.000000
 21
-148.500000
  0
LINE
  8
0
 10
-210.000000
 20
148.500000
 11
210.000000
 21
148.500000
  0
LINE
  8
0
 10
-210.000000
 20
-148.500000
 11
210.000000
 21
-148.500000
  0
LINE
  8
0
 10
109.800003
 20
-118.500000
 11
109.800003
 21
-133.500000
  0
LINE
  8
0
 10
109.800003
 20
-118.500000
 11
194.800003
 21
-118.500000
  0
LINE
  8
0
 10
109.800003
 20
132.600006
 11
109.800003
 21
117.600006
  0
LINE
  8
0
 10
109.800003
 20
117.600006
 11
194.800003
 21
117.600006
  0
LINE
  8
0
 10
-194.250000
 20
117.600006
 11
-109.250000
 21
117.600006
  0
LINE
  8
0
 10
-109.250000
 20
132.600006
 11
-109.250000
 21
117.600006
  0
TEXT
  8
0
 10
115.907150
 20
122.050003
 40
4.500000
  1
DATE : SEP ,1992
 50
0.000000
 41
1.052631
 51
0.000000
  7
STANDARD
  0
TEXT
  8
0
 10
113.700279
 20
-130.669998
 40
6.300000
  1
KOGANEI CORP.
 50
0.000000
 41
1.052632
 51
0.000000
  7
STANDARD
  0
TEXT
  8
0
 10
-188.142654
 20
122.050003
 40
4.500000
  1
FILTER REGULATOR
 50
0.000000
 41
1.052632
 51
0.000000
  7
STANDARD
  0
TEXT
  8
0
 10
-179.000000
 20
105.900009
 40
4.500000
  1
MODEL : FR150-01
 50
0.000000
 41
1.052632
 51
0.000000
  7
STANDARD
  0
POINT
  8
0
 10
-64.690651
 20
-40.185459
  0
POINT
  8
0
 10
-24.690655
 20
-40.185459
  0
LINE
  8
0
 10
-63.390656
 20
-64.485458
 11
-25.990654
 21
-64.485458
  0
LINE
  8
0
 10
-62.690651
 20
-64.485458
 11
-62.690651
 21
-77.985458
  0
LINE
  8
0
 10
-46.190651
 20
-77.985458
 11
-43.190651
 21
-77.985458
  0
LINE
  8
0
 10
-46.190651
 20
-66.485458
 11
-46.190651
 21
-77.985458
  0
LINE
  8
0
 10
-43.190651
 20
-66.485458
 11
-43.190651
 21
-77.985458
  0
LINE
  8
0
 10
-47.334938
 20
-67.485458
 11
-47.334938
 21
-78.985458
  0
LINE
  8
0
 10
-42.046303
 20
-67.485458
 11
-42.046303
 21
-78.985458
  0
LINE
  8
0
 10
-47.334938
 20
-78.985458
 11
-42.046364
 21
-78.985458
  0
LINE
  8
0
 10
-56.313637
 20
-66.485458
 11
-46.190651
 21
-66.485458
  0
LINE
  8
0
 10
-54.695351
 20
-67.485458
 11
-47.334938
 21
-67.485458
  0
LINE
  8
0
 10
-43.190651
 20
-66.485458
 11
-33.067665
 21
-66.485458
  0
LINE
  8
0
 10
-42.046364
 20
-67.485458
 11
-34.685951
 21
-67.485458
  0
LINE
  8
0
 10
-46.190620
 20
-77.985474
 11
-47.334957
 21
-78.985481
  0
LINE
  8
0
 10
-42.046371
 20
-78.985481
 11
-43.190651
 21
-77.985504
  0
LINE
  8
0
 10
-46.190632
 20
-66.485466
 11
-47.334969
 21
-67.485481
  0
LINE
  8
0
 10
-43.190666
 20
-66.485443
 11
-42.046341
 21
-67.485474
  0
LINE
  8
0
 10
-56.313637
 20
-66.485458
 11
-56.313637
 21
-77.985458
  0
LINE
  8
0
 10
-54.695351
 20
-67.485458
 11
-54.695351
 21
-78.985458
  0
LINE
  8
0
 10
-58.434975
 20
-66.485458
 11
-58.434975
 21
-78.985458
  0
LINE
  8
0
 10
-56.313637
 20
-77.985458
 11
-58.434975
 21
-77.985458
  0
LINE
  8
0
 10
-58.434975
 20
-78.985458
 11
-54.695351
 21
-78.985458
  0
LINE
  8
0
 10
-61.483742
 20
-67.485458
 11
-61.483742
 21
-78.985458
  0
LINE
  8
0
 10
-56.313587
 20
-77.985420
 11
-54.695335
 21
-78.985397
  0
LINE
  8
0
 10
-62.628029
 20
-66.485458
 11
-62.628029
 21
-77.985458
  0
LINE
  8
0
 10
-62.628029
 20
-66.485458
 11
-58.434975
 21
-66.485458
  0
LINE
  8
0
 10
-61.483742
 20
-67.485458
 11
-58.434975
 21
-67.485458
  0
LINE
  8
0
 10
-62.627941
 20
-66.485443
 11
-61.483658
 21
-67.485420
  0
LINE
  8
0
 10
-62.690651
 20
-77.985458
 11
-62.628029
 21
-77.985458
  0
LINE
  8
0
 10
-62.627979
 20
-77.985413
 11
-61.483696
 21
-78.985397
  0
LINE
  8
0
 10
-61.690651
 20
-78.985458
 11
-61.690651
 21
-108.985458
  0
LINE
  8
0
 10
-61.690651
 20
-78.985458
 11
-61.483742
 21
-78.985458
  0
LINE
  8
0
 10
-62.690590
 20
-77.985504
 11
-61.690609
 21
-78.985489
  0
LINE
  8
0
 10
-26.690655
 20
-64.485458
 11
-26.690655
 21
-77.985458
  0
LINE
  8
0
 10
-33.067665
 20
-66.485458
 11
-33.067665
 21
-77.985458
  0
LINE
  8
0
 10
-34.685951
 20
-67.485458
 11
-34.685951
 21
-78.985458
  0
LINE
  8
0
 10
-30.946327
 20
-66.485458
 11
-30.946327
 21
-78.985458
  0
LINE
  8
0
 10
-33.067665
 20
-77.985458
 11
-30.946327
 21
-77.985458
  0
LINE
  8
0
 10
-30.946327
 20
-78.985458
 11
-34.685951
 21
-78.985458
  0
LINE
  8
0
 10
-27.897560
 20
-67.485458
 11
-27.897560
 21
-78.985458
  0
LINE
  8
0
 10
-33.067654
 20
-77.985443
 11
-34.685932
 21
-78.985428
  0
LINE
  8
0
 10
-26.753277
 20
-66.485458
 11
-26.753277
 21
-77.985458
  0
LINE
  8
0
 10
-26.753277
 20
-66.485458
 11
-30.946327
 21
-66.485458
  0
LINE
  8
0
 10
-27.897560
 20
-67.485458
 11
-30.946327
 21
-67.485458
  0
LINE
  8
0
 10
-26.753178
 20
-66.485428
 11
-27.897511
 21
-67.485451
  0
LINE
  8
0
 10
-26.690655
 20
-77.985458
 11
-26.753277
 21
-77.985458
  0
LINE
  8
0
 10
-26.753235
 20
-77.985474
 11
-27.897568
 21
-78.985497
  0
LINE
  8
0
 10
-27.690651
 20
-78.985458
 11
-27.690651
 21
-108.985458
  0
LINE
  8
0
 10
-27.690651
 20
-78.985458
 11
-27.897560
 21
-78.985458
  0
LINE
  8
0
 10
-26.690651
 20
-77.985489
 11
-27.690662
 21
-78.985497
  0
LINE
  8
0
 10
-50.190651
 20
-125.485458
 11
-39.190651
 21
-125.485458
  0
LINE
  8
0
 10
-51.190651
 20
-121.324417
 11
-51.190651
 21
-124.485458
  0
LINE
  8
0
 10
-38.190651
 20
-121.324417
 11
-38.190651
 21
-124.485458
  0
LINE
  8
0
 10
-51.190521
 20
-124.485336
 11
-50.190544
 21
-125.485321
  0
LINE
  8
0
 10
-39.190636
 20
-125.485504
 11
-38.190636
 21
-124.485504
  0
LINE
  8
0
 10
-51.190651
 20
-124.485474
 11
-38.190651
 21
-124.485474
  0
LINE
  8
0
 10
-45.690651
 20
-128.985458
 11
-43.690651
 21
-128.985458
  0
LINE
  8
0
 10
-44.190651
 20
-125.485458
 11
-44.190651
 21
-127.985458
  0
LINE
  8
0
 10
-45.190651
 20
-125.485458
 11
-45.190651
 21
-127.985458
  0
LINE
  8
0
 10
-43.690651
 20
-127.985458
 11
-43.690651
 21
-128.985458
  0
LINE
  8
0
 10
-45.690651
 20
-127.985458
 11
-45.690651
 21
-128.985458
  0
LINE
  8
0
 10
-45.690651
 20
-127.985458
 11
-43.690651
 21
-127.985458
  0
LINE
  8
0
 10
-63.390656
 20
-15.885460
 11
-47.390656
 21
-15.885460
  0
LINE
  8
0
 10
-70.023987
 20
-40.185459
 11
-16.857319
 21
-40.185459
  0
LINE
  8
0
 10
-25.190655
 20
-16.685461
 11
-25.190655
 21
-30.685459
  0
LINE
  8
0
 10
-64.190651
 20
-16.685459
 11
-64.190651
 21
-30.685459
  0
LINE
  8
0
 10
-63.390644
 20
-64.485443
 11
-64.190643
 21
-63.685440
  0
LINE
  8
0
 10
-25.990654
 20
-64.485451
 11
-25.190655
 21
-63.685452
  0
LINE
  8
0
 10
-64.190643
 20
-16.685469
 11
-63.390644
 21
-15.885468
  0
LINE
  8
0
 10
-25.990650
 20
-15.885464
 11
-25.190651
 21
-16.685465
  0
LINE
  8
0
 10
-60.061081
 20
-31.185459
 11
-60.061081
 21
-49.185459
  0
LINE
  8
0
 10
-29.320229
 20
-31.185459
 11
-29.320229
 21
-49.185459
  0
LINE
  8
0
 10
-64.690651
 20
-31.185459
 11
-64.690651
 21
-49.185459
  0
LINE
  8
0
 10
-24.690655
 20
-31.185459
 11
-24.690655
 21
-49.185459
  0
LINE
  8
0
 10
-63.690659
 20
-50.185455
 11
-61.061081
 21
-50.185455
  0
LINE
  8
0
 10
-63.690651
 20
-30.185459
 11
-61.061081
 21
-30.185459
  0
LINE
  8
0
 10
-64.690681
 20
-49.185482
 11
-63.690681
 21
-50.185482
  0
LINE
  8
0
 10
-64.690620
 20
-31.185478
 11
-63.690624
 21
-30.185482
  0
LINE
  8
0
 10
-25.690643
 20
-30.185446
 11
-24.690647
 21
-31.185444
  0
LINE
  8
0
 10
-24.690659
 20
-49.185463
 11
-25.690659
 21
-50.185463
  0
LINE
  8
0
 10
-28.320229
 20
-50.185455
 11
-25.690655
 21
-50.185455
  0
LINE
  8
0
 10
-28.320229
 20
-30.185459
 11
-25.690655
 21
-30.185459
  0
LINE
  8
0
 10
-64.190651
 20
-49.685459
 11
-64.190651
 21
-63.685455
  0
LINE
  8
0
 10
-25.190655
 20
-49.685455
 11
-25.190655
 21
-63.685455
  0
LINE
  8
0
 10
-63.690651
 20
-30.185459
 11
-63.690651
 21
-50.185455
  0
LINE
  8
0
 10
-25.690655
 20
-50.185455
 11
-25.690655
 21
-30.185459
  0
LINE
  8
0
 10
-62.690651
 20
-33.185459
 11
-62.690651
 21
-47.185459
  0
LINE
  8
0
 10
-26.690655
 20
-33.185459
 11
-26.690655
 21
-47.185459
  0
LINE
  8
0
 10
-62.690651
 20
-33.185459
 11
-60.061081
 21
-33.185459
  0
LINE
  8
0
 10
-62.690651
 20
-47.185459
 11
-60.061081
 21
-47.185459
  0
LINE
  8
0
 10
-29.320229
 20
-33.185459
 11
-26.690655
 21
-33.185459
  0
LINE
  8
0
 10
-29.320229
 20
-47.185459
 11
-26.690655
 21
-47.185459
  0
LINE
  8
0
 10
-27.078552
 20
-33.262283
 11
-27.078552
 21
-47.108635
  0
LINE
  8
0
 10
-62.302734
 20
-33.262283
 11
-62.302734
 21
-47.108635
  0
LINE
  8
0
 10
-62.302734
 20
-47.108635
 11
-60.061081
 21
-47.108635
  0
LINE
  8
0
 10
-62.302734
 20
-33.262283
 11
-60.061081
 21
-33.262283
  0
LINE
  8
0
 10
-29.320229
 20
-33.262283
 11
-27.078552
 21
-33.262283
  0
LINE
  8
0
 10
-29.320229
 20
-47.108635
 11
-27.078552
 21
-47.108635
  0
LINE
  8
0
 10
-62.302731
 20
-47.108646
 11
-62.690651
 21
-47.185474
  0
LINE
  8
0
 10
-62.302727
 20
-33.262287
 11
-62.690647
 21
-33.185463
  0
LINE
  8
0
 10
-27.078564
 20
-33.262287
 11
-26.690662
 21
-33.185463
  0
LINE
  8
0
 10
-27.078556
 20
-47.108624
 11
-26.690655
 21
-47.185448
  0
LINE
  8
0
 10
-47.190651
 20
-20.655684
 11
-47.190651
 21
-26.115236
  0
LINE
  8
0
 10
-47.190659
 20
-20.655676
 11
-39.690651
 21
-23.385456
  0
LINE
  8
0
 10
-47.190651
 20
-26.115238
 11
-39.690651
 21
-23.385464
  0
LINE
  8
0
 10
-40.690651
 20
-27.638893
 11
-40.690651
 21
-52.538895
  0
LINE
  8
0
 10
-61.061081
 20
-50.185463
 11
-60.061077
 21
-49.185463
  0
LINE
  8
0
 10
-61.061073
 20
-30.185455
 11
-60.061073
 21
-31.185455
  0
LINE
  8
0
 10
-28.320232
 20
-30.185461
 11
-29.320232
 21
-31.185463
  0
LINE
  8
0
 10
-29.320225
 20
-49.185455
 11
-28.320225
 21
-50.185455
  0
LINE
  8
0
 10
-64.690651
 20
-31.185459
 11
-60.061081
 21
-31.185459
  0
LINE
  8
0
 10
-64.690651
 20
-49.185459
 11
-60.061081
 21
-49.185459
  0
LINE
  8
0
 10
-29.320229
 20
-49.185459
 11
-24.690655
 21
-49.185459
  0
LINE
  8
0
 10
-29.320229
 20
-31.185459
 11
-24.690655
 21
-31.185459
  0
LINE
  8
0
 10
-47.390656
 20
-18.385460
 11
-41.990654
 21
-18.385460
  0
LINE
  8
0
 10
-47.390656
 20
-15.885460
 11
-47.390656
 21
-18.385460
  0
LINE
  8
0
 10
-41.990654
 20
-15.885460
 11
-41.990654
 21
-18.385460
  0
LINE
  8
0
 10
-41.990654
 20
-15.885460
 11
-25.990654
 21
-15.885460
  0
LINE
  8
0
 10
-64.190651
 20
-16.685459
 11
-47.390656
 21
-16.685459
  0
LINE
  8
0
 10
-25.190655
 20
-16.685461
 11
-41.990654
 21
-16.685461
  0
LINE
  8
0
 10
-25.690651
 20
-15.885460
 11
-63.690651
 21
-15.885460
  0
LINE
  8
0
 10
-25.690651
 20
-15.885460
 11
-63.690651
 21
-15.885460
  0
LINE
  8
0
 10
-26.690647
 20
-6.885460
 11
-62.690643
 21
-6.885460
  0
LINE
  8
0
 10
-63.690681
 20
-13.885448
 11
-63.690681
 21
-7.885448
  0
LINE
  8
0
 10
-25.690651
 20
-13.885471
 11
-25.690651
 21
-7.885471
  0
LINE
  8
0
 10
-25.690647
 20
-7.885445
 11
-25.855869
 21
-7.885445
  0
LINE
  8
0
 10
-25.690651
 20
-11.885460
 11
-25.698219
 21
-11.885460
  0
LINE
  8
0
 10
-25.690746
 20
-7.885517
 11
-26.690723
 21
-6.885540
  0
LINE
  8
0
 10
-63.690697
 20
-7.885403
 11
-62.690693
 21
-6.885403
  0
LINE
  8
0
 10
-26.590431
 20
-11.185448
 11
-27.129250
 21
-11.185448
  0
LINE
  8
0
 10
-42.190651
 20
-11.885462
 11
-42.190651
 21
-7.885464
  0
LINE
  8
0
 10
-42.190720
 20
-11.885448
 11
-41.993881
 21
-11.185448
  0
LINE
  8
0
 10
-42.190712
 20
-7.885433
 11
-41.993870
 21
-7.185432
  0
LINE
  8
0
 10
-37.438347
 20
-11.885462
 11
-37.976112
 21
-11.185461
  0
LINE
  8
0
 10
-37.438324
 20
-7.885460
 11
-37.976089
 21
-7.185459
  0
LINE
  8
0
 10
-41.993813
 20
-11.185450
 11
-41.993813
 21
-7.185452
  0
LINE
  8
0
 10
-37.976112
 20
-11.185452
 11
-37.976112
 21
-7.185452
  0
LINE
  8
0
 10
-37.438332
 20
-11.885464
 11
-37.438332
 21
-7.885464
  0
LINE
  8
0
 10
-33.108192
 20
-11.885468
 11
-33.108192
 21
-7.885468
  0
LINE
  8
0
 10
-33.108284
 20
-7.885506
 11
-33.305122
 21
-7.185482
  0
LINE
  8
0
 10
-29.629108
 20
-11.885437
 11
-30.363758
 21
-11.185402
  0
LINE
  8
0
 10
-29.629189
 20
-7.885399
 11
-30.363792
 21
-7.185406
  0
LINE
  8
0
 10
-30.363869
 20
-7.185459
 11
-30.363869
 21
-11.185457
  0
LINE
  8
0
 10
-29.629250
 20
-11.885469
 11
-29.629250
 21
-7.885471
  0
LINE
  8
0
 10
-27.129250
 20
-11.885471
 11
-27.129250
 21
-7.885471
  0
LINE
  8
0
 10
-27.129215
 20
-7.885384
 11
-27.666969
 21
-7.185410
  0
LINE
  8
0
 10
-25.855812
 20
-11.885477
 11
-26.590462
 21
-11.185442
  0
LINE
  8
0
 10
-25.855759
 20
-7.885479
 11
-26.590366
 21
-7.185486
  0
LINE
  8
0
 10
-37.976112
 20
-11.185448
 11
-41.993813
 21
-11.185448
  0
LINE
  8
0
 10
-37.438332
 20
-11.885460
 11
-42.190651
 21
-11.885460
  0
LINE
  8
0
 10
-29.629250
 20
-11.885460
 11
-33.108192
 21
-11.885460
  0
LINE
  8
0
 10
-30.363808
 20
-11.185448
 11
-33.108192
 21
-11.185448
  0
LINE
  8
0
 10
-41.993805
 20
-7.185448
 11
-37.976105
 21
-7.185448
  0
LINE
  8
0
 10
-33.305023
 20
-7.185448
 11
-30.363804
 21
-7.185448
  0
LINE
  8
0
 10
-27.666965
 20
-7.185448
 11
-26.590427
 21
-7.185448
  0
LINE
  8
0
 10
-33.108185
 20
-7.885445
 11
-37.438324
 21
-7.885445
  0
LINE
  8
0
 10
-27.129246
 20
-7.885445
 11
-29.629246
 21
-7.885445
  0
LINE
  8
0
 10
-26.590431
 20
-11.185459
 11
-26.590431
 21
-7.185459
  0
LINE
  8
0
 10
-25.855873
 20
-11.885471
 11
-25.855873
 21
-7.885471
  0
LINE
  8
0
 10
-25.855873
 20
-11.885460
 11
-27.129250
 21
-11.885460
  0
LINE
  8
0
 10
-42.190643
 20
-7.885445
 11
-44.690643
 21
-7.885445
  0
LINE
  8
0
 10
-69.690651
 20
-15.885460
 11
-63.390656
 21
-15.885460
  0
LINE
  8
0
 10
-63.690643
 20
-7.885445
 11
-63.525452
 21
-7.885445
  0
LINE
  8
0
 10
-63.690651
 20
-11.885460
 11
-63.683083
 21
-11.885460
  0
LINE
  8
0
 10
-62.790871
 20
-11.185448
 11
-62.252052
 21
-11.185448
  0
LINE
  8
0
 10
-47.190651
 20
-11.885458
 11
-47.190651
 21
-7.885456
  0
LINE
  8
0
 10
-47.190666
 20
-11.885502
 11
-47.387512
 21
-11.185478
  0
LINE
  8
0
 10
-47.190712
 20
-7.885464
 11
-47.387550
 21
-7.185471
  0
LINE
  8
0
 10
-51.943016
 20
-11.885441
 11
-51.405247
 21
-11.185440
  0
LINE
  8
0
 10
-51.942959
 20
-7.885506
 11
-51.405190
 21
-7.185505
  0
LINE
  8
0
 10
-47.387489
 20
-11.185446
 11
-47.387489
 21
-7.185444
  0
LINE
  8
0
 10
-51.405220
 20
-11.185444
 11
-51.405220
 21
-7.185444
  0
LINE
  8
0
 10
-51.942970
 20
-11.885456
 11
-51.942970
 21
-7.885456
  0
LINE
  8
0
 10
-56.273109
 20
-11.885452
 11
-56.273109
 21
-7.885452
  0
LINE
  8
0
 10
-56.273125
 20
-7.885426
 11
-56.076286
 21
-7.185425
  0
LINE
  8
0
 10
-59.752026
 20
-11.885496
 11
-59.017418
 21
-11.185505
  0
LINE
  8
0
 10
-59.752174
 20
-7.885349
 11
-59.017567
 21
-7.185356
  0
LINE
  8
0
 10
-59.017464
 20
-7.185436
 11
-59.017464
 21
-11.185438
  0
LINE
  8
0
 10
-59.752083
 20
-11.885450
 11
-59.752083
 21
-7.885448
  0
LINE
  8
0
 10
-62.252083
 20
-11.885448
 11
-62.252083
 21
-7.885448
  0
LINE
  8
0
 10
-62.252007
 20
-7.885460
 11
-61.714233
 21
-7.185459
  0
LINE
  8
0
 10
-63.525444
 20
-11.885418
 11
-62.790840
 21
-11.185425
  0
LINE
  8
0
 10
-63.525494
 20
-7.885418
 11
-62.790878
 21
-7.185417
  0
LINE
  8
0
 10
-51.405190
 20
-11.185448
 11
-47.387489
 21
-11.185448
  0
LINE
  8
0
 10
-51.942970
 20
-11.885460
 11
-47.190651
 21
-11.885460
  0
LINE
  8
0
 10
-59.752052
 20
-11.885460
 11
-56.273109
 21
-11.885460
  0
LINE
  8
0
 10
-59.017464
 20
-11.185448
 11
-56.273109
 21
-11.185448
  0
LINE
  8
0
 10
-47.387482
 20
-7.185448
 11
-51.405182
 21
-7.185448
  0
LINE
  8
0
 10
-56.076263
 20
-7.185448
 11
-59.017456
 21
-7.185448
  0
LINE
  8
0
 10
-61.714294
 20
-7.185448
 11
-62.790863
 21
-7.185448
  0
LINE
  8
0
 10
-56.273102
 20
-7.885445
 11
-51.942963
 21
-7.885445
  0
LINE
  8
0
 10
-62.252045
 20
-7.885445
 11
-59.752045
 21
-7.885445
  0
LINE
  8
0
 10
-62.790871
 20
-11.185436
 11
-62.790871
 21
-7.185436
  0
LINE
  8
0
 10
-63.525459
 20
-11.885448
 11
-63.525459
 21
-7.885448
  0
LINE
  8
0
 10
-63.525459
 20
-11.885460
 11
-62.252052
 21
-11.885460
  0
LINE
  8
0
 10
-47.190643
 20
-7.885445
 11
-44.690643
 21
-7.885445
  0
LINE
  8
0
 10
-55.690681
 20
-5.385452
 11
-55.690681
 21
-3.385452
  0
LINE
  8
0
 10
-33.690651
 20
-5.385468
 11
-33.690651
 21
-3.385468
  0
LINE
  8
0
 10
-30.990635
 20
-5.885460
 11
-58.390625
 21
-5.885460
  0
LINE
  8
0
 10
-54.122261
 20
-5.885456
 11
-54.122261
 21
-3.385456
  0
LINE
  8
0
 10
-46.259071
 20
-5.885460
 11
-46.259071
 21
-3.385460
  0
LINE
  8
0
 10
-43.122292
 20
-5.885445
 11
-43.122292
 21
-3.385445
  0
LINE
  8
0
 10
-35.259071
 20
-5.885464
 11
-35.259071
 21
-3.385464
  0
LINE
  8
0
 10
-58.890663
 20
-15.885450
 11
-58.890663
 21
-13.885452
  0
LINE
  8
0
 10
-30.490700
 20
-15.885469
 11
-30.490700
 21
-13.885468
  0
LINE
  8
0
 10
-30.990631
 20
-3.385460
 11
-58.390625
 21
-3.385460
  0
LINE
  8
0
 10
-33.090652
 20
21.614536
 11
-56.290634
 21
21.614536
  0
LINE
  8
0
 10
-57.290638
 20
19.614536
 11
-58.290607
 21
19.037205
  0
LINE
  8
0
 10
-31.090668
 20
19.037136
 11
-32.090687
 21
19.614498
  0
LINE
  8
0
 10
-32.090675
 20
19.614529
 11
-32.090675
 21
20.614529
  0
LINE
  8
0
 10
-57.290688
 20
19.614552
 11
-57.290688
 21
20.614552
  0
LINE
  8
0
 10
-58.877640
 20
-2.898483
 11
-58.290657
 21
19.037189
  0
LINE
  8
0
 10
-30.503811
 20
-2.898502
 11
-31.090763
 21
19.037163
  0
LINE
  8
0
 10
-30.990677
 20
-3.385433
 11
-30.503723
 21
-2.898479
  0
LINE
  8
0
 10
-58.390644
 20
-3.385517
 11
-58.877644
 21
-2.898518
  0
LINE
  8
0
 10
-47.690567
 20
-0.885441
 11
-47.157455
 21
19.037201
  0
LINE
  8
0
 10
-41.690594
 20
-0.885456
 11
-42.223682
 21
19.037182
  0
LINE
  8
0
 10
-31.090656
 20
19.037189
 11
-31.317707
 21
19.037189
  0
LINE
  8
0
 10
-30.879608
 20
-0.885460
 11
-32.803436
 21
-0.885460
  0
LINE
  8
0
 10
-32.090656
 20
19.614552
 11
-32.397602
 21
19.614552
  0
LINE
  8
0
 10
-30.503693
 20
-2.898491
 11
-58.877625
 21
-2.898491
  0
LINE
  8
0
 10
-47.690643
 20
-0.885460
 11
-52.335175
 21
-0.885460
  0
LINE
  8
0
 10
-31.737213
 20
-0.433327
 11
-32.818939
 21
-0.433327
  0
LINE
  8
0
 10
-47.920441
 20
-0.433327
 11
-51.566254
 21
-0.433327
  0
LINE
  8
0
 10
-42.215805
 20
19.037174
 11
-41.926453
 21
19.614529
  0
LINE
  8
0
 10
-37.952717
 20
19.614563
 11
-36.984535
 21
19.037212
  0
LINE
  8
0
 10
-33.484634
 20
19.037193
 11
-34.043594
 21
19.614525
  0
LINE
  8
0
 10
-32.397606
 20
19.614532
 11
-31.317707
 21
19.037163
  0
LINE
  8
0
 10
-37.046097
 20
-0.885498
 11
-37.814991
 21
-0.433388
  0
LINE
  8
0
 10
-30.879601
 20
-0.885475
 11
-31.737209
 21
-0.433361
  0
LINE
  8
0
 10
-41.690544
 20
-0.885521
 11
-41.460754
 21
-0.433395
  0
LINE
  8
0
 10
-41.460743
 20
-0.433315
 11
-41.926308
 21
19.614571
  0
LINE
  8
0
 10
-37.815006
 20
-0.433315
 11
-37.952709
 21
19.614559
  0
LINE
  8
0
 10
-37.046139
 20
-0.885437
 11
-36.984581
 21
19.037193
  0
LINE
  8
0
 10
-33.484711
 20
19.037159
 11
-32.803612
 21
-0.885475
  0
LINE
  8
0
 10
-32.397381
 20
19.614532
 11
-31.737034
 21
-0.433353
  0
LINE
  8
0
 10
-30.879601
 20
-0.885487
 11
-31.317699
 21
19.037148
  0
LINE
  8
0
 10
-47.920467
 20
-0.433319
 11
-47.454880
 21
19.614536
  0
LINE
  8
0
 10
-47.165504
 20
19.037220
 11
-47.454849
 21
19.614555
  0
LINE
  8
0
 10
-47.690632
 20
-0.885483
 11
-47.920422
 21
-0.433353
  0
LINE
  8
0
 10
-51.566319
 20
-0.433311
 11
-51.428593
 21
19.614563
  0
LINE
  8
0
 10
-52.335190
 20
-0.885445
 11
-52.396721
 21
19.037197
  0
LINE
  8
0
 10
-55.896858
 20
19.037189
 11
-56.577984
 21
-0.885426
  0
LINE
  8
0
 10
-56.983593
 20
19.614555
 11
-57.643967
 21
-0.433311
  0
LINE
  8
0
 10
-58.501671
 20
-0.885429
 11
-58.063549
 21
19.037228
  0
LINE
  8
0
 10
-58.501713
 20
-0.885395
 11
-57.644081
 21
-0.433262
  0
LINE
  8
0
 10
-52.335266
 20
-0.885395
 11
-51.566341
 21
-0.433273
  0
LINE
  8
0
 10
-51.428513
 20
19.614513
 11
-52.396694
 21
19.037163
  0
LINE
  8
0
 10
-55.896725
 20
19.037228
 11
-55.337753
 21
19.614574
  0
LINE
  8
0
 10
-56.983650
 20
19.614594
 11
-58.063519
 21
19.037243
  0
LINE
  8
0
 10
-42.215775
 20
19.037189
 11
-47.165482
 21
19.037189
  0
LINE
  8
0
 10
-52.396744
 20
19.037189
 11
-55.896713
 21
19.037189
  0
LINE
  8
0
 10
-58.063553
 20
19.037189
 11
-58.290634
 21
19.037189
  0
LINE
  8
0
 10
-33.484512
 20
19.037189
 11
-36.984573
 21
19.037189
  0
LINE
  8
0
 10
-37.815033
 20
-0.433327
 11
-41.460846
 21
-0.433327
  0
LINE
  8
0
 10
-37.046112
 20
-0.885460
 11
-41.690643
 21
-0.885460
  0
LINE
  8
0
 10
-56.562347
 20
-0.433327
 11
-57.644073
 21
-0.433327
  0
LINE
  8
0
 10
-56.577850
 20
-0.885460
 11
-58.501678
 21
-0.885460
  0
LINE
  8
0
 10
-41.926407
 20
19.614552
 11
-47.454849
 21
19.614552
  0
LINE
  8
0
 10
-51.428543
 20
19.614552
 11
-55.337723
 21
19.614552
  0
LINE
  8
0
 10
-56.983688
 20
19.614552
 11
-57.290665
 21
19.614552
  0
LINE
  8
0
 10
-34.043533
 20
19.614552
 11
-37.952713
 21
19.614552
  0
LINE
  8
0
 10
-19.690651
 20
-13.885460
 11
-25.690651
 21
-13.885460
  0
LINE
  8
0
 10
-59.690651
 20
-15.885450
 11
-59.690651
 21
-13.885450
  0
LINE
  8
0
 10
-29.690651
 20
-15.885469
 11
-29.690651
 21
-13.885469
  0
LINE
  8
0
 10
-19.690651
 20
-15.885475
 11
-19.690651
 21
2.114525
  0
LINE
  8
0
 10
-69.690651
 20
-15.885445
 11
-69.690651
 21
2.114555
  0
LINE
  8
0
 10
-67.690643
 20
4.114540
 11
-58.689972
 21
4.114540
  0
LINE
  8
0
 10
-69.690613
 20
2.114552
 11
-67.690613
 21
4.114555
  0
LINE
  8
0
 10
-30.691372
 20
4.114540
 11
-21.690639
 21
4.114540
  0
LINE
  8
0
 10
-19.690655
 20
2.114529
 11
-21.690659
 21
4.114532
  0
LINE
  8
0
 10
-66.910797
 20
-1.885460
 11
-55.949036
 21
-1.885460
  0
LINE
  8
0
 10
-61.690651
 20
-5.994518
 11
-61.690651
 21
2.437580
  0
LINE
  8
0
 10
-27.690651
 20
-5.994541
 11
-27.690651
 21
2.437557
  0
LINE
  8
0
 10
-22.470490
 20
-1.885460
 11
-33.432220
 21
-1.885460
  0
LINE
  8
0
 10
-30.490700
 20
-6.885468
 11
-30.490700
 21
-6.385468
  0
LINE
  8
0
 10
-58.890663
 20
-6.885452
 11
-58.890663
 21
-6.385452
  0
LINE
  8
0
 10
-26.690647
 20
-5.085457
 11
-28.690647
 21
-5.085457
  0
LINE
  8
0
 10
-26.690643
 20
1.314552
 11
-28.690643
 21
1.314552
  0
LINE
  8
0
 10
-62.690643
 20
-5.085457
 11
-60.690643
 21
-5.085457
  0
LINE
  8
0
 10
-62.690643
 20
1.314552
 11
-60.690643
 21
1.314552
  0
LINE
  8
0
 10
-25.990654
 20
-15.885460
 11
-19.690651
 21
-15.885460
  0
LINE
  8
0
 10
-63.690651
 20
-13.885460
 11
-69.690651
 21
-13.885460
  0
LINE
  8
0
 10
-63.690651
 20
-13.885460
 11
-25.690651
 21
-13.885460
  0
LINE
  8
0
 10
-44.690651
 20
28.514538
 11
-44.690651
 21
-130.100494
  0
ARC
  8
0
 10
-35.690651
 20
-121.324432
 40
2.499996
 50
99.206947
 51
180.000000
  0
ARC
  8
0
 10
-51.690651
 20
-108.985458
 40
10.000000
 50
180.000000
 51
260.793060
  0
ARC
  8
0
 10
-37.690651
 20
-108.985458
 40
10.000000
 50
279.206879
 51
0.000000
  0
ARC
  8
0
 10
-53.690651
 20
-121.324432
 40
2.500000
 50
0.000000
 51
80.793053
  0
CIRCLE
  8
0
 10
-40.690651
 20
-40.185459
 40
10.000000
  0
CIRCLE
  8
0
 10
-40.690651
 20
-40.185459
 40
9.000000
  0
CIRCLE
  8
0
 10
-40.690651
 20
-40.185459
 40
5.722500
  0
CIRCLE
  8
0
 10
-40.690651
 20
-40.185459
 40
6.578500
  0
ARC
  8
0
 10
-56.190674
 20
-5.385468
 40
0.500000
 50
270.000000
 51
0.000000
  0
ARC
  8
0
 10
-58.390625
 20
-6.385452
 40
0.500000
 50
90.000000
 51
180.000000
  0
ARC
  8
0
 10
-33.190643
 20
-5.385452
 40
0.500000
 50
180.000000
 51
270.000000
  0
ARC
  8
0
 10
-30.990696
 20
-6.385468
 40
0.500000
 50
0.000000
 51
90.000000
  0
ARC
  8
0
 10
-33.090652
 20
20.614529
 40
1.000000
 50
0.000000
 51
90.000000
  0
ARC
  8
0
 10
-56.290634
 20
20.614544
 40
1.000000
 50
90.000000
 51
180.000000
  0
ARC
  8
0
 10
-26.690643
 20
-1.885471
 40
3.200001
 50
269.999939
 51
90.000000
  0
ARC
  8
0
 10
-28.690643
 20
-1.885471
 40
3.200001
 50
90.000000
 51
126.621643
  0
ARC
  8
0
 10
-28.690643
 20
-1.885471
 40
3.200001
 50
207.953171
 51
269.999939
  0
ARC
  8
0
 10
-62.690643
 20
-1.885448
 40
3.200001
 50
89.999931
 51
269.999939
  0
ARC
  8
0
 10
-60.690643
 20
-1.885448
 40
3.200001
 50
270.000000
 51
332.046722
  0
ARC
  8
0
 10
-60.690643
 20
-1.885448
 40
3.199999
 50
53.378258
 51
89.999931
  0
CIRCLE
  8
0
  6
PHANTOM
 10
-40.690651
 20
-40.185459
 40
21.250000
  0
POINT
  8
0
  6
PHANTOM
 10
81.896423
 20
-40.185459
  0
POINT
  8
0
  6
PHANTOM
 10
101.896423
 20
-40.185459
  0
LINE
  8
0
 10
63.196411
 20
-64.485458
 11
100.596405
 21
-64.485458
  0
LINE
  8
0
 10
63.896416
 20
-64.485458
 11
63.896416
 21
-77.985458
  0
LINE
  8
0
 10
80.396423
 20
-77.985458
 11
83.396423
 21
-77.985458
  0
LINE
  8
0
 10
80.396423
 20
-66.485458
 11
80.396423
 21
-77.985458
  0
LINE
  8
0
 10
83.396423
 20
-66.485458
 11
83.396423
 21
-77.985458
  0
LINE
  8
0
 10
79.252136
 20
-67.485458
 11
79.252136
 21
-78.985458
  0
LINE
  8
0
 10
84.540771
 20
-67.485458
 11
84.540771
 21
-78.985458
  0
LINE
  8
0
 10
79.252136
 20
-78.985458
 11
84.540710
 21
-78.985458
  0
LINE
  8
0
 10
70.273430
 20
-66.485458
 11
80.396423
 21
-66.485458
  0
LINE
  8
0
 10
71.891716
 20
-67.485458
 11
79.252136
 21
-67.485458
  0
LINE
  8
0
 10
83.396423
 20
-66.485458
 11
93.519409
 21
-66.485458
  0
LINE
  8
0
 10
84.540710
 20
-67.485458
 11
91.901123
 21
-67.485458
  0
LINE
  8
0
 10
80.396454
 20
-77.985458
 11
79.252121
 21
-78.985466
  0
LINE
  8
0
 10
84.540703
 20
-78.985489
 11
83.396423
 21
-77.985504
  0
LINE
  8
0
 10
80.396439
 20
-66.485474
 11
79.252098
 21
-67.485489
  0
LINE
  8
0
 10
83.396423
 20
-66.485443
 11
84.540741
 21
-67.485458
  0
LINE
  8
0
 10
70.273430
 20
-66.485458
 11
70.273430
 21
-77.985458
  0
LINE
  8
0
 10
71.891716
 20
-67.485458
 11
71.891716
 21
-78.985458
  0
LINE
  8
0
 10
68.152092
 20
-66.485458
 11
68.152092
 21
-78.985458
  0
LINE
  8
0
 10
70.273430
 20
-77.985458
 11
68.152092
 21
-77.985458
  0
LINE
  8
0
 10
68.152092
 20
-78.985458
 11
71.891716
 21
-78.985458
  0
LINE
  8
0
 10
65.103325
 20
-67.485458
 11
65.103325
 21
-78.985458
  0
LINE
  8
0
 10
70.273468
 20
-77.985428
 11
71.891716
 21
-78.985397
  0
LINE
  8
0
 10
63.959038
 20
-66.485458
 11
63.959038
 21
-77.985458
  0
LINE
  8
0
 10
63.959038
 20
-66.485458
 11
68.152092
 21
-66.485458
  0
LINE
  8
0
 10
65.103325
 20
-67.485458
 11
68.152092
 21
-67.485458
  0
LINE
  8
0
 10
63.959091
 20
-66.485466
 11
65.103378
 21
-67.485451
  0
LINE
  8
0
 10
63.896416
 20
-77.985458
 11
63.959038
 21
-77.985458
  0
LINE
  8
0
 10
63.959068
 20
-77.985451
 11
65.103348
 21
-78.985428
  0
LINE
  8
0
 10
64.896416
 20
-78.985458
 11
64.896416
 21
-108.985458
  0
LINE
  8
0
 10
64.896416
 20
-78.985458
 11
65.103325
 21
-78.985458
  0
LINE
  8
0
 10
63.896477
 20
-77.985512
 11
64.896454
 21
-78.985489
  0
LINE
  8
0
 10
99.896408
 20
-64.485458
 11
99.896408
 21
-77.985458
  0
LINE
  8
0
 10
93.519409
 20
-66.485458
 11
93.519409
 21
-77.985458
  0
LINE
  8
0
 10
91.901123
 20
-67.485458
 11
91.901123
 21
-78.985458
  0
LINE
  8
0
 10
95.640732
 20
-66.485458
 11
95.640732
 21
-78.985458
  0
LINE
  8
0
 10
93.519409
 20
-77.985458
 11
95.640732
 21
-77.985458
  0
LINE
  8
0
 10
95.640732
 20
-78.985458
 11
91.901123
 21
-78.985458
  0
LINE
  8
0
 10
98.689499
 20
-67.485458
 11
98.689499
 21
-78.985458
  0
LINE
  8
0
 10
93.519379
 20
-77.985397
 11
91.901100
 21
-78.985382
  0
LINE
  8
0
 10
99.833786
 20
-66.485458
 11
99.833786
 21
-77.985458
  0
LINE
  8
0
 10
99.833786
 20
-66.485458
 11
95.640732
 21
-66.485458
  0
LINE
  8
0
 10
98.689499
 20
-67.485458
 11
95.640732
 21
-67.485458
  0
LINE
  8
0
 10
99.833855
 20
-66.485397
 11
98.689522
 21
-67.485420
  0
LINE
  8
0
 10
99.896408
 20
-77.985458
 11
99.833786
 21
-77.985458
  0
LINE
  8
0
 10
99.833817
 20
-77.985443
 11
98.689484
 21
-78.985466
  0
LINE
  8
0
 10
98.896408
 20
-78.985458
 11
98.896408
 21
-108.985458
  0
LINE
  8
0
 10
98.896408
 20
-78.985458
 11
98.689499
 21
-78.985458
  0
LINE
  8
0
 10
99.896378
 20
-77.985466
 11
98.896370
 21
-78.985474
  0
LINE
  8
0
 10
76.396423
 20
-125.485458
 11
87.396423
 21
-125.485458
  0
LINE
  8
0
 10
75.396416
 20
-121.324417
 11
75.396416
 21
-124.485458
  0
LINE
  8
0
 10
88.396423
 20
-121.324417
 11
88.396423
 21
-124.485458
  0
LINE
  8
0
 10
75.396492
 20
-124.485382
 11
76.396477
 21
-125.485367
  0
LINE
  8
0
 10
87.396416
 20
-125.485489
 11
88.396416
 21
-124.485489
  0
LINE
  8
0
 10
75.396416
 20
-124.485474
 11
88.396423
 21
-124.485474
  0
LINE
  8
0
 10
80.896423
 20
-128.985458
 11
82.896423
 21
-128.985458
  0
LINE
  8
0
 10
82.396423
 20
-125.485458
 11
82.396423
 21
-127.985458
  0
LINE
  8
0
 10
81.396423
 20
-125.485458
 11
81.396423
 21
-127.985458
  0
LINE
  8
0
 10
82.896423
 20
-127.985458
 11
82.896423
 21
-128.985458
  0
LINE
  8
0
 10
80.896423
 20
-127.985458
 11
80.896423
 21
-128.985458
  0
LINE
  8
0
 10
80.896423
 20
-127.985458
 11
82.896423
 21
-127.985458
  0
LINE
  8
0
 10
20.410583
 20
-40.185459
 11
115.159195
 21
-40.185459
  0
LINE
  8
0
 10
101.396408
 20
-16.685461
 11
101.396408
 21
-30.685459
  0
LINE
  8
0
 10
62.396416
 20
-16.685459
 11
62.396416
 21
-30.685459
  0
LINE
  8
0
 10
63.196415
 20
-64.485443
 11
62.396416
 21
-63.685448
  0
LINE
  8
0
 10
100.596405
 20
-64.485428
 11
101.396408
 21
-63.685425
  0
LINE
  8
0
 10
62.396400
 20
-16.685459
 11
63.196400
 21
-15.885460
  0
LINE
  8
0
 10
100.596390
 20
-15.885473
 11
101.396393
 21
-16.685480
  0
LINE
  8
0
 10
62.396416
 20
-49.685459
 11
62.396416
 21
-63.685455
  0
LINE
  8
0
 10
101.396408
 20
-49.685455
 11
101.396408
 21
-63.685455
  0
LINE
  8
0
 10
101.396408
 20
-16.685461
 11
62.396416
 21
-16.685461
  0
LINE
  8
0
 10
81.896423
 20
27.847874
 11
81.896423
 21
-130.100494
  0
LINE
  8
0
 10
99.896423
 20
-6.885460
 11
63.896423
 21
-6.885460
  0
LINE
  8
0
 10
62.896385
 20
-13.885448
 11
62.896385
 21
-7.885448
  0
LINE
  8
0
 10
100.896423
 20
-13.885471
 11
100.896423
 21
-7.885471
  0
LINE
  8
0
 10
100.896423
 20
-7.885445
 11
100.731201
 21
-7.885445
  0
LINE
  8
0
 10
100.896423
 20
-11.885460
 11
100.888855
 21
-11.885460
  0
LINE
  8
0
 10
100.896240
 20
-7.885601
 11
99.896255
 21
-6.885620
  0
LINE
  8
0
 10
62.896301
 20
-7.885349
 11
63.896305
 21
-6.885349
  0
LINE
  8
0
 10
99.996643
 20
-11.185448
 11
99.457825
 21
-11.185448
  0
LINE
  8
0
 10
84.396423
 20
-11.885462
 11
84.396423
 21
-7.885464
  0
LINE
  8
0
 10
84.396248
 20
-11.885418
 11
84.593086
 21
-11.185417
  0
LINE
  8
0
 10
84.396286
 20
-7.885403
 11
84.593124
 21
-7.185402
  0
LINE
  8
0
 10
89.148689
 20
-11.885471
 11
88.610924
 21
-11.185471
  0
LINE
  8
0
 10
89.148766
 20
-7.885437
 11
88.611000
 21
-7.185436
  0
LINE
  8
0
 10
84.593262
 20
-11.185450
 11
84.593262
 21
-7.185452
  0
LINE
  8
0
 10
88.610962
 20
-11.185452
 11
88.610962
 21
-7.185452
  0
LINE
  8
0
 10
89.148743
 20
-11.885464
 11
89.148743
 21
-7.885464
  0
LINE
  8
0
 10
93.478882
 20
-11.885468
 11
93.478882
 21
-7.885468
  0
LINE
  8
0
 10
93.478691
 20
-7.885525
 11
93.281845
 21
-7.185501
  0
LINE
  8
0
 10
96.958069
 20
-11.885317
 11
96.223419
 21
-11.185282
  0
LINE
  8
0
 10
96.957985
 20
-7.885281
 11
96.223381
 21
-7.185287
  0
LINE
  8
0
 10
96.223190
 20
-7.185459
 11
96.223190
 21
-11.185457
  0
LINE
  8
0
 10
96.957809
 20
-11.885469
 11
96.957809
 21
-7.885471
  0
LINE
  8
0
 10
99.457809
 20
-11.885471
 11
99.457809
 21
-7.885471
  0
LINE
  8
0
 10
99.457886
 20
-7.885353
 11
98.920135
 21
-7.185379
  0
LINE
  8
0
 10
100.731277
 20
-11.885439
 11
99.996628
 21
-11.185406
  0
LINE
  8
0
 10
100.731392
 20
-7.885387
 11
99.996788
 21
-7.185394
  0
LINE
  8
0
 10
88.610962
 20
-11.185448
 11
84.593262
 21
-11.185448
  0
LINE
  8
0
 10
89.148743
 20
-11.885460
 11
84.396423
 21
-11.885460
  0
LINE
  8
0
 10
96.957825
 20
-11.885460
 11
93.478882
 21
-11.885460
  0
LINE
  8
0
 10
96.223267
 20
-11.185448
 11
93.478882
 21
-11.185448
  0
LINE
  8
0
 10
84.593262
 20
-7.185448
 11
88.610962
 21
-7.185448
  0
LINE
  8
0
 10
93.282043
 20
-7.185448
 11
96.223267
 21
-7.185448
  0
LINE
  8
0
 10
98.920105
 20
-7.185448
 11
99.996643
 21
-7.185448
  0
LINE
  8
0
 10
93.478882
 20
-7.885445
 11
89.148743
 21
-7.885445
  0
LINE
  8
0
 10
99.457825
 20
-7.885445
 11
96.957825
 21
-7.885445
  0
LINE
  8
0
 10
99.996643
 20
-11.185459
 11
99.996643
 21
-7.185459
  0
LINE
  8
0
 10
100.731201
 20
-11.885471
 11
100.731201
 21
-7.885471
  0
LINE
  8
0
 10
100.731201
 20
-11.885460
 11
99.457825
 21
-11.885460
  0
LINE
  8
0
 10
84.396423
 20
-7.885445
 11
81.896423
 21
-7.885445
  0
LINE
  8
0
 10
62.896416
 20
-7.885445
 11
63.061607
 21
-7.885445
  0
LINE
  8
0
 10
62.896416
 20
-11.885460
 11
62.903984
 21
-11.885460
  0
LINE
  8
0
 10
63.796196
 20
-11.185448
 11
64.335014
 21
-11.185448
  0
LINE
  8
0
 10
79.396423
 20
-11.885458
 11
79.396423
 21
-7.885456
  0
LINE
  8
0
 10
79.396439
 20
-11.885496
 11
79.199593
 21
-11.185472
  0
LINE
  8
0
 10
79.396271
 20
-7.885483
 11
79.199440
 21
-7.185490
  0
LINE
  8
0
 10
74.644051
 20
-11.885445
 11
75.181816
 21
-11.185444
  0
LINE
  8
0
 10
74.644150
 20
-7.885544
 11
75.181915
 21
-7.185543
  0
LINE
  8
0
 10
79.199585
 20
-11.185446
 11
79.199585
 21
-7.185444
  0
LINE
  8
0
 10
75.181847
 20
-11.185444
 11
75.181847
 21
-7.185444
  0
LINE
  8
0
 10
74.644096
 20
-11.885456
 11
74.644096
 21
-7.885456
  0
LINE
  8
0
 10
70.313957
 20
-11.885452
 11
70.313957
 21
-7.885452
  0
LINE
  8
0
 10
70.313805
 20
-7.885391
 11
70.510643
 21
-7.185390
  0
LINE
  8
0
 10
66.835037
 20
-11.885490
 11
67.569641
 21
-11.185499
  0
LINE
  8
0
 10
66.834785
 20
-7.885231
 11
67.569389
 21
-7.185238
  0
LINE
  8
0
 10
67.569603
 20
-7.185436
 11
67.569603
 21
-11.185438
  0
LINE
  8
0
 10
66.834984
 20
-11.885450
 11
66.834984
 21
-7.885448
  0
LINE
  8
0
 10
64.334984
 20
-11.885448
 11
64.334984
 21
-7.885448
  0
LINE
  8
0
 10
64.335114
 20
-7.885498
 11
64.872887
 21
-7.185501
  0
LINE
  8
0
 10
63.061562
 20
-11.885345
 11
63.796169
 21
-11.185352
  0
LINE
  8
0
 10
63.061478
 20
-7.885303
 11
63.796093
 21
-7.185299
  0
LINE
  8
0
 10
75.181877
 20
-11.185448
 11
79.199585
 21
-11.185448
  0
LINE
  8
0
 10
74.644096
 20
-11.885460
 11
79.396423
 21
-11.885460
  0
LINE
  8
0
 10
66.835014
 20
-11.885460
 11
70.313957
 21
-11.885460
  0
LINE
  8
0
 10
67.569603
 20
-11.185448
 11
70.313957
 21
-11.185448
  0
LINE
  8
0
 10
79.199585
 20
-7.185448
 11
75.181885
 21
-7.185448
  0
LINE
  8
0
 10
70.510803
 20
-7.185448
 11
67.569611
 21
-7.185448
  0
LINE
  8
0
 10
64.872772
 20
-7.185448
 11
63.796204
 21
-7.185448
  0
LINE
  8
0
 10
70.313957
 20
-7.885445
 11
74.644096
 21
-7.885445
  0
LINE
  8
0
 10
64.335014
 20
-7.885445
 11
66.835014
 21
-7.885445
  0
LINE
  8
0
 10
63.796196
 20
-11.185436
 11
63.796196
 21
-7.185436
  0
LINE
  8
0
 10
63.061607
 20
-11.885448
 11
63.061607
 21
-7.885448
  0
LINE
  8
0
 10
63.061607
 20
-11.885460
 11
64.335014
 21
-11.885460
  0
LINE
  8
0
 10
79.396423
 20
-7.885445
 11
81.896423
 21
-7.885445
  0
LINE
  8
0
 10
70.896385
 20
-5.385452
 11
70.896385
 21
-3.385452
  0
LINE
  8
0
 10
92.896423
 20
-5.385468
 11
92.896423
 21
-3.385468
  0
LINE
  8
0
 10
95.596436
 20
-5.885460
 11
68.196442
 21
-5.885460
  0
LINE
  8
0
 10
72.464806
 20
-5.885456
 11
72.464806
 21
-3.385456
  0
LINE
  8
0
 10
80.328003
 20
-5.885460
 11
80.328003
 21
-3.385460
  0
LINE
  8
0
 10
83.464783
 20
-5.885445
 11
83.464783
 21
-3.385445
  0
LINE
  8
0
 10
91.328003
 20
-5.885464
 11
91.328003
 21
-3.385464
  0
LINE
  8
0
 10
67.696404
 20
-15.885450
 11
67.696404
 21
-13.885452
  0
LINE
  8
0
 10
96.096359
 20
-15.885469
 11
96.096359
 21
-13.885468
  0
LINE
  8
0
 10
95.596436
 20
-3.385460
 11
68.196442
 21
-3.385460
  0
LINE
  8
0
 10
93.496414
 20
21.614536
 11
70.296432
 21
21.614536
  0
LINE
  8
0
 10
69.296410
 20
19.614574
 11
68.296448
 21
19.037243
  0
LINE
  8
0
 10
95.496384
 20
19.037144
 11
94.496368
 21
19.614506
  0
LINE
  8
0
 10
94.496399
 20
19.614529
 11
94.496399
 21
20.614529
  0
LINE
  8
0
 10
69.296379
 20
19.614552
 11
69.296379
 21
20.614552
  0
LINE
  8
0
 10
67.709381
 20
-2.898483
 11
68.296364
 21
19.037197
  0
LINE
  8
0
 10
96.083099
 20
-2.898510
 11
95.496147
 21
19.037159
  0
LINE
  8
0
 10
95.596375
 20
-3.385410
 11
96.083328
 21
-2.898457
  0
LINE
  8
0
 10
68.196404
 20
-3.385532
 11
67.709404
 21
-2.898533
  0
LINE
  8
0
 10
78.896545
 20
-0.885445
 11
79.429665
 21
19.037201
  0
LINE
  8
0
 10
84.896461
 20
-0.885460
 11
84.363373
 21
19.037186
  0
LINE
  8
0
 10
95.496414
 20
19.037189
 11
95.269363
 21
19.037189
  0
LINE
  8
0
 10
95.707458
 20
-0.885460
 11
93.783630
 21
-0.885460
  0
LINE
  8
0
 10
94.496414
 20
19.614552
 11
94.189468
 21
19.614552
  0
LINE
  8
0
 10
96.083374
 20
-2.898491
 11
67.709442
 21
-2.898491
  0
LINE
  8
0
 10
78.896423
 20
-0.885460
 11
74.251892
 21
-0.885460
  0
LINE
  8
0
 10
94.849854
 20
-0.433327
 11
93.768127
 21
-0.433327
  0
LINE
  8
0
 10
78.666626
 20
-0.433327
 11
75.020813
 21
-0.433327
  0
LINE
  8
0
 10
84.371277
 20
19.037174
 11
84.660629
 21
19.614521
  0
LINE
  8
0
 10
88.634377
 20
19.614624
 11
89.602562
 21
19.037273
  0
LINE
  8
0
 10
93.102402
 20
19.037148
 11
92.543442
 21
19.614479
  0
LINE
  8
0
 10
94.189468
 20
19.614540
 11
95.269363
 21
19.037174
  0
LINE
  8
0
 10
89.540955
 20
-0.885517
 11
88.772057
 21
-0.433407
  0
LINE
  8
0
 10
95.707436
 20
-0.885475
 11
94.849831
 21
-0.433361
  0
LINE
  8
0
 10
84.896606
 20
-0.885574
 11
85.126396
 21
-0.433445
  0
LINE
  8
0
 10
85.126312
 20
-0.433315
 11
84.660751
 21
19.614571
  0
LINE
  8
0
 10
88.772018
 20
-0.433319
 11
88.634315
 21
19.614555
  0
LINE
  8
0
 10
89.540947
 20
-0.885437
 11
89.602501
 21
19.037189
  0
LINE
  8
0
 10
93.102173
 20
19.037155
 11
93.783272
 21
-0.885483
  0
LINE
  8
0
 10
94.189796
 20
19.614532
 11
94.850143
 21
-0.433350
  0
LINE
  8
0
 10
95.707451
 20
-0.885490
 11
95.269348
 21
19.037144
  0
LINE
  8
0
 10
78.666664
 20
-0.433327
 11
79.132248
 21
19.614536
  0
LINE
  8
0
 10
79.421570
 20
19.037239
 11
79.132233
 21
19.614574
  0
LINE
  8
0
 10
78.896500
 20
-0.885468
 11
78.666710
 21
-0.433342
  0
LINE
  8
0
 10
75.020737
 20
-0.433311
 11
75.158463
 21
19.614567
  0
LINE
  8
0
 10
74.251884
 20
-0.885445
 11
74.190353
 21
19.037201
  0
LINE
  8
0
 10
70.690140
 20
19.037189
 11
70.009010
 21
-0.885422
  0
LINE
  8
0
 10
69.603683
 20
19.614559
 11
68.943314
 21
-0.433323
  0
LINE
  8
0
 10
68.085426
 20
-0.885426
 11
68.523552
 21
19.037231
  0
LINE
  8
0
 10
68.085373
 20
-0.885387
 11
68.943008
 21
-0.433258
  0
LINE
  8
0
 10
74.251785
 20
-0.885330
 11
75.020714
 21
-0.433208
  0
LINE
  8
0
 10
75.158539
 20
19.614502
 11
74.190369
 21
19.037163
  0
LINE
  8
0
 10
70.690308
 20
19.037266
 11
71.249283
 21
19.614613
  0
LINE
  8
0
 10
69.603424
 20
19.614601
 11
68.523552
 21
19.037251
  0
LINE
  8
0
 10
84.371292
 20
19.037189
 11
79.421585
 21
19.037189
  0
LINE
  8
0
 10
74.190323
 20
19.037189
 11
70.690353
 21
19.037189
  0
LINE
  8
0
 10
68.523514
 20
19.037189
 11
68.296432
 21
19.037189
  0
LINE
  8
0
 10
93.102554
 20
19.037189
 11
89.602493
 21
19.037189
  0
LINE
  8
0
 10
88.772034
 20
-0.433327
 11
85.126221
 21
-0.433327
  0
LINE
  8
0
 10
89.540955
 20
-0.885460
 11
84.896423
 21
-0.885460
  0
LINE
  8
0
 10
70.024719
 20
-0.433327
 11
68.942993
 21
-0.433327
  0
LINE
  8
0
 10
70.009216
 20
-0.885460
 11
68.085388
 21
-0.885460
  0
LINE
  8
0
 10
84.660660
 20
19.614552
 11
79.132217
 21
19.614552
  0
LINE
  8
0
 10
75.158524
 20
19.614552
 11
71.249344
 21
19.614552
  0
LINE
  8
0
 10
69.603378
 20
19.614552
 11
69.296402
 21
19.614552
  0
LINE
  8
0
 10
92.543533
 20
19.614552
 11
88.634354
 21
19.614552
  0
LINE
  8
0
 10
110.396423
 20
-13.885460
 11
100.896423
 21
-13.885460
  0
LINE
  8
0
 10
66.896416
 20
-15.885450
 11
66.896416
 21
-13.885450
  0
LINE
  8
0
 10
96.896408
 20
-15.885469
 11
96.896408
 21
-13.885469
  0
LINE
  8
0
 10
96.096359
 20
-6.885468
 11
96.096359
 21
-6.385468
  0
LINE
  8
0
 10
67.696404
 20
-6.885452
 11
67.696404
 21
-6.385452
  0
LINE
  8
0
 10
62.734146
 20
-15.885460
 11
110.396423
 21
-15.885460
  0
LINE
  8
0
 10
62.896385
 20
-13.885460
 11
100.896423
 21
-13.885460
  0
LINE
  8
0
 10
70.896416
 20
-50.185455
 11
92.896423
 21
-50.185455
  0
LINE
  8
0
 10
70.896416
 20
-30.185459
 11
92.896423
 21
-30.185459
  0
LINE
  8
0
 10
93.896423
 20
-31.185463
 11
93.896423
 21
-49.185463
  0
LINE
  8
0
 10
69.896416
 20
-31.185459
 11
69.896416
 21
-49.185455
  0
LINE
  8
0
 10
69.896408
 20
-31.185461
 11
70.896408
 21
-30.185459
  0
LINE
  8
0
 10
69.896408
 20
-49.185459
 11
70.896408
 21
-50.185459
  0
LINE
  8
0
 10
92.896355
 20
-50.185387
 11
93.896355
 21
-49.185390
  0
LINE
  8
0
 10
92.896385
 20
-30.185472
 11
93.896393
 21
-31.185482
  0
LINE
  8
0
 10
69.896416
 20
-31.185459
 11
93.896423
 21
-31.185459
  0
LINE
  8
0
 10
69.896416
 20
-49.185455
 11
93.896423
 21
-49.185455
  0
LINE
  8
0
 10
70.896416
 20
-30.185459
 11
70.896416
 21
-50.185455
  0
LINE
  8
0
 10
92.896423
 20
-30.185459
 11
92.896423
 21
-50.185455
  0
LINE
  8
0
 10
61.896416
 20
-31.185459
 11
61.896416
 21
-49.185455
  0
LINE
  8
0
 10
101.896423
 20
-31.185463
 11
101.896423
 21
-49.185463
  0
LINE
  8
0
 10
61.896416
 20
-49.185459
 11
62.896416
 21
-50.185459
  0
LINE
  8
0
 10
61.896420
 20
-31.185452
 11
62.896416
 21
-30.185455
  0
LINE
  8
0
 10
100.896408
 20
-30.185474
 11
101.896408
 21
-31.185476
  0
LINE
  8
0
 10
100.896454
 20
-50.185490
 11
101.896454
 21
-49.185497
  0
LINE
  8
0
 10
62.896408
 20
-30.185461
 11
62.896408
 21
-50.185448
  0
LINE
  8
0
 10
100.896423
 20
-30.185459
 11
100.896423
 21
-50.185463
  0
LINE
  8
0
 10
113.896423
 20
4.114540
 11
113.896423
 21
-12.385460
  0
LINE
  8
0
 10
111.896423
 20
4.114540
 11
113.896423
 21
4.114540
  0
LINE
  8
0
 10
111.896423
 20
4.114540
 11
111.896423
 21
-12.385460
  0
LINE
  8
0
 10
62.396423
 20
-16.685461
 11
62.396423
 21
-17.385460
  0
LINE
  8
0
 10
109.946289
 20
-1.885460
 11
115.849625
 21
-1.885460
  0
LINE
  8
0
 10
111.896423
 20
2.114540
 11
113.896423
 21
2.114540
  0
LINE
  8
0
 10
24.896393
 20
-19.185429
 11
45.396347
 21
-19.185429
  0
LINE
  8
0
 10
22.396275
 20
-61.435547
 11
21.896240
 21
-60.935516
  0
LINE
  8
0
 10
22.396282
 20
-18.935442
 11
21.896290
 21
-19.435432
  0
LINE
  8
0
 10
61.896374
 20
-45.907906
 11
55.896385
 21
-46.095402
  0
LINE
  8
0
 10
61.896397
 20
-33.606987
 11
55.896397
 21
-33.419483
  0
LINE
  8
0
 10
55.896370
 20
-47.185425
 11
55.896370
 21
-33.185455
  0
LINE
  8
0
 10
61.896355
 20
-46.763870
 11
55.896347
 21
-46.951370
  0
LINE
  8
0
 10
61.896385
 20
-34.462990
 11
55.896385
 21
-34.275486
  0
LINE
  8
0
 10
24.896362
 20
-61.185463
 11
45.396362
 21
-61.185463
  0
LINE
  8
0
 10
21.896378
 20
-60.935402
 11
21.896378
 21
-19.435465
  0
LINE
  8
0
 10
22.396393
 20
-18.935490
 11
24.896393
 21
-18.935490
  0
LINE
  8
0
 10
22.396378
 20
-61.435432
 11
22.396378
 21
-18.935465
  0
LINE
  8
0
 10
48.396370
 20
-58.185478
 11
48.396370
 21
-22.185480
  0
LINE
  8
0
 10
24.896378
 20
-61.435440
 11
24.896378
 21
-18.935467
  0
LINE
  8
0
 10
55.896370
 20
-33.185459
 11
48.396347
 21
-33.185459
  0
LINE
  8
0
 10
55.896355
 20
-47.185429
 11
48.396332
 21
-47.185429
  0
LINE
  8
0
 10
55.896389
 20
-33.185501
 11
48.396416
 21
-47.185448
  0
LINE
  8
0
 10
48.396343
 20
-33.185429
 11
55.896339
 21
-47.185436
  0
LINE
  8
0
 10
22.396362
 20
-61.435463
 11
24.896362
 21
-61.435463
  0
LINE
  8
0
 10
22.396439
 20
-61.435394
 11
21.896408
 21
-60.935360
  0
LINE
  8
0
 10
101.896423
 20
-45.907967
 11
103.351852
 21
-45.953449
  0
LINE
  8
0
 10
101.896416
 20
-46.763962
 11
102.866402
 21
-46.794273
  0
LINE
  8
0
 10
102.866425
 20
-33.576664
 11
102.866425
 21
-46.794270
  0
LINE
  8
0
 10
103.566406
 20
-34.789097
 11
103.566406
 21
-45.581852
  0
LINE
  8
0
 10
102.866447
 20
-46.794254
 11
103.566444
 21
-45.581821
  0
LINE
  8
0
 10
102.866455
 20
-33.576664
 11
103.566452
 21
-34.789093
  0
LINE
  8
0
 10
101.896431
 20
-34.462971
 11
103.351868
 21
-34.417488
  0
LINE
  8
0
 10
101.896423
 20
-33.606972
 11
102.866409
 21
-33.576660
  0
LINE
  8
0
 10
24.896378
 20
-40.185459
 11
22.396378
 21
-40.185459
  0
LINE
  8
0
 10
24.896378
 20
-43.185459
 11
22.396378
 21
-43.185459
  0
LINE
  8
0
 10
24.896378
 20
-37.185459
 11
22.396378
 21
-37.185459
  0
LINE
  8
0
 10
24.896378
 20
-46.185459
 11
22.396378
 21
-46.185459
  0
LINE
  8
0
 10
24.896378
 20
-34.185459
 11
22.396378
 21
-34.185459
  0
LINE
  8
0
 10
24.896378
 20
-49.185459
 11
22.396378
 21
-49.185459
  0
LINE
  8
0
 10
24.896378
 20
-31.185459
 11
22.396378
 21
-31.185459
  0
LINE
  8
0
 10
24.896378
 20
-52.185459
 11
22.396378
 21
-52.185459
  0
LINE
  8
0
 10
24.896378
 20
-28.185459
 11
22.396378
 21
-28.185459
  0
LINE
  8
0
 10
24.896378
 20
-55.185459
 11
22.396378
 21
-55.185459
  0
LINE
  8
0
 10
24.896378
 20
-25.185459
 11
22.396378
 21
-25.185459
  0
LINE
  8
0
 10
24.896378
 20
-58.185459
 11
22.396378
 21
-58.185459
  0
LINE
  8
0
 10
24.896378
 20
-22.185459
 11
22.396378
 21
-22.185459
  0
LINE
  8
0
 10
24.896378
 20
-61.185459
 11
22.396378
 21
-61.185459
  0
LINE
  8
0
 10
24.896378
 20
-19.185459
 11
22.396378
 21
-19.185459
  0
ARC
  8
0
 10
90.896423
 20
-121.324432
 40
2.499996
 50
99.206947
 51
180.000000
  0
ARC
  8
0
 10
74.896416
 20
-108.985458
 40
10.000000
 50
180.000000
 51
260.793060
  0
ARC
  8
0
 10
88.896423
 20
-108.985458
 40
10.000000
 50
279.206879
 51
0.000000
  0
ARC
  8
0
 10
72.896416
 20
-121.324432
 40
2.500000
 50
0.000000
 51
80.793053
  0
ARC
  8
0
 10
70.396393
 20
-5.385468
 40
0.500000
 50
270.000000
 51
0.000000
  0
ARC
  8
0
 10
68.196442
 20
-6.385452
 40
0.500000
 50
90.000000
 51
180.000000
  0
ARC
  8
0
 10
93.396423
 20
-5.385452
 40
0.500000
 50
180.000000
 51
270.000000
  0
ARC
  8
0
 10
95.596375
 20
-6.385468
 40
0.500000
 50
0.000000
 51
90.000000
  0
ARC
  8
0
 10
93.496414
 20
20.614529
 40
1.000000
 50
0.000000
 51
90.000000
  0
ARC
  8
0
 10
70.296432
 20
20.614544
 40
1.000000
 50
90.000000
 51
180.000000
  0
ARC
  8
0
 10
107.398285
 20
-40.185455
 40
11.927869
 50
123.031387
 51
236.968613
  0
ARC
  8
0
 10
56.394539
 20
-40.185463
 40
11.927877
 50
303.031433
 51
56.968575
  0
CIRCLE
  8
0
 10
81.896423
 20
-40.185459
 40
8.000000
  0
CIRCLE
  8
0
 10
81.896423
 20
-40.185459
 40
4.283000
  0
CIRCLE
  8
0
 10
81.896423
 20
-40.185459
 40
4.864000
  0
ARC
  8
0
 10
110.396423
 20
-12.385460
 40
1.500000
 50
270.000000
 51
0.000000
  0
ARC
  8
0
 10
110.396423
 20
-12.385460
 40
3.500000
 50
270.000000
 51
0.000000
  0
ARC
  8
0
 10
65.896423
 20
-17.385460
 40
3.500000
 50
90.000000
 51
154.623062
  0
ARC
  8
0
 10
45.396393
 20
-58.185448
 40
3.000000
 50
269.999847
 51
359.999847
  0
ARC
  8
0
 10
45.396347
 20
-22.185478
 40
3.000000
 50
359.999878
 51
89.999855
  0
POINT
  8
0
 10
-64.690651
 20
90.824921
  0
POINT
  8
0
 10
-24.690681
 20
90.824921
  0
LINE
  8
0
 10
-67.291481
 20
90.824921
 11
-21.539589
 21
90.824921
  0
LINE
  8
0
 10
-53.307533
 20
84.824936
 11
-36.073860
 21
84.824936
  0
LINE
  8
0
 10
-53.307533
 20
96.824936
 11
-36.073860
 21
96.824936
  0
LINE
  8
0
 10
-41.099487
 20
80.958153
 11
-40.757454
 21
80.018425
  0
LINE
  8
0
 10
-48.623871
 20
80.018463
 11
-48.281857
 21
80.958145
  0
LINE
  8
0
 10
-44.690681
 20
130.924332
 11
-44.690681
 21
56.285080
  0
LINE
  8
0
 10
-64.690651
 20
95.102463
 11
-64.690651
 21
79.824944
  0
LINE
  8
0
 10
-24.690681
 20
95.101959
 11
-24.690681
 21
79.824951
  0
LINE
  8
0
 10
-63.690712
 20
78.824936
 11
-60.061073
 21
78.824936
  0
LINE
  8
0
 10
-29.320229
 20
78.824936
 11
-25.690681
 21
78.824936
  0
LINE
  8
0
 10
-64.690598
 20
79.825043
 11
-63.690601
 21
78.825043
  0
LINE
  8
0
 10
-25.690495
 20
78.824715
 11
-24.690502
 21
79.824722
  0
LINE
  8
0
 10
-24.690681
 20
79.824951
 11
-28.589424
 21
79.824951
  0
LINE
  8
0
 10
-64.690712
 20
79.824936
 11
-60.791847
 21
79.824936
  0
LINE
  8
0
 10
-63.690712
 20
78.824936
 11
-63.690712
 21
86.437469
  0
LINE
  8
0
 10
-25.690681
 20
78.824936
 11
-25.690681
 21
86.437462
  0
LINE
  8
0
 10
-40.690681
 20
27.933846
 11
-40.690681
 21
75.294388
  0
LINE
  8
0
 10
-49.690681
 20
70.824936
 11
-31.690712
 21
70.824936
  0
LINE
  8
0
 10
-50.690681
 20
72.270973
 11
-50.690681
 21
71.824936
  0
LINE
  8
0
 10
-30.690681
 20
77.251068
 11
-30.690681
 21
71.824936
  0
LINE
  8
0
 10
-30.690460
 20
71.824768
 11
-31.690460
 21
70.824760
  0
LINE
  8
0
 10
-50.690525
 20
71.824966
 11
-49.690548
 21
70.824989
  0
LINE
  8
0
 10
-30.690681
 20
71.824936
 11
-40.303261
 21
71.824936
  0
LINE
  8
0
 10
-50.690681
 20
71.824936
 11
-49.078133
 21
71.824936
  0
LINE
  8
0
 10
-69.690712
 20
122.824905
 11
-19.690681
 21
122.824905
  0
LINE
  8
0
 10
-69.690712
 20
120.824905
 11
-19.690681
 21
120.824905
  0
LINE
  8
0
 10
-19.690681
 20
120.824905
 11
-19.690681
 21
122.824905
  0
LINE
  8
0
 10
-69.690651
 20
120.824905
 11
-69.690651
 21
122.824905
  0
LINE
  8
0
 10
-69.690598
 20
120.824936
 11
-63.664055
 21
89.821091
  0
LINE
  8
0
 10
-25.717186
 20
89.821053
 11
-19.690659
 21
120.824860
  0
LINE
  8
0
 10
-27.690681
 20
118.715790
 11
-27.690681
 21
125.364761
  0
LINE
  8
0
 10
-61.690712
 20
118.715790
 11
-61.690712
 21
125.364761
  0
LINE
  8
0
 10
-67.690651
 20
120.824905
 11
-67.690651
 21
122.824905
  0
LINE
  8
0
 10
-21.690681
 20
120.824905
 11
-21.690681
 21
122.824905
  0
LINE
  8
0
 10
-61.690712
 20
33.824944
 11
-61.690712
 21
54.324898
  0
LINE
  8
0
 10
-19.440567
 20
31.324848
 11
-19.940598
 21
30.824814
  0
LINE
  8
0
 10
-61.940670
 20
31.324844
 11
-61.440681
 21
30.824856
  0
LINE
  8
0
 10
-34.968170
 20
70.824944
 11
-34.780670
 21
64.824951
  0
LINE
  8
0
 10
-47.269211
 20
70.824959
 11
-47.456707
 21
64.824959
  0
LINE
  8
0
 10
-33.690712
 20
64.824936
 11
-47.690681
 21
64.824936
  0
LINE
  8
0
 10
-34.112202
 20
70.824921
 11
-33.924698
 21
64.824905
  0
LINE
  8
0
 10
-46.413208
 20
70.824928
 11
-46.600708
 21
64.824921
  0
LINE
  8
0
 10
-19.690681
 20
33.824944
 11
-19.690681
 21
54.324944
  0
LINE
  8
0
 10
-19.940712
 20
30.824944
 11
-61.440651
 21
30.824944
  0
LINE
  8
0
 10
-61.940651
 20
31.324944
 11
-61.940651
 21
33.824944
  0
LINE
  8
0
 10
-19.440681
 20
31.324944
 11
-61.940651
 21
31.324944
  0
LINE
  8
0
 10
-22.690651
 20
57.324936
 11
-58.690651
 21
57.324936
  0
LINE
  8
0
 10
-19.440681
 20
33.824944
 11
-61.940651
 21
33.824944
  0
LINE
  8
0
 10
-47.690681
 20
64.824928
 11
-47.690681
 21
57.324905
  0
LINE
  8
0
 10
-33.690712
 20
64.824928
 11
-33.690712
 21
57.324905
  0
LINE
  8
0
 10
-47.690651
 20
64.824951
 11
-33.690689
 21
57.324978
  0
LINE
  8
0
 10
-47.690708
 20
57.324890
 11
-33.690708
 21
64.824898
  0
LINE
  8
0
 10
-19.440681
 20
31.324944
 11
-19.440681
 21
33.824944
  0
LINE
  8
0
 10
-19.440666
 20
31.324955
 11
-19.940701
 21
30.824924
  0
LINE
  8
0
 10
-40.690681
 20
33.824944
 11
-40.690681
 21
31.324944
  0
LINE
  8
0
 10
-37.690681
 20
33.824944
 11
-37.690681
 21
31.324944
  0
LINE
  8
0
 10
-43.690681
 20
33.824944
 11
-43.690681
 21
31.324944
  0
LINE
  8
0
 10
-34.690681
 20
33.824944
 11
-34.690681
 21
31.324944
  0
LINE
  8
0
 10
-46.690681
 20
33.824944
 11
-46.690681
 21
31.324944
  0
LINE
  8
0
 10
-31.690681
 20
33.824944
 11
-31.690681
 21
31.324944
  0
LINE
  8
0
 10
-49.690681
 20
33.824944
 11
-49.690681
 21
31.324944
  0
LINE
  8
0
 10
-28.690681
 20
33.824944
 11
-28.690681
 21
31.324944
  0
LINE
  8
0
 10
-52.690681
 20
33.824944
 11
-52.690681
 21
31.324944
  0
LINE
  8
0
 10
-25.690681
 20
33.824944
 11
-25.690681
 21
31.324944
  0
LINE
  8
0
 10
-55.690681
 20
33.824944
 11
-55.690681
 21
31.324944
  0
LINE
  8
0
 10
-22.690681
 20
33.824944
 11
-22.690681
 21
31.324944
  0
LINE
  8
0
 10
-58.690681
 20
33.824944
 11
-58.690681
 21
31.324944
  0
LINE
  8
0
 10
-19.690681
 20
33.824944
 11
-19.690681
 21
31.324944
  0
LINE
  8
0
 10
-61.690681
 20
33.824944
 11
-61.690681
 21
31.324944
  0
CIRCLE
  8
0
 10
-44.690681
 20
90.824921
 40
12.600001
  0
CIRCLE
  8
0
 10
-44.690681
 20
90.824921
 40
14.200000
  0
ARC
  8
0
 10
-44.690681
 20
90.824921
 40
10.500000
 50
325.150085
 51
34.849903
  0
ARC
  8
0
 10
-44.690681
 20
90.824921
 40
10.500000
 50
145.150101
 51
214.849854
  0
ARC
  8
0
 10
-44.690681
 20
90.824921
 40
10.500005
 50
249.999985
 51
289.999969
  0
ARC
  8
0
 10
-44.690681
 20
90.824921
 40
11.500003
 50
249.999969
 51
289.999969
  0
CIRCLE
  8
0
 10
-44.690681
 20
90.824921
 40
19.000000
  0
CIRCLE
  8
0
 10
-44.690681
 20
90.824921
 40
18.000000
  0
CIRCLE
  8
0
 10
-44.690681
 20
90.824921
 40
15.000000
  0
CIRCLE
  8
0
 10
-44.690681
 20
90.824921
 40
14.250001
  0
ARC
  8
0
 10
-44.690681
 20
90.824921
 40
19.500000
 50
175.783188
 51
4.215380
  0
ARC
  8
0
 10
-58.690651
 20
54.324898
 40
3.000000
 50
89.999924
 51
179.999924
  0
ARC
  8
0
 10
-22.690681
 20
54.324974
 40
3.000000
 50
359.999939
 51
89.999924
  0
TEXT
  8
0
 10
-51.633163
 20
98.324936
 40
2.000000
  1
PUSH LOCK
 50
0.000000
 41
0.815350
 51
0.000000
  7
STANDARD
  0
TEXT
  8
0
 10
-51.247681
 20
80.944946
 40
3.200000
  1
+
 50
0.000000
 41
1.052632
 51
0.000000
  7
STANDARD
  0
TEXT
  8
0
 10
-41.747711
 20
80.944946
 40
3.200000
  1
-
 50
0.000000
 41
1.052632
 51
0.000000
  7
STANDARD
  0
ENDSEC
  0
EOF
