  0
SECTION
  2
HEADER
  0
ENDSEC
  0
SECTION
  2
TABLES
  0
TABLE
  2
LTYPE
 70
     4
  0
LTYPE
  2
CONTINUOUS
 70
    64
  3
Solid line
 72
    65
 73
     0
 40
0.000000
  0
LTYPE
  2
DASHED
 70
    64
  3
__ __ __ __ __ __ __ __ __ __ __ __ __ __ __
 72
    65
 73
     2
 40
3.500000
 49
2.000000
 49
-1.500000
  0
LTYPE
  2
CENTER
 70
    64
  3
____ _ ____ _ ____ _ ____ _ ____ _ ____ _ ____
 72
    65
 73
     4
 40
17.500000
 49
13.000000
 49
-1.500000
 49
1.500000
 49
-1.500000
  0
LTYPE
  2
PHANTOM
 70
    64
  3
_____ _ _ _____ _ _ _____ _ _ _____ _ _ ____  
 72
    65
 73
     6
 40
15.500000
 49
8.000000
 49
-1.500000
 49
1.500000
 49
-1.500000
 49
1.500000
 49
-1.500000
  0
LTYPE
  2
DASHED1
 70
    64
  3
__ __ __ __ __ __ __ __ __ __ __ __ __ __ __
 72
    65
 73
     2
 40
1.500000
 49
1.000000
 49
-0.500000
  0
LTYPE
  2
DASHED2
 70
    64
  3
__ __ __ __ __ __ __ __ __ __ __ __ __ __ __
 72
    65
 73
     2
 40
3.500000
 49
2.500000
 49
-1.000000
  0
LTYPE
  2
DASHED3
 70
    64
  3
__ __ __ __ __ __ __ __ __ __ __ __ __ __ __
 72
    65
 73
     2
 40
6.000000
 49
4.000000
 49
-2.000000
  0
LTYPE
  2
DASHED4
 70
    64
  3
__ __ __ __ __ __ __ __ __ __ __ __ __ __ __
 72
    65
 73
     2
 40
12.000000
 49
10.000000
 49
-2.000000
  0
LTYPE
  2
DASHED5
 70
    64
  3
__ __ __ __ __ __ __ __ __ __ __ __ __ __ __
 72
    65
 73
     2
 40
17.000000
 49
15.000000
 49
-2.000000
  0
LTYPE
  2
DASHED6
 70
    64
  3
__ __ __ __ __ __ __ __ __ __ __ __ __ __ __
 72
    65
 73
     2
 40
29.000000
 49
27.000000
 49
-2.000000
  0
LTYPE
  2
PHANTOM1
 70
    64
  3
_____ _ _ _____ _ _ _____ _ _ _____ _ _ ____  
 72
    65
 73
     6
 40
31.000000
 49
25.000000
 49
-1.500000
 49
1.000000
 49
-1.000000
 49
1.000000
 49
-1.500000
  0
LTYPE
  2
PHANTOM2
 70
    64
  3
_____ _ _ _____ _ _ _____ _ _ _____ _ _ ____  
 72
    65
 73
     6
 40
36.000000
 49
27.000000
 49
-1.500000
 49
2.500000
 49
-1.000000
 49
2.500000
 49
-1.500000
  0
LTYPE
  2
PHANTOM3
 70
    64
  3
_____ _ _ _____ _ _ _____ _ _ _____ _ _ ____  
 72
    65
 73
     6
 40
78.000000
 49
64.000000
 49
-2.000000
 49
4.000000
 49
-2.000000
 49
4.000000
 49
-2.000000
  0
LTYPE
  2
CENTER1
 70
    64
  3
____ _ ____ _ ____ _ ____ _ ____ _ ____ _ ____
 72
    65
 73
     4
 40
19.000000
 49
14.000000
 49
-1.000000
 49
3.000000
 49
-1.000000
  0
LTYPE
  2
CENTER2
 70
    64
  3
____ _ ____ _ ____ _ ____ _ ____ _ ____ _ ____
 72
    65
 73
     4
 40
28.500000
 49
25.000000
 49
-1.000000
 49
1.500000
 49
-1.000000
  0
LTYPE
  2
CENTER3
 70
    64
  3
____ _ ____ _ ____ _ ____ _ ____ _ ____ _ ____
 72
    65
 73
     4
 40
31.500000
 49
27.000000
 49
-1.000000
 49
2.500000
 49
-1.000000
  0
LTYPE
  2
CENTER4
 70
    64
  3
____ _ ____ _ ____ _ ____ _ ____ _ ____ _ ____
 72
    65
 73
     4
 40
50.000000
 49
45.000000
 49
-1.000000
 49
3.000000
 49
-1.000000
  0
LTYPE
  2
CENTER5
 70
    64
  3
____ _ ____ _ ____ _ ____ _ ____ _ ____ _ ____
 72
    65
 73
     4
 40
100.000000
 49
92.000000
 49
-2.000000
 49
4.000000
 49
-2.000000
  0
LTYPE
  2
SBK1
 70
    64
  3
______ _ _ _ ______ _ _ _ ______ _ _ _ _____  
 72
    65
 73
     8
 40
60.500000
 49
45.000000
 49
-2.000000
 49
2.500000
 49
-2.000000
 49
2.500000
 49
-2.000000
 49
2.500000
 49
-2.000000
  0
LTYPE
  2
SBK2
 70
    64
  3
______ _ _ _ ______ _ _ _ ______ _ _ _ _____  
 72
    65
 73
     8
 40
84.000000
 49
64.000000
 49
-2.000000
 49
4.000000
 49
-2.000000
 49
4.000000
 49
-2.000000
 49
4.000000
 49
-2.000000
  0
LTYPE
  2
STCH
 70
    64
  3
__ __ __ __ __ __ __ __ __ __ __ __ __ __ __
 72
    65
 73
     2
 40
3.000000
 49
1.000000
 49
-2.000000
  0
LTYPE
  2
MTCH
 70
    64
  3
_____ _ _ _____ _ _ _____ _ _ _____ _ _ ____  
 72
    65
 73
     6
 40
80.000000
 49
66.000000
 49
-2.000000
 49
4.000000
 49
-2.000000
 49
4.000000
 49
-2.000000
  0
ENDTAB
  0
TABLE
  2
LAYER
 70
     1
  0
LAYER
  2
0
 70
     0
 62
     7
  6
CONTINUOUS
  0
ENDTAB
  0
TABLE
  2
STYLE
 70
     1
  0
STYLE
  2
STANDARD
 70
     0
 40
0.000000
 41
1.000000
 50
0.000000
 71
     0
 42
0.200000
  3
txt
  4
BIGFONT
  0
ENDTAB
  0
TABLE
  2
VIEW
 70
     0
  0
ENDTAB
  0
ENDSEC
  0
SECTION
  2
BLOCKS
  0
ENDSEC
  0
SECTION
  2
ENTITIES
  0
LINE
  8
0
 10
-34.589020
 20
133.913956
 11
-34.729034
 21
133.913956
  0
LINE
  8
0
 10
-87.589020
 20
111.413963
 11
-80.729019
 21
113.913963
  0
LINE
  8
0
 10
-87.589012
 20
116.413956
 11
-80.729019
 21
113.913956
  0
LINE
  8
0
 10
-87.589020
 20
116.413956
 11
-87.589020
 21
111.413956
  0
LINE
  8
0
 10
-28.089020
 20
98.913956
 11
-28.089020
 21
128.913956
  0
LINE
  8
0
 10
-89.089020
 20
128.913956
 11
-89.089020
 21
98.913956
  0
LINE
  8
0
 10
-28.089029
 20
98.913956
 11
-27.089027
 21
99.913956
  0
LINE
  8
0
 10
-28.089027
 20
128.913956
 11
-27.089027
 21
127.913963
  0
LINE
  8
0
 10
-90.089020
 20
127.913956
 11
-89.089020
 21
128.913956
  0
LINE
  8
0
 10
-89.089012
 20
98.913948
 11
-90.089012
 21
99.913948
  0
LINE
  8
0
 10
-27.089020
 20
127.913956
 11
-27.089020
 21
99.913956
  0
LINE
  8
0
 10
-90.089020
 20
127.913956
 11
-90.089020
 21
99.913956
  0
LINE
  8
0
 10
-22.339027
 20
54.413960
 11
-22.839027
 21
53.913963
  0
LINE
  8
0
 10
-22.339020
 20
54.413956
 11
-22.339020
 21
56.913956
  0
LINE
  8
0
 10
-50.589027
 20
80.413963
 11
-36.589039
 21
87.913963
  0
LINE
  8
0
 10
-50.589024
 20
87.913963
 11
-36.589024
 21
80.413956
  0
LINE
  8
0
 10
-36.589020
 20
87.913956
 11
-36.589020
 21
80.413956
  0
LINE
  8
0
 10
-50.589020
 20
87.913956
 11
-50.589020
 21
80.413956
  0
LINE
  8
0
 10
-22.339020
 20
56.913956
 11
-64.839020
 21
56.913956
  0
LINE
  8
0
 10
-25.589020
 20
80.413956
 11
-61.589020
 21
80.413956
  0
LINE
  8
0
 10
-22.339020
 20
54.413956
 11
-64.839020
 21
54.413956
  0
LINE
  8
0
 10
-64.839020
 20
54.413956
 11
-64.839020
 21
56.913956
  0
LINE
  8
0
 10
-22.839020
 20
53.913956
 11
-64.339020
 21
53.913956
  0
LINE
  8
0
 10
-22.589020
 20
56.913956
 11
-22.589020
 21
77.413956
  0
LINE
  8
0
 10
-49.319019
 20
93.913963
 11
-49.499020
 21
87.913963
  0
LINE
  8
0
 10
-37.019028
 20
93.913963
 11
-36.829025
 21
87.913963
  0
LINE
  8
0
 10
-36.589020
 20
87.913956
 11
-50.589020
 21
87.913956
  0
LINE
  8
0
 10
-50.169029
 20
93.913963
 11
-50.359032
 21
87.913963
  0
LINE
  8
0
 10
-37.869038
 20
93.913971
 11
-37.679039
 21
87.913971
  0
LINE
  8
0
 10
-64.839020
 20
54.413963
 11
-64.339020
 21
53.913967
  0
LINE
  8
0
 10
-22.339027
 20
54.413960
 11
-22.839027
 21
53.913963
  0
LINE
  8
0
 10
-64.589020
 20
56.913956
 11
-64.589020
 21
77.413956
  0
LINE
  8
0
 10
-51.199020
 20
96.413956
 11
-48.909027
 21
96.413956
  0
LINE
  8
0
 10
-68.279022
 20
96.413956
 11
-65.989029
 21
96.413956
  0
LINE
  8
0
 10
-31.589039
 20
151.613953
 11
-38.899036
 21
110.423958
  0
LINE
  8
0
 10
-85.589020
 20
151.613937
 11
-78.289024
 21
110.423958
  0
LINE
  8
0
  6
CENTER
 62
     2
 10
-77.089020
 20
149.433945
 11
-77.089020
 21
156.573944
  0
LINE
  8
0
  6
CENTER
 62
     2
 10
-40.089020
 20
149.363953
 11
-40.089020
 21
156.573944
  0
LINE
  8
0
 10
-85.589020
 20
151.613953
 11
-85.589020
 21
153.913956
  0
LINE
  8
0
 10
-31.589020
 20
151.613953
 11
-31.589020
 21
153.913956
  0
LINE
  8
0
 10
-85.589020
 20
151.613953
 11
-31.589020
 21
151.613953
  0
LINE
  8
0
 10
-85.589020
 20
153.913956
 11
-31.589020
 21
153.913956
  0
LINE
  8
0
 10
-33.589020
 20
94.913956
 11
-49.649033
 21
94.913956
  0
LINE
  8
0
 10
-33.589020
 20
97.913956
 11
-33.589020
 21
94.913956
  0
LINE
  8
0
 10
-33.589035
 20
94.913948
 11
-34.589031
 21
93.913956
  0
LINE
  8
0
 10
-34.589035
 20
133.913956
 11
-33.589039
 21
132.913956
  0
LINE
  8
0
 10
-52.189026
 20
93.913956
 11
-34.589020
 21
93.913956
  0
LINE
  8
0
 10
-33.589020
 20
132.913956
 11
-33.589020
 21
129.913956
  0
LINE
  8
0
  6
CENTER
 62
     2
 10
-43.589020
 20
50.343964
 11
-43.589020
 21
102.213959
  0
LINE
  8
0
 10
-90.089020
 20
127.913956
 11
-81.389023
 21
127.913956
  0
LINE
  8
0
 10
-27.089020
 20
127.913956
 11
-35.799026
 21
127.913956
  0
LINE
  8
0
 10
-27.089020
 20
99.913956
 11
-42.939026
 21
99.913956
  0
LINE
  8
0
 10
-90.089020
 20
99.913956
 11
-74.249023
 21
99.913956
  0
LINE
  8
0
  6
CENTER
 62
     2
 10
-58.589020
 20
156.913956
 11
-58.589020
 21
77.583969
  0
LINE
  8
0
 10
-43.899033
 20
98.913956
 11
-28.089020
 21
98.913956
  0
LINE
  8
0
 10
-35.619034
 20
128.913956
 11
-28.089020
 21
128.913956
  0
LINE
  8
0
 10
-89.089020
 20
98.913956
 11
-73.289032
 21
98.913956
  0
LINE
  8
0
 10
-89.089020
 20
128.913956
 11
-81.569023
 21
128.913956
  0
LINE
  8
0
 10
-67.209030
 20
119.913956
 11
-49.979034
 21
119.913956
  0
LINE
  8
0
 10
-67.209030
 20
107.913956
 11
-49.979034
 21
107.913956
  0
LINE
  8
0
  6
CENTER
 62
     2
 10
-92.629021
 20
113.913956
 11
-25.509033
 21
113.913956
  0
LINE
  8
0
  6
CENTER
 62
     2
 10
155.659286
 20
1.913956
 11
161.815445
 21
1.913956
  0
LINE
  8
0
 10
57.410927
 20
-57.336040
 11
56.910927
 21
-56.836040
  0
LINE
  8
0
 10
57.410919
 20
-57.336044
 11
59.910919
 21
-57.336044
  0
LINE
  8
0
 10
59.910919
 20
-57.336044
 11
59.910919
 21
-14.836044
  0
LINE
  8
0
 10
57.410919
 20
-57.336044
 11
57.410919
 21
-14.836044
  0
LINE
  8
0
 10
57.410919
 20
-14.836044
 11
59.910919
 21
-14.836044
  0
LINE
  8
0
 10
56.910919
 20
-56.836044
 11
56.910919
 21
-15.336044
  0
LINE
  8
0
 10
57.410927
 20
-14.836047
 11
56.910927
 21
-15.336048
  0
LINE
  8
0
 10
57.410927
 20
-57.336040
 11
56.910927
 21
-56.836040
  0
LINE
  8
0
 10
98.390930
 20
-103.386032
 11
98.390930
 21
-129.376038
  0
LINE
  8
0
 10
100.210922
 20
-103.886032
 11
100.210922
 21
-128.876038
  0
LINE
  8
0
 10
111.840919
 20
-148.876038
 11
127.990921
 21
-148.876038
  0
LINE
  8
0
 10
113.410919
 20
-165.166031
 11
126.410919
 21
-165.166031
  0
LINE
  8
0
 10
117.060921
 20
-167.566040
 11
117.060921
 21
-165.666031
  0
LINE
  8
0
 10
122.760918
 20
-167.566040
 11
122.760918
 21
-165.666031
  0
LINE
  8
0
 10
123.160927
 20
-167.766037
 11
122.740929
 21
-170.166031
  0
LINE
  8
0
 10
123.160912
 20
-170.366028
 11
122.740913
 21
-172.766037
  0
LINE
  8
0
 10
116.660927
 20
-170.366028
 11
117.080917
 21
-172.766037
  0
LINE
  8
0
 10
116.660919
 20
-167.766052
 11
117.080917
 21
-170.166031
  0
LINE
  8
0
 10
123.160919
 20
-167.766037
 11
123.160919
 21
-167.566040
  0
LINE
  8
0
 10
116.660919
 20
-167.766037
 11
116.660919
 21
-167.566040
  0
LINE
  8
0
 10
123.160919
 20
-170.366043
 11
116.660919
 21
-170.366043
  0
LINE
  8
0
 10
123.160919
 20
-167.766037
 11
116.660919
 21
-167.766037
  0
LINE
  8
0
 10
123.160919
 20
-167.566040
 11
116.660919
 21
-167.566040
  0
LINE
  8
0
 10
123.160919
 20
-170.166031
 11
116.660919
 21
-170.166031
  0
LINE
  8
0
 10
123.160919
 20
-170.366043
 11
123.160919
 21
-170.166031
  0
LINE
  8
0
 10
116.660919
 20
-170.366043
 11
116.660919
 21
-170.166031
  0
LINE
  8
0
 10
122.740921
 20
-172.766037
 11
117.080917
 21
-172.766037
  0
LINE
  8
0
 10
125.910919
 20
-165.666031
 11
126.410919
 21
-165.166031
  0
LINE
  8
0
 10
113.410904
 20
-165.166031
 11
113.910904
 21
-165.666031
  0
LINE
  8
0
 10
113.410919
 20
-165.166031
 11
113.410919
 21
-164.166031
  0
LINE
  8
0
 10
126.410919
 20
-165.166031
 11
126.410919
 21
-164.166031
  0
LINE
  8
0
 10
125.910919
 20
-165.666031
 11
113.910919
 21
-165.666031
  0
LINE
  8
0
 10
127.660919
 20
-151.166031
 11
112.160919
 21
-151.166031
  0
LINE
  8
0
 10
113.650917
 20
-163.666031
 11
112.900917
 21
-163.666031
  0
LINE
  8
0
 10
126.920921
 20
-163.666031
 11
126.170921
 21
-163.666031
  0
LINE
  8
0
 10
118.070923
 20
-163.666031
 11
116.250916
 21
-163.666031
  0
LINE
  8
0
 10
113.470917
 20
-163.166031
 11
113.650925
 21
-163.666031
  0
LINE
  8
0
 10
126.350929
 20
-163.166031
 11
126.170921
 21
-163.666031
  0
LINE
  8
0
 10
126.920929
 20
-153.956009
 11
127.510918
 21
-153.666016
  0
LINE
  8
0
 10
123.570930
 20
-153.956039
 11
124.230927
 21
-153.666031
  0
LINE
  8
0
 10
121.750923
 20
-153.956055
 11
121.410927
 21
-153.666046
  0
LINE
  8
0
 10
118.070915
 20
-153.956039
 11
118.410919
 21
-153.666031
  0
LINE
  8
0
 10
116.250900
 20
-153.956039
 11
115.590904
 21
-153.666031
  0
LINE
  8
0
 10
112.900902
 20
-153.956024
 11
112.310913
 21
-153.666031
  0
LINE
  8
0
 10
112.900909
 20
-163.666031
 11
112.310913
 21
-163.166046
  0
LINE
  8
0
 10
116.250931
 20
-163.666061
 11
115.600914
 21
-163.166031
  0
LINE
  8
0
 10
118.410912
 20
-163.166031
 11
118.070923
 21
-163.666031
  0
LINE
  8
0
 10
121.750916
 20
-163.666031
 11
121.410919
 21
-163.166031
  0
LINE
  8
0
 10
123.570908
 20
-163.666031
 11
124.230911
 21
-163.166031
  0
LINE
  8
0
 10
126.920929
 20
-163.666031
 11
127.510918
 21
-163.166046
  0
LINE
  8
0
 10
123.570923
 20
-163.666031
 11
121.750916
 21
-163.666031
  0
LINE
  8
0
 10
126.350922
 20
-163.166031
 11
124.230919
 21
-163.166031
  0
LINE
  8
0
 10
112.310921
 20
-163.166031
 11
112.160919
 21
-163.166031
  0
LINE
  8
0
 10
115.600922
 20
-163.166031
 11
113.470917
 21
-163.166031
  0
LINE
  8
0
 10
121.410919
 20
-163.166031
 11
118.410919
 21
-163.166031
  0
LINE
  8
0
 10
113.470917
 20
-153.956039
 11
112.900917
 21
-153.956039
  0
LINE
  8
0
 10
113.470917
 20
-153.666031
 11
112.310921
 21
-153.666031
  0
LINE
  8
0
 10
123.570923
 20
-153.956039
 11
121.750916
 21
-153.956039
  0
LINE
  8
0
 10
124.230919
 20
-153.666031
 11
121.410919
 21
-153.666031
  0
LINE
  8
0
 10
118.070923
 20
-153.956039
 11
116.250916
 21
-153.956039
  0
LINE
  8
0
 10
118.410919
 20
-153.666031
 11
115.600922
 21
-153.666031
  0
LINE
  8
0
 10
127.660919
 20
-163.166031
 11
127.510918
 21
-163.166031
  0
LINE
  8
0
 10
126.920921
 20
-153.956039
 11
126.350922
 21
-153.956039
  0
LINE
  8
0
 10
127.510918
 20
-153.666031
 11
126.350922
 21
-153.666031
  0
LINE
  8
0
 10
127.510918
 20
-153.666031
 11
127.510918
 21
-163.166031
  0
LINE
  8
0
 10
126.920921
 20
-153.956039
 11
126.920921
 21
-163.666031
  0
LINE
  8
0
 10
126.350922
 20
-153.666031
 11
126.350922
 21
-163.166031
  0
LINE
  8
0
 10
124.230919
 20
-153.666031
 11
124.230919
 21
-163.166031
  0
LINE
  8
0
 10
123.570923
 20
-153.956039
 11
123.570923
 21
-163.666031
  0
LINE
  8
0
 10
112.310921
 20
-153.666031
 11
112.310921
 21
-163.166031
  0
LINE
  8
0
 10
112.900917
 20
-153.956039
 11
112.900917
 21
-163.666031
  0
LINE
  8
0
 10
113.470917
 20
-153.666031
 11
113.470917
 21
-163.166031
  0
LINE
  8
0
 10
115.600922
 20
-153.666031
 11
115.600922
 21
-163.166031
  0
LINE
  8
0
 10
116.250916
 20
-153.956039
 11
116.250916
 21
-163.666031
  0
LINE
  8
0
 10
118.070923
 20
-153.956039
 11
118.070923
 21
-163.666031
  0
LINE
  8
0
 10
121.750916
 20
-153.956039
 11
121.750916
 21
-163.666031
  0
LINE
  8
0
 10
121.410919
 20
-153.666031
 11
121.410919
 21
-163.166031
  0
LINE
  8
0
 10
118.410919
 20
-153.666031
 11
118.410919
 21
-163.166031
  0
LINE
  8
0
 62
     2
 10
125.160919
 20
-149.376038
 11
125.160919
 21
-150.666031
  0
LINE
  8
0
 62
     2
 10
114.660919
 20
-149.376038
 11
114.660919
 21
-150.666031
  0
LINE
  8
0
 10
113.910919
 20
-149.376038
 11
113.910919
 21
-150.666031
  0
LINE
  8
0
 10
125.910919
 20
-149.376038
 11
125.910919
 21
-150.666031
  0
LINE
  8
0
 10
112.660919
 20
-150.666031
 11
112.160919
 21
-151.166031
  0
LINE
  8
0
 10
127.160904
 20
-150.666016
 11
127.660904
 21
-151.166031
  0
LINE
  8
0
 10
127.160919
 20
-150.666031
 11
112.660919
 21
-150.666031
  0
LINE
  8
0
 10
113.160912
 20
-164.166031
 11
112.160912
 21
-163.166016
  0
LINE
  8
0
 10
127.660912
 20
-163.166031
 11
126.660919
 21
-164.166031
  0
LINE
  8
0
 10
112.160919
 20
-151.166031
 11
112.160919
 21
-163.166031
  0
LINE
  8
0
 10
127.660919
 20
-151.166031
 11
127.660919
 21
-163.166031
  0
LINE
  8
0
 10
126.660919
 20
-164.166031
 11
113.160919
 21
-164.166031
  0
LINE
  8
0
 10
112.340912
 20
-149.376022
 11
111.840912
 21
-148.876022
  0
LINE
  8
0
 10
127.490913
 20
-149.376022
 11
127.990913
 21
-148.876022
  0
LINE
  8
0
 10
127.990921
 20
-148.876038
 11
127.990921
 21
-147.876038
  0
LINE
  8
0
 10
111.840919
 20
-148.876038
 11
111.840919
 21
-147.876038
  0
LINE
  8
0
 10
112.340919
 20
-149.376038
 11
127.490921
 21
-149.376038
  0
LINE
  8
0
 10
105.860916
 20
-103.386032
 11
105.860916
 21
-129.376038
  0
LINE
  8
0
 10
141.280914
 20
-131.376038
 11
134.560913
 21
-131.376038
  0
LINE
  8
0
 10
140.690918
 20
-130.876038
 11
134.560913
 21
-130.876038
  0
LINE
  8
0
 10
141.430908
 20
-103.386032
 11
141.430908
 21
-129.376038
  0
LINE
  8
0
 10
139.620911
 20
-103.886032
 11
139.620911
 21
-128.876038
  0
LINE
  8
0
 10
133.960922
 20
-103.386032
 11
133.960922
 21
-129.376038
  0
LINE
  8
0
 10
140.430908
 20
-130.376038
 11
134.960922
 21
-130.376038
  0
LINE
  8
0
 10
140.430908
 20
-102.386032
 11
134.960922
 21
-102.386032
  0
LINE
  8
0
 10
140.430908
 20
-98.386032
 11
134.960922
 21
-98.386032
  0
LINE
  8
0
 10
138.620911
 20
-129.876038
 11
134.960922
 21
-129.876038
  0
LINE
  8
0
 10
138.620911
 20
-97.886032
 11
134.960922
 21
-97.886032
  0
LINE
  8
0
 10
138.620911
 20
-102.886032
 11
134.960922
 21
-102.886032
  0
LINE
  8
0
 10
104.380920
 20
-147.876038
 11
135.440918
 21
-147.876038
  0
LINE
  8
0
 10
101.210922
 20
-102.886032
 11
104.860916
 21
-102.886032
  0
LINE
  8
0
 10
101.210922
 20
-97.886032
 11
104.860916
 21
-97.886032
  0
LINE
  8
0
 10
101.210922
 20
-129.876038
 11
104.860916
 21
-129.876038
  0
LINE
  8
0
 10
99.390930
 20
-98.386032
 11
104.860916
 21
-98.386032
  0
LINE
  8
0
 10
99.390930
 20
-102.386032
 11
104.860916
 21
-102.386032
  0
LINE
  8
0
 10
99.390930
 20
-130.376038
 11
104.860916
 21
-130.376038
  0
LINE
  8
0
 10
99.130920
 20
-130.876038
 11
105.260918
 21
-130.876038
  0
LINE
  8
0
 10
98.550934
 20
-131.376038
 11
105.260918
 21
-131.376038
  0
LINE
  8
0
 10
102.890930
 20
-5.086044
 11
101.810928
 21
-5.086044
  0
LINE
  8
0
 10
101.080925
 20
-5.786045
 11
101.810921
 21
-5.086045
  0
LINE
  8
0
 10
102.350929
 20
-5.786053
 11
102.890930
 21
-5.086052
  0
LINE
  8
0
 10
100.910919
 20
-5.786057
 11
101.080933
 21
-5.786057
  0
LINE
  8
0
 10
100.910927
 20
-5.786054
 11
101.910927
 21
-4.786053
  0
LINE
  8
0
 10
83.410934
 20
-29.086042
 11
90.910934
 21
-43.086037
  0
LINE
  8
0
 10
90.910942
 20
-29.086050
 11
83.410942
 21
-43.086044
  0
LINE
  8
0
 10
90.910919
 20
-43.086044
 11
83.410919
 21
-43.086044
  0
LINE
  8
0
 10
90.910919
 20
-29.086044
 11
83.410919
 21
-29.086044
  0
LINE
  8
0
 10
83.410919
 20
-54.086044
 11
83.410919
 21
-18.086044
  0
LINE
  8
0
 10
96.910927
 20
-30.366045
 11
90.910927
 21
-30.176044
  0
LINE
  8
0
 10
96.910927
 20
-42.656044
 11
90.910934
 21
-42.846043
  0
LINE
  8
0
 10
90.910919
 20
-43.086044
 11
90.910919
 21
-29.086044
  0
LINE
  8
0
 10
96.910934
 20
-29.516047
 11
90.910934
 21
-29.326048
  0
LINE
  8
0
 10
96.910927
 20
-41.806042
 11
90.910927
 21
-41.996044
  0
LINE
  8
0
 10
97.910919
 20
-26.086044
 11
97.910919
 21
-46.086044
  0
LINE
  8
0
 10
89.910919
 20
-66.086044
 11
88.910919
 21
-65.086044
  0
LINE
  8
0
 10
88.910919
 20
-48.086044
 11
88.910919
 21
-65.086044
  0
LINE
  8
0
 10
96.910927
 20
-45.086040
 11
97.910927
 21
-46.086040
  0
LINE
  8
0
 10
96.910927
 20
-27.086046
 11
97.910919
 21
-26.086048
  0
LINE
  8
0
 10
97.910919
 20
-46.086044
 11
99.410919
 21
-46.086044
  0
LINE
  8
0
 10
88.910927
 20
-48.086037
 11
89.910927
 21
-47.086037
  0
LINE
  8
0
 10
98.910927
 20
-14.586045
 11
99.410919
 21
-14.086047
  0
LINE
  8
0
 10
96.910919
 20
-27.086044
 11
96.910919
 21
-45.086044
  0
LINE
  8
0
 10
98.910919
 20
-14.586044
 11
98.910919
 21
-26.086044
  0
LINE
  8
0
 10
101.080933
 20
-9.786057
 11
102.350922
 21
-9.786057
  0
LINE
  8
0
 10
101.080925
 20
-9.786051
 11
101.810928
 21
-9.086049
  0
LINE
  8
0
 10
101.810928
 20
-9.086044
 11
102.350922
 21
-9.086044
  0
LINE
  8
0
 10
100.910919
 20
-9.786057
 11
100.920929
 21
-9.786057
  0
LINE
  8
0
 10
100.910919
 20
-11.786057
 11
100.910919
 21
-5.786057
  0
LINE
  8
0
 10
102.350922
 20
-9.786057
 11
102.350922
 21
-5.786057
  0
LINE
  8
0
 10
101.810928
 20
-9.086044
 11
101.810928
 21
-5.086044
  0
LINE
  8
0
 10
101.080933
 20
-9.786057
 11
101.080933
 21
-5.786057
  0
LINE
  8
0
 10
157.610916
 20
5.913956
 11
159.910919
 21
5.913956
  0
LINE
  8
0
 10
157.610916
 20
8.913956
 11
159.910919
 21
8.913956
  0
LINE
  8
0
 10
157.610916
 20
8.913956
 11
157.610916
 21
-10.286057
  0
LINE
  8
0
 10
159.910919
 20
8.913956
 11
159.910919
 21
-10.286057
  0
LINE
  8
0
 62
     2
 10
105.660919
 20
-11.786057
 11
105.660919
 21
-14.086044
  0
LINE
  8
0
 62
     2
 10
134.160919
 20
-11.786057
 11
134.160919
 21
-14.086044
  0
LINE
  8
0
 10
142.910904
 20
-29.516047
 11
143.880920
 21
-29.486044
  0
LINE
  8
0
 10
142.910904
 20
-30.366047
 11
144.360916
 21
-30.326046
  0
LINE
  8
0
 10
143.880905
 20
-29.486046
 11
144.580902
 21
-30.696051
  0
LINE
  8
0
 10
143.880905
 20
-42.686043
 11
144.580902
 21
-41.476040
  0
LINE
  8
0
 10
144.580917
 20
-30.696045
 11
144.580917
 21
-41.476044
  0
LINE
  8
0
 10
143.880905
 20
-29.486046
 11
143.880905
 21
-42.686043
  0
LINE
  8
0
 10
142.910904
 20
-42.656044
 11
143.880920
 21
-42.686043
  0
LINE
  8
0
 10
142.910904
 20
-41.806042
 11
144.360916
 21
-41.846043
  0
LINE
  8
0
 10
141.910919
 20
-26.086044
 11
141.910919
 21
-46.086044
  0
LINE
  8
0
 10
122.610916
 20
-14.586044
 11
140.910919
 21
-14.586044
  0
LINE
  8
0
 10
117.210922
 20
-16.586044
 11
122.610916
 21
-16.586044
  0
LINE
  8
0
 10
117.210922
 20
-14.086044
 11
117.210922
 21
-16.586044
  0
LINE
  8
0
 10
122.610916
 20
-14.086044
 11
122.610916
 21
-16.586044
  0
LINE
  8
0
 10
149.910904
 20
-66.086037
 11
150.910904
 21
-65.086037
  0
LINE
  8
0
 10
150.910919
 20
-48.086044
 11
150.910919
 21
-65.086044
  0
LINE
  8
0
 10
135.910919
 20
-26.086044
 11
141.910919
 21
-26.086044
  0
LINE
  8
0
 10
140.410919
 20
-46.086044
 11
141.910919
 21
-46.086044
  0
LINE
  8
0
 10
141.910919
 20
-26.086048
 11
142.910919
 21
-27.086048
  0
LINE
  8
0
 10
141.910919
 20
-46.086040
 11
142.910919
 21
-45.086040
  0
LINE
  8
0
 10
133.910919
 20
-24.086044
 11
133.910919
 21
-47.086044
  0
LINE
  8
0
 10
105.910919
 20
-24.086044
 11
105.910919
 21
-47.086044
  0
LINE
  8
0
 10
104.910919
 20
-25.086044
 11
134.910919
 21
-25.086044
  0
LINE
  8
0
 10
133.910904
 20
-24.086050
 11
134.910904
 21
-25.086052
  0
LINE
  8
0
 10
104.910927
 20
-25.086052
 11
105.910927
 21
-24.086050
  0
LINE
  8
0
 10
105.910919
 20
-24.086044
 11
133.910919
 21
-24.086044
  0
LINE
  8
0
 10
104.910919
 20
-25.086044
 11
104.910919
 21
-46.086044
  0
LINE
  8
0
 10
134.910919
 20
-25.086044
 11
134.910919
 21
-46.086044
  0
LINE
  8
0
 10
149.910904
 20
-47.086033
 11
150.910904
 21
-48.086037
  0
LINE
  8
0
 10
140.410919
 20
-14.086050
 11
140.910919
 21
-14.586050
  0
LINE
  8
0
 10
142.910919
 20
-27.086044
 11
142.910919
 21
-45.086044
  0
LINE
  8
0
 10
140.910919
 20
-14.586044
 11
140.910919
 21
-26.086044
  0
LINE
  8
0
 10
130.550919
 20
21.413956
 11
126.640915
 21
21.413956
  0
LINE
  8
0
 10
107.620918
 20
21.413956
 11
107.310921
 21
21.413956
  0
LINE
  8
0
 10
113.180923
 20
21.413956
 11
109.270920
 21
21.413956
  0
LINE
  8
0
 10
122.670921
 20
21.413956
 11
117.150917
 21
21.413956
  0
LINE
  8
0
 10
108.030922
 20
0.913956
 11
106.100922
 21
0.913956
  0
LINE
  8
0
 10
108.040916
 20
1.363953
 11
106.960922
 21
1.363953
  0
LINE
  8
0
 10
127.550919
 20
0.913956
 11
122.910919
 21
0.913956
  0
LINE
  8
0
 10
126.780922
 20
1.363953
 11
123.140915
 21
1.363953
  0
LINE
  8
0
 10
131.110916
 20
20.833954
 11
127.610916
 21
20.833954
  0
LINE
  8
0
 10
106.540916
 20
20.833954
 11
106.310921
 21
20.833954
  0
LINE
  8
0
 10
112.210922
 20
20.833954
 11
108.710922
 21
20.833954
  0
LINE
  8
0
 10
122.380920
 20
20.833954
 11
117.440918
 21
20.833954
  0
LINE
  8
0
 10
107.620918
 20
21.413940
 11
106.540924
 21
20.833942
  0
LINE
  8
0
 10
108.710922
 20
20.833954
 11
109.270920
 21
21.413954
  0
LINE
  8
0
 10
113.180916
 20
21.413935
 11
112.210930
 21
20.833939
  0
LINE
  8
0
 10
112.270927
 20
0.913951
 11
113.040924
 21
1.363949
  0
LINE
  8
0
 10
106.100922
 20
0.913944
 11
106.960922
 21
1.363944
  0
LINE
  8
0
 10
106.100922
 20
0.913949
 11
106.540916
 21
20.833941
  0
LINE
  8
0
 10
107.620918
 20
21.413952
 11
106.960922
 21
1.363945
  0
LINE
  8
0
 10
108.710922
 20
20.833944
 11
108.030922
 21
0.913952
  0
LINE
  8
0
 10
112.270920
 20
0.913954
 11
112.210922
 21
20.833954
  0
LINE
  8
0
 10
113.040916
 20
1.363945
 11
113.180916
 21
21.413948
  0
LINE
  8
0
 10
116.910927
 20
0.913942
 11
116.680916
 21
1.363944
  0
LINE
  8
0
 10
117.440910
 20
20.833948
 11
117.150917
 21
21.413942
  0
LINE
  8
0
 10
116.680908
 20
1.363949
 11
117.150909
 21
21.413952
  0
LINE
  8
0
 10
133.720932
 20
0.913949
 11
133.280930
 21
20.833941
  0
LINE
  8
0
 10
132.200912
 20
21.413952
 11
132.860916
 21
1.363945
  0
LINE
  8
0
 10
131.110916
 20
20.833944
 11
131.790924
 21
0.913951
  0
LINE
  8
0
 10
127.550919
 20
0.913954
 11
127.610916
 21
20.833954
  0
LINE
  8
0
 10
126.780922
 20
1.363945
 11
126.640923
 21
21.413948
  0
LINE
  8
0
 10
123.140923
 20
1.363950
 11
122.670921
 21
21.413954
  0
LINE
  8
0
 10
122.910912
 20
0.913938
 11
123.140915
 21
1.363940
  0
LINE
  8
0
 10
133.720917
 20
0.913951
 11
132.860916
 21
1.363951
  0
LINE
  8
0
 10
127.550911
 20
0.913944
 11
126.780914
 21
1.363946
  0
LINE
  8
0
 10
132.200928
 20
21.413942
 11
133.280914
 21
20.833946
  0
LINE
  8
0
 10
131.110916
 20
20.833952
 11
130.550919
 21
21.413956
  0
LINE
  8
0
 10
126.640923
 20
21.413940
 11
127.610916
 21
20.833941
  0
LINE
  8
0
 10
122.380928
 20
20.833954
 11
122.670921
 21
21.413950
  0
LINE
  8
0
 10
116.680923
 20
1.363953
 11
113.040916
 21
1.363953
  0
LINE
  8
0
 10
132.860916
 20
1.363953
 11
131.780914
 21
1.363953
  0
LINE
  8
0
 10
116.910919
 20
0.913956
 11
112.270920
 21
0.913956
  0
LINE
  8
0
 10
134.090912
 20
-1.106049
 11
105.730919
 21
-1.106049
  0
LINE
  8
0
 10
132.510925
 20
21.413956
 11
132.200912
 21
21.413956
  0
LINE
  8
0
 10
133.720917
 20
0.913956
 11
131.790924
 21
0.913956
  0
LINE
  8
0
 10
133.510925
 20
20.833954
 11
133.280914
 21
20.833954
  0
LINE
  8
0
 10
122.910919
 20
0.913944
 11
122.370918
 21
20.833948
  0
LINE
  8
0
 10
116.910919
 20
0.913944
 11
117.450920
 21
20.833948
  0
LINE
  8
0
 10
106.210922
 20
-1.586054
 11
105.730919
 21
-1.106048
  0
LINE
  8
0
 10
133.610916
 20
-1.586051
 11
134.090912
 21
-1.106043
  0
LINE
  8
0
 10
134.090912
 20
-1.106052
 11
133.510925
 21
20.833946
  0
LINE
  8
0
 10
105.730919
 20
-1.106052
 11
106.310921
 21
20.833946
  0
LINE
  8
0
 10
107.310921
 20
21.413956
 11
107.310921
 21
22.413956
  0
LINE
  8
0
 10
132.510925
 20
21.413956
 11
132.510925
 21
22.413956
  0
LINE
  8
0
 10
133.510910
 20
20.833944
 11
132.510925
 21
21.413942
  0
LINE
  8
0
 10
107.310921
 20
21.413939
 11
106.310921
 21
20.833941
  0
LINE
  8
0
 10
131.510925
 20
23.413956
 11
108.310921
 21
23.413956
  0
LINE
  8
0
 10
133.610916
 20
-1.586044
 11
106.210922
 21
-1.586044
  0
LINE
  8
0
 10
104.910919
 20
-4.786057
 11
134.910919
 21
-4.786057
  0
LINE
  8
0
 10
134.910919
 20
-14.086044
 11
134.910919
 21
-11.786057
  0
LINE
  8
0
 10
134.110916
 20
-4.786057
 11
134.110916
 21
-4.586044
  0
LINE
  8
0
 10
105.710922
 20
-4.786057
 11
105.710922
 21
-4.586044
  0
LINE
  8
0
 10
104.910919
 20
-14.086044
 11
104.910919
 21
-11.786057
  0
LINE
  8
0
 10
131.810913
 20
-4.086044
 11
131.810913
 21
-1.586044
  0
LINE
  8
0
 10
108.010918
 20
-4.086044
 11
108.010918
 21
-1.586044
  0
LINE
  8
0
 10
134.110916
 20
-5.086061
 11
134.910904
 21
-5.886061
  0
LINE
  8
0
 10
104.910927
 20
-5.886057
 11
105.710930
 21
-5.086059
  0
LINE
  8
0
 10
131.700912
 20
-4.086044
 11
131.700912
 21
-1.586044
  0
LINE
  8
0
 10
127.160919
 20
-4.086044
 11
127.160919
 21
-1.586044
  0
LINE
  8
0
 10
124.450920
 20
-4.086044
 11
124.450920
 21
-1.586044
  0
LINE
  8
0
 10
115.370918
 20
-4.086044
 11
115.370918
 21
-1.586044
  0
LINE
  8
0
 10
112.660919
 20
-4.086044
 11
112.660919
 21
-1.586044
  0
LINE
  8
0
 10
108.120918
 20
-4.086044
 11
108.120918
 21
-1.586044
  0
LINE
  8
0
 10
133.610916
 20
-4.086044
 11
106.210922
 21
-4.086044
  0
LINE
  8
0
 10
117.410919
 20
-5.786057
 11
119.910919
 21
-5.786057
  0
LINE
  8
0
 10
108.330917
 20
-5.786057
 11
112.660919
 21
-5.786057
  0
LINE
  8
0
 10
108.530922
 20
-5.086044
 11
105.590919
 21
-5.086044
  0
LINE
  8
0
 10
117.220917
 20
-5.086044
 11
113.200920
 21
-5.086044
  0
LINE
  8
0
 10
105.590919
 20
-9.086044
 11
108.330917
 21
-9.086044
  0
LINE
  8
0
 10
104.850922
 20
-9.786057
 11
108.330917
 21
-9.786057
  0
LINE
  8
0
 10
112.660919
 20
-9.786057
 11
117.410919
 21
-9.786057
  0
LINE
  8
0
 10
113.200920
 20
-9.086044
 11
117.220917
 21
-9.086044
  0
LINE
  8
0
 10
104.850922
 20
-9.786057
 11
104.850922
 21
-5.786057
  0
LINE
  8
0
 10
105.590919
 20
-5.086044
 11
105.590919
 21
-9.086044
  0
LINE
  8
0
 10
104.850922
 20
-5.786048
 11
105.590919
 21
-5.086049
  0
LINE
  8
0
 10
104.850929
 20
-9.786056
 11
105.590935
 21
-9.086051
  0
LINE
  8
0
 10
108.330917
 20
-5.786052
 11
108.530914
 21
-5.086052
  0
LINE
  8
0
 10
108.330917
 20
-9.786057
 11
108.330917
 21
-5.786057
  0
LINE
  8
0
 10
112.660919
 20
-9.786057
 11
112.660919
 21
-5.786057
  0
LINE
  8
0
 10
113.200920
 20
-9.086044
 11
113.200920
 21
-5.086044
  0
LINE
  8
0
 10
117.220917
 20
-9.086044
 11
117.220917
 21
-5.086044
  0
LINE
  8
0
 10
112.660919
 20
-5.786060
 11
113.200920
 21
-5.086063
  0
LINE
  8
0
 10
112.660912
 20
-9.786057
 11
113.200912
 21
-9.086057
  0
LINE
  8
0
 10
117.410912
 20
-5.786046
 11
117.220917
 21
-5.086046
  0
LINE
  8
0
 10
117.410927
 20
-9.786057
 11
117.220917
 21
-9.086041
  0
LINE
  8
0
 10
117.410919
 20
-9.786057
 11
117.410919
 21
-5.786057
  0
LINE
  8
0
 10
122.410919
 20
-5.786057
 11
119.910919
 21
-5.786057
  0
LINE
  8
0
 10
138.740906
 20
-9.786057
 11
137.470917
 21
-9.786057
  0
LINE
  8
0
 10
138.740906
 20
-9.786057
 11
138.740906
 21
-5.786057
  0
LINE
  8
0
 10
138.010910
 20
-9.086044
 11
138.010910
 21
-5.086044
  0
LINE
  8
0
 10
137.470917
 20
-5.786057
 11
134.970917
 21
-5.786057
  0
LINE
  8
0
 10
131.490921
 20
-5.786057
 11
127.160919
 21
-5.786057
  0
LINE
  8
0
 10
136.930908
 20
-5.086044
 11
138.010910
 21
-5.086044
  0
LINE
  8
0
 10
131.290924
 20
-5.086044
 11
134.230927
 21
-5.086044
  0
LINE
  8
0
 10
122.600922
 20
-5.086044
 11
126.620918
 21
-5.086044
  0
LINE
  8
0
 10
134.230927
 20
-9.086044
 11
131.490921
 21
-9.086044
  0
LINE
  8
0
 10
134.970917
 20
-9.786057
 11
131.490921
 21
-9.786057
  0
LINE
  8
0
 10
127.160919
 20
-9.786057
 11
122.410919
 21
-9.786057
  0
LINE
  8
0
 10
126.620918
 20
-9.086044
 11
122.600922
 21
-9.086044
  0
LINE
  8
0
 10
138.740921
 20
-5.786045
 11
138.010910
 21
-5.086047
  0
LINE
  8
0
 10
138.740906
 20
-9.786053
 11
138.010910
 21
-9.086053
  0
LINE
  8
0
 10
137.470901
 20
-5.786053
 11
136.930908
 21
-5.086051
  0
LINE
  8
0
 10
137.470917
 20
-9.786057
 11
137.470917
 21
-5.786057
  0
LINE
  8
0
 10
134.970917
 20
-9.786057
 11
134.970917
 21
-5.786057
  0
LINE
  8
0
 10
134.230927
 20
-5.086044
 11
134.230927
 21
-9.086044
  0
LINE
  8
0
 10
134.970917
 20
-5.786048
 11
134.230911
 21
-5.086047
  0
LINE
  8
0
 10
134.970917
 20
-9.786054
 11
134.230911
 21
-9.086053
  0
LINE
  8
0
 10
131.490921
 20
-5.786052
 11
131.290924
 21
-5.086053
  0
LINE
  8
0
 10
131.490921
 20
-9.786057
 11
131.490921
 21
-5.786057
  0
LINE
  8
0
 10
127.160919
 20
-9.786057
 11
127.160919
 21
-5.786057
  0
LINE
  8
0
 10
126.620918
 20
-9.086044
 11
126.620918
 21
-5.086044
  0
LINE
  8
0
 10
122.600922
 20
-9.086044
 11
122.600922
 21
-5.086044
  0
LINE
  8
0
 10
127.160919
 20
-5.786057
 11
126.620926
 21
-5.086060
  0
LINE
  8
0
 10
127.160927
 20
-9.786047
 11
126.620926
 21
-9.086050
  0
LINE
  8
0
 10
122.410912
 20
-5.786049
 11
122.600906
 21
-5.086051
  0
LINE
  8
0
 10
122.410904
 20
-9.786062
 11
122.600914
 21
-9.086048
  0
LINE
  8
0
 10
122.410919
 20
-9.786057
 11
122.410919
 21
-5.786057
  0
LINE
  8
0
 10
138.010910
 20
-9.086044
 11
137.470917
 21
-9.086044
  0
LINE
  8
0
 10
138.910904
 20
-5.786054
 11
137.910904
 21
-4.786053
  0
LINE
  8
0
 10
138.910919
 20
-9.786057
 11
138.900909
 21
-9.786057
  0
LINE
  8
0
 10
138.910919
 20
-5.786057
 11
138.740906
 21
-5.786057
  0
LINE
  8
0
 10
138.910919
 20
-11.786057
 11
138.910919
 21
-5.786057
  0
LINE
  8
0
 10
141.280914
 20
-70.386032
 11
134.560913
 21
-70.386032
  0
LINE
  8
0
 10
140.690918
 20
-70.886032
 11
134.560913
 21
-70.886032
  0
LINE
  8
0
 10
140.430908
 20
-71.386032
 11
134.960922
 21
-71.386032
  0
LINE
  8
0
 10
138.620911
 20
-71.886032
 11
134.960922
 21
-71.886032
  0
LINE
  8
0
 10
101.210922
 20
-71.886032
 11
104.860916
 21
-71.886032
  0
LINE
  8
0
 10
99.390930
 20
-71.386032
 11
104.860916
 21
-71.386032
  0
LINE
  8
0
 10
99.130920
 20
-70.886032
 11
105.260918
 21
-70.886032
  0
LINE
  8
0
 10
98.550934
 20
-70.386032
 11
105.260918
 21
-70.386032
  0
LINE
  8
0
 10
99.410919
 20
-14.086044
 11
140.410919
 21
-14.086044
  0
LINE
  8
0
 10
137.910919
 20
-4.786057
 11
101.910919
 21
-4.786057
  0
LINE
  8
0
 10
102.350922
 20
-5.786057
 11
104.850922
 21
-5.786057
  0
LINE
  8
0
 10
98.910919
 20
-14.586044
 11
117.210922
 21
-14.586044
  0
LINE
  8
0
 10
89.910919
 20
-66.086044
 11
149.910919
 21
-66.086044
  0
LINE
  8
0
 10
89.910919
 20
-47.086044
 11
149.910919
 21
-47.086044
  0
LINE
  8
0
 10
88.910919
 20
-48.086044
 11
150.910919
 21
-48.086044
  0
LINE
  8
0
 10
97.910919
 20
-26.086044
 11
103.910919
 21
-26.086044
  0
LINE
  8
0
 10
88.910919
 20
-65.086044
 11
150.910919
 21
-65.086044
  0
LINE
  8
0
 10
100.910919
 20
-11.786057
 11
138.910919
 21
-11.786057
  0
LINE
  8
0
 10
138.910919
 20
-11.786057
 11
156.110916
 21
-11.786057
  0
LINE
  8
0
 10
140.410919
 20
-14.086044
 11
156.110916
 21
-14.086044
  0
LINE
  8
0
  6
CENTER
 62
     2
 10
54.520920
 20
-36.086044
 11
145.880905
 21
-36.086044
  0
LINE
  8
0
 10
141.690918
 20
-71.886032
 11
141.690918
 21
-129.876038
  0
LINE
  8
0
 10
133.560913
 20
-71.386032
 11
133.560913
 21
-130.376038
  0
LINE
  8
0
 10
133.960922
 20
-72.386032
 11
133.960922
 21
-97.386032
  0
LINE
  8
0
 10
139.620911
 20
-72.886032
 11
139.620911
 21
-96.886032
  0
LINE
  8
0
 10
141.430908
 20
-72.386032
 11
141.430908
 21
-97.386032
  0
LINE
  8
0
 10
142.280914
 20
-71.386032
 11
142.280914
 21
-130.376038
  0
LINE
  8
0
 10
106.260918
 20
-71.386032
 11
106.260918
 21
-130.376038
  0
LINE
  8
0
 10
105.860916
 20
-72.386032
 11
105.860916
 21
-97.386032
  0
LINE
  8
0
 10
145.440918
 20
-137.956024
 11
146.070908
 21
-66.086037
  0
LINE
  8
0
  6
CENTER
 62
     2
 10
119.910919
 20
28.243942
 11
119.910919
 21
-173.806030
  0
LINE
  8
0
 10
94.380920
 20
-137.956024
 11
93.750923
 21
-66.086037
  0
LINE
  8
0
 10
59.910919
 20
-15.086044
 11
80.410919
 21
-15.086044
  0
LINE
  8
0
 10
59.910919
 20
-57.086044
 11
80.410919
 21
-57.086044
  0
LINE
  8
0
 10
98.130920
 20
-71.886032
 11
98.130920
 21
-129.876038
  0
LINE
  8
0
 10
100.210922
 20
-72.886032
 11
100.210922
 21
-96.886032
  0
LINE
  8
0
 10
98.390930
 20
-72.386032
 11
98.390930
 21
-97.386032
  0
LINE
  8
0
 10
97.550934
 20
-71.386032
 11
97.550934
 21
-130.376038
  0
LINE
  8
0
 62
     2
 10
-72.838989
 20
-14.086044
 11
-72.838989
 21
-11.786057
  0
LINE
  8
0
 62
     2
 10
-44.338989
 20
-14.086044
 11
-44.338989
 21
-11.786057
  0
LINE
  8
0
 10
-43.588989
 20
-14.086044
 11
-43.588989
 21
-11.786057
  0
LINE
  8
0
 10
-73.588989
 20
-14.086044
 11
-73.588989
 21
-11.786057
  0
LINE
  8
0
 10
-78.588989
 20
-1.586044
 11
-75.588989
 21
-1.586044
  0
LINE
  8
0
 10
-78.588989
 20
5.413956
 11
-75.588989
 21
5.413956
  0
LINE
  8
0
  6
CENTER
 62
     2
 10
-77.088989
 20
-2.986053
 11
-77.088989
 21
6.583954
  0
LINE
  8
0
  6
CENTER
 62
     2
 10
-72.518997
 20
1.913956
 11
-82.848991
 21
1.913956
  0
LINE
  8
0
 10
-38.588989
 20
-1.586044
 11
-41.588989
 21
-1.586044
  0
LINE
  8
0
 10
-38.588989
 20
5.413956
 11
-41.588989
 21
5.413956
  0
LINE
  8
0
  6
CENTER
 62
     2
 10
-40.088989
 20
-2.986053
 11
-40.088989
 21
6.583954
  0
LINE
  8
0
  6
CENTER
 62
     2
 10
-44.668991
 20
1.913956
 11
-34.338989
 21
1.913956
  0
LINE
  8
0
 10
-31.588989
 20
-14.086044
 11
-85.588989
 21
-14.086044
  0
LINE
  8
0
 10
-72.509003
 20
8.913956
 11
-82.588989
 21
8.913956
  0
LINE
  8
0
 10
-34.588993
 20
8.913951
 11
-31.588995
 21
5.913951
  0
LINE
  8
0
 10
-85.588982
 20
5.913946
 11
-82.588989
 21
8.913939
  0
LINE
  8
0
 10
-31.588989
 20
-14.086044
 11
-31.588989
 21
5.913956
  0
LINE
  8
0
 10
-85.588989
 20
-14.086044
 11
-85.588989
 21
5.913956
  0
LINE
  8
0
 10
-34.588989
 20
8.913956
 11
-44.679001
 21
8.913956
  0
LINE
  8
0
 10
-85.588989
 20
-11.786057
 11
-31.588989
 21
-11.786057
  0
LINE
  8
0
 10
-72.789001
 20
-4.586044
 11
-72.789001
 21
-4.786057
  0
LINE
  8
0
 10
-55.888992
 20
-14.586044
 11
-37.588989
 21
-14.586044
  0
LINE
  8
0
 10
-61.289001
 20
-16.586044
 11
-55.888992
 21
-16.586044
  0
LINE
  8
0
 10
-55.888992
 20
-16.586044
 11
-55.888992
 21
-14.086044
  0
LINE
  8
0
 10
-61.289001
 20
-16.586044
 11
-61.289001
 21
-14.086044
  0
LINE
  8
0
 10
-28.088989
 20
-48.086044
 11
-28.088989
 21
-24.086044
  0
LINE
  8
0
 10
-89.088989
 20
-48.086044
 11
-89.088989
 21
-24.086044
  0
LINE
  8
0
 10
-27.588989
 20
-65.086044
 11
-89.588989
 21
-65.086044
  0
LINE
  8
0
 10
-28.589010
 20
-66.086044
 11
-27.589008
 21
-65.086044
  0
LINE
  8
0
 10
-88.588997
 20
-66.086037
 11
-89.588989
 21
-65.086044
  0
LINE
  8
0
 10
-27.588989
 20
-48.086044
 11
-27.588989
 21
-65.086044
  0
LINE
  8
0
 10
-89.588989
 20
-48.086044
 11
-89.588989
 21
-65.086044
  0
LINE
  8
0
 10
-43.899002
 20
-25.086044
 11
-27.088989
 21
-25.086044
  0
LINE
  8
0
 10
-74.288986
 20
-24.086044
 11
-89.088989
 21
-24.086044
  0
LINE
  8
0
 10
-43.898994
 20
-25.086052
 11
-42.898998
 21
-24.086054
  0
LINE
  8
0
 10
-43.899002
 20
-25.086044
 11
-43.899002
 21
-26.096045
  0
LINE
  8
0
 10
-38.588989
 20
-46.086044
 11
-38.588989
 21
-45.306046
  0
LINE
  8
0
 10
-48.588989
 20
-46.086044
 11
-48.588989
 21
-45.306046
  0
LINE
  8
0
 10
-74.288994
 20
-24.086048
 11
-73.288994
 21
-25.086050
  0
LINE
  8
0
 10
-31.469002
 20
-48.086037
 11
-32.469002
 21
-47.086033
  0
LINE
  8
0
 10
-85.718979
 20
-48.086040
 11
-84.718987
 21
-47.086044
  0
LINE
  8
0
 10
-32.468994
 20
-47.086044
 11
-84.718987
 21
-47.086044
  0
LINE
  8
0
 10
-73.289001
 20
-25.086044
 11
-73.289001
 21
-46.086044
  0
LINE
  8
0
 10
-85.088989
 20
-43.086044
 11
-88.088989
 21
-43.086044
  0
LINE
  8
0
 10
-85.088989
 20
-29.086044
 11
-88.088989
 21
-29.086044
  0
LINE
  8
0
 10
-29.088989
 20
-43.086044
 11
-32.088989
 21
-43.086044
  0
LINE
  8
0
 10
-29.088989
 20
-29.086044
 11
-32.088989
 21
-29.086044
  0
LINE
  8
0
 10
-32.088989
 20
-43.086044
 11
-32.088989
 21
-29.086044
  0
LINE
  8
0
 10
-29.088989
 20
-43.086044
 11
-29.088989
 21
-29.086044
  0
LINE
  8
0
 10
-85.088989
 20
-43.086044
 11
-85.088989
 21
-29.086044
  0
LINE
  8
0
 10
-88.088989
 20
-43.086044
 11
-88.088989
 21
-29.086044
  0
LINE
  8
0
  6
CENTER
 62
     2
 10
-43.588989
 20
-59.776031
 11
-43.588989
 21
-12.426056
  0
LINE
  8
0
 10
-80.588989
 20
-23.586044
 11
-87.588989
 21
-23.586044
  0
LINE
  8
0
 10
-80.588989
 20
-24.086044
 11
-80.588989
 21
-23.586044
  0
LINE
  8
0
 10
-87.588989
 20
-24.086044
 11
-87.588989
 21
-23.586044
  0
LINE
  8
0
 10
-90.088989
 20
-25.086044
 11
-73.289001
 21
-25.086044
  0
LINE
  8
0
 10
-28.088999
 20
-24.086042
 11
-27.088997
 21
-25.086042
  0
LINE
  8
0
 10
-89.088989
 20
-24.086042
 11
-90.088989
 21
-25.086044
  0
LINE
  8
0
 10
-27.088989
 20
-48.086044
 11
-90.088989
 21
-48.086044
  0
LINE
  8
0
 10
-28.088989
 20
-24.086044
 11
-42.899002
 21
-24.086044
  0
LINE
  8
0
 10
-27.088989
 20
-48.086044
 11
-27.088989
 21
-25.086044
  0
LINE
  8
0
 10
-90.088989
 20
-48.086044
 11
-90.088989
 21
-25.086044
  0
LINE
  8
0
 10
-28.588989
 20
-66.086044
 11
-88.588989
 21
-66.086044
  0
LINE
  8
0
 10
-79.588989
 20
-14.586044
 11
-61.289001
 21
-14.586044
  0
LINE
  8
0
 10
-38.088997
 20
-14.086043
 11
-37.588997
 21
-14.586043
  0
LINE
  8
0
 10
-79.588997
 20
-14.586047
 11
-79.088989
 21
-14.086050
  0
LINE
  8
0
 10
-37.588989
 20
-23.086044
 11
-37.588989
 21
-14.586044
  0
LINE
  8
0
 10
-79.588989
 20
-23.086044
 11
-79.588989
 21
-14.586044
  0
LINE
  8
0
  6
CENTER
 62
     2
 10
-58.588989
 20
-175.216034
 11
-58.588989
 21
26.443954
  0
LINE
  8
0
 10
-47.948990
 20
21.413956
 11
-51.858994
 21
21.413956
  0
LINE
  8
0
 10
-70.888992
 20
21.413956
 11
-71.188995
 21
21.413956
  0
LINE
  8
0
 10
-65.328995
 20
21.413956
 11
-69.238998
 21
21.413956
  0
LINE
  8
0
 10
-55.828995
 20
21.413956
 11
-61.358994
 21
21.413956
  0
LINE
  8
0
 10
-70.479004
 20
0.913956
 11
-72.408997
 21
0.913956
  0
LINE
  8
0
 10
-70.468994
 20
1.363953
 11
-71.548996
 21
1.363953
  0
LINE
  8
0
 10
-50.948990
 20
0.913956
 11
-55.588989
 21
0.913956
  0
LINE
  8
0
 10
-51.718994
 20
1.363953
 11
-55.358994
 21
1.363953
  0
LINE
  8
0
 10
-47.388992
 20
20.833954
 11
-50.888992
 21
20.833954
  0
LINE
  8
0
 10
-71.968994
 20
20.833954
 11
-72.188995
 21
20.833954
  0
LINE
  8
0
 10
-66.298996
 20
20.833954
 11
-69.798996
 21
20.833954
  0
LINE
  8
0
 10
-56.119003
 20
20.833954
 11
-61.069000
 21
20.833954
  0
LINE
  8
0
 10
-70.888985
 20
21.413942
 11
-71.968987
 21
20.833941
  0
LINE
  8
0
 10
-69.798988
 20
20.833937
 11
-69.238983
 21
21.413940
  0
LINE
  8
0
 10
-65.328987
 20
21.413944
 11
-66.298988
 21
20.833946
  0
LINE
  8
0
 10
-66.238983
 20
0.913953
 11
-65.468994
 21
1.363948
  0
LINE
  8
0
 10
-72.408989
 20
0.913948
 11
-71.548996
 21
1.363946
  0
LINE
  8
0
 10
-72.408997
 20
0.913945
 11
-71.968994
 21
20.833952
  0
LINE
  8
0
 10
-70.889000
 20
21.413946
 11
-71.549004
 21
1.363954
  0
LINE
  8
0
 10
-69.798996
 20
20.833950
 11
-70.478996
 21
0.913944
  0
LINE
  8
0
 10
-66.238991
 20
0.913954
 11
-66.298988
 21
20.833954
  0
LINE
  8
0
 10
-65.469002
 20
1.363950
 11
-65.329002
 21
21.413952
  0
LINE
  8
0
 10
-61.588989
 20
0.913939
 11
-61.818993
 21
1.363953
  0
LINE
  8
0
 10
-61.068993
 20
20.833942
 11
-61.358997
 21
21.413948
  0
LINE
  8
0
 10
-61.818996
 20
1.363952
 11
-61.358997
 21
21.413944
  0
LINE
  8
0
 10
-44.778999
 20
0.913944
 11
-45.219002
 21
20.833952
  0
LINE
  8
0
 10
-46.298992
 20
21.413952
 11
-45.638992
 21
1.363945
  0
LINE
  8
0
 10
-47.389004
 20
20.833942
 11
-46.709003
 21
0.913950
  0
LINE
  8
0
 10
-50.949001
 20
0.913954
 11
-50.889000
 21
20.833954
  0
LINE
  8
0
 10
-51.718990
 20
1.363950
 11
-51.858990
 21
21.413952
  0
LINE
  8
0
 10
-55.358986
 20
1.363946
 11
-55.828987
 21
21.413950
  0
LINE
  8
0
 10
-55.588997
 20
0.913943
 11
-55.358997
 21
1.363943
  0
LINE
  8
0
 10
-44.778996
 20
0.913951
 11
-45.639004
 21
1.363955
  0
LINE
  8
0
 10
-50.948997
 20
0.913947
 11
-51.718998
 21
1.363945
  0
LINE
  8
0
 10
-46.298996
 20
21.413944
 11
-45.218998
 21
20.833946
  0
LINE
  8
0
 10
-47.388992
 20
20.833954
 11
-47.948994
 21
21.413956
  0
LINE
  8
0
 10
-51.858994
 20
21.413952
 11
-50.888992
 21
20.833952
  0
LINE
  8
0
 10
-56.118992
 20
20.833946
 11
-55.828987
 21
21.413954
  0
LINE
  8
0
 10
-61.819000
 20
1.363953
 11
-65.468994
 21
1.363953
  0
LINE
  8
0
 10
-45.638992
 20
1.363953
 11
-46.718994
 21
1.363953
  0
LINE
  8
0
 10
-61.588989
 20
0.913956
 11
-66.238998
 21
0.913956
  0
LINE
  8
0
 10
-44.408997
 20
-1.106049
 11
-72.778992
 21
-1.106049
  0
LINE
  8
0
 10
-45.988998
 20
21.413956
 11
-46.298996
 21
21.413956
  0
LINE
  8
0
 10
-44.778992
 20
0.913956
 11
-46.709000
 21
0.913956
  0
LINE
  8
0
 10
-44.988998
 20
20.833954
 11
-45.218994
 21
20.833954
  0
LINE
  8
0
 10
-55.589005
 20
0.913954
 11
-56.129002
 21
20.833944
  0
LINE
  8
0
 10
-61.589005
 20
0.913949
 11
-61.059006
 21
20.833948
  0
LINE
  8
0
 10
-72.288994
 20
-1.586052
 11
-72.778999
 21
-1.106053
  0
LINE
  8
0
 10
-44.888992
 20
-1.586051
 11
-44.408989
 21
-1.106046
  0
LINE
  8
0
 10
-44.408997
 20
-1.106045
 11
-44.988995
 21
20.833952
  0
LINE
  8
0
 10
-72.778992
 20
-1.106049
 11
-72.188988
 21
20.833941
  0
LINE
  8
0
 10
-71.188995
 20
21.413956
 11
-71.188995
 21
22.413956
  0
LINE
  8
0
 10
-45.988998
 20
21.413956
 11
-45.988998
 21
22.413956
  0
LINE
  8
0
 10
-44.988998
 20
20.833948
 11
-45.988998
 21
21.413950
  0
LINE
  8
0
 10
-71.188988
 20
21.413952
 11
-72.188995
 21
20.833946
  0
LINE
  8
0
 10
-46.988998
 20
23.413956
 11
-70.188995
 21
23.413956
  0
LINE
  8
0
 10
-44.888992
 20
-1.586044
 11
-72.289001
 21
-1.586044
  0
LINE
  8
0
 10
-73.588989
 20
-4.786057
 11
-43.588989
 21
-4.786057
  0
LINE
  8
0
 10
-44.388992
 20
-4.786057
 11
-44.388992
 21
-4.586044
  0
LINE
  8
0
 10
-49.158997
 20
-4.086044
 11
-49.158997
 21
-1.586044
  0
LINE
  8
0
 10
-57.028992
 20
-4.086044
 11
-57.028992
 21
-1.586044
  0
LINE
  8
0
 10
-60.158997
 20
-4.086044
 11
-60.158997
 21
-1.586044
  0
LINE
  8
0
 10
-68.028992
 20
-4.086044
 11
-68.028992
 21
-1.586044
  0
LINE
  8
0
 10
-44.888992
 20
-4.086044
 11
-58.588989
 21
-4.086044
  0
LINE
  8
0
 10
-47.588989
 20
-3.586044
 11
-47.588989
 21
-1.586044
  0
LINE
  8
0
 10
-72.289001
 20
-4.086044
 11
-58.588989
 21
-4.086044
  0
LINE
  8
0
 10
-69.588989
 20
-3.586044
 11
-69.588989
 21
-1.586044
  0
LINE
  8
0
 10
-61.088989
 20
-5.786057
 11
-58.588989
 21
-5.786057
  0
LINE
  8
0
 10
-77.428986
 20
-9.786057
 11
-76.158989
 21
-9.786057
  0
LINE
  8
0
 10
-77.428986
 20
-9.786057
 11
-77.428986
 21
-5.786057
  0
LINE
  8
0
 10
-76.688988
 20
-9.086044
 11
-76.688988
 21
-5.086044
  0
LINE
  8
0
 10
-76.158989
 20
-5.786057
 11
-73.658997
 21
-5.786057
  0
LINE
  8
0
 10
-70.179001
 20
-5.786057
 11
-65.848999
 21
-5.786057
  0
LINE
  8
0
 10
-75.618988
 20
-5.086044
 11
-76.688988
 21
-5.086044
  0
LINE
  8
0
 10
-69.979004
 20
-5.086044
 11
-72.918991
 21
-5.086044
  0
LINE
  8
0
 10
-61.289001
 20
-5.086044
 11
-65.308990
 21
-5.086044
  0
LINE
  8
0
 10
-72.918991
 20
-9.086044
 11
-70.179001
 21
-9.086044
  0
LINE
  8
0
 10
-73.658997
 20
-9.786057
 11
-70.179001
 21
-9.786057
  0
LINE
  8
0
 10
-65.848999
 20
-9.786057
 11
-61.088989
 21
-9.786057
  0
LINE
  8
0
 10
-65.308990
 20
-9.086044
 11
-61.289001
 21
-9.086044
  0
LINE
  8
0
 10
-77.428993
 20
-5.786047
 11
-76.689003
 21
-5.086056
  0
LINE
  8
0
 10
-77.429001
 20
-9.786052
 11
-76.688995
 21
-9.086050
  0
LINE
  8
0
 10
-76.158997
 20
-5.786054
 11
-75.618988
 21
-5.086044
  0
LINE
  8
0
 10
-76.158989
 20
-9.786057
 11
-76.158989
 21
-5.786057
  0
LINE
  8
0
 10
-73.658997
 20
-9.786057
 11
-73.658997
 21
-5.786057
  0
LINE
  8
0
 10
-72.918991
 20
-5.086044
 11
-72.918991
 21
-9.086044
  0
LINE
  8
0
 10
-73.658997
 20
-5.786052
 11
-72.918991
 21
-5.086047
  0
LINE
  8
0
 10
-73.658989
 20
-9.786047
 11
-72.918999
 21
-9.086054
  0
LINE
  8
0
 10
-70.178993
 20
-5.786050
 11
-69.978989
 21
-5.086051
  0
LINE
  8
0
 10
-70.179001
 20
-9.786057
 11
-70.179001
 21
-5.786057
  0
LINE
  8
0
 10
-65.848999
 20
-9.786057
 11
-65.848999
 21
-5.786057
  0
LINE
  8
0
 10
-65.308990
 20
-9.086044
 11
-65.308990
 21
-5.086044
  0
LINE
  8
0
 10
-61.289001
 20
-9.086044
 11
-61.289001
 21
-5.086044
  0
LINE
  8
0
 10
-65.848991
 20
-5.786046
 11
-65.308990
 21
-5.086049
  0
LINE
  8
0
 10
-65.848991
 20
-9.786047
 11
-65.308990
 21
-9.086050
  0
LINE
  8
0
 10
-61.088989
 20
-5.786058
 11
-61.288990
 21
-5.086057
  0
LINE
  8
0
 10
-61.088989
 20
-9.786045
 11
-61.288986
 21
-9.086059
  0
LINE
  8
0
 10
-61.088989
 20
-9.786057
 11
-61.088989
 21
-5.786057
  0
LINE
  8
0
 10
-76.688988
 20
-9.086044
 11
-76.158989
 21
-9.086044
  0
LINE
  8
0
 10
-77.588989
 20
-5.786057
 11
-77.428986
 21
-5.786057
  0
LINE
  8
0
 10
-56.088989
 20
-5.786057
 11
-58.588989
 21
-5.786057
  0
LINE
  8
0
 10
-39.759003
 20
-9.786057
 11
-41.028992
 21
-9.786057
  0
LINE
  8
0
 10
-39.759003
 20
-9.786057
 11
-39.759003
 21
-5.786057
  0
LINE
  8
0
 10
-40.488998
 20
-9.086044
 11
-40.488998
 21
-5.086044
  0
LINE
  8
0
 10
-41.028992
 20
-5.786057
 11
-43.528992
 21
-5.786057
  0
LINE
  8
0
 10
-47.009003
 20
-5.786057
 11
-51.338989
 21
-5.786057
  0
LINE
  8
0
 10
-41.569000
 20
-5.086044
 11
-40.488998
 21
-5.086044
  0
LINE
  8
0
 10
-47.209000
 20
-5.086044
 11
-44.268997
 21
-5.086044
  0
LINE
  8
0
 10
-55.899002
 20
-5.086044
 11
-51.878998
 21
-5.086044
  0
LINE
  8
0
 10
-44.268997
 20
-9.086044
 11
-47.009003
 21
-9.086044
  0
LINE
  8
0
 10
-43.528992
 20
-9.786057
 11
-47.009003
 21
-9.786057
  0
LINE
  8
0
 10
-51.338989
 20
-9.786057
 11
-56.088989
 21
-9.786057
  0
LINE
  8
0
 10
-51.878998
 20
-9.086044
 11
-55.899002
 21
-9.086044
  0
LINE
  8
0
 10
-39.758991
 20
-5.786049
 11
-40.488991
 21
-5.086049
  0
LINE
  8
0
 10
-39.758995
 20
-9.786045
 11
-40.488995
 21
-9.086047
  0
LINE
  8
0
 10
-41.028999
 20
-5.786047
 11
-41.568996
 21
-5.086046
  0
LINE
  8
0
 10
-41.028992
 20
-9.786057
 11
-41.028992
 21
-5.786057
  0
LINE
  8
0
 10
-43.528992
 20
-9.786057
 11
-43.528992
 21
-5.786057
  0
LINE
  8
0
 10
-44.268997
 20
-5.086044
 11
-44.268997
 21
-9.086044
  0
LINE
  8
0
 10
-43.528996
 20
-5.786052
 11
-44.268993
 21
-5.086052
  0
LINE
  8
0
 10
-43.528992
 20
-9.786048
 11
-44.268990
 21
-9.086049
  0
LINE
  8
0
 10
-47.008999
 20
-5.786057
 11
-47.208996
 21
-5.086056
  0
LINE
  8
0
 10
-47.009003
 20
-9.786057
 11
-47.009003
 21
-5.786057
  0
LINE
  8
0
 10
-51.338989
 20
-9.786057
 11
-51.338989
 21
-5.786057
  0
LINE
  8
0
 10
-51.878998
 20
-9.086044
 11
-51.878998
 21
-5.086044
  0
LINE
  8
0
 10
-55.899002
 20
-9.086044
 11
-55.899002
 21
-5.086044
  0
LINE
  8
0
 10
-51.338993
 20
-5.786045
 11
-51.878994
 21
-5.086046
  0
LINE
  8
0
 10
-51.339001
 20
-9.786051
 11
-51.878998
 21
-9.086050
  0
LINE
  8
0
 10
-56.088997
 20
-5.786056
 11
-55.898994
 21
-5.086042
  0
LINE
  8
0
 10
-56.089008
 20
-9.786050
 11
-55.899006
 21
-9.086052
  0
LINE
  8
0
 10
-56.088989
 20
-9.786057
 11
-56.088989
 21
-5.786057
  0
LINE
  8
0
 10
-40.488998
 20
-9.086044
 11
-41.028992
 21
-9.086044
  0
LINE
  8
0
 10
-77.588997
 20
-5.786050
 11
-76.588997
 21
-4.786051
  0
LINE
  8
0
 10
-39.588997
 20
-5.786052
 11
-40.588997
 21
-4.786051
  0
LINE
  8
0
 10
-39.588989
 20
-9.786057
 11
-39.598999
 21
-9.786057
  0
LINE
  8
0
 10
-39.588989
 20
-5.786057
 11
-39.759003
 21
-5.786057
  0
LINE
  8
0
 10
-39.588989
 20
-11.786057
 11
-39.588989
 21
-5.786057
  0
LINE
  8
0
 10
-77.588989
 20
-11.786057
 11
-77.588989
 21
-5.786057
  0
LINE
  8
0
 10
-40.588989
 20
-4.786057
 11
-76.588989
 21
-4.786057
  0
LINE
  8
0
 10
-33.058994
 20
-137.956039
 11
-32.428993
 21
-66.086029
  0
LINE
  8
0
 10
-84.638992
 20
-78.056038
 11
-84.738991
 21
-66.086037
  0
LINE
  8
0
 10
-87.988998
 20
-68.496033
 11
-87.478996
 21
-90.496040
  0
LINE
  8
0
 10
-87.498993
 20
-67.986038
 11
-87.168999
 21
-82.026039
  0
LINE
  8
0
 10
-65.088989
 20
-165.166031
 11
-52.088989
 21
-165.166031
  0
LINE
  8
0
 10
-61.438995
 20
-167.566040
 11
-61.438995
 21
-165.666031
  0
LINE
  8
0
 10
-55.738998
 20
-167.566040
 11
-55.738998
 21
-165.666031
  0
LINE
  8
0
 10
-55.338989
 20
-167.766022
 11
-55.758991
 21
-170.166031
  0
LINE
  8
0
 10
-55.338997
 20
-170.366028
 11
-55.758995
 21
-172.766022
  0
LINE
  8
0
 10
-61.838997
 20
-170.366028
 11
-61.408997
 21
-172.766037
  0
LINE
  8
0
 10
-61.838989
 20
-167.766037
 11
-61.408993
 21
-170.166031
  0
LINE
  8
0
 10
-55.338989
 20
-167.766037
 11
-55.338989
 21
-167.566040
  0
LINE
  8
0
 10
-61.838989
 20
-167.766037
 11
-61.838989
 21
-167.566040
  0
LINE
  8
0
 10
-55.338989
 20
-170.366043
 11
-61.838989
 21
-170.366043
  0
LINE
  8
0
 10
-55.338989
 20
-167.766037
 11
-61.838989
 21
-167.766037
  0
LINE
  8
0
 10
-55.338989
 20
-167.566040
 11
-61.838989
 21
-167.566040
  0
LINE
  8
0
 10
-55.338989
 20
-170.166031
 11
-61.838989
 21
-170.166031
  0
LINE
  8
0
 10
-55.338989
 20
-170.366043
 11
-55.338989
 21
-170.166031
  0
LINE
  8
0
 10
-61.838989
 20
-170.366043
 11
-61.838989
 21
-170.166031
  0
LINE
  8
0
 10
-55.759003
 20
-172.766037
 11
-61.408997
 21
-172.766037
  0
LINE
  8
0
 10
-52.588989
 20
-165.666031
 11
-52.088989
 21
-165.166031
  0
LINE
  8
0
 10
-65.088997
 20
-165.166031
 11
-64.588997
 21
-165.666031
  0
LINE
  8
0
 10
-65.088989
 20
-165.166031
 11
-65.088989
 21
-164.166031
  0
LINE
  8
0
 10
-52.088989
 20
-165.166031
 11
-52.088989
 21
-164.166031
  0
LINE
  8
0
 10
-52.588989
 20
-165.666031
 11
-64.588989
 21
-165.666031
  0
LINE
  8
0
 10
-50.838989
 20
-151.166031
 11
-66.338989
 21
-151.166031
  0
LINE
  8
0
 10
-64.848999
 20
-163.666031
 11
-65.598999
 21
-163.666031
  0
LINE
  8
0
 10
-51.569000
 20
-163.666031
 11
-52.328995
 21
-163.666031
  0
LINE
  8
0
 10
-60.429001
 20
-163.666031
 11
-62.238998
 21
-163.666031
  0
LINE
  8
0
 10
-65.018990
 20
-163.166046
 11
-64.848991
 21
-163.666046
  0
LINE
  8
0
 10
-52.148987
 20
-163.166031
 11
-52.328991
 21
-163.666031
  0
LINE
  8
0
 10
-51.568977
 20
-153.956039
 11
-50.978985
 21
-153.666031
  0
LINE
  8
0
 10
-54.928997
 20
-153.956039
 11
-54.268993
 21
-153.666031
  0
LINE
  8
0
 10
-56.738983
 20
-153.956039
 11
-57.088982
 21
-153.666046
  0
LINE
  8
0
 10
-60.428989
 20
-153.956024
 11
-60.088997
 21
-153.666031
  0
LINE
  8
0
 10
-62.238995
 20
-153.956055
 11
-62.898994
 21
-153.666061
  0
LINE
  8
0
 10
-65.598991
 20
-153.956024
 11
-66.188995
 21
-153.666031
  0
LINE
  8
0
 10
-65.598991
 20
-163.666046
 11
-66.188995
 21
-163.166031
  0
LINE
  8
0
 10
-62.238983
 20
-163.666016
 11
-62.898975
 21
-163.166031
  0
LINE
  8
0
 10
-60.088982
 20
-163.166031
 11
-60.428982
 21
-163.666031
  0
LINE
  8
0
 10
-56.738991
 20
-163.666031
 11
-57.088989
 21
-163.166031
  0
LINE
  8
0
 10
-54.928978
 20
-163.666016
 11
-54.268993
 21
-163.166046
  0
LINE
  8
0
 10
-51.568996
 20
-163.666031
 11
-50.978989
 21
-163.166031
  0
LINE
  8
0
 10
-54.929001
 20
-163.666031
 11
-56.738998
 21
-163.666031
  0
LINE
  8
0
 10
-52.149002
 20
-163.166031
 11
-54.268997
 21
-163.166031
  0
LINE
  8
0
 10
-66.188995
 20
-163.166031
 11
-66.338989
 21
-163.166031
  0
LINE
  8
0
 10
-62.899002
 20
-163.166031
 11
-65.018997
 21
-163.166031
  0
LINE
  8
0
 10
-57.088989
 20
-163.166031
 11
-60.088989
 21
-163.166031
  0
LINE
  8
0
 10
-65.018997
 20
-153.956039
 11
-65.598999
 21
-153.956039
  0
LINE
  8
0
 10
-65.018997
 20
-153.666031
 11
-66.188995
 21
-153.666031
  0
LINE
  8
0
 10
-54.929001
 20
-153.956039
 11
-56.738998
 21
-153.956039
  0
LINE
  8
0
 10
-54.268997
 20
-153.666031
 11
-57.088989
 21
-153.666031
  0
LINE
  8
0
 10
-60.429001
 20
-153.956039
 11
-62.238998
 21
-153.956039
  0
LINE
  8
0
 10
-60.088989
 20
-153.666031
 11
-62.899002
 21
-153.666031
  0
LINE
  8
0
 10
-50.838989
 20
-163.166031
 11
-50.979004
 21
-163.166031
  0
LINE
  8
0
 10
-51.569000
 20
-153.956039
 11
-52.149002
 21
-153.956039
  0
LINE
  8
0
 10
-50.979004
 20
-153.666031
 11
-52.149002
 21
-153.666031
  0
LINE
  8
0
 10
-50.979004
 20
-153.666031
 11
-50.979004
 21
-163.166031
  0
LINE
  8
0
 10
-51.569000
 20
-153.956039
 11
-51.569000
 21
-163.666031
  0
LINE
  8
0
 10
-52.149002
 20
-153.666031
 11
-52.149002
 21
-163.166031
  0
LINE
  8
0
 10
-54.268997
 20
-153.666031
 11
-54.268997
 21
-163.166031
  0
LINE
  8
0
 10
-54.929001
 20
-153.956039
 11
-54.929001
 21
-163.666031
  0
LINE
  8
0
 10
-66.188995
 20
-153.666031
 11
-66.188995
 21
-163.166031
  0
LINE
  8
0
 10
-65.598999
 20
-153.956039
 11
-65.598999
 21
-163.666031
  0
LINE
  8
0
 10
-65.018997
 20
-153.666031
 11
-65.018997
 21
-163.166031
  0
LINE
  8
0
 10
-62.899002
 20
-153.666031
 11
-62.899002
 21
-163.166031
  0
LINE
  8
0
 10
-62.238998
 20
-153.956039
 11
-62.238998
 21
-163.666031
  0
LINE
  8
0
 10
-60.429001
 20
-153.956039
 11
-60.429001
 21
-163.666031
  0
LINE
  8
0
 10
-56.738998
 20
-153.956039
 11
-56.738998
 21
-163.666031
  0
LINE
  8
0
 10
-57.088989
 20
-153.666031
 11
-57.088989
 21
-163.166031
  0
LINE
  8
0
 10
-60.088989
 20
-153.666031
 11
-60.088989
 21
-163.166031
  0
LINE
  8
0
 62
     2
 10
-53.338989
 20
-149.376038
 11
-53.338989
 21
-150.666031
  0
LINE
  8
0
 62
     2
 10
-63.838989
 20
-149.376038
 11
-63.838989
 21
-150.666031
  0
LINE
  8
0
 10
-64.588989
 20
-149.376038
 11
-64.588989
 21
-150.666031
  0
LINE
  8
0
 10
-52.588989
 20
-149.376038
 11
-52.588989
 21
-150.666031
  0
LINE
  8
0
 10
-65.838989
 20
-150.666046
 11
-66.338982
 21
-151.166031
  0
LINE
  8
0
 10
-51.338997
 20
-150.666031
 11
-50.838997
 21
-151.166031
  0
LINE
  8
0
 10
-51.338989
 20
-150.666031
 11
-65.838989
 21
-150.666031
  0
LINE
  8
0
 10
-65.338989
 20
-164.166031
 11
-66.338989
 21
-163.166031
  0
LINE
  8
0
 10
-50.838985
 20
-163.166031
 11
-51.838989
 21
-164.166031
  0
LINE
  8
0
 10
-66.338989
 20
-151.166031
 11
-66.338989
 21
-163.166031
  0
LINE
  8
0
 10
-50.838989
 20
-151.166031
 11
-50.838989
 21
-163.166031
  0
LINE
  8
0
 10
-51.838989
 20
-164.166031
 11
-65.338989
 21
-164.166031
  0
LINE
  8
0
 10
-66.158989
 20
-149.376038
 11
-66.658989
 21
-148.876038
  0
LINE
  8
0
 10
-51.008987
 20
-149.376022
 11
-50.508987
 21
-148.876022
  0
LINE
  8
0
 10
-50.509003
 20
-148.876038
 11
-50.509003
 21
-147.876038
  0
LINE
  8
0
 10
-66.658997
 20
-148.876038
 11
-66.658997
 21
-147.876038
  0
LINE
  8
0
 10
-66.158997
 20
-149.376038
 11
-51.009003
 21
-149.376038
  0
LINE
  8
0
 10
-66.658997
 20
-148.876038
 11
-50.509003
 21
-148.876038
  0
LINE
  8
0
 10
-87.478996
 20
-90.496040
 11
-87.329002
 21
-90.636032
  0
LINE
  8
0
 10
-87.398987
 20
-82.386040
 11
-84.638992
 21
-78.056038
  0
LINE
  8
0
 10
-84.478996
 20
-95.886032
 11
-87.258987
 21
-91.906036
  0
LINE
  8
0
 10
-87.318993
 20
-91.766029
 11
-87.398987
 21
-82.386032
  0
LINE
  8
0
 10
-37.218994
 20
-70.386032
 11
-43.938995
 21
-70.386032
  0
LINE
  8
0
 10
-37.218994
 20
-131.376038
 11
-43.938995
 21
-131.376038
  0
LINE
  8
0
 10
-37.808990
 20
-70.886032
 11
-43.938995
 21
-70.886032
  0
LINE
  8
0
 10
-36.218994
 20
-71.386032
 11
-36.218994
 21
-130.376038
  0
LINE
  8
0
 10
-37.069000
 20
-72.386032
 11
-37.069000
 21
-97.386032
  0
LINE
  8
0
 10
-38.878998
 20
-72.886032
 11
-38.878998
 21
-96.886032
  0
LINE
  8
0
 10
-44.539001
 20
-72.386032
 11
-44.539001
 21
-97.386032
  0
LINE
  8
0
 10
-44.938995
 20
-71.386032
 11
-44.938995
 21
-130.376038
  0
LINE
  8
0
 10
-37.808990
 20
-130.876038
 11
-43.938995
 21
-130.876038
  0
LINE
  8
0
 10
-36.808990
 20
-71.886032
 11
-36.808990
 21
-129.876038
  0
LINE
  8
0
 10
-37.069000
 20
-103.386032
 11
-37.069000
 21
-129.376038
  0
LINE
  8
0
 10
-38.878998
 20
-103.886032
 11
-38.878998
 21
-128.876038
  0
LINE
  8
0
 10
-44.539001
 20
-103.386032
 11
-44.539001
 21
-129.376038
  0
LINE
  8
0
 10
-38.069000
 20
-130.376038
 11
-43.539001
 21
-130.376038
  0
LINE
  8
0
 10
-38.069000
 20
-102.386032
 11
-43.539001
 21
-102.386032
  0
LINE
  8
0
 10
-38.069000
 20
-98.386032
 11
-43.539001
 21
-98.386032
  0
LINE
  8
0
 10
-38.069000
 20
-71.386032
 11
-43.539001
 21
-71.386032
  0
LINE
  8
0
 10
-39.878998
 20
-129.876038
 11
-43.539001
 21
-129.876038
  0
LINE
  8
0
 10
-39.878998
 20
-71.886032
 11
-43.539001
 21
-71.886032
  0
LINE
  8
0
 10
-39.878998
 20
-97.886032
 11
-43.539001
 21
-97.886032
  0
LINE
  8
0
 10
-39.878998
 20
-102.886032
 11
-43.539001
 21
-102.886032
  0
LINE
  8
0
 10
-79.948990
 20
-70.386032
 11
-73.229004
 21
-70.386032
  0
LINE
  8
0
 10
-79.948990
 20
-131.376038
 11
-73.229004
 21
-131.376038
  0
LINE
  8
0
 10
-79.358994
 20
-70.886032
 11
-73.229004
 21
-70.886032
  0
LINE
  8
0
 10
-80.948990
 20
-71.386032
 11
-80.948990
 21
-130.376038
  0
LINE
  8
0
 10
-80.108994
 20
-72.386032
 11
-80.108994
 21
-97.386032
  0
LINE
  8
0
 10
-78.288986
 20
-72.886032
 11
-78.288986
 21
-96.886032
  0
LINE
  8
0
 10
-72.628998
 20
-72.386032
 11
-72.628998
 21
-97.386032
  0
LINE
  8
0
 10
-72.229004
 20
-71.386032
 11
-72.229004
 21
-130.376038
  0
LINE
  8
0
 10
-79.358994
 20
-130.876038
 11
-73.229004
 21
-130.876038
  0
LINE
  8
0
 10
-80.358994
 20
-71.886032
 11
-80.358994
 21
-129.876038
  0
LINE
  8
0
 10
-80.108994
 20
-103.386032
 11
-80.108994
 21
-129.376038
  0
LINE
  8
0
 10
-78.288986
 20
-103.886032
 11
-78.288986
 21
-128.876038
  0
LINE
  8
0
 10
-72.628998
 20
-103.386032
 11
-72.628998
 21
-129.376038
  0
LINE
  8
0
 10
-79.108994
 20
-130.376038
 11
-73.628998
 21
-130.376038
  0
LINE
  8
0
 10
-79.108994
 20
-102.386032
 11
-73.628998
 21
-102.386032
  0
LINE
  8
0
 10
-79.108994
 20
-98.386032
 11
-73.628998
 21
-98.386032
  0
LINE
  8
0
 10
-79.108994
 20
-71.386032
 11
-73.628998
 21
-71.386032
  0
LINE
  8
0
 10
-84.108994
 20
-137.956039
 11
-84.478989
 21
-95.886032
  0
LINE
  8
0
 10
-77.288986
 20
-129.876038
 11
-73.628998
 21
-129.876038
  0
LINE
  8
0
 10
-77.288986
 20
-71.886032
 11
-73.628998
 21
-71.886032
  0
LINE
  8
0
 10
-77.288986
 20
-97.886032
 11
-73.628998
 21
-97.886032
  0
LINE
  8
0
 10
-77.288986
 20
-102.886032
 11
-73.628998
 21
-102.886032
  0
LINE
  8
0
 10
-43.058990
 20
-147.876038
 11
-74.118988
 21
-147.876038
  0
LINE
  8
0
 10
-87.048988
 20
-66.086044
 11
-86.998993
 21
-67.976036
  0
LINE
  8
0
 10
-86.468994
 20
-66.086029
 11
-86.428993
 21
-67.956039
  0
LINE
  8
0
 10
-87.988983
 20
-68.496040
 11
-87.498978
 21
-67.986038
  0
LINE
  8
0
 10
-87.498993
 20
-67.986038
 11
-86.428993
 21
-67.956039
  0
LINE
  8
0
  6
CENTER
 62
     2
 10
-13.593979
 20
-36.086044
 11
-101.131119
 21
-36.086044
  0
LINE
  8
0
 10
-281.250000
 20
195.500000
 11
282.099854
 21
195.500000
  0
LINE
  8
0
 10
-281.250000
 20
195.500000
 11
-281.250000
 21
-195.000000
  0
LINE
  8
0
 10
282.099854
 20
195.500000
 11
282.099854
 21
-195.000000
  0
LINE
  8
0
 10
-281.250000
 20
-195.000000
 11
282.099854
 21
-195.000000
  0
LINE
  8
0
 10
162.099976
 20
-175.000000
 11
162.099976
 21
-195.000000
  0
LINE
  8
0
 10
162.099976
 20
-175.000000
 11
282.099854
 21
-175.000000
  0
LINE
  8
0
 10
162.099976
 20
175.500000
 11
282.099854
 21
175.500000
  0
LINE
  8
0
 10
-281.250000
 20
175.500000
 11
-161.250000
 21
175.500000
  0
LINE
  8
0
 10
162.099976
 20
195.500000
 11
162.099976
 21
175.500000
  0
LINE
  8
0
 10
-161.250000
 20
195.500000
 11
-161.250000
 21
175.500000
  0
ARC
  8
0
 10
-58.582565
 20
113.920891
 40
30.995375
 50
314.263580
 51
319.798248
  0
ARC
  8
0
 10
-58.480453
 20
114.030289
 40
29.996538
 50
315.763245
 51
317.884949
  0
ARC
  8
0
 10
-58.594025
 20
113.913956
 40
20.496109
 50
177.399292
 51
2.600638
  0
ARC
  8
0
 10
-58.594025
 20
113.913956
 40
21.003813
 50
172.311584
 51
7.688374
  0
ARC
  8
0
 10
-58.605240
 20
113.890244
 40
30.997881
 50
140.195969
 51
151.009201
  0
ARC
  8
0
 10
-58.623947
 20
113.862419
 40
30.003584
 50
141.758499
 51
149.890259
  0
ARC
  8
0
 10
-58.622711
 20
113.861153
 40
30.995819
 50
323.866669
 51
331.168701
  0
ARC
  8
0
 10
-58.579956
 20
113.928581
 40
29.998793
 50
326.414795
 51
329.966431
  0
ARC
  8
0
 10
-58.589447
 20
113.914131
 40
31.000305
 50
208.938614
 51
284.955902
  0
ARC
  8
0
 10
-58.597748
 20
113.917526
 40
30.002230
 50
210.005432
 51
285.482147
  0
ARC
  8
0
 10
-58.579956
 20
113.899330
 40
29.998795
 50
30.033590
 51
33.585205
  0
ARC
  8
0
 10
-58.622711
 20
113.966759
 40
30.995821
 50
28.831322
 51
36.133320
  0
ARC
  8
0
 10
-25.589020
 20
77.413971
 40
2.999985
 50
359.999695
 51
90.000252
  0
ARC
  8
0
 10
-61.589005
 20
77.413940
 40
3.000015
 50
90.000290
 51
179.999710
  0
ARC
  8
0
 10
-58.591125
 20
113.916885
 40
20.005188
 50
190.055496
 51
241.035416
  0
ARC
  8
0
 10
-58.590317
 20
113.912155
 40
19.997845
 50
298.954620
 51
349.954590
  0
ARC
  8
0
 10
-32.589020
 20
97.913956
 40
1.000000
 50
90.000221
 51
179.999557
  0
ARC
  8
0
 10
-32.589020
 20
129.913956
 40
1.000008
 50
180.000870
 51
269.999573
  0
CIRCLE
  8
0
 62
     2
 10
-58.589020
 20
113.913956
 40
14.250001
  0
CIRCLE
  8
0
 10
-58.589020
 20
113.913956
 40
15.000000
  0
CIRCLE
  8
0
 10
-58.589020
 20
113.913956
 40
18.000000
  0
CIRCLE
  8
0
 10
-58.589020
 20
113.913956
 40
19.000000
  0
ARC
  8
0
 10
-58.589020
 20
113.913956
 40
10.494385
 50
325.128754
 51
34.871254
  0
ARC
  8
0
 10
-58.589020
 20
113.913956
 40
10.502590
 50
145.159882
 51
214.840057
  0
CIRCLE
  8
0
 10
-58.589020
 20
113.913956
 40
12.600001
  0
CIRCLE
  8
0
 10
-58.589020
 20
113.913956
 40
14.200000
  0
ARC
  8
0
 10
99.393265
 20
-97.383698
 40
1.002337
 50
180.133453
 51
269.866547
  0
ARC
  8
0
 10
101.211090
 20
-96.885864
 40
1.000168
 50
180.009613
 51
269.990387
  0
ARC
  8
0
 10
98.545715
 20
-130.381241
 40
0.994810
 50
179.700317
 51
270.299683
  0
ARC
  8
0
 10
99.129639
 20
-129.877319
 40
0.998719
 50
179.926468
 51
270.073547
  0
ARC
  8
0
 10
99.388229
 20
-129.378738
 40
0.997310
 50
179.844833
 51
270.154724
  0
ARC
  8
0
 10
99.384293
 20
-103.379395
 40
0.993385
 50
89.617157
 51
180.382843
  0
ARC
  8
0
 10
101.206055
 20
-128.880905
 40
0.995144
 50
179.719742
 51
270.280243
  0
ARC
  8
0
 10
101.202103
 20
-103.877213
 40
0.991220
 50
89.490189
 51
180.509811
  0
ARC
  8
0
 10
104.855515
 20
-97.380630
 40
1.005424
 50
270.308258
 51
359.691742
  0
ARC
  8
0
 10
104.855515
 20
-96.880630
 40
1.005424
 50
270.308258
 51
359.691742
  0
ARC
  8
0
 10
105.261559
 20
-130.376678
 40
0.999359
 50
269.963257
 51
0.036743
  0
ARC
  8
0
 10
105.261559
 20
-129.876678
 40
0.999359
 50
269.963257
 51
0.036743
  0
ARC
  8
0
 10
104.860527
 20
-129.375641
 40
1.000397
 50
270.022736
 51
359.977264
  0
ARC
  8
0
 10
104.860527
 20
-128.875641
 40
1.000397
 50
270.022736
 51
359.977264
  0
ARC
  8
0
 10
104.864449
 20
-103.382507
 40
0.996474
 50
359.796906
 51
90.203110
  0
ARC
  8
0
 10
104.864449
 20
-103.882507
 40
0.996474
 50
359.796906
 51
90.203110
  0
ARC
  8
0
 10
140.424927
 20
-97.380051
 40
1.006007
 50
270.341522
 51
359.658905
  0
ARC
  8
0
 10
138.612106
 20
-96.877243
 40
1.008835
 50
270.500031
 51
359.500397
  0
ARC
  8
0
 10
134.962677
 20
-97.384277
 40
1.001756
 50
180.100357
 51
269.899628
  0
ARC
  8
0
 10
134.962677
 20
-96.884277
 40
1.001756
 50
180.100357
 51
269.899628
  0
ARC
  8
0
 10
141.277435
 20
-130.372559
 40
1.003485
 50
270.198639
 51
359.801361
  0
ARC
  8
0
 10
140.688522
 20
-129.873642
 40
1.002398
 50
270.136932
 51
359.863068
  0
ARC
  8
0
 10
140.429932
 20
-129.375061
 40
1.000977
 50
270.055908
 51
359.944092
  0
ARC
  8
0
 10
140.433853
 20
-103.383087
 40
0.997059
 50
359.830780
 51
90.169228
  0
ARC
  8
0
 10
138.617111
 20
-128.872238
 40
1.003807
 50
270.216858
 51
359.783142
  0
ARC
  8
0
 10
138.621017
 20
-103.885925
 40
0.999893
 50
359.993866
 51
90.006119
  0
ARC
  8
0
 10
134.556595
 20
-130.380356
 40
0.995691
 50
179.751511
 51
270.248474
  0
ARC
  8
0
 10
134.556595
 20
-129.880356
 40
0.995691
 50
179.751511
 51
270.248474
  0
ARC
  8
0
 10
134.957642
 20
-129.379318
 40
0.996725
 50
179.811417
 51
270.188599
  0
ARC
  8
0
 10
134.957642
 20
-128.879318
 40
0.996725
 50
179.811417
 51
270.188599
  0
ARC
  8
0
 10
134.953705
 20
-103.378815
 40
0.992809
 50
89.583473
 51
180.416519
  0
ARC
  8
0
 10
134.953705
 20
-103.878815
 40
0.992809
 50
89.583473
 51
180.416519
  0
ARC
  8
0
 10
135.439468
 20
-137.874252
 40
10.001785
 50
270.008301
 51
359.531555
  0
ARC
  8
0
 10
104.378716
 20
-137.877930
 40
9.998100
 50
180.447632
 51
270.012634
  0
ARC
  8
0
 10
99.125717
 20
-71.880829
 40
0.994803
 50
89.699875
 51
180.300125
  0
ARC
  8
0
 10
99.384293
 20
-72.379410
 40
0.993392
 50
89.617599
 51
180.382401
  0
ARC
  8
0
 10
101.202118
 20
-72.877228
 40
0.991227
 50
89.490639
 51
180.509369
  0
ARC
  8
0
 10
102.410919
 20
-14.086044
 40
2.299984
 50
89.999619
 51
180.000351
  0
ARC
  8
0
 10
80.410873
 20
-18.086105
 40
3.000053
 50
0.001020
 51
89.998978
  0
ARC
  8
0
 10
80.410904
 20
-54.086029
 40
3.000015
 50
270.000305
 51
359.999695
  0
ARC
  8
0
 10
99.410919
 20
-46.586044
 40
0.500000
 50
270.000000
 51
90.000000
  0
ARC
  8
0
 10
98.541779
 20
-71.376892
 40
0.990895
 50
89.471054
 51
180.528946
  0
ARC
  8
0
 10
156.110916
 20
-10.286057
 40
3.799995
 50
270.000000
 51
0.000072
  0
ARC
  8
0
 10
156.110886
 20
-10.286026
 40
1.500018
 50
270.000580
 51
359.999298
  0
CIRCLE
  8
0
 10
119.910919
 20
-36.086044
 40
5.722500
  0
CIRCLE
  8
0
 62
     2
 10
119.910919
 20
-36.086044
 40
6.578500
  0
ARC
  8
0
 10
140.410919
 20
-46.586044
 40
0.500000
 50
90.000000
 51
270.000000
  0
ARC
  8
0
 10
135.910919
 20
-25.086040
 40
1.000000
 50
180.000214
 51
270.000000
  0
ARC
  8
0
 10
103.910889
 20
-25.086006
 40
1.000038
 50
270.002197
 51
359.997803
  0
CIRCLE
  8
0
 10
119.910889
 20
-36.085999
 40
10.250000
  0
ARC
  8
0
 10
135.910919
 20
-46.086033
 40
1.000015
 50
180.000656
 51
269.999115
  0
ARC
  8
0
 10
103.910889
 20
-46.086010
 40
1.000034
 50
270.001740
 51
359.998260
  0
ARC
  8
0
 10
108.310867
 20
22.414001
 40
0.999943
 50
89.996941
 51
180.003174
  0
ARC
  8
0
 10
131.510895
 20
22.413925
 40
1.000015
 50
0.001093
 51
89.999123
  0
ARC
  8
0
 10
133.610916
 20
-4.586060
 40
0.500000
 50
0.000164
 51
90.000000
  0
ARC
  8
0
 10
106.210884
 20
-4.586014
 40
0.499963
 50
89.995628
 51
180.004150
  0
ARC
  8
0
 10
105.265488
 20
-71.381470
 40
0.995448
 50
359.737396
 51
90.262604
  0
ARC
  8
0
 10
105.265488
 20
-71.881470
 40
0.995448
 50
359.737396
 51
90.262604
  0
ARC
  8
0
 10
104.864441
 20
-72.382507
 40
0.996481
 50
359.797333
 51
90.202667
  0
ARC
  8
0
 10
104.864441
 20
-72.882507
 40
0.996481
 50
359.797333
 51
90.202667
  0
ARC
  8
0
 10
141.281342
 20
-71.385605
 40
0.999558
 50
359.975067
 51
90.024490
  0
ARC
  8
0
 10
140.692429
 20
-71.884521
 40
0.998475
 50
359.912872
 51
90.087563
  0
ARC
  8
0
 10
140.433853
 20
-72.383102
 40
0.997075
 50
359.831207
 51
90.168350
  0
ARC
  8
0
 10
138.621017
 20
-72.885941
 40
0.999893
 50
359.994324
 51
90.006119
  0
ARC
  8
0
 10
134.552658
 20
-71.377777
 40
0.991779
 50
89.523094
 51
180.476898
  0
ARC
  8
0
 10
134.552658
 20
-71.877777
 40
0.991779
 50
89.523094
 51
180.476898
  0
ARC
  8
0
 10
134.953705
 20
-72.378830
 40
0.992816
 50
89.583481
 51
180.416092
  0
ARC
  8
0
 10
134.953705
 20
-72.878830
 40
0.992816
 50
89.583481
 51
180.416092
  0
ARC
  8
0
 10
-75.593475
 20
1.916397
 40
3.497548
 50
32.661640
 51
89.926384
  0
ARC
  8
0
 10
-75.594391
 20
1.911179
 40
3.497240
 50
270.088501
 51
324.169708
  0
ARC
  8
0
 10
-78.588989
 20
1.913956
 40
3.500000
 50
90.000000
 51
270.000000
  0
ARC
  8
0
 10
-41.592209
 20
1.912186
 40
3.501756
 50
89.947449
 51
147.300690
  0
ARC
  8
0
 10
-41.591522
 20
1.915237
 40
3.501291
 50
215.864273
 51
270.041382
  0
ARC
  8
0
 10
-38.588989
 20
1.913956
 40
3.500000
 50
270.000000
 51
90.000000
  0
CIRCLE
  8
0
  6
PHANTOM
 62
     2
 10
-43.588989
 20
-36.086044
 40
21.250000
  0
CIRCLE
  8
0
 62
     2
 10
-43.588989
 20
-36.086044
 40
6.505000
  0
CIRCLE
  8
0
 10
-43.588989
 20
-36.086044
 40
5.521999
  0
ARC
  8
0
 10
-37.587173
 20
-45.302200
 40
1.001830
 50
123.422920
 51
180.219910
  0
ARC
  8
0
 10
-37.588989
 20
-46.086044
 40
1.000000
 50
180.000000
 51
270.000000
  0
ARC
  8
0
 10
-49.588104
 20
-45.307220
 40
0.999108
 50
0.067597
 51
57.344349
  0
ARC
  8
0
 10
-49.588989
 20
-46.086044
 40
1.000000
 50
270.000000
 51
0.000000
  0
ARC
  8
0
 10
-74.287453
 20
-46.087578
 40
0.998468
 50
269.911987
 51
0.087998
  0
CIRCLE
  8
0
 10
-43.588989
 20
-36.086044
 40
9.000000
  0
CIRCLE
  8
0
 10
-43.588989
 20
-36.086044
 40
10.000000
  0
ARC
  8
0
 10
-36.588989
 20
-23.086044
 40
1.000000
 50
180.000000
 51
270.000000
  0
ARC
  8
0
 10
-80.588989
 20
-23.086044
 40
1.000000
 50
270.000000
 51
0.000000
  0
ARC
  8
0
 10
-70.188995
 20
22.413956
 40
0.999996
 50
90.000000
 51
180.000107
  0
ARC
  8
0
 10
-46.988998
 20
22.413956
 40
0.999996
 50
359.999786
 51
90.000221
  0
ARC
  8
0
 10
-44.888992
 20
-4.586060
 40
0.500000
 50
0.000164
 51
90.000000
  0
ARC
  8
0
 10
-47.088989
 20
-3.586044
 40
0.500000
 50
180.000031
 51
270.000000
  0
ARC
  8
0
 10
-72.289001
 20
-4.586044
 40
0.499994
 50
89.999123
 51
180.000656
  0
ARC
  8
0
 10
-70.088989
 20
-3.586044
 40
0.500000
 50
270.000000
 51
0.000000
  0
ARC
  8
0
 10
-87.021721
 20
-91.726700
 40
0.297418
 50
181.797806
 51
217.081543
  0
ARC
  8
0
 10
-38.073151
 20
-97.381882
 40
1.004159
 50
270.236816
 51
359.763184
  0
ARC
  8
0
 10
-39.885956
 20
-96.879074
 40
1.006982
 50
270.396118
 51
359.604095
  0
ARC
  8
0
 10
-37.216705
 20
-71.383743
 40
0.997702
 50
359.868134
 51
90.131882
  0
ARC
  8
0
 10
-37.805618
 20
-71.882660
 40
0.996630
 50
359.806122
 51
90.194084
  0
ARC
  8
0
 10
-38.064194
 20
-72.381241
 40
0.995216
 50
359.723724
 51
90.276062
  0
ARC
  8
0
 10
-39.877045
 20
-72.884079
 40
0.998045
 50
359.887451
 51
90.112343
  0
ARC
  8
0
 10
-43.535416
 20
-97.382462
 40
1.003588
 50
180.204712
 51
269.795502
  0
ARC
  8
0
 10
-43.535416
 20
-96.882462
 40
1.003588
 50
180.204712
 51
269.795502
  0
ARC
  8
0
 10
-43.945404
 20
-71.379639
 40
0.993620
 50
89.630669
 51
180.369110
  0
ARC
  8
0
 10
-43.945404
 20
-71.879639
 40
0.993620
 50
89.630669
 51
180.369110
  0
ARC
  8
0
 10
-43.544357
 20
-72.380676
 40
0.994651
 50
89.690819
 51
180.308960
  0
ARC
  8
0
 10
-43.544357
 20
-72.880676
 40
0.994651
 50
89.690819
 51
180.308960
  0
ARC
  8
0
 10
-37.220612
 20
-130.374420
 40
1.001619
 50
270.092529
 51
359.907471
  0
ARC
  8
0
 10
-37.809540
 20
-129.875488
 40
1.000549
 50
270.031250
 51
359.968536
  0
ARC
  8
0
 10
-38.068130
 20
-129.376907
 40
0.999131
 50
269.950134
 51
0.049876
  0
ARC
  8
0
 10
-38.064194
 20
-103.381241
 40
0.995209
 50
359.723267
 51
90.276505
  0
ARC
  8
0
 10
-39.880951
 20
-128.874084
 40
1.001955
 50
270.111908
 51
359.888306
  0
ARC
  8
0
 10
-39.877029
 20
-103.884064
 40
0.998037
 50
359.886993
 51
90.112785
  0
ARC
  8
0
 10
-43.941467
 20
-130.378510
 40
0.997531
 50
179.858017
 51
270.141968
  0
ARC
  8
0
 10
-43.941467
 20
-129.878510
 40
0.997531
 50
179.858017
 51
270.141968
  0
ARC
  8
0
 10
-43.540436
 20
-129.377472
 40
0.998563
 50
179.917694
 51
270.082520
  0
ARC
  8
0
 10
-43.540436
 20
-128.877472
 40
0.998563
 50
179.917694
 51
270.082520
  0
ARC
  8
0
 10
-43.544373
 20
-103.380661
 40
0.994643
 50
89.690384
 51
180.309402
  0
ARC
  8
0
 10
-43.544373
 20
-103.880661
 40
0.994643
 50
89.690384
 51
180.309402
  0
ARC
  8
0
 10
-79.104820
 20
-97.381866
 40
1.004182
 50
180.238113
 51
269.761871
  0
ARC
  8
0
 10
-77.286995
 20
-96.884033
 40
1.002001
 50
180.114304
 51
269.885712
  0
ARC
  8
0
 10
-79.956284
 20
-71.378738
 40
0.992733
 50
89.579041
 51
180.420959
  0
ARC
  8
0
 10
-79.367363
 20
-71.877655
 40
0.991658
 50
89.515984
 51
180.484009
  0
ARC
  8
0
 10
-79.113762
 20
-72.381271
 40
0.995235
 50
89.725044
 51
180.274963
  0
ARC
  8
0
 10
-77.295959
 20
-72.879074
 40
0.993059
 50
89.598106
 51
180.401901
  0
ARC
  8
0
 10
-73.637543
 20
-97.377487
 40
1.008589
 50
270.485870
 51
359.514130
  0
ARC
  8
0
 10
-73.637543
 20
-96.877487
 40
1.008589
 50
270.485870
 51
359.514130
  0
ARC
  8
0
 10
-73.227600
 20
-71.384644
 40
0.998605
 50
359.919891
 51
90.080109
  0
ARC
  8
0
 10
-73.227600
 20
-71.884644
 40
0.998605
 50
359.919891
 51
90.080109
  0
ARC
  8
0
 10
-73.628647
 20
-72.385681
 40
0.999649
 50
359.979889
 51
90.020119
  0
ARC
  8
0
 10
-73.628647
 20
-72.885681
 40
0.999649
 50
359.979889
 51
90.020119
  0
ARC
  8
0
 10
-79.952347
 20
-130.379395
 40
0.996649
 50
179.807022
 51
270.192993
  0
ARC
  8
0
 10
-79.363426
 20
-129.880478
 40
0.995577
 50
179.744461
 51
270.255096
  0
ARC
  8
0
 10
-79.109833
 20
-129.376877
 40
0.999153
 50
179.951874
 51
270.048553
  0
ARC
  8
0
 10
-79.113770
 20
-103.381256
 40
0.995228
 50
89.724602
 51
180.275391
  0
ARC
  8
0
 10
-77.292023
 20
-128.879074
 40
0.996976
 50
179.825500
 51
270.174072
  0
ARC
  8
0
 10
-77.295959
 20
-103.879059
 40
0.993051
 50
89.597664
 51
180.402344
  0
ARC
  8
0
 10
-73.231522
 20
-130.373520
 40
1.002521
 50
270.143890
 51
359.856110
  0
ARC
  8
0
 10
-73.231522
 20
-129.873520
 40
1.002521
 50
270.143890
 51
359.856110
  0
ARC
  8
0
 10
-73.632553
 20
-129.372482
 40
1.003562
 50
270.202972
 51
359.797028
  0
ARC
  8
0
 10
-73.632553
 20
-128.872482
 40
1.003562
 50
270.202972
 51
359.797028
  0
ARC
  8
0
 10
-73.628632
 20
-103.385681
 40
0.999641
 50
359.979462
 51
90.020554
  0
ARC
  8
0
 10
-73.628632
 20
-103.885681
 40
0.999641
 50
359.979462
 51
90.020554
  0
ARC
  8
0
 10
-43.058609
 20
-137.876114
 40
9.999924
 50
269.997772
 51
359.542053
  0
ARC
  8
0
 10
-74.114319
 20
-137.881088
 40
9.994948
 50
180.429657
 51
269.973236
  0
POLYLINE
  8
0
 66
     1
  0
VERTEX
  8
0
 10
-84.638992
 20
-78.056030
  0
VERTEX
  8
0
 10
-84.310349
 20
-78.875740
  0
VERTEX
  8
0
 10
-84.010803
 20
-79.690765
  0
VERTEX
  8
0
 10
-83.741180
 20
-80.508507
  0
VERTEX
  8
0
 10
-83.502327
 20
-81.336349
  0
VERTEX
  8
0
 10
-83.295090
 20
-82.181702
  0
VERTEX
  8
0
 10
-83.120293
 20
-83.051949
  0
VERTEX
  8
0
 10
-82.978783
 20
-83.954483
  0
VERTEX
  8
0
 10
-82.871407
 20
-84.896713
  0
VERTEX
  8
0
 10
-82.798988
 20
-85.886032
  0
VERTEX
  8
0
 10
-82.769333
 20
-86.813629
  0
VERTEX
  8
0
 10
-82.779404
 20
-87.742332
  0
VERTEX
  8
0
 10
-82.828110
 20
-88.670532
  0
VERTEX
  8
0
 10
-82.914368
 20
-89.596634
  0
VERTEX
  8
0
 10
-83.037109
 20
-90.519035
  0
VERTEX
  8
0
 10
-83.195244
 20
-91.436134
  0
VERTEX
  8
0
 10
-83.387688
 20
-92.346321
  0
VERTEX
  8
0
 10
-83.613373
 20
-93.248009
  0
VERTEX
  8
0
 10
-83.871201
 20
-94.139595
  0
VERTEX
  8
0
 10
-84.160103
 20
-95.019470
  0
VERTEX
  8
0
 10
-84.478989
 20
-95.886032
  0
SEQEND
  0
TEXT
  8
0
 10
199.400253
 20
180.830002
 40
6.300000
  1
Ｖｅｒ．２．０
 50
0.000000
 41
0.833333
 51
0.000000
  7
STANDARD
  0
TEXT
  8
0
 10
-256.000000
 20
157.720001
 40
6.300000
  1
MODEL:FR300-02
 50
0.000000
 41
1.052632
 51
0.000000
  7
STANDARD
  0
TEXT
  8
0
 10
-272.299713
 20
180.830002
 40
6.300000
  1
FILTER REGULATOR
 50
0.000000
 41
1.052632
 51
0.000000
  7
STANDARD
  0
TEXT
  8
0
 10
-12.583328
 20
-35.086090
 40
6.300000
  1
OUT
 50
0.000000
 41
1.052632
 51
0.000000
  7
STANDARD
  0
TEXT
  8
0
 10
-120.583328
 20
-35.086029
 40
6.300000
  1
IN
 50
0.000000
 41
1.052632
 51
0.000000
  7
STANDARD
  0
TEXT
  8
0
 10
167.564667
 20
-192.100006
 40
9.000000
  1
KOGANEI CORP.
 50
0.000000
 41
1.052632
 51
0.000000
  7
STANDARD
  0
LINE
  8
0
 10
7.910980
 20
-36.086090
 11
-17.089020
 21
-36.086090
  0
LINE
  8
0
 10
7.910980
 20
-36.086090
 11
5.013203
 21
-35.309635
  0
LINE
  8
0
 10
7.910980
 20
-36.086090
 11
5.013203
 21
-36.862549
  0
LINE
  8
0
 10
-100.089020
 20
-36.086044
 11
-125.089020
 21
-36.086033
  0
LINE
  8
0
 10
-100.089020
 20
-36.086044
 11
-102.986794
 21
-35.309586
  0
LINE
  8
0
 10
-100.089020
 20
-36.086044
 11
-102.986801
 21
-36.862499
  0
ENDSEC
  0
EOF
