  0
SECTION
  2
HEADER
  0
ENDSEC
  0
SECTION
  2
TABLES
  0
TABLE
  2
LTYPE
 70
     4
  0
LTYPE
  2
CONTINUOUS
 70
    64
  3
Solid line
 72
    65
 73
     0
 40
0.000000
  0
LTYPE
  2
DASHED
 70
    64
  3
__ __ __ __ __ __ __ __ __ __ __ __ __ __ __
 72
    65
 73
     2
 40
3.500000
 49
2.000000
 49
-1.500000
  0
LTYPE
  2
CENTER
 70
    64
  3
____ _ ____ _ ____ _ ____ _ ____ _ ____ _ ____
 72
    65
 73
     4
 40
17.500000
 49
13.000000
 49
-1.500000
 49
1.500000
 49
-1.500000
  0
LTYPE
  2
PHANTOM
 70
    64
  3
_____ _ _ _____ _ _ _____ _ _ _____ _ _ ____  
 72
    65
 73
     6
 40
15.500000
 49
8.000000
 49
-1.500000
 49
1.500000
 49
-1.500000
 49
1.500000
 49
-1.500000
  0
LTYPE
  2
DASHED1
 70
    64
  3
__ __ __ __ __ __ __ __ __ __ __ __ __ __ __
 72
    65
 73
     2
 40
1.500000
 49
1.000000
 49
-0.500000
  0
LTYPE
  2
DASHED2
 70
    64
  3
__ __ __ __ __ __ __ __ __ __ __ __ __ __ __
 72
    65
 73
     2
 40
3.500000
 49
2.500000
 49
-1.000000
  0
LTYPE
  2
DASHED3
 70
    64
  3
__ __ __ __ __ __ __ __ __ __ __ __ __ __ __
 72
    65
 73
     2
 40
6.000000
 49
4.000000
 49
-2.000000
  0
LTYPE
  2
DASHED4
 70
    64
  3
__ __ __ __ __ __ __ __ __ __ __ __ __ __ __
 72
    65
 73
     2
 40
12.000000
 49
10.000000
 49
-2.000000
  0
LTYPE
  2
DASHED5
 70
    64
  3
__ __ __ __ __ __ __ __ __ __ __ __ __ __ __
 72
    65
 73
     2
 40
17.000000
 49
15.000000
 49
-2.000000
  0
LTYPE
  2
DASHED6
 70
    64
  3
__ __ __ __ __ __ __ __ __ __ __ __ __ __ __
 72
    65
 73
     2
 40
29.000000
 49
27.000000
 49
-2.000000
  0
LTYPE
  2
PHANTOM1
 70
    64
  3
_____ _ _ _____ _ _ _____ _ _ _____ _ _ ____  
 72
    65
 73
     6
 40
31.000000
 49
25.000000
 49
-1.500000
 49
1.000000
 49
-1.000000
 49
1.000000
 49
-1.500000
  0
LTYPE
  2
PHANTOM2
 70
    64
  3
_____ _ _ _____ _ _ _____ _ _ _____ _ _ ____  
 72
    65
 73
     6
 40
36.000000
 49
27.000000
 49
-1.500000
 49
2.500000
 49
-1.000000
 49
2.500000
 49
-1.500000
  0
LTYPE
  2
PHANTOM3
 70
    64
  3
_____ _ _ _____ _ _ _____ _ _ _____ _ _ ____  
 72
    65
 73
     6
 40
78.000000
 49
64.000000
 49
-2.000000
 49
4.000000
 49
-2.000000
 49
4.000000
 49
-2.000000
  0
LTYPE
  2
CENTER1
 70
    64
  3
____ _ ____ _ ____ _ ____ _ ____ _ ____ _ ____
 72
    65
 73
     4
 40
19.000000
 49
14.000000
 49
-1.000000
 49
3.000000
 49
-1.000000
  0
LTYPE
  2
CENTER2
 70
    64
  3
____ _ ____ _ ____ _ ____ _ ____ _ ____ _ ____
 72
    65
 73
     4
 40
28.500000
 49
25.000000
 49
-1.000000
 49
1.500000
 49
-1.000000
  0
LTYPE
  2
CENTER3
 70
    64
  3
____ _ ____ _ ____ _ ____ _ ____ _ ____ _ ____
 72
    65
 73
     4
 40
31.500000
 49
27.000000
 49
-1.000000
 49
2.500000
 49
-1.000000
  0
LTYPE
  2
CENTER4
 70
    64
  3
____ _ ____ _ ____ _ ____ _ ____ _ ____ _ ____
 72
    65
 73
     4
 40
50.000000
 49
45.000000
 49
-1.000000
 49
3.000000
 49
-1.000000
  0
LTYPE
  2
CENTER5
 70
    64
  3
____ _ ____ _ ____ _ ____ _ ____ _ ____ _ ____
 72
    65
 73
     4
 40
100.000000
 49
92.000000
 49
-2.000000
 49
4.000000
 49
-2.000000
  0
LTYPE
  2
SBK1
 70
    64
  3
______ _ _ _ ______ _ _ _ ______ _ _ _ _____  
 72
    65
 73
     8
 40
60.500000
 49
45.000000
 49
-2.000000
 49
2.500000
 49
-2.000000
 49
2.500000
 49
-2.000000
 49
2.500000
 49
-2.000000
  0
LTYPE
  2
SBK2
 70
    64
  3
______ _ _ _ ______ _ _ _ ______ _ _ _ _____  
 72
    65
 73
     8
 40
84.000000
 49
64.000000
 49
-2.000000
 49
4.000000
 49
-2.000000
 49
4.000000
 49
-2.000000
 49
4.000000
 49
-2.000000
  0
LTYPE
  2
STCH
 70
    64
  3
__ __ __ __ __ __ __ __ __ __ __ __ __ __ __
 72
    65
 73
     2
 40
3.000000
 49
1.000000
 49
-2.000000
  0
LTYPE
  2
MTCH
 70
    64
  3
_____ _ _ _____ _ _ _____ _ _ _____ _ _ ____  
 72
    65
 73
     6
 40
80.000000
 49
66.000000
 49
-2.000000
 49
4.000000
 49
-2.000000
 49
4.000000
 49
-2.000000
  0
ENDTAB
  0
TABLE
  2
LAYER
 70
     1
  0
LAYER
  2
0
 70
     0
 62
     7
  6
CONTINUOUS
  0
ENDTAB
  0
TABLE
  2
STYLE
 70
     1
  0
STYLE
  2
STANDARD
 70
     0
 40
0.000000
 41
1.000000
 50
0.000000
 71
     0
 42
0.200000
  3
txt
  4
BIGFONT
  0
ENDTAB
  0
TABLE
  2
VIEW
 70
     0
  0
ENDTAB
  0
ENDSEC
  0
SECTION
  2
BLOCKS
  0
ENDSEC
  0
SECTION
  2
ENTITIES
  0
LINE
  8
0
 10
-297.000000
 20
210.000000
 11
297.000000
 21
210.000000
  0
LINE
  8
0
 10
-297.000000
 20
-210.000000
 11
297.000000
 21
-210.000000
  0
LINE
  8
0
 10
297.000000
 20
210.000000
 11
297.000000
 21
-210.000000
  0
LINE
  8
0
 10
-297.000000
 20
210.000000
 11
-297.000000
 21
-210.000000
  0
LINE
  8
0
 10
-281.250000
 20
195.500000
 11
282.099976
 21
195.500000
  0
LINE
  8
0
 10
-281.250000
 20
195.500000
 11
-281.250000
 21
-195.000000
  0
LINE
  8
0
 10
282.099976
 20
195.500000
 11
282.099976
 21
-195.000000
  0
LINE
  8
0
 10
-281.250000
 20
-195.000000
 11
282.099976
 21
-195.000000
  0
LINE
  8
0
 10
162.099976
 20
-175.000000
 11
162.099976
 21
-195.000000
  0
LINE
  8
0
 10
162.099976
 20
-175.000000
 11
282.099976
 21
-175.000000
  0
LINE
  8
0
 10
162.099976
 20
175.500000
 11
282.099976
 21
175.500000
  0
LINE
  8
0
 10
-281.250000
 20
175.500000
 11
-161.250000
 21
175.500000
  0
LINE
  8
0
 10
162.099976
 20
195.500000
 11
162.099976
 21
175.500000
  0
LINE
  8
0
 10
-161.250000
 20
195.500000
 11
-161.250000
 21
175.500000
  0
LINE
  8
0
 10
-281.250000
 20
0.250000
 11
282.099976
 21
0.250000
  0
LINE
  8
0
 10
-281.250000
 20
10.250000
 11
282.099976
 21
10.250000
  0
LINE
  8
0
 10
-281.250000
 20
-185.000000
 11
-10.575012
 21
-185.000000
  0
LINE
  8
0
 10
-10.575012
 20
-195.000000
 11
-10.575012
 21
195.500000
  0
TEXT
  8
0
 10
174.200241
 20
180.830002
 40
6.300000
  1
DATE: SEP ,1992
 50
0.000000
 41
1.052632
 51
0.000000
  7
STANDARD
  0
TEXT
  8
0
 10
167.564667
 20
-192.100006
 40
9.000000
  1
KOGANEI CORP.
 50
0.000000
 41
1.052632
 51
0.000000
  7
STANDARD
  0
TEXT
  8
0
 10
-243.949722
 20
180.830002
 40
6.300000
  1
BRACKET
 50
0.000000
 41
1.052632
 51
0.000000
  7
STANDARD
  0
TEXT
  8
0
 10
-182.012222
 20
0.580000
 40
6.300000
  1
MODEL : 8-15A
 50
0.000000
 41
1.052632
 51
0.000000
  7
STANDARD
  0
TEXT
  8
0
 10
99.662766
 20
0.580000
 40
6.300000
  1
MODEL : 8-30A
 50
0.000000
 41
1.052632
 51
0.000000
  7
STANDARD
  0
TEXT
  8
0
 10
-182.012222
 20
-194.669998
 40
6.300000
  1
MODEL : 8-60B
 50
0.000000
 41
1.052632
 51
0.000000
  7
STANDARD
  0
POINT
  8
0
 10
-215.727753
 20
29.165909
  0
POINT
  8
0
 10
-192.727737
 20
29.165909
  0
LINE
  8
0
 10
-238.727753
 20
79.165909
 11
-192.727737
 21
79.165909
  0
LINE
  8
0
 10
-215.727753
 20
80.848907
 11
-215.727753
 21
22.205118
  0
LINE
  8
0
 10
-238.727753
 20
79.165909
 11
-238.727753
 21
23.165911
  0
LINE
  8
0
 10
-192.727737
 20
79.165909
 11
-192.727737
 21
23.165911
  0
LINE
  8
0
 10
-237.527740
 20
79.165909
 11
-237.527740
 21
23.165911
  0
LINE
  8
0
 10
-193.927734
 20
79.165909
 11
-193.927734
 21
23.165911
  0
LINE
  8
0
 10
-238.727753
 20
23.165909
 11
-192.727737
 21
23.165909
  0
LINE
  8
0
 10
-238.727753
 20
35.165909
 11
-223.727753
 21
35.165909
  0
LINE
  8
0
 10
-237.081909
 20
73.165909
 11
-226.251770
 21
73.165909
  0
LINE
  8
0
 10
-199.727737
 20
77.599861
 11
-199.727737
 21
68.781021
  0
LINE
  8
0
 10
-200.727737
 20
76.365906
 11
-198.727737
 21
76.365906
  0
LINE
  8
0
 10
-200.727737
 20
69.965912
 11
-198.727737
 21
69.965912
  0
LINE
  8
0
 10
-231.727753
 20
77.599861
 11
-231.727753
 21
68.781021
  0
LINE
  8
0
 10
-230.727753
 20
69.965912
 11
-232.727753
 21
69.965912
  0
LINE
  8
0
 10
-230.727753
 20
76.365906
 11
-232.727753
 21
76.365906
  0
LINE
  8
0
 10
-205.210327
 20
73.165909
 11
-194.328583
 21
73.165909
  0
LINE
  8
0
 10
-224.909332
 20
29.165909
 11
-205.469177
 21
29.165909
  0
LINE
  8
0
 10
-223.727753
 20
37.165913
 11
-207.727753
 21
37.165913
  0
LINE
  8
0
 10
-223.727753
 20
37.165913
 11
-223.727753
 21
23.165911
  0
LINE
  8
0
 10
-207.727753
 20
37.165913
 11
-207.727753
 21
23.165911
  0
LINE
  8
0
 10
-207.727753
 20
35.165909
 11
-192.727737
 21
35.165909
  0
LINE
  8
0
 10
-219.727753
 20
29.665909
 11
-216.227753
 21
29.665909
  0
LINE
  8
0
 10
-215.227753
 20
33.165909
 11
-215.227753
 21
29.665911
  0
LINE
  8
0
 10
-216.227753
 20
33.165909
 11
-216.227753
 21
29.665911
  0
LINE
  8
0
 10
-216.227753
 20
33.165909
 11
-215.227753
 21
33.165909
  0
LINE
  8
0
 10
-219.727753
 20
29.665911
 11
-219.727753
 21
28.665911
  0
LINE
  8
0
 10
-211.727753
 20
29.665909
 11
-215.227753
 21
29.665909
  0
LINE
  8
0
 10
-211.727753
 20
29.665911
 11
-211.727753
 21
28.665911
  0
LINE
  8
0
 10
-211.727753
 20
28.665909
 11
-215.227753
 21
28.665909
  0
LINE
  8
0
 10
-219.727753
 20
28.665909
 11
-216.227753
 21
28.665909
  0
LINE
  8
0
 10
-216.227753
 20
25.165911
 11
-216.227753
 21
28.665911
  0
LINE
  8
0
 10
-215.227753
 20
25.165911
 11
-215.227753
 21
28.665911
  0
LINE
  8
0
 10
-216.227753
 20
25.165909
 11
-215.227753
 21
25.165909
  0
ARC
  8
0
 10
-198.727737
 20
73.165909
 40
3.199997
 50
270.000000
 51
90.000000
  0
ARC
  8
0
 10
-200.727737
 20
73.165909
 40
3.199997
 50
90.000000
 51
270.000000
  0
ARC
  8
0
 10
-230.727753
 20
73.165909
 40
3.199997
 50
270.000000
 51
90.000000
  0
ARC
  8
0
 10
-232.727753
 20
73.165909
 40
3.199997
 50
90.000000
 51
270.000000
  0
CIRCLE
  8
0
 10
-215.727753
 20
29.165909
 40
5.900000
  0
POINT
  8
0
 10
-64.527740
 20
29.165909
  0
POINT
  8
0
 10
-96.527740
 20
29.165909
  0
LINE
  8
0
 10
-122.727737
 20
35.165909
 11
-122.727737
 21
23.165911
  0
LINE
  8
0
 10
-122.727737
 20
35.165909
 11
-79.527740
 21
35.165909
  0
LINE
  8
0
 10
-126.027740
 20
23.165909
 11
-124.827744
 21
23.165909
  0
LINE
  8
0
 10
-64.527740
 20
79.165909
 11
-64.527740
 21
23.165911
  0
LINE
  8
0
 10
-67.527740
 20
79.165909
 11
-64.527740
 21
79.165909
  0
LINE
  8
0
 10
-69.527740
 20
77.165909
 11
-69.527740
 21
45.165909
  0
LINE
  8
0
 10
-102.527740
 20
35.165909
 11
-102.527740
 21
23.165911
  0
LINE
  8
0
 10
-126.027740
 20
37.165913
 11
-126.027740
 21
23.165911
  0
LINE
  8
0
 10
-126.027740
 20
37.165913
 11
-115.357742
 21
37.165913
  0
LINE
  8
0
 10
-124.827744
 20
35.965912
 11
-115.357742
 21
35.965912
  0
LINE
  8
0
 10
-115.357742
 20
37.165913
 11
-115.357742
 21
35.965912
  0
LINE
  8
0
 10
-124.827744
 20
35.965912
 11
-124.827744
 21
23.165911
  0
LINE
  8
0
 10
-122.727737
 20
23.165909
 11
-64.527740
 21
23.165909
  0
LINE
  8
0
 10
-130.570007
 20
29.165909
 11
-60.473053
 21
29.165909
  0
LINE
  8
0
 10
-124.827744
 20
31.665909
 11
-122.727737
 21
31.665909
  0
LINE
  8
0
 10
-124.827744
 20
26.665909
 11
-122.727737
 21
26.665909
  0
LINE
  8
0
 10
-124.827744
 20
31.165909
 11
-122.727737
 21
31.165909
  0
LINE
  8
0
 10
-124.827744
 20
27.165909
 11
-122.727737
 21
27.165909
  0
ARC
  8
0
 10
-79.527740
 20
45.165909
 40
10.000000
 50
270.000000
 51
0.000000
  0
ARC
  8
0
 10
-67.527740
 20
77.165909
 40
2.000000
 50
90.000000
 51
180.000000
  0
POLYLINE
  8
0
 66
     1
  0
VERTEX
  8
0
 10
-126.027740
 20
23.265907
  0
VERTEX
  8
0
 10
-126.357544
 20
23.429626
  0
VERTEX
  8
0
 10
-127.046432
 20
24.010162
  0
VERTEX
  8
0
 10
-127.673927
 20
24.699568
  0
VERTEX
  8
0
 10
-128.187500
 20
25.493362
  0
VERTEX
  8
0
 10
-128.588425
 20
26.364222
  0
VERTEX
  8
0
 10
-128.877930
 20
27.284817
  0
VERTEX
  8
0
 10
-129.057281
 20
28.227821
  0
VERTEX
  8
0
 10
-129.127747
 20
29.165909
  0
SEQEND
  0
POLYLINE
  8
0
 66
     1
  0
VERTEX
  8
0
 10
-126.027740
 20
35.065910
  0
VERTEX
  8
0
 10
-126.357544
 20
34.902191
  0
VERTEX
  8
0
 10
-127.046432
 20
34.321651
  0
VERTEX
  8
0
 10
-127.673927
 20
33.632248
  0
VERTEX
  8
0
 10
-128.187500
 20
32.838451
  0
VERTEX
  8
0
 10
-128.588425
 20
31.967594
  0
VERTEX
  8
0
 10
-128.877930
 20
31.047001
  0
VERTEX
  8
0
 10
-129.057281
 20
30.103996
  0
VERTEX
  8
0
 10
-129.127747
 20
29.165909
  0
SEQEND
  0
POINT
  8
0
 10
-215.727753
 20
136.228485
  0
POINT
  8
0
 10
-192.827744
 20
136.228485
  0
LINE
  8
0
 10
-241.868561
 20
136.228485
 11
-189.888794
 21
136.228485
  0
LINE
  8
0
 10
-215.727753
 20
171.572693
 11
-215.727753
 21
108.208389
  0
LINE
  8
0
 10
-237.427734
 20
166.028488
 11
-237.427734
 21
130.228485
  0
LINE
  8
0
 10
-194.027740
 20
166.028488
 11
-194.027740
 21
130.228485
  0
LINE
  8
0
 10
-192.827744
 20
166.728485
 11
-192.827744
 21
130.228485
  0
LINE
  8
0
 10
-238.627747
 20
166.728485
 11
-238.627747
 21
130.228485
  0
LINE
  8
0
 10
-237.127747
 20
168.228470
 11
-194.327744
 21
168.228470
  0
LINE
  8
0
 10
-236.427734
 20
167.028488
 11
-195.027740
 21
167.028488
  0
LINE
  8
0
 10
-224.227753
 20
111.228485
 11
-223.727753
 21
111.228485
  0
LINE
  8
0
 10
-224.892914
 20
110.028473
 11
-223.727753
 21
110.028473
  0
LINE
  8
0
 10
-207.227753
 20
111.228485
 11
-199.087982
 21
124.254852
  0
LINE
  8
0
 10
-206.562576
 20
110.028481
 11
-198.090759
 21
123.586212
  0
LINE
  8
0
 10
-224.227737
 20
111.228470
 11
-233.783966
 21
126.521629
  0
LINE
  8
0
 10
-224.892914
 20
110.028473
 11
-233.364731
 21
123.586220
  0
LINE
  8
0
 10
-238.627747
 20
130.228485
 11
-237.427734
 21
130.228485
  0
LINE
  8
0
 10
-194.027740
 20
130.228485
 11
-192.827744
 21
130.228485
  0
LINE
  8
0
 10
-207.727753
 20
111.228485
 11
-207.227753
 21
111.228485
  0
LINE
  8
0
 10
-207.727753
 20
110.028473
 11
-206.562592
 21
110.028473
  0
LINE
  8
0
 10
-215.727753
 20
120.516983
 11
-215.727753
 21
102.132248
  0
LINE
  8
0
 10
-207.727753
 20
117.398178
 11
-207.727753
 21
106.728485
  0
LINE
  8
0
 10
-223.727753
 20
117.398178
 11
-223.727753
 21
106.728485
  0
LINE
  8
0
 10
-223.727753
 20
106.728485
 11
-207.727753
 21
106.728485
  0
ARC
  8
0
 10
-215.727753
 20
136.228485
 40
20.499996
 50
324.261993
 51
208.261978
  0
ARC
  8
0
 10
-215.727753
 20
136.228485
 40
21.700001
 50
324.366852
 51
215.633087
  0
ARC
  8
0
 10
-237.127747
 20
166.728485
 40
1.500000
 50
90.000000
 51
180.000000
  0
ARC
  8
0
 10
-194.327744
 20
166.728485
 40
1.500000
 50
0.000000
 51
90.000000
  0
ARC
  8
0
 10
-236.427734
 20
166.028488
 40
1.000000
 50
90.000000
 51
180.000000
  0
ARC
  8
0
 10
-195.027740
 20
166.028488
 40
1.000000
 50
0.000000
 51
90.000000
  0
ARC
  8
0
 10
-215.727753
 20
135.728485
 40
20.000004
 50
246.421829
 51
293.578186
  0
POLYLINE
  8
0
 66
     1
  0
VERTEX
  8
0
 10
-221.627747
 20
106.728485
  0
VERTEX
  8
0
 10
-221.464020
 20
106.398682
  0
VERTEX
  8
0
 10
-220.883484
 20
105.709793
  0
VERTEX
  8
0
 10
-220.194077
 20
105.082298
  0
VERTEX
  8
0
 10
-219.400284
 20
104.568726
  0
VERTEX
  8
0
 10
-218.529434
 20
104.167809
  0
VERTEX
  8
0
 10
-217.608841
 20
103.878296
  0
VERTEX
  8
0
 10
-216.665833
 20
103.698936
  0
VERTEX
  8
0
 10
-215.727753
 20
103.628479
  0
SEQEND
  0
POLYLINE
  8
0
 66
     1
  0
VERTEX
  8
0
 10
-209.827759
 20
106.728485
  0
VERTEX
  8
0
 10
-209.991470
 20
106.398674
  0
VERTEX
  8
0
 10
-210.571991
 20
105.709793
  0
VERTEX
  8
0
 10
-211.261398
 20
105.082298
  0
VERTEX
  8
0
 10
-212.055191
 20
104.568726
  0
VERTEX
  8
0
 10
-212.926056
 20
104.167809
  0
VERTEX
  8
0
 10
-213.846649
 20
103.878296
  0
VERTEX
  8
0
 10
-214.789658
 20
103.698936
  0
VERTEX
  8
0
 10
-215.727753
 20
103.628479
  0
SEQEND
  0
POINT
  8
0
 10
62.813057
 20
29.165909
  0
POINT
  8
0
 10
96.213058
 20
29.165909
  0
LINE
  8
0
 10
62.813057
 20
80.848907
 11
62.813057
 21
22.205116
  0
LINE
  8
0
 10
29.413052
 20
23.165909
 11
96.213058
 21
23.165909
  0
LINE
  8
0
 10
30.613049
 20
35.165909
 11
54.813065
 21
35.165909
  0
LINE
  8
0
 10
82.813057
 20
75.599861
 11
82.813057
 21
66.781021
  0
LINE
  8
0
 10
80.313057
 20
74.365906
 11
85.313057
 21
74.365906
  0
LINE
  8
0
 10
80.313057
 20
67.965912
 11
85.313057
 21
67.965912
  0
LINE
  8
0
 10
76.111008
 20
71.165909
 11
89.588654
 21
71.165909
  0
LINE
  8
0
 10
53.631454
 20
29.165909
 11
73.071640
 21
29.165909
  0
LINE
  8
0
 10
54.813065
 20
37.165913
 11
70.813049
 21
37.165913
  0
LINE
  8
0
 10
54.813065
 20
37.165913
 11
54.813065
 21
23.165909
  0
LINE
  8
0
 10
70.813049
 20
37.165913
 11
70.813049
 21
23.165909
  0
LINE
  8
0
 10
70.813049
 20
35.165909
 11
95.013062
 21
35.165909
  0
LINE
  8
0
 10
29.413052
 20
79.165909
 11
29.413052
 21
23.165909
  0
LINE
  8
0
 10
96.213058
 20
79.165909
 11
96.213058
 21
23.165909
  0
LINE
  8
0
 10
30.613049
 20
79.165909
 11
30.613049
 21
23.165909
  0
LINE
  8
0
 10
95.013062
 20
79.165909
 11
95.013062
 21
23.165909
  0
LINE
  8
0
 10
29.413052
 20
79.165909
 11
96.213058
 21
79.165909
  0
LINE
  8
0
 10
42.813057
 20
75.599861
 11
42.813057
 21
66.781021
  0
LINE
  8
0
 10
45.313057
 20
74.365906
 11
40.313061
 21
74.365906
  0
LINE
  8
0
 10
45.313057
 20
67.965912
 11
40.313061
 21
67.965912
  0
LINE
  8
0
 10
49.515106
 20
71.165909
 11
36.037457
 21
71.165909
  0
LINE
  8
0
 10
62.313057
 20
33.165909
 11
63.313057
 21
33.165909
  0
LINE
  8
0
 10
63.313057
 20
33.165909
 11
63.313057
 21
29.665909
  0
LINE
  8
0
 10
62.313057
 20
33.165909
 11
62.313057
 21
29.665909
  0
LINE
  8
0
 10
62.313057
 20
25.165909
 11
62.313057
 21
28.665909
  0
LINE
  8
0
 10
63.313057
 20
25.165909
 11
63.313057
 21
28.665909
  0
LINE
  8
0
 10
62.313057
 20
25.165909
 11
63.313057
 21
25.165909
  0
LINE
  8
0
 10
58.813057
 20
29.665909
 11
62.313057
 21
29.665909
  0
LINE
  8
0
 10
58.813057
 20
29.665909
 11
58.813057
 21
28.665909
  0
LINE
  8
0
 10
63.313057
 20
29.665909
 11
66.813057
 21
29.665909
  0
LINE
  8
0
 10
58.813057
 20
28.665909
 11
62.313057
 21
28.665909
  0
LINE
  8
0
 10
63.313057
 20
28.665909
 11
66.813057
 21
28.665909
  0
LINE
  8
0
 10
66.813057
 20
29.665909
 11
66.813057
 21
28.665909
  0
ARC
  8
0
 10
85.313057
 20
71.165909
 40
3.199997
 50
270.000000
 51
90.000000
  0
ARC
  8
0
 10
80.313057
 20
71.165909
 40
3.199997
 50
90.000000
 51
270.000000
  0
CIRCLE
  8
0
 10
62.813057
 20
29.165909
 40
5.900000
  0
ARC
  8
0
 10
40.313061
 20
71.165909
 40
3.199997
 50
89.999931
 51
269.999939
  0
ARC
  8
0
 10
45.313057
 20
71.165909
 40
3.199997
 50
270.000000
 51
90.000000
  0
POINT
  8
0
 10
232.513062
 20
29.165909
  0
POINT
  8
0
 10
192.513062
 20
29.165909
  0
LINE
  8
0
 10
155.813049
 20
35.165909
 11
155.813049
 21
23.165909
  0
LINE
  8
0
 10
155.813049
 20
35.165909
 11
215.513062
 21
35.165909
  0
LINE
  8
0
 10
152.513062
 20
23.165909
 11
153.713043
 21
23.165909
  0
LINE
  8
0
 10
227.513062
 20
79.165909
 11
232.513062
 21
79.165909
  0
LINE
  8
0
 10
152.513062
 20
37.165913
 11
152.513062
 21
23.165909
  0
LINE
  8
0
 10
152.513062
 20
37.165913
 11
163.183044
 21
37.165913
  0
LINE
  8
0
 10
153.713043
 20
35.965912
 11
163.183044
 21
35.965912
  0
LINE
  8
0
 10
163.183044
 20
37.165913
 11
163.183044
 21
35.965912
  0
LINE
  8
0
 10
153.713043
 20
35.965912
 11
153.713043
 21
23.165909
  0
LINE
  8
0
 10
155.813049
 20
23.165909
 11
232.513062
 21
23.165909
  0
LINE
  8
0
 10
147.970795
 20
29.165909
 11
236.246277
 21
29.165909
  0
LINE
  8
0
 10
153.713043
 20
31.665909
 11
155.813049
 21
31.665909
  0
LINE
  8
0
 10
153.713043
 20
26.665909
 11
155.813049
 21
26.665909
  0
LINE
  8
0
 10
153.713043
 20
31.165909
 11
155.813049
 21
31.165909
  0
LINE
  8
0
 10
153.713043
 20
27.165909
 11
155.813049
 21
27.165909
  0
LINE
  8
0
 10
186.513062
 20
35.165909
 11
186.513062
 21
23.165909
  0
LINE
  8
0
 10
232.513062
 20
79.165909
 11
232.513062
 21
23.165909
  0
LINE
  8
0
 10
225.513062
 20
77.165909
 11
225.513062
 21
45.165909
  0
ARC
  8
0
 10
215.513062
 20
45.165909
 40
10.000000
 50
270.000000
 51
0.000000
  0
ARC
  8
0
 10
227.513062
 20
77.165909
 40
2.000000
 50
90.000000
 51
180.000000
  0
POLYLINE
  8
0
 66
     1
  0
VERTEX
  8
0
 10
152.513062
 20
23.265907
  0
VERTEX
  8
0
 10
152.183258
 20
23.429626
  0
VERTEX
  8
0
 10
151.494370
 20
24.010162
  0
VERTEX
  8
0
 10
150.866882
 20
24.699568
  0
VERTEX
  8
0
 10
150.353302
 20
25.493362
  0
VERTEX
  8
0
 10
149.952377
 20
26.364222
  0
VERTEX
  8
0
 10
149.662872
 20
27.284817
  0
VERTEX
  8
0
 10
149.483521
 20
28.227821
  0
VERTEX
  8
0
 10
149.413055
 20
29.165909
  0
SEQEND
  0
POLYLINE
  8
0
 66
     1
  0
VERTEX
  8
0
 10
152.513062
 20
35.065910
  0
VERTEX
  8
0
 10
152.183258
 20
34.902191
  0
VERTEX
  8
0
 10
151.494370
 20
34.321651
  0
VERTEX
  8
0
 10
150.866882
 20
33.632248
  0
VERTEX
  8
0
 10
150.353302
 20
32.838451
  0
VERTEX
  8
0
 10
149.952377
 20
31.967594
  0
VERTEX
  8
0
 10
149.662872
 20
31.047001
  0
VERTEX
  8
0
 10
149.483521
 20
30.103996
  0
VERTEX
  8
0
 10
149.413055
 20
29.165909
  0
SEQEND
  0
POINT
  8
0
 10
62.813057
 20
139.228485
  0
POINT
  8
0
 10
96.213058
 20
139.228485
  0
LINE
  8
0
 10
26.577381
 20
139.228485
 11
98.200386
 21
139.228485
  0
LINE
  8
0
 10
62.813057
 20
174.572708
 11
62.813057
 21
93.224030
  0
LINE
  8
0
 10
70.813057
 20
109.898178
 11
70.813057
 21
99.228485
  0
LINE
  8
0
 10
54.813065
 20
109.898163
 11
54.813065
 21
99.228485
  0
LINE
  8
0
 10
54.813065
 20
99.228485
 11
70.813057
 21
99.228485
  0
LINE
  8
0
 10
54.313049
 20
103.228485
 11
54.813065
 21
103.228485
  0
LINE
  8
0
 10
53.794388
 20
102.028488
 11
54.813065
 21
102.028488
  0
LINE
  8
0
 10
71.313072
 20
103.228485
 11
83.256393
 21
115.924606
  0
LINE
  8
0
 10
71.831711
 20
102.028488
 11
84.091362
 21
115.060875
  0
LINE
  8
0
 10
54.313034
 20
103.228470
 11
38.304619
 21
120.245911
  0
LINE
  8
0
 10
53.794395
 20
102.028481
 11
37.391518
 21
119.465248
  0
LINE
  8
0
 10
70.813057
 20
103.228485
 11
71.313065
 21
103.228485
  0
LINE
  8
0
 10
70.813057
 20
102.028488
 11
71.831726
 21
102.028488
  0
LINE
  8
0
 10
29.413059
 20
179.228485
 11
96.213058
 21
179.228485
  0
LINE
  8
0
 10
95.013062
 20
178.028488
 11
95.013062
 21
133.228485
  0
LINE
  8
0
 10
30.613056
 20
178.028488
 11
30.613056
 21
133.228485
  0
LINE
  8
0
 10
29.413059
 20
179.228485
 11
29.413059
 21
133.228485
  0
LINE
  8
0
 10
30.613056
 20
178.028488
 11
95.013062
 21
178.028488
  0
LINE
  8
0
 10
96.213058
 20
179.228485
 11
96.213058
 21
133.228485
  0
LINE
  8
0
 10
29.413059
 20
133.228485
 11
30.613056
 21
133.228485
  0
LINE
  8
0
 10
95.013062
 20
133.228485
 11
96.213058
 21
133.228485
  0
ARC
  8
0
 10
62.813057
 20
128.228485
 40
20.000002
 50
246.421829
 51
293.578186
  0
ARC
  8
0
 10
62.813057
 20
139.228485
 40
31.000002
 50
311.258881
 51
217.758881
  0
ARC
  8
0
 10
62.813057
 20
139.228485
 40
32.200001
 50
311.362244
 51
217.862213
  0
POLYLINE
  8
0
 66
     1
  0
VERTEX
  8
0
 10
56.913055
 20
99.228485
  0
VERTEX
  8
0
 10
57.076775
 20
98.898682
  0
VERTEX
  8
0
 10
57.657310
 20
98.209793
  0
VERTEX
  8
0
 10
58.346714
 20
97.582298
  0
VERTEX
  8
0
 10
59.140511
 20
97.068726
  0
VERTEX
  8
0
 10
60.011368
 20
96.667809
  0
VERTEX
  8
0
 10
60.931965
 20
96.378296
  0
VERTEX
  8
0
 10
61.874969
 20
96.198936
  0
VERTEX
  8
0
 10
62.813057
 20
96.128479
  0
SEQEND
  0
POLYLINE
  8
0
 66
     1
  0
VERTEX
  8
0
 10
68.713058
 20
99.228485
  0
VERTEX
  8
0
 10
68.549339
 20
98.898682
  0
VERTEX
  8
0
 10
67.968803
 20
98.209793
  0
VERTEX
  8
0
 10
67.279396
 20
97.582298
  0
VERTEX
  8
0
 10
66.485603
 20
97.068726
  0
VERTEX
  8
0
 10
65.614746
 20
96.667809
  0
VERTEX
  8
0
 10
64.694153
 20
96.378296
  0
VERTEX
  8
0
 10
63.751144
 20
96.198936
  0
VERTEX
  8
0
 10
62.813057
 20
96.128479
  0
SEQEND
  0
POINT
  8
0
 10
-211.886490
 20
-74.241837
  0
POINT
  8
0
 10
-201.886490
 20
-74.241837
  0
LINE
  8
0
 10
-217.886490
 20
-85.241837
 11
-217.886490
 21
-140.241837
  0
LINE
  8
0
 10
-205.886490
 20
-85.241837
 11
-205.886490
 21
-140.241837
  0
LINE
  8
0
 10
-217.886490
 20
-85.241837
 11
-205.886490
 21
-85.241837
  0
LINE
  8
0
 10
-217.886490
 20
-140.241837
 11
-205.886490
 21
-140.241837
  0
LINE
  8
0
 10
-217.886490
 20
-89.741837
 11
-205.886490
 21
-89.741837
  0
LINE
  8
0
 10
-215.696320
 20
-105.241837
 11
-208.236099
 21
-105.241837
  0
LINE
  8
0
 10
-211.886490
 20
-56.654892
 11
-211.886490
 21
-142.324310
  0
LINE
  8
0
 10
-214.636490
 20
-101.741837
 11
-214.636490
 21
-108.741837
  0
LINE
  8
0
 10
-209.136490
 20
-101.741837
 11
-209.136490
 21
-108.741837
  0
LINE
  8
0
 10
-214.636490
 20
-126.741837
 11
-214.636490
 21
-133.741837
  0
LINE
  8
0
 10
-209.136490
 20
-126.741837
 11
-209.136490
 21
-133.741837
  0
LINE
  8
0
 10
-215.696320
 20
-130.241837
 11
-208.236099
 21
-130.241837
  0
LINE
  8
0
 10
-215.927948
 20
-96.041840
 11
-211.886490
 21
-96.041840
  0
LINE
  8
0
 10
-216.505295
 20
-95.684570
 11
-216.505295
 21
-94.041840
  0
LINE
  8
0
 10
-214.195892
 20
-95.684570
 11
-214.195892
 21
-94.041840
  0
LINE
  8
0
 10
-215.886475
 20
-96.041840
 11
-216.505280
 21
-95.684570
  0
LINE
  8
0
 10
-216.536499
 20
-92.041840
 11
-211.886490
 21
-92.041840
  0
LINE
  8
0
 10
-216.505295
 20
-92.399109
 11
-216.505295
 21
-94.041840
  0
LINE
  8
0
 10
-214.195892
 20
-92.399109
 11
-214.195892
 21
-94.041840
  0
LINE
  8
0
 10
-215.886505
 20
-92.041840
 11
-216.505310
 21
-92.399109
  0
LINE
  8
0
 10
-207.845032
 20
-96.041840
 11
-211.886490
 21
-96.041840
  0
LINE
  8
0
 10
-207.267685
 20
-95.684570
 11
-207.267685
 21
-94.041840
  0
LINE
  8
0
 10
-209.577087
 20
-95.684570
 11
-209.577087
 21
-94.041840
  0
LINE
  8
0
 10
-207.886520
 20
-96.041824
 11
-207.267715
 21
-95.684555
  0
LINE
  8
0
 10
-207.236481
 20
-92.041840
 11
-211.886490
 21
-92.041840
  0
LINE
  8
0
 10
-207.267685
 20
-92.399109
 11
-207.267685
 21
-94.041840
  0
LINE
  8
0
 10
-209.577087
 20
-92.399109
 11
-209.577087
 21
-94.041840
  0
LINE
  8
0
 10
-207.886459
 20
-92.041824
 11
-207.267654
 21
-92.399094
  0
LINE
  8
0
 10
-214.386490
 20
-98.241837
 11
-209.386490
 21
-98.241837
  0
LINE
  8
0
 10
-214.386490
 20
-78.241837
 11
-209.386490
 21
-78.241837
  0
LINE
  8
0
 10
-213.886490
 20
-78.241837
 11
-213.886490
 21
-85.241837
  0
LINE
  8
0
 10
-209.886490
 20
-78.241837
 11
-209.886490
 21
-85.241837
  0
LINE
  8
0
 10
-214.386490
 20
-96.041840
 11
-214.386490
 21
-98.241837
  0
LINE
  8
0
 10
-213.886490
 20
-96.041840
 11
-213.886490
 21
-98.241837
  0
LINE
  8
0
 10
-209.886490
 20
-96.041840
 11
-209.886490
 21
-98.241837
  0
LINE
  8
0
 10
-209.386490
 20
-96.041840
 11
-209.386490
 21
-98.241837
  0
LINE
  8
0
 10
-216.886490
 20
-89.741837
 11
-216.886490
 21
-90.741837
  0
LINE
  8
0
 10
-216.886490
 20
-90.741837
 11
-206.886490
 21
-90.741837
  0
LINE
  8
0
 10
-206.886490
 20
-89.741837
 11
-206.886490
 21
-90.741837
  0
LINE
  8
0
 10
-216.536499
 20
-90.741837
 11
-216.536499
 21
-92.041840
  0
LINE
  8
0
 10
-207.236481
 20
-90.741837
 11
-207.236481
 21
-92.041840
  0
LINE
  8
0
 10
-214.386490
 20
-60.741837
 11
-214.386490
 21
-85.241837
  0
LINE
  8
0
 10
-209.386490
 20
-60.741837
 11
-209.386490
 21
-85.241837
  0
ARC
  8
0
 10
-211.886490
 20
-101.741837
 40
2.750000
 50
0.000000
 51
180.000000
  0
ARC
  8
0
 10
-211.886490
 20
-108.741837
 40
2.750000
 50
180.000000
 51
0.000000
  0
ARC
  8
0
 10
-211.886490
 20
-126.741837
 40
2.750000
 50
0.000000
 51
180.000000
  0
ARC
  8
0
 10
-211.886490
 20
-133.741837
 40
2.750000
 50
180.000000
 51
0.000000
  0
ARC
  8
0
 10
-215.350586
 20
-93.997192
 40
2.044642
 50
235.615677
 51
304.384308
  0
ARC
  8
0
 10
-211.886490
 20
-88.399124
 40
7.642713
 50
252.411987
 51
270.000000
  0
ARC
  8
0
 10
-215.350586
 20
-94.086487
 40
2.044642
 50
55.615681
 51
124.384323
  0
ARC
  8
0
 10
-211.886490
 20
-99.684547
 40
7.642708
 50
90.000000
 51
107.588013
  0
ARC
  8
0
 10
-208.422379
 20
-93.997192
 40
2.044642
 50
235.615677
 51
304.384308
  0
ARC
  8
0
 10
-211.886490
 20
-88.399124
 40
7.642708
 50
270.000000
 51
287.587921
  0
ARC
  8
0
 10
-208.422379
 20
-94.086487
 40
2.044642
 50
55.615681
 51
124.384323
  0
ARC
  8
0
 10
-211.886490
 20
-99.684547
 40
7.642706
 50
72.411964
 51
89.999886
  0
ARC
  8
0
 10
-211.886490
 20
-60.741837
 40
2.500000
 50
0.000000
 51
180.000000
  0
POINT
  8
0
 10
-97.457703
 20
-74.241837
  0
POINT
  8
0
 10
-81.457703
 20
-74.241837
  0
LINE
  8
0
 10
-124.457703
 20
-85.241837
 11
-124.457703
 21
-89.741837
  0
LINE
  8
0
 10
-124.457703
 20
-85.241837
 11
-57.957703
 21
-85.241837
  0
LINE
  8
0
 10
-56.957703
 20
-140.241837
 11
-52.457703
 21
-140.241837
  0
LINE
  8
0
 10
-52.457703
 20
-90.741837
 11
-52.457703
 21
-140.241837
  0
LINE
  8
0
 10
-124.457703
 20
-89.741837
 11
-57.957703
 21
-89.741837
  0
LINE
  8
0
 10
-56.957703
 20
-90.741837
 11
-56.957703
 21
-140.241837
  0
LINE
  8
0
 10
-83.957703
 20
-95.641838
 11
-83.957703
 21
-92.441841
  0
LINE
  8
0
 10
-79.957703
 20
-92.041840
 11
-79.957703
 21
-96.041840
  0
LINE
  8
0
 10
-87.957703
 20
-96.041840
 11
-87.957703
 21
-92.041840
  0
LINE
  8
0
 10
-97.457703
 20
-53.980209
 11
-97.457703
 21
-91.406525
  0
LINE
  8
0
 10
-115.650345
 20
-74.241837
 11
-79.061150
 21
-74.241837
  0
LINE
  8
0
 10
-108.457703
 20
-74.241837
 11
-108.457703
 21
-85.241837
  0
LINE
  8
0
 10
-113.457703
 20
-74.241837
 11
-113.457703
 21
-85.241837
  0
LINE
  8
0
 10
-81.457703
 20
-78.241837
 11
-86.457703
 21
-78.241837
  0
LINE
  8
0
 10
-86.457703
 20
-74.241837
 11
-86.457703
 21
-85.241837
  0
LINE
  8
0
 10
-85.957703
 20
-78.241837
 11
-85.957703
 21
-85.241837
  0
LINE
  8
0
 10
-81.957703
 20
-78.241837
 11
-81.957703
 21
-85.241837
  0
LINE
  8
0
 10
-81.457703
 20
-74.241837
 11
-81.457703
 21
-85.241837
  0
LINE
  8
0
 10
-81.457703
 20
-98.241837
 11
-86.457703
 21
-98.241837
  0
LINE
  8
0
 10
-86.457703
 20
-96.041840
 11
-86.457703
 21
-98.241837
  0
LINE
  8
0
 10
-85.957703
 20
-96.041840
 11
-85.957703
 21
-98.241837
  0
LINE
  8
0
 10
-81.957703
 20
-96.041840
 11
-81.957703
 21
-98.241837
  0
LINE
  8
0
 10
-81.457703
 20
-96.041840
 11
-81.457703
 21
-98.241837
  0
LINE
  8
0
 10
-110.957703
 20
-74.241837
 11
-110.957703
 21
-99.014168
  0
LINE
  8
0
 10
-83.957703
 20
-74.241837
 11
-83.957703
 21
-99.148033
  0
LINE
  8
0
 10
-88.957703
 20
-90.741837
 11
-78.957703
 21
-90.741837
  0
LINE
  8
0
 10
-78.957703
 20
-89.741837
 11
-78.957703
 21
-90.741837
  0
LINE
  8
0
 10
-88.957703
 20
-89.741837
 11
-88.957703
 21
-90.741837
  0
LINE
  8
0
 10
-88.607704
 20
-92.041840
 11
-79.307701
 21
-92.041840
  0
LINE
  8
0
 10
-79.307701
 20
-90.741837
 11
-79.307701
 21
-92.041840
  0
LINE
  8
0
 10
-88.607704
 20
-90.741837
 11
-88.607704
 21
-92.041840
  0
LINE
  8
0
 10
-87.957710
 20
-96.041840
 11
-79.957703
 21
-96.041840
  0
LINE
  8
0
 10
-110.957703
 20
-95.641838
 11
-110.957703
 21
-92.441841
  0
LINE
  8
0
 10
-106.957703
 20
-92.041840
 11
-106.957703
 21
-96.041840
  0
LINE
  8
0
 10
-114.957703
 20
-96.041840
 11
-114.957703
 21
-92.041840
  0
LINE
  8
0
 10
-114.957710
 20
-96.041840
 11
-106.957703
 21
-96.041840
  0
LINE
  8
0
 10
-113.457703
 20
-78.241837
 11
-108.457703
 21
-78.241837
  0
LINE
  8
0
 10
-108.957703
 20
-78.241837
 11
-108.957703
 21
-85.241837
  0
LINE
  8
0
 10
-112.957703
 20
-78.241837
 11
-112.957703
 21
-85.241837
  0
LINE
  8
0
 10
-115.957703
 20
-89.741837
 11
-115.957703
 21
-90.741837
  0
LINE
  8
0
 10
-115.957703
 20
-90.741837
 11
-105.957703
 21
-90.741837
  0
LINE
  8
0
 10
-105.957703
 20
-89.741837
 11
-105.957703
 21
-90.741837
  0
LINE
  8
0
 10
-106.307701
 20
-90.741837
 11
-106.307701
 21
-92.041840
  0
LINE
  8
0
 10
-115.607704
 20
-92.041840
 11
-106.307701
 21
-92.041840
  0
LINE
  8
0
 10
-115.607704
 20
-90.741837
 11
-115.607704
 21
-92.041840
  0
LINE
  8
0
 10
-113.457703
 20
-96.041840
 11
-113.457703
 21
-98.241837
  0
LINE
  8
0
 10
-112.957703
 20
-96.041840
 11
-112.957703
 21
-98.241837
  0
LINE
  8
0
 10
-113.457703
 20
-98.241837
 11
-108.457703
 21
-98.241837
  0
LINE
  8
0
 10
-108.957703
 20
-96.041840
 11
-108.957703
 21
-98.241837
  0
LINE
  8
0
 10
-108.457703
 20
-96.041840
 11
-108.457703
 21
-98.241837
  0
ARC
  8
0
 10
-57.957703
 20
-90.741837
 40
1.000000
 50
0.000000
 51
90.000000
  0
ARC
  8
0
 10
-57.957703
 20
-90.741837
 40
5.500000
 50
0.000000
 51
90.000000
  0
ARC
  8
0
 10
-97.457703
 20
-74.241837
 40
11.000000
 50
0.000000
 51
179.999954
  0
ARC
  8
0
 10
-97.457703
 20
-74.241837
 40
16.000000
 50
0.000000
 51
179.999969
  0
ARC
  8
0
 10
-85.957703
 20
-97.241867
 40
5.200024
 50
67.380241
 51
112.619835
  0
ARC
  8
0
 10
-85.957703
 20
-90.841812
 40
5.200020
 50
247.380142
 51
292.619751
  0
ARC
  8
0
 10
-81.957703
 20
-90.841812
 40
5.200020
 50
247.380142
 51
292.619751
  0
ARC
  8
0
 10
-81.957703
 20
-97.241867
 40
5.200020
 50
67.380135
 51
112.619759
  0
ARC
  8
0
 10
-112.957703
 20
-97.241867
 40
5.200024
 50
67.380241
 51
112.619759
  0
ARC
  8
0
 10
-112.957703
 20
-90.841812
 40
5.200020
 50
247.380142
 51
292.619751
  0
ARC
  8
0
 10
-108.957703
 20
-90.841812
 40
5.200020
 50
247.380142
 51
292.619751
  0
ARC
  8
0
 10
-108.957703
 20
-97.241867
 40
5.200020
 50
67.380135
 51
112.619759
  0
ARC
  8
0
 10
-97.457703
 20
-74.241837
 40
13.500000
 50
0.000000
 51
179.999969
  0
ENDSEC
  0
EOF
