  0
SECTION
  2
HEADER
  0
ENDSEC
  0
SECTION
  2
TABLES
  0
TABLE
  2
LTYPE
 70
     4
  0
LTYPE
  2
CONTINUOUS
 70
    64
  3
Solid line
 72
    65
 73
     0
 40
0.000000
  0
LTYPE
  2
DASHED
 70
    64
  3
__ __ __ __ __ __ __ __ __ __ __ __ __ __ __
 72
    65
 73
     2
 40
3.500000
 49
2.000000
 49
-1.500000
  0
LTYPE
  2
CENTER
 70
    64
  3
____ _ ____ _ ____ _ ____ _ ____ _ ____ _ ____
 72
    65
 73
     4
 40
17.500000
 49
13.000000
 49
-1.500000
 49
1.500000
 49
-1.500000
  0
LTYPE
  2
PHANTOM
 70
    64
  3
_____ _ _ _____ _ _ _____ _ _ _____ _ _ ____  
 72
    65
 73
     6
 40
15.500000
 49
8.000000
 49
-1.500000
 49
1.500000
 49
-1.500000
 49
1.500000
 49
-1.500000
  0
LTYPE
  2
DASHED1
 70
    64
  3
__ __ __ __ __ __ __ __ __ __ __ __ __ __ __
 72
    65
 73
     2
 40
1.500000
 49
1.000000
 49
-0.500000
  0
LTYPE
  2
DASHED2
 70
    64
  3
__ __ __ __ __ __ __ __ __ __ __ __ __ __ __
 72
    65
 73
     2
 40
3.500000
 49
2.500000
 49
-1.000000
  0
LTYPE
  2
DASHED3
 70
    64
  3
__ __ __ __ __ __ __ __ __ __ __ __ __ __ __
 72
    65
 73
     2
 40
6.000000
 49
4.000000
 49
-2.000000
  0
LTYPE
  2
DASHED4
 70
    64
  3
__ __ __ __ __ __ __ __ __ __ __ __ __ __ __
 72
    65
 73
     2
 40
12.000000
 49
10.000000
 49
-2.000000
  0
LTYPE
  2
DASHED5
 70
    64
  3
__ __ __ __ __ __ __ __ __ __ __ __ __ __ __
 72
    65
 73
     2
 40
17.000000
 49
15.000000
 49
-2.000000
  0
LTYPE
  2
DASHED6
 70
    64
  3
__ __ __ __ __ __ __ __ __ __ __ __ __ __ __
 72
    65
 73
     2
 40
29.000000
 49
27.000000
 49
-2.000000
  0
LTYPE
  2
PHANTOM1
 70
    64
  3
_____ _ _ _____ _ _ _____ _ _ _____ _ _ ____  
 72
    65
 73
     6
 40
31.000000
 49
25.000000
 49
-1.500000
 49
1.000000
 49
-1.000000
 49
1.000000
 49
-1.500000
  0
LTYPE
  2
PHANTOM2
 70
    64
  3
_____ _ _ _____ _ _ _____ _ _ _____ _ _ ____  
 72
    65
 73
     6
 40
36.000000
 49
27.000000
 49
-1.500000
 49
2.500000
 49
-1.000000
 49
2.500000
 49
-1.500000
  0
LTYPE
  2
PHANTOM3
 70
    64
  3
_____ _ _ _____ _ _ _____ _ _ _____ _ _ ____  
 72
    65
 73
     6
 40
78.000000
 49
64.000000
 49
-2.000000
 49
4.000000
 49
-2.000000
 49
4.000000
 49
-2.000000
  0
LTYPE
  2
CENTER1
 70
    64
  3
____ _ ____ _ ____ _ ____ _ ____ _ ____ _ ____
 72
    65
 73
     4
 40
19.000000
 49
14.000000
 49
-1.000000
 49
3.000000
 49
-1.000000
  0
LTYPE
  2
CENTER2
 70
    64
  3
____ _ ____ _ ____ _ ____ _ ____ _ ____ _ ____
 72
    65
 73
     4
 40
28.500000
 49
25.000000
 49
-1.000000
 49
1.500000
 49
-1.000000
  0
LTYPE
  2
CENTER3
 70
    64
  3
____ _ ____ _ ____ _ ____ _ ____ _ ____ _ ____
 72
    65
 73
     4
 40
31.500000
 49
27.000000
 49
-1.000000
 49
2.500000
 49
-1.000000
  0
LTYPE
  2
CENTER4
 70
    64
  3
____ _ ____ _ ____ _ ____ _ ____ _ ____ _ ____
 72
    65
 73
     4
 40
50.000000
 49
45.000000
 49
-1.000000
 49
3.000000
 49
-1.000000
  0
LTYPE
  2
CENTER5
 70
    64
  3
____ _ ____ _ ____ _ ____ _ ____ _ ____ _ ____
 72
    65
 73
     4
 40
100.000000
 49
92.000000
 49
-2.000000
 49
4.000000
 49
-2.000000
  0
LTYPE
  2
SBK1
 70
    64
  3
______ _ _ _ ______ _ _ _ ______ _ _ _ _____  
 72
    65
 73
     8
 40
60.500000
 49
45.000000
 49
-2.000000
 49
2.500000
 49
-2.000000
 49
2.500000
 49
-2.000000
 49
2.500000
 49
-2.000000
  0
LTYPE
  2
SBK2
 70
    64
  3
______ _ _ _ ______ _ _ _ ______ _ _ _ _____  
 72
    65
 73
     8
 40
84.000000
 49
64.000000
 49
-2.000000
 49
4.000000
 49
-2.000000
 49
4.000000
 49
-2.000000
 49
4.000000
 49
-2.000000
  0
LTYPE
  2
STCH
 70
    64
  3
__ __ __ __ __ __ __ __ __ __ __ __ __ __ __
 72
    65
 73
     2
 40
3.000000
 49
1.000000
 49
-2.000000
  0
LTYPE
  2
MTCH
 70
    64
  3
_____ _ _ _____ _ _ _____ _ _ _____ _ _ ____  
 72
    65
 73
     6
 40
80.000000
 49
66.000000
 49
-2.000000
 49
4.000000
 49
-2.000000
 49
4.000000
 49
-2.000000
  0
ENDTAB
  0
TABLE
  2
LAYER
 70
     1
  0
LAYER
  2
0
 70
     0
 62
     7
  6
CONTINUOUS
  0
ENDTAB
  0
TABLE
  2
STYLE
 70
     1
  0
STYLE
  2
STANDARD
 70
     0
 40
0.000000
 41
1.000000
 50
0.000000
 71
     0
 42
0.200000
  3
txt
  4
BIGFONT
  0
ENDTAB
  0
TABLE
  2
VIEW
 70
     0
  0
ENDTAB
  0
ENDSEC
  0
SECTION
  2
BLOCKS
  0
ENDSEC
  0
SECTION
  2
ENTITIES
  0
LINE
  8
0
 10
-297.000000
 20
210.000000
 11
297.000000
 21
210.000000
  0
LINE
  8
0
 10
-297.000000
 20
-210.000000
 11
297.000000
 21
-210.000000
  0
LINE
  8
0
 10
297.000000
 20
210.000000
 11
297.000000
 21
-210.000000
  0
LINE
  8
0
 10
-297.000000
 20
210.000000
 11
-297.000000
 21
-210.000000
  0
LINE
  8
0
 10
-281.250000
 20
195.500000
 11
282.099976
 21
195.500000
  0
LINE
  8
0
 10
-281.250000
 20
195.500000
 11
-281.250000
 21
-195.000000
  0
LINE
  8
0
 10
282.099976
 20
195.500000
 11
282.099976
 21
-195.000000
  0
LINE
  8
0
 10
-281.250000
 20
-195.000000
 11
282.099976
 21
-195.000000
  0
LINE
  8
0
 10
162.099976
 20
-175.000000
 11
162.099976
 21
-195.000000
  0
LINE
  8
0
 10
162.099976
 20
-175.000000
 11
282.099976
 21
-175.000000
  0
LINE
  8
0
 10
162.099976
 20
175.500000
 11
282.099976
 21
175.500000
  0
LINE
  8
0
 10
-281.250000
 20
175.500000
 11
-161.250000
 21
175.500000
  0
LINE
  8
0
 10
162.099976
 20
195.500000
 11
162.099976
 21
175.500000
  0
LINE
  8
0
 10
-161.250000
 20
195.500000
 11
-161.250000
 21
175.500000
  0
LINE
  8
0
 10
-281.250000
 20
70.333328
 11
282.100006
 21
70.333328
  0
LINE
  8
0
 10
-281.250000
 20
-39.833344
 11
282.100006
 21
-39.833344
  0
LINE
  8
0
 10
-93.466675
 20
-39.833344
 11
-93.466675
 21
-195.000000
  0
LINE
  8
0
 10
-281.250000
 20
80.333328
 11
282.100006
 21
80.333328
  0
LINE
  8
0
 10
-281.250000
 20
-29.833344
 11
282.100006
 21
-29.833344
  0
LINE
  8
0
 10
-281.250000
 20
-185.000000
 11
162.099976
 21
-185.000000
  0
LINE
  8
0
 10
0.424988
 20
-39.833344
 11
0.424988
 21
195.500000
  0
TEXT
  8
0
 10
174.200241
 20
180.830002
 40
6.300000
  1
DATE: SEP ,1992
 50
0.000000
 41
1.052632
 51
0.000000
  7
STANDARD
  0
TEXT
  8
0
 10
167.564667
 20
-192.100006
 40
9.000000
  1
KOGANEI CORP.
 50
0.000000
 41
1.052632
 51
0.000000
  7
STANDARD
  0
TEXT
  8
0
 10
-265.999725
 20
180.830002
 40
6.300000
  1
PRESSURE GAUGE
 50
0.000000
 41
1.052632
 51
0.000000
  7
STANDARD
  0
TEXT
  8
0
 10
-185.162231
 20
70.663330
 40
6.300000
  1
MODEL : G1-20A
 50
0.000000
 41
1.052632
 51
0.000000
  7
STANDARD
  0
TEXT
  8
0
 10
96.512764
 20
70.663330
 40
6.300000
  1
MODEL : G1-20D
 50
0.000000
 41
1.052632
 51
0.000000
  7
STANDARD
  0
TEXT
  8
0
 10
80.762764
 20
-39.503345
 40
6.300000
  1
MODEL : G1-50,G3-50
 50
0.000000
 41
1.052632
 51
0.000000
  7
STANDARD
  0
TEXT
  8
0
 10
-200.912231
 20
-39.503345
 40
6.300000
  1
MODEL : G1-40,G3-40
 50
0.000000
 41
1.052632
 51
0.000000
  7
STANDARD
  0
TEXT
  8
0
 10
-10.433070
 20
-194.669998
 40
6.300000
  1
MODEL : GS1-50
 50
0.000000
 41
1.052632
 51
0.000000
  7
STANDARD
  0
TEXT
  8
0
 10
-254.158051
 20
-194.669998
 40
6.300000
  1
MODEL : GP1-40,GP3-40
 50
0.000000
 41
1.052632
 51
0.000000
  7
STANDARD
  0
POINT
  8
0
 10
-184.304169
 20
95.236160
  0
POINT
  8
0
 10
-179.440170
 20
95.236160
  0
LINE
  8
0
 10
-184.304169
 20
128.832825
 11
-184.304169
 21
89.036156
  0
LINE
  8
0
 10
-178.141785
 20
124.156960
 11
-178.880600
 21
124.156960
  0
LINE
  8
0
 10
-175.313293
 20
121.328552
 11
-175.313293
 21
120.589729
  0
LINE
  8
0
 10
-186.304184
 20
125.881111
 11
-186.826599
 21
125.358688
  0
LINE
  8
0
 10
-182.304138
 20
125.881119
 11
-181.781708
 21
125.358696
  0
LINE
  8
0
 10
-193.294968
 20
121.328560
 11
-193.294968
 21
120.589729
  0
LINE
  8
0
 10
-190.466553
 20
124.157028
 11
-189.727737
 21
124.157028
  0
LINE
  8
0
 10
-195.019089
 20
113.166183
 11
-194.496658
 21
112.643753
  0
LINE
  8
0
 10
-195.019150
 20
117.166206
 11
-194.496719
 21
117.688629
  0
LINE
  8
0
 10
-190.466553
 20
106.175362
 11
-189.727737
 21
106.175362
  0
LINE
  8
0
 10
-193.295044
 20
109.003769
 11
-193.295044
 21
109.742592
  0
LINE
  8
0
 10
-182.304199
 20
104.451233
 11
-181.781754
 21
104.973663
  0
LINE
  8
0
 10
-186.304199
 20
104.451187
 11
-186.826630
 21
104.973610
  0
LINE
  8
0
 10
-175.313354
 20
109.003769
 11
-175.313354
 21
109.742592
  0
LINE
  8
0
 10
-178.141785
 20
106.175285
 11
-178.880600
 21
106.175285
  0
LINE
  8
0
 10
-173.589233
 20
117.166161
 11
-174.111664
 21
117.688591
  0
LINE
  8
0
 10
-173.589203
 20
113.166138
 11
-174.111633
 21
112.643707
  0
LINE
  8
0
 10
-179.314240
 20
99.266159
 11
-179.548615
 21
91.765915
  0
LINE
  8
0
 10
-179.947113
 20
97.766159
 11
-180.150238
 21
91.266159
  0
LINE
  8
0
 10
-188.661072
 20
97.766159
 11
-188.457947
 21
91.266159
  0
LINE
  8
0
 10
-189.293869
 20
99.266159
 11
-189.059479
 21
91.765915
  0
LINE
  8
0
 10
-188.527496
 20
91.266159
 11
-180.080612
 21
91.266159
  0
LINE
  8
0
 10
-189.247009
 20
97.766159
 11
-179.361115
 21
97.766159
  0
LINE
  8
0
 10
-189.304169
 20
99.266159
 11
-179.304169
 21
99.266159
  0
LINE
  8
0
 10
-179.548615
 20
91.765915
 11
-180.080612
 21
91.266159
  0
LINE
  8
0
 10
-189.059479
 20
91.765923
 11
-188.527481
 21
91.266167
  0
LINE
  8
0
 10
-188.661072
 20
97.766159
 11
-189.293884
 21
99.266159
  0
LINE
  8
0
 10
-179.947113
 20
97.766159
 11
-179.314240
 21
99.266159
  0
LINE
  8
0
 10
-179.304169
 20
105.480606
 11
-179.304169
 21
99.266159
  0
LINE
  8
0
 10
-189.304169
 20
105.480606
 11
-189.304169
 21
99.266159
  0
LINE
  8
0
 10
-184.304169
 20
99.266159
 11
-184.304169
 21
104.266159
  0
LINE
  8
0
 10
-189.059494
 20
91.765915
 11
-179.548615
 21
91.765915
  0
LINE
  8
0
 10
-196.804169
 20
115.166161
 11
-171.804169
 21
115.166161
  0
LINE
  8
0
 10
-191.804169
 20
95.236160
 11
-176.804169
 21
95.236160
  0
LINE
  8
0
 10
-179.957489
 20
114.001488
 11
-180.877930
 21
113.033218
  0
LINE
  8
0
 10
-180.270477
 20
115.300247
 11
-179.957489
 21
114.001495
  0
LINE
  8
0
 10
-191.126511
 20
117.372086
 11
-186.433319
 21
116.476410
  0
LINE
  8
0
 10
-191.315445
 20
116.666977
 11
-186.803192
 21
115.096062
  0
LINE
  8
0
 10
-181.842133
 20
115.600189
 11
-180.270477
 21
115.300247
  0
LINE
  8
0
 10
-182.388977
 20
113.559288
 11
-180.877930
 21
113.033226
  0
CIRCLE
  8
0
 10
-184.304169
 20
115.166161
 40
10.900000
  0
CIRCLE
  8
0
 10
-184.304169
 20
115.166161
 40
10.500000
  0
ARC
  8
0
 10
-191.195114
 20
117.012589
 40
0.365969
 50
79.195587
 51
250.803925
  0
CIRCLE
  8
0
 10
-184.304169
 20
115.166161
 40
2.500000
  0
POINT
  8
0
 10
-96.065674
 20
95.236160
  0
POINT
  8
0
 10
-91.201668
 20
95.236160
  0
LINE
  8
0
 10
-91.075737
 20
99.266159
 11
-91.310112
 21
91.765915
  0
LINE
  8
0
 10
-91.708611
 20
97.766159
 11
-91.911736
 21
91.266159
  0
LINE
  8
0
 10
-100.422554
 20
97.766174
 11
-100.219429
 21
91.266167
  0
LINE
  8
0
 10
-101.056145
 20
99.290634
 11
-100.820992
 21
91.765915
  0
LINE
  8
0
 10
-100.289001
 20
91.266159
 11
-91.842117
 21
91.266159
  0
LINE
  8
0
 10
-101.008514
 20
97.766159
 11
-91.122604
 21
97.766159
  0
LINE
  8
0
 10
-101.839172
 20
99.266159
 11
-90.292175
 21
99.266159
  0
LINE
  8
0
 10
-100.820992
 20
91.765938
 11
-100.288994
 21
91.266182
  0
LINE
  8
0
 10
-91.310112
 20
91.765892
 11
-91.842110
 21
91.266136
  0
LINE
  8
0
 10
-100.422562
 20
97.766174
 11
-101.056137
 21
99.290642
  0
LINE
  8
0
 10
-91.708603
 20
97.766151
 11
-91.075722
 21
99.266159
  0
LINE
  8
0
 10
-100.820999
 20
91.765915
 11
-91.310120
 21
91.765915
  0
LINE
  8
0
 10
-111.065674
 20
115.166161
 11
-88.565674
 21
115.166161
  0
LINE
  8
0
 10
-96.065674
 20
128.999496
 11
-96.065674
 21
89.036163
  0
LINE
  8
0
 10
-96.065674
 20
122.766159
 11
-90.292175
 21
122.766159
  0
LINE
  8
0
 10
-109.065674
 20
125.666161
 11
-109.065674
 21
104.666161
  0
LINE
  8
0
 10
-107.334732
 20
126.066162
 11
-96.065674
 21
126.066162
  0
LINE
  8
0
 10
-109.065674
 20
125.666161
 11
-107.565674
 21
125.666161
  0
LINE
  8
0
 10
-107.565681
 20
125.666161
 11
-107.334740
 21
126.066162
  0
LINE
  8
0
 10
-107.334732
 20
125.881104
 11
-98.834732
 21
125.881104
  0
LINE
  8
0
 10
-107.565674
 20
125.358673
 11
-99.065674
 21
125.358673
  0
LINE
  8
0
 10
-107.565674
 20
124.156967
 11
-98.834732
 21
124.156967
  0
LINE
  8
0
 10
-107.334732
 20
121.328552
 11
-98.834732
 21
121.328552
  0
LINE
  8
0
 10
-107.565674
 20
120.589729
 11
-99.065674
 21
120.589729
  0
LINE
  8
0
 10
-106.065674
 20
117.688576
 11
-99.065674
 21
117.688576
  0
LINE
  8
0
 10
-107.565674
 20
117.166153
 11
-98.834732
 21
117.166153
  0
LINE
  8
0
 10
-107.565674
 20
125.666161
 11
-107.565674
 21
125.358673
  0
LINE
  8
0
 10
-107.334732
 20
126.066162
 11
-107.334732
 21
125.881104
  0
LINE
  8
0
 10
-98.834732
 20
125.881104
 11
-98.834732
 21
124.156967
  0
LINE
  8
0
 10
-99.065674
 20
125.358673
 11
-99.065674
 21
124.156967
  0
LINE
  8
0
 10
-99.065674
 20
120.589729
 11
-99.065674
 21
117.688576
  0
LINE
  8
0
 10
-98.834732
 20
121.328552
 11
-98.834732
 21
117.166153
  0
LINE
  8
0
 10
-107.565674
 20
124.156967
 11
-107.565674
 21
120.589729
  0
LINE
  8
0
 10
-107.334732
 20
124.156967
 11
-107.334732
 21
121.328552
  0
LINE
  8
0
 10
-99.065727
 20
117.688560
 11
-98.834785
 21
117.166130
  0
LINE
  8
0
 10
-99.065651
 20
120.589714
 11
-98.834709
 21
121.328545
  0
LINE
  8
0
 10
-107.334724
 20
121.328552
 11
-107.565666
 21
120.589722
  0
LINE
  8
0
 10
-99.065674
 20
125.358688
 11
-98.834732
 21
125.881119
  0
LINE
  8
0
 10
-107.334732
 20
125.881104
 11
-107.565674
 21
125.358673
  0
LINE
  8
0
 10
-107.565674
 20
113.166168
 11
-107.565674
 21
117.166153
  0
LINE
  8
0
 10
-106.065674
 20
112.643745
 11
-106.065674
 21
117.688576
  0
LINE
  8
0
 10
-107.565674
 20
113.166168
 11
-98.834732
 21
113.166168
  0
LINE
  8
0
 10
-106.065674
 20
112.643745
 11
-99.065674
 21
112.643745
  0
LINE
  8
0
 10
-98.834732
 20
109.003769
 11
-98.834732
 21
113.166168
  0
LINE
  8
0
 10
-99.065674
 20
109.742592
 11
-99.065674
 21
112.643745
  0
LINE
  8
0
 10
-99.065651
 20
112.643745
 11
-98.834709
 21
113.166161
  0
LINE
  8
0
 10
-107.565674
 20
109.742592
 11
-99.065674
 21
109.742592
  0
LINE
  8
0
 10
-107.334732
 20
109.003769
 11
-98.834732
 21
109.003769
  0
LINE
  8
0
 10
-99.065674
 20
109.742584
 11
-98.834732
 21
109.003761
  0
LINE
  8
0
 10
-107.565674
 20
106.175354
 11
-107.565674
 21
109.742592
  0
LINE
  8
0
 10
-107.334732
 20
106.175354
 11
-107.334732
 21
109.003769
  0
LINE
  8
0
 10
-107.334724
 20
109.003777
 11
-107.565666
 21
109.742599
  0
LINE
  8
0
 10
-107.565674
 20
106.175354
 11
-98.834732
 21
106.175354
  0
LINE
  8
0
 10
-98.834732
 20
104.898140
 11
-98.834732
 21
106.175354
  0
LINE
  8
0
 10
-99.065674
 20
104.973648
 11
-99.065674
 21
106.175354
  0
LINE
  8
0
 10
-107.565674
 20
104.973648
 11
-99.065674
 21
104.973648
  0
LINE
  8
0
 10
-99.065689
 20
104.973633
 11
-99.015503
 21
104.860107
  0
LINE
  8
0
 10
-107.334732
 20
104.451218
 11
-100.959412
 21
104.451218
  0
LINE
  8
0
 10
-107.334732
 20
104.266159
 11
-101.839172
 21
104.266159
  0
LINE
  8
0
 10
-107.334702
 20
104.451241
 11
-107.565643
 21
104.973663
  0
LINE
  8
0
 10
-107.565643
 20
104.666161
 11
-107.334702
 21
104.266159
  0
LINE
  8
0
 10
-107.565674
 20
104.666161
 11
-107.565674
 21
104.973648
  0
LINE
  8
0
 10
-107.334732
 20
104.266159
 11
-107.334732
 21
104.451218
  0
LINE
  8
0
 10
-109.065674
 20
104.666161
 11
-107.565674
 21
104.666161
  0
LINE
  8
0
 10
-90.292175
 20
99.266159
 11
-90.292175
 21
122.766159
  0
LINE
  8
0
 10
-93.178925
 20
99.266159
 11
-93.178925
 21
122.766159
  0
LINE
  8
0
 10
-101.839172
 20
99.266159
 11
-101.839172
 21
104.266159
  0
LINE
  8
0
 10
-96.065689
 20
105.480591
 11
-101.839180
 21
104.266144
  0
LINE
  8
0
 10
-96.065674
 20
105.480606
 11
-96.065674
 21
126.066162
  0
LINE
  8
0
 10
-98.952423
 20
99.266159
 11
-98.952423
 21
104.873383
  0
LINE
  8
0
 10
-103.565674
 20
95.236160
 11
-88.565674
 21
95.236160
  0
POINT
  8
0
 10
-185.259552
 20
153.527191
  0
POINT
  8
0
 10
-174.359543
 20
153.527191
  0
LINE
  8
0
 10
-185.259552
 20
138.527191
 11
-185.259552
 21
161.027191
  0
LINE
  8
0
 10
-195.759552
 20
140.527191
 11
-174.759552
 21
140.527191
  0
LINE
  8
0
 10
-196.159546
 20
143.527191
 11
-196.159546
 21
153.527191
  0
LINE
  8
0
 10
-195.759552
 20
140.527191
 11
-195.759552
 21
143.527191
  0
LINE
  8
0
 10
-195.974487
 20
143.527191
 11
-195.974487
 21
150.758118
  0
LINE
  8
0
 10
-195.452072
 20
143.527191
 11
-195.452072
 21
150.527191
  0
LINE
  8
0
 10
-194.250351
 20
142.027191
 11
-194.250351
 21
150.758118
  0
LINE
  8
0
 10
-191.421936
 20
142.258118
 11
-191.421936
 21
150.758118
  0
LINE
  8
0
 10
-190.683121
 20
142.027191
 11
-190.683121
 21
150.527191
  0
LINE
  8
0
 10
-187.781967
 20
142.027191
 11
-187.781967
 21
150.527191
  0
LINE
  8
0
 10
-187.259537
 20
142.258118
 11
-187.259537
 21
150.758118
  0
LINE
  8
0
 10
-195.974503
 20
150.758118
 11
-194.250351
 21
150.758118
  0
LINE
  8
0
 10
-195.452072
 20
150.527191
 11
-194.250351
 21
150.527191
  0
LINE
  8
0
 10
-190.683121
 20
150.527191
 11
-187.781967
 21
150.527191
  0
LINE
  8
0
 10
-191.421951
 20
150.758118
 11
-187.259537
 21
150.758118
  0
LINE
  8
0
 10
-194.250351
 20
142.027191
 11
-190.683121
 21
142.027191
  0
LINE
  8
0
 10
-194.250351
 20
142.258118
 11
-191.421951
 21
142.258118
  0
LINE
  8
0
 10
-187.781967
 20
150.527191
 11
-187.259537
 21
150.758133
  0
LINE
  8
0
 10
-190.683105
 20
150.527252
 11
-191.421936
 21
150.758179
  0
LINE
  8
0
 10
-191.421951
 20
142.258163
 11
-190.683121
 21
142.027237
  0
LINE
  8
0
 10
-195.452118
 20
150.527130
 11
-195.974533
 21
150.758072
  0
LINE
  8
0
 10
-182.737137
 20
142.027191
 11
-187.781967
 21
142.027191
  0
LINE
  8
0
 10
-183.259567
 20
142.258118
 11
-183.259567
 21
150.758118
  0
LINE
  8
0
 10
-182.737137
 20
142.027191
 11
-182.737137
 21
150.527191
  0
LINE
  8
0
 10
-179.097153
 20
150.758118
 11
-183.259567
 21
150.758118
  0
LINE
  8
0
 10
-179.835983
 20
150.527191
 11
-182.737137
 21
150.527191
  0
LINE
  8
0
 10
-182.737152
 20
150.527191
 11
-183.259583
 21
150.758133
  0
LINE
  8
0
 10
-179.835983
 20
142.027191
 11
-179.835983
 21
150.527191
  0
LINE
  8
0
 10
-179.097153
 20
142.258118
 11
-179.097153
 21
150.758118
  0
LINE
  8
0
 10
-179.835968
 20
150.527176
 11
-179.097137
 21
150.758118
  0
LINE
  8
0
 10
-176.268753
 20
142.027191
 11
-179.835983
 21
142.027191
  0
LINE
  8
0
 10
-176.268753
 20
142.258118
 11
-179.097153
 21
142.258118
  0
LINE
  8
0
 10
-179.097153
 20
142.258118
 11
-179.835968
 21
142.027191
  0
LINE
  8
0
 10
-176.268753
 20
142.027191
 11
-176.268753
 21
150.758118
  0
LINE
  8
0
 10
-174.544601
 20
150.758118
 11
-176.268753
 21
150.758118
  0
LINE
  8
0
 10
-175.067032
 20
150.527191
 11
-176.268753
 21
150.527191
  0
LINE
  8
0
 10
-175.067032
 20
143.527191
 11
-175.067032
 21
150.527191
  0
LINE
  8
0
 10
-175.067047
 20
150.527191
 11
-174.544632
 21
150.758118
  0
LINE
  8
0
 10
-174.544601
 20
143.527191
 11
-174.544601
 21
150.758118
  0
LINE
  8
0
 10
-174.359543
 20
143.527191
 11
-174.359543
 21
153.527191
  0
LINE
  8
0
 10
-174.759552
 20
142.027191
 11
-174.951782
 21
142.027191
  0
LINE
  8
0
 10
-174.759552
 20
140.527191
 11
-174.759552
 21
143.527191
  0
LINE
  8
0
 10
-174.359543
 20
153.527191
 11
-196.159546
 21
153.527191
  0
LINE
  8
0
 10
-190.259552
 20
156.413956
 11
-185.259552
 21
159.300705
  0
LINE
  8
0
 10
-185.259552
 20
159.300735
 11
-180.259552
 21
156.413986
  0
LINE
  8
0
 10
-180.259552
 20
156.413940
 11
-180.259552
 21
153.527191
  0
LINE
  8
0
 10
-190.259552
 20
156.413940
 11
-190.259552
 21
153.527191
  0
LINE
  8
0
 10
-187.259537
 20
142.258118
 11
-183.259567
 21
142.258118
  0
LINE
  8
0
 10
-182.737122
 20
142.027206
 11
-183.259552
 21
142.258148
  0
LINE
  8
0
 10
-187.259537
 20
142.258133
 11
-187.781967
 21
142.027191
  0
LINE
  8
0
 10
-175.067032
 20
143.527191
 11
-174.359543
 21
143.527191
  0
LINE
  8
0
 10
-174.951782
 20
143.527191
 11
-174.951782
 21
142.027191
  0
LINE
  8
0
 10
-195.567322
 20
143.527191
 11
-195.567322
 21
142.027191
  0
LINE
  8
0
 10
-195.759552
 20
142.027191
 11
-195.567322
 21
142.027191
  0
LINE
  8
0
 10
-195.452072
 20
143.527191
 11
-196.159546
 21
143.527191
  0
POINT
  8
0
 10
103.479156
 20
112.166168
  0
POINT
  8
0
 10
114.379150
 20
112.166168
  0
LINE
  8
0
 10
109.641556
 20
121.156967
 11
108.902725
 21
121.156967
  0
LINE
  8
0
 10
112.470032
 20
118.328560
 11
112.470032
 21
117.589737
  0
LINE
  8
0
 10
101.479172
 20
122.881104
 11
100.956734
 21
122.358673
  0
LINE
  8
0
 10
105.479195
 20
122.881149
 11
106.001625
 21
122.358719
  0
LINE
  8
0
 10
94.488358
 20
118.328568
 11
94.488358
 21
117.589737
  0
LINE
  8
0
 10
97.316757
 20
121.157036
 11
98.055588
 21
121.157036
  0
LINE
  8
0
 10
92.764259
 20
110.166199
 11
93.286690
 21
109.643776
  0
LINE
  8
0
 10
92.764175
 20
114.166199
 11
93.286606
 21
114.688629
  0
LINE
  8
0
 10
97.316757
 20
103.175369
 11
98.055588
 21
103.175369
  0
LINE
  8
0
 10
94.488281
 20
106.003777
 11
94.488281
 21
106.742599
  0
LINE
  8
0
 10
105.479141
 20
101.451233
 11
106.001572
 21
101.973663
  0
LINE
  8
0
 10
101.479111
 20
101.451195
 11
100.956680
 21
101.973625
  0
LINE
  8
0
 10
112.469971
 20
106.003777
 11
112.469971
 21
106.742599
  0
LINE
  8
0
 10
109.641541
 20
103.175293
 11
108.902725
 21
103.175293
  0
LINE
  8
0
 10
114.194077
 20
114.166161
 11
113.671654
 21
114.688591
  0
LINE
  8
0
 10
114.194138
 20
110.166107
 11
113.671707
 21
109.643677
  0
LINE
  8
0
 10
90.979156
 20
112.166168
 11
115.979156
 21
112.166168
  0
LINE
  8
0
 10
103.479156
 20
124.666168
 11
103.479156
 21
99.666168
  0
LINE
  8
0
 10
107.825836
 20
111.001488
 11
106.905396
 21
110.033218
  0
LINE
  8
0
 10
107.512848
 20
112.300240
 11
107.825829
 21
111.001495
  0
LINE
  8
0
 10
96.656815
 20
114.372078
 11
101.349998
 21
113.476402
  0
LINE
  8
0
 10
96.467880
 20
113.666969
 11
100.980141
 21
112.096062
  0
LINE
  8
0
 10
105.941193
 20
112.600189
 11
107.512840
 21
112.300240
  0
LINE
  8
0
 10
105.394341
 20
110.559280
 11
106.905396
 21
110.033218
  0
CIRCLE
  8
0
 10
103.479156
 20
112.166168
 40
10.900000
  0
CIRCLE
  8
0
 10
103.479156
 20
112.166168
 40
10.500000
  0
ARC
  8
0
 10
96.588211
 20
114.012596
 40
0.365969
 50
79.195587
 51
250.805054
  0
CIRCLE
  8
0
 10
103.479156
 20
112.166168
 40
2.500000
  0
POINT
  8
0
 10
197.370789
 20
112.166168
  0
POINT
  8
0
 10
201.340790
 20
112.166168
  0
LINE
  8
0
 10
173.340790
 20
112.166183
 11
202.840790
 21
112.166168
  0
LINE
  8
0
 10
175.340790
 20
122.666183
 11
175.340790
 21
101.666183
  0
LINE
  8
0
 10
177.071716
 20
123.066177
 11
188.340790
 21
123.066177
  0
LINE
  8
0
 10
175.340790
 20
122.666183
 11
176.840790
 21
122.666183
  0
LINE
  8
0
 10
176.840790
 20
122.666183
 11
177.071732
 21
123.066185
  0
LINE
  8
0
 10
177.071716
 20
122.881119
 11
185.571732
 21
122.881119
  0
LINE
  8
0
 10
176.840790
 20
122.358696
 11
185.340790
 21
122.358688
  0
LINE
  8
0
 10
176.840790
 20
121.156982
 11
185.571732
 21
121.156982
  0
LINE
  8
0
 10
177.071716
 20
118.328568
 11
185.571732
 21
118.328568
  0
LINE
  8
0
 10
176.840790
 20
117.589752
 11
185.340790
 21
117.589745
  0
LINE
  8
0
 10
178.340790
 20
114.688591
 11
185.340790
 21
114.688591
  0
LINE
  8
0
 10
176.840790
 20
114.166168
 11
185.571732
 21
114.166161
  0
LINE
  8
0
 10
176.840790
 20
122.666183
 11
176.840790
 21
122.358696
  0
LINE
  8
0
 10
177.071716
 20
123.066177
 11
177.071716
 21
122.881119
  0
LINE
  8
0
 10
185.571732
 20
122.881119
 11
185.571732
 21
121.156982
  0
LINE
  8
0
 10
185.340790
 20
122.358688
 11
185.340790
 21
121.156982
  0
LINE
  8
0
 10
185.340790
 20
117.589745
 11
185.340790
 21
114.688591
  0
LINE
  8
0
 10
185.571732
 20
118.328568
 11
185.571732
 21
114.166161
  0
LINE
  8
0
 10
176.840790
 20
121.156982
 11
176.840790
 21
117.589752
  0
LINE
  8
0
 10
177.071716
 20
121.156982
 11
177.071716
 21
118.328568
  0
LINE
  8
0
 10
185.340820
 20
114.688606
 11
185.571762
 21
114.166176
  0
LINE
  8
0
 10
185.340759
 20
117.589745
 11
185.571701
 21
118.328568
  0
LINE
  8
0
 10
177.071716
 20
118.328568
 11
176.840775
 21
117.589745
  0
LINE
  8
0
 10
185.340851
 20
122.358665
 11
185.571793
 21
122.881096
  0
LINE
  8
0
 10
177.071655
 20
122.881149
 11
176.840714
 21
122.358719
  0
LINE
  8
0
 10
176.840790
 20
110.166191
 11
176.840790
 21
114.166168
  0
LINE
  8
0
 10
178.340790
 20
109.643768
 11
178.340790
 21
114.688591
  0
LINE
  8
0
 10
176.840790
 20
110.166191
 11
185.571732
 21
110.166191
  0
LINE
  8
0
 10
178.340790
 20
109.643768
 11
185.340790
 21
109.643761
  0
LINE
  8
0
 10
185.571732
 20
106.003784
 11
185.571732
 21
110.166191
  0
LINE
  8
0
 10
185.340790
 20
106.742607
 11
185.340790
 21
109.643761
  0
LINE
  8
0
 10
185.340775
 20
109.643768
 11
185.571716
 21
110.166199
  0
LINE
  8
0
 10
176.840790
 20
106.742607
 11
185.340790
 21
106.742607
  0
LINE
  8
0
 10
177.071716
 20
106.003784
 11
185.571732
 21
106.003784
  0
LINE
  8
0
 10
185.340790
 20
106.742599
 11
185.571732
 21
106.003784
  0
LINE
  8
0
 10
176.840790
 20
103.175377
 11
176.840790
 21
106.742607
  0
LINE
  8
0
 10
177.071716
 20
103.175377
 11
177.071716
 21
106.003784
  0
LINE
  8
0
 10
177.071732
 20
106.003769
 11
176.840790
 21
106.742599
  0
LINE
  8
0
 10
176.840790
 20
103.175377
 11
185.571732
 21
103.175369
  0
LINE
  8
0
 10
185.571732
 20
101.451233
 11
185.571732
 21
103.175369
  0
LINE
  8
0
 10
185.340790
 20
101.973663
 11
185.340790
 21
103.175369
  0
LINE
  8
0
 10
176.840790
 20
101.973663
 11
185.340790
 21
101.973663
  0
LINE
  8
0
 10
185.340805
 20
101.973671
 11
185.571747
 21
101.451241
  0
LINE
  8
0
 10
177.071716
 20
101.451233
 11
185.571732
 21
101.451233
  0
LINE
  8
0
 10
177.071716
 20
101.266182
 11
188.340790
 21
101.266174
  0
LINE
  8
0
 10
177.071640
 20
101.451202
 11
176.840698
 21
101.973625
  0
LINE
  8
0
 10
176.840775
 20
101.666176
 11
177.071716
 21
101.266174
  0
LINE
  8
0
 10
176.840790
 20
101.666183
 11
176.840790
 21
101.973663
  0
LINE
  8
0
 10
177.071716
 20
101.266182
 11
177.071716
 21
101.451233
  0
LINE
  8
0
 10
175.340790
 20
101.666183
 11
176.840790
 21
101.666183
  0
LINE
  8
0
 10
188.340790
 20
101.266174
 11
188.340790
 21
123.066177
  0
LINE
  8
0
 10
193.340805
 20
117.156113
 11
200.841049
 21
116.921722
  0
LINE
  8
0
 10
194.840790
 20
116.523232
 11
201.340790
 21
116.320107
  0
LINE
  8
0
 10
194.840790
 20
107.809280
 11
201.340790
 21
108.012398
  0
LINE
  8
0
 10
193.316299
 20
107.175697
 11
200.841019
 21
107.410843
  0
LINE
  8
0
 10
201.340790
 20
107.942841
 11
201.340790
 21
116.389725
  0
LINE
  8
0
 10
194.840790
 20
107.223335
 11
194.840790
 21
117.109230
  0
LINE
  8
0
 10
193.340790
 20
106.392670
 11
193.340790
 21
117.939674
  0
LINE
  8
0
 10
200.841019
 20
107.410851
 11
201.340775
 21
107.942856
  0
LINE
  8
0
 10
200.841034
 20
116.921722
 11
201.340790
 21
116.389717
  0
LINE
  8
0
 10
194.840790
 20
107.809273
 11
193.316315
 21
107.175697
  0
LINE
  8
0
 10
194.840775
 20
116.523224
 11
193.340775
 21
117.156105
  0
LINE
  8
0
 10
200.841034
 20
107.410843
 11
200.841034
 21
116.921722
  0
LINE
  8
0
 10
193.340790
 20
106.392670
 11
188.340790
 21
106.392670
  0
LINE
  8
0
 10
193.340790
 20
117.939674
 11
188.340790
 21
117.939674
  0
LINE
  8
0
 10
188.340790
 20
115.052925
 11
193.340790
 21
115.052925
  0
LINE
  8
0
 10
188.340790
 20
109.279427
 11
193.340790
 21
109.279419
  0
LINE
  8
0
 10
197.370789
 20
119.666168
 11
197.370789
 21
104.666168
  0
POINT
  8
0
 10
103.479156
 20
166.379822
  0
POINT
  8
0
 10
108.342926
 20
166.379822
  0
LINE
  8
0
 10
103.479156
 20
142.349823
 11
103.479156
 21
171.849823
  0
LINE
  8
0
 10
98.489220
 20
162.349823
 11
98.723602
 21
169.850067
  0
LINE
  8
0
 10
99.122101
 20
163.849823
 11
99.325226
 21
170.349823
  0
LINE
  8
0
 10
107.836044
 20
163.849823
 11
107.632912
 21
170.349823
  0
LINE
  8
0
 10
108.469627
 20
162.325348
 11
108.234474
 21
169.850052
  0
LINE
  8
0
 10
107.702484
 20
170.349823
 11
99.255600
 21
170.349823
  0
LINE
  8
0
 10
108.421997
 20
163.849823
 11
98.536087
 21
163.849823
  0
LINE
  8
0
 10
108.479156
 20
162.349823
 11
98.479156
 21
162.349823
  0
LINE
  8
0
 10
108.234482
 20
169.850052
 11
107.702477
 21
170.349808
  0
LINE
  8
0
 10
98.723541
 20
169.850098
 11
99.255547
 21
170.349854
  0
LINE
  8
0
 10
92.979156
 20
144.349823
 11
113.979156
 21
144.349823
  0
LINE
  8
0
 10
92.579163
 20
147.349823
 11
92.579163
 21
157.349823
  0
LINE
  8
0
 10
92.979156
 20
144.349823
 11
92.979156
 21
147.349823
  0
LINE
  8
0
 10
92.764221
 20
147.349823
 11
92.764221
 21
154.580750
  0
LINE
  8
0
 10
93.286636
 20
147.349823
 11
93.286636
 21
154.349823
  0
LINE
  8
0
 10
94.488358
 20
145.849823
 11
94.488358
 21
154.580750
  0
LINE
  8
0
 10
97.316772
 20
146.080750
 11
97.316772
 21
154.580750
  0
LINE
  8
0
 10
98.055588
 20
145.849823
 11
98.055588
 21
154.349823
  0
LINE
  8
0
 10
100.956741
 20
145.849823
 11
100.956741
 21
154.349823
  0
LINE
  8
0
 10
101.479172
 20
146.080765
 11
101.479172
 21
154.580750
  0
LINE
  8
0
 10
92.764206
 20
154.580750
 11
94.488358
 21
154.580750
  0
LINE
  8
0
 10
93.286636
 20
154.349823
 11
94.488358
 21
154.349823
  0
LINE
  8
0
 10
98.055588
 20
154.349823
 11
100.956741
 21
154.349823
  0
LINE
  8
0
 10
97.316757
 20
154.580750
 11
101.479172
 21
154.580750
  0
LINE
  8
0
 10
94.488358
 20
145.849823
 11
98.055588
 21
145.849823
  0
LINE
  8
0
 10
94.488358
 20
146.080750
 11
97.316757
 21
146.080750
  0
LINE
  8
0
 10
100.956749
 20
154.349808
 11
101.479179
 21
154.580750
  0
LINE
  8
0
 10
98.055588
 20
154.349808
 11
97.316765
 21
154.580750
  0
LINE
  8
0
 10
97.316765
 20
146.080765
 11
98.055580
 21
145.849823
  0
LINE
  8
0
 10
93.286652
 20
154.349838
 11
92.764221
 21
154.580780
  0
LINE
  8
0
 10
106.001572
 20
145.849823
 11
100.956741
 21
145.849823
  0
LINE
  8
0
 10
105.479141
 20
146.080750
 11
105.479141
 21
154.580750
  0
LINE
  8
0
 10
106.001572
 20
145.849823
 11
106.001572
 21
154.349823
  0
LINE
  8
0
 10
109.641556
 20
154.580750
 11
105.479141
 21
154.580750
  0
LINE
  8
0
 10
108.902725
 20
154.349823
 11
106.001572
 21
154.349823
  0
LINE
  8
0
 10
106.001572
 20
154.349823
 11
105.479149
 21
154.580765
  0
LINE
  8
0
 10
108.902725
 20
145.849823
 11
108.902725
 21
154.349823
  0
LINE
  8
0
 10
109.641556
 20
146.080750
 11
109.641556
 21
154.580750
  0
LINE
  8
0
 10
108.902733
 20
154.349808
 11
109.641556
 21
154.580750
  0
LINE
  8
0
 10
112.469955
 20
145.849823
 11
108.902725
 21
145.849823
  0
LINE
  8
0
 10
112.469955
 20
146.080750
 11
109.641556
 21
146.080750
  0
LINE
  8
0
 10
109.641571
 20
146.080750
 11
108.902748
 21
145.849823
  0
LINE
  8
0
 10
112.469955
 20
145.849823
 11
112.469955
 21
154.580750
  0
LINE
  8
0
 10
114.194107
 20
154.580750
 11
112.469955
 21
154.580750
  0
LINE
  8
0
 10
113.671677
 20
154.349823
 11
112.469955
 21
154.349823
  0
LINE
  8
0
 10
113.671677
 20
147.349823
 11
113.671677
 21
154.349823
  0
LINE
  8
0
 10
113.671669
 20
154.349823
 11
114.194084
 21
154.580750
  0
LINE
  8
0
 10
114.194107
 20
147.349823
 11
114.194107
 21
154.580750
  0
LINE
  8
0
 10
114.379166
 20
147.349823
 11
114.379166
 21
157.349823
  0
LINE
  8
0
 10
113.979156
 20
145.849823
 11
113.786926
 21
145.849823
  0
LINE
  8
0
 10
113.979156
 20
144.349823
 11
113.979156
 21
147.349823
  0
LINE
  8
0
 10
114.379166
 20
157.349823
 11
92.579163
 21
157.349823
  0
LINE
  8
0
 10
107.836075
 20
163.849838
 11
108.469658
 21
162.325363
  0
LINE
  8
0
 10
99.122025
 20
163.849854
 11
98.489151
 21
162.349854
  0
LINE
  8
0
 10
108.234482
 20
169.850067
 11
98.723602
 21
169.850067
  0
LINE
  8
0
 10
101.479172
 20
146.080750
 11
105.479141
 21
146.080750
  0
LINE
  8
0
 10
106.001579
 20
145.849808
 11
105.479149
 21
146.080750
  0
LINE
  8
0
 10
101.479172
 20
146.080750
 11
100.956741
 21
145.849808
  0
LINE
  8
0
 10
113.671677
 20
147.349823
 11
114.379166
 21
147.349823
  0
LINE
  8
0
 10
113.786926
 20
147.349823
 11
113.786926
 21
145.849823
  0
LINE
  8
0
 10
93.171387
 20
147.349823
 11
93.171387
 21
145.849823
  0
LINE
  8
0
 10
92.979156
 20
145.849823
 11
93.171387
 21
145.849823
  0
LINE
  8
0
 10
93.286636
 20
147.349823
 11
92.579163
 21
147.349823
  0
LINE
  8
0
 10
98.479156
 20
157.349823
 11
98.479156
 21
162.349823
  0
LINE
  8
0
 10
108.479156
 20
157.349823
 11
108.479156
 21
162.349823
  0
LINE
  8
0
 10
103.479156
 20
162.349823
 11
103.479156
 21
157.349823
  0
LINE
  8
0
 10
95.979156
 20
166.379822
 11
110.979156
 21
166.379822
  0
POINT
  8
0
 10
-186.520844
 20
20.249992
  0
POINT
  8
0
 10
-165.270844
 20
20.249992
  0
LINE
  8
0
 10
-211.520844
 20
20.249992
 11
-161.854172
 21
20.249992
  0
LINE
  8
0
 10
-186.520844
 20
44.979916
 11
-186.520844
 21
-4.686752
  0
LINE
  8
0
 10
-195.889999
 20
11.234380
 11
-188.737518
 21
19.093981
  0
LINE
  8
0
 10
-195.536438
 20
10.880820
 11
-187.676849
 21
18.033312
  0
LINE
  8
0
 10
-180.333664
 20
24.669411
 11
-184.193542
 21
21.163073
  0
LINE
  8
0
 10
-185.607773
 20
22.577288
 11
-182.101425
 21
26.437181
  0
LINE
  8
0
 10
-180.863998
 20
25.906851
 11
-182.101440
 21
26.437178
  0
LINE
  8
0
 10
-180.863998
 20
25.906849
 11
-180.333664
 21
24.669411
  0
CIRCLE
  8
0
 10
-186.520844
 20
20.249992
 40
21.250000
  0
CIRCLE
  8
0
 10
-186.520844
 20
20.249992
 40
20.000000
  0
CIRCLE
  8
0
 10
-186.520844
 20
20.249992
 40
16.000000
  0
ARC
  8
0
 10
-195.713226
 20
11.057601
 40
0.250010
 50
135.001389
 51
315.000000
  0
CIRCLE
  8
0
 10
-186.520844
 20
20.249992
 40
2.500000
  0
POINT
  8
0
 10
-90.629211
 20
20.249992
  0
POINT
  8
0
 10
-84.629211
 20
20.249992
  0
LINE
  8
0
 10
-127.629181
 20
41.250023
 11
-107.129227
 21
41.250023
  0
LINE
  8
0
  6
PHANTOM
 10
-130.129303
 20
-1.000078
 11
-130.629333
 21
-0.500046
  0
LINE
  8
0
 10
-130.129272
 20
41.499996
 11
-130.629272
 21
41.000008
  0
LINE
  8
0
 10
-84.800308
 20
14.709690
 11
-94.629219
 21
14.402542
  0
LINE
  8
0
 10
-85.628700
 20
26.672211
 11
-96.629166
 21
27.015978
  0
LINE
  8
0
 10
-96.629211
 20
13.250027
 11
-96.629211
 21
27.249996
  0
LINE
  8
0
 10
-85.628708
 20
13.827833
 11
-96.629211
 21
13.484071
  0
LINE
  8
0
 10
-84.800270
 20
25.790318
 11
-94.629196
 21
26.097473
  0
LINE
  8
0
 10
-127.629211
 20
-0.750010
 11
-107.129211
 21
-0.750010
  0
LINE
  8
0
 10
-130.629196
 20
-0.499952
 11
-130.629196
 21
40.999989
  0
LINE
  8
0
 10
-130.129181
 20
41.499962
 11
-127.629181
 21
41.499962
  0
LINE
  8
0
 10
-130.129196
 20
-0.999983
 11
-130.129196
 21
41.499989
  0
LINE
  8
0
 10
-104.129211
 20
2.249971
 11
-104.129211
 21
38.249973
  0
LINE
  8
0
 10
-127.629196
 20
-0.999987
 11
-127.629196
 21
41.499985
  0
LINE
  8
0
 10
-96.629211
 20
27.249992
 11
-104.129227
 21
27.249992
  0
LINE
  8
0
 10
-96.629211
 20
13.250023
 11
-104.129242
 21
13.250023
  0
LINE
  8
0
 10
-96.629219
 20
27.249969
 11
-104.129196
 21
13.250021
  0
LINE
  8
0
 10
-104.129234
 20
27.250027
 11
-96.629234
 21
13.250021
  0
LINE
  8
0
 10
-130.129211
 20
-1.000010
 11
-127.629211
 21
-1.000010
  0
LINE
  8
0
 10
-130.129120
 20
-0.999903
 11
-130.629150
 21
-0.499868
  0
LINE
  8
0
 10
-94.629211
 20
13.546581
 11
-94.629211
 21
26.953468
  0
LINE
  8
0
 10
-84.629211
 20
14.891838
 11
-84.629211
 21
25.608204
  0
LINE
  8
0
 10
-85.628731
 20
26.672203
 11
-84.629211
 21
25.608202
  0
LINE
  8
0
 10
-85.628708
 20
13.827844
 11
-84.629196
 21
14.891838
  0
LINE
  8
0
 10
-85.628723
 20
26.672199
 11
-85.628723
 21
13.827843
  0
LINE
  8
0
 10
-135.237900
 20
20.249992
 11
-83.090683
 21
20.249992
  0
LINE
  8
0
 10
-90.629211
 20
27.749992
 11
-90.629211
 21
12.749992
  0
LINE
  8
0
 10
-130.129196
 20
18.249992
 11
-127.629196
 21
18.249992
  0
LINE
  8
0
 10
-130.129196
 20
22.249992
 11
-127.629196
 21
22.249992
  0
LINE
  8
0
 10
-130.129196
 20
24.249992
 11
-127.629196
 21
24.249992
  0
LINE
  8
0
 10
-130.129196
 20
16.249992
 11
-127.629196
 21
16.249992
  0
LINE
  8
0
 10
-130.129196
 20
26.249992
 11
-127.629196
 21
26.249992
  0
LINE
  8
0
 10
-130.129196
 20
14.249992
 11
-127.629196
 21
14.249992
  0
LINE
  8
0
 10
-130.129196
 20
28.249992
 11
-127.629196
 21
28.249992
  0
LINE
  8
0
 10
-130.129196
 20
12.249992
 11
-127.629196
 21
12.249992
  0
LINE
  8
0
 10
-130.129196
 20
30.249992
 11
-127.629196
 21
30.249992
  0
LINE
  8
0
 10
-130.129196
 20
10.249992
 11
-127.629196
 21
10.249992
  0
LINE
  8
0
 10
-130.129196
 20
32.249992
 11
-127.629196
 21
32.249992
  0
LINE
  8
0
 10
-130.129196
 20
8.249992
 11
-127.629196
 21
8.249992
  0
LINE
  8
0
 10
-130.129196
 20
34.249992
 11
-127.629196
 21
34.249992
  0
LINE
  8
0
 10
-130.129196
 20
6.249992
 11
-127.629196
 21
6.249992
  0
LINE
  8
0
 10
-130.129196
 20
36.249992
 11
-127.629196
 21
36.249992
  0
LINE
  8
0
 10
-130.129196
 20
4.249992
 11
-127.629196
 21
4.249992
  0
LINE
  8
0
 10
-130.129196
 20
38.249992
 11
-127.629196
 21
38.249992
  0
LINE
  8
0
 10
-130.129196
 20
2.249992
 11
-127.629196
 21
2.249992
  0
LINE
  8
0
 10
-130.129196
 20
40.249992
 11
-127.629196
 21
40.249992
  0
LINE
  8
0
 10
-130.129196
 20
0.249992
 11
-127.629196
 21
0.249992
  0
ARC
  8
0
 10
-107.129181
 20
2.250002
 40
3.000000
 50
269.999847
 51
359.999878
  0
ARC
  8
0
 10
-107.129227
 20
38.249973
 40
3.000000
 50
359.999939
 51
89.999855
  0
POINT
  8
0
 10
101.262512
 20
20.249992
  0
POINT
  8
0
 10
127.512512
 20
20.249992
  0
LINE
  8
0
 10
69.929184
 20
20.249992
 11
133.262512
 21
20.249992
  0
LINE
  8
0
 10
101.262512
 20
51.083321
 11
101.262512
 21
-11.250008
  0
LINE
  8
0
 10
88.357819
 20
7.698846
 11
99.045837
 21
19.093981
  0
LINE
  8
0
 10
88.711380
 20
7.345285
 11
100.106506
 21
18.033312
  0
LINE
  8
0
 10
110.985229
 20
28.204945
 11
103.589806
 21
21.163074
  0
LINE
  8
0
 10
102.175591
 20
22.577288
 11
109.217461
 21
29.972713
  0
LINE
  8
0
 10
110.454895
 20
29.442387
 11
109.217453
 21
29.972712
  0
LINE
  8
0
 10
110.454887
 20
29.442385
 11
110.985222
 21
28.204945
  0
CIRCLE
  8
0
 10
101.262512
 20
20.249992
 40
26.250000
  0
CIRCLE
  8
0
 10
101.262512
 20
20.249992
 40
25.000000
  0
CIRCLE
  8
0
 10
101.262512
 20
20.249992
 40
22.000000
  0
ARC
  8
0
 10
88.534592
 20
7.522066
 40
0.250000
 50
134.998917
 51
315.000000
  0
CIRCLE
  8
0
 10
101.262512
 20
20.249992
 40
2.500000
  0
POINT
  8
0
 10
196.154175
 20
20.249992
  0
POINT
  8
0
 10
202.154175
 20
20.249992
  0
LINE
  8
0
 10
156.154190
 20
45.999977
 11
156.154190
 21
-5.500008
  0
LINE
  8
0
 10
156.654190
 20
46.499977
 11
159.154190
 21
46.499977
  0
LINE
  8
0
 10
156.654190
 20
-6.000008
 11
159.154190
 21
-6.000008
  0
LINE
  8
0
 10
159.154190
 20
46.499977
 11
159.154190
 21
-6.000008
  0
LINE
  8
0
 10
183.654175
 20
41.250008
 11
183.654175
 21
-0.750023
  0
LINE
  8
0
 10
159.154190
 20
46.249977
 11
178.654205
 21
46.249977
  0
LINE
  8
0
 10
159.154190
 20
-5.750023
 11
178.654205
 21
-5.750023
  0
LINE
  8
0
 10
190.154175
 20
27.249992
 11
190.154175
 21
13.249977
  0
LINE
  8
0
 10
183.654205
 20
27.249992
 11
190.154175
 21
27.249992
  0
LINE
  8
0
 10
183.654205
 20
13.249977
 11
190.154175
 21
13.249977
  0
LINE
  8
0
 10
201.987000
 20
25.816538
 11
192.154236
 21
26.079586
  0
LINE
  8
0
 10
201.154541
 20
26.694748
 11
190.154251
 21
26.988998
  0
LINE
  8
0
 10
201.987061
 20
14.683496
 11
192.154282
 21
14.420458
  0
LINE
  8
0
 10
201.154541
 20
13.805222
 11
190.154221
 21
13.510971
  0
LINE
  8
0
 10
192.154205
 20
26.935478
 11
192.154205
 21
13.564507
  0
LINE
  8
0
 10
183.653992
 20
27.249891
 11
190.153976
 21
13.249903
  0
LINE
  8
0
 10
183.654068
 20
13.249966
 11
190.154083
 21
27.250008
  0
LINE
  8
0
 10
156.654190
 20
17.249992
 11
159.154190
 21
17.249992
  0
LINE
  8
0
 10
156.654190
 20
14.249977
 11
159.154190
 21
14.249977
  0
LINE
  8
0
 10
156.654190
 20
11.249992
 11
159.154190
 21
11.249992
  0
LINE
  8
0
 10
156.654190
 20
8.249977
 11
159.154190
 21
8.249977
  0
LINE
  8
0
 10
156.654190
 20
5.249992
 11
159.154190
 21
5.249992
  0
LINE
  8
0
 10
156.654190
 20
2.249992
 11
159.154190
 21
2.249992
  0
LINE
  8
0
 10
156.654190
 20
-0.750023
 11
159.154190
 21
-0.750023
  0
LINE
  8
0
 10
156.654190
 20
-3.750008
 11
159.154190
 21
-3.750008
  0
LINE
  8
0
 10
156.654190
 20
23.249977
 11
159.154190
 21
23.249977
  0
LINE
  8
0
 10
156.654190
 20
26.249992
 11
159.154190
 21
26.249992
  0
LINE
  8
0
 10
156.654190
 20
29.249977
 11
159.154190
 21
29.249977
  0
LINE
  8
0
 10
156.654190
 20
32.249992
 11
159.154190
 21
32.249992
  0
LINE
  8
0
 10
156.654190
 20
35.249977
 11
159.154190
 21
35.249977
  0
LINE
  8
0
 10
156.654190
 20
38.249977
 11
159.154190
 21
38.249977
  0
LINE
  8
0
 10
156.654190
 20
41.249977
 11
159.154190
 21
41.249977
  0
LINE
  8
0
 10
156.654190
 20
44.249977
 11
159.154190
 21
44.249977
  0
LINE
  8
0
 10
202.154175
 20
25.640160
 11
202.154175
 21
14.859818
  0
LINE
  8
0
 10
201.154541
 20
13.805229
 11
202.154175
 21
14.859818
  0
LINE
  8
0
 10
201.154541
 20
26.694748
 11
202.154175
 21
25.640160
  0
LINE
  8
0
 10
201.154526
 20
26.694748
 11
201.154526
 21
13.805229
  0
LINE
  8
0
 10
156.154205
 20
-5.500002
 11
156.654205
 21
-6.000002
  0
LINE
  8
0
 10
156.154205
 20
45.999969
 11
156.654190
 21
46.499962
  0
LINE
  8
0
 10
156.654190
 20
46.499977
 11
156.654190
 21
-6.000008
  0
LINE
  8
0
 10
156.654190
 20
-2.250008
 11
159.154190
 21
-2.250008
  0
LINE
  8
0
 10
156.654190
 20
0.749977
 11
159.154190
 21
0.749977
  0
LINE
  8
0
 10
156.654190
 20
3.749992
 11
159.154190
 21
3.749992
  0
LINE
  8
0
 10
156.654190
 20
6.749992
 11
159.154190
 21
6.749992
  0
LINE
  8
0
 10
156.654190
 20
9.749977
 11
159.154190
 21
9.749977
  0
LINE
  8
0
 10
156.654190
 20
12.749992
 11
159.154190
 21
12.749992
  0
LINE
  8
0
 10
156.654190
 20
15.749977
 11
159.154190
 21
15.749977
  0
LINE
  8
0
 10
156.654190
 20
18.749992
 11
159.154190
 21
18.749992
  0
LINE
  8
0
 10
156.654190
 20
21.749977
 11
159.154190
 21
21.749977
  0
LINE
  8
0
 10
156.654190
 20
24.749992
 11
159.154190
 21
24.749992
  0
LINE
  8
0
 10
156.654190
 20
27.749977
 11
159.154190
 21
27.749977
  0
LINE
  8
0
 10
156.654190
 20
30.749977
 11
159.154190
 21
30.749977
  0
LINE
  8
0
 10
156.654190
 20
33.749992
 11
159.154190
 21
33.749992
  0
LINE
  8
0
 10
156.654190
 20
36.749977
 11
159.154190
 21
36.749977
  0
LINE
  8
0
 10
156.654190
 20
39.749977
 11
159.154190
 21
39.749977
  0
LINE
  8
0
 10
156.654190
 20
42.749977
 11
159.154190
 21
42.749977
  0
LINE
  8
0
 10
156.654190
 20
45.749977
 11
159.154190
 21
45.749977
  0
LINE
  8
0
 10
152.320831
 20
20.249992
 11
204.838791
 21
20.249992
  0
LINE
  8
0
 10
196.154175
 20
27.749992
 11
196.154175
 21
12.749992
  0
LINE
  8
0
 10
156.654190
 20
-5.250008
 11
159.154190
 21
-5.250008
  0
ARC
  8
0
 10
178.654175
 20
-0.750023
 40
5.000000
 50
270.000000
 51
0.000000
  0
ARC
  8
0
 10
178.654175
 20
41.249977
 40
5.000000
 50
0.000000
 51
90.000000
  0
POINT
  8
0
 10
-229.304169
 20
-112.416664
  0
POINT
  8
0
 10
-201.804169
 20
-112.416664
  0
LINE
  8
0
 10
-259.804169
 20
-112.416664
 11
-198.804169
 21
-112.416664
  0
LINE
  8
0
 10
-229.304169
 20
-81.916664
 11
-229.304169
 21
-142.916656
  0
LINE
  8
0
 10
-238.673325
 20
-121.432274
 11
-231.520844
 21
-113.572678
  0
LINE
  8
0
 10
-238.319763
 20
-121.785835
 11
-230.460175
 21
-114.633347
  0
LINE
  8
0
 10
-223.116989
 20
-107.997246
 11
-226.976868
 21
-111.503586
  0
LINE
  8
0
 10
-228.391098
 20
-110.089371
 11
-224.884750
 21
-106.229477
  0
LINE
  8
0
 10
-223.647324
 20
-106.759804
 11
-224.884766
 21
-106.229477
  0
LINE
  8
0
 10
-223.647324
 20
-106.759804
 11
-223.116989
 21
-107.997246
  0
CIRCLE
  8
0
 10
-229.304169
 20
-112.416664
 40
27.500000
  0
CIRCLE
  8
0
 10
-229.304169
 20
-112.416664
 40
26.500000
  0
CIRCLE
  8
0
 10
-229.304169
 20
-112.416664
 40
21.000000
  0
CIRCLE
  8
0
 10
-229.304169
 20
-112.416664
 40
21.999998
  0
CIRCLE
  8
0
 10
-229.304169
 20
-112.416664
 40
20.500000
  0
CIRCLE
  8
0
 10
-229.304169
 20
-112.416664
 40
17.500000
  0
ARC
  8
0
 10
-238.496552
 20
-121.609055
 40
0.250011
 50
135.001236
 51
315.000000
  0
CIRCLE
  8
0
 10
-229.304169
 20
-112.416664
 40
2.500000
  0
POINT
  8
0
 10
-130.412506
 20
-112.416664
  0
POINT
  8
0
 10
-124.412506
 20
-112.416664
  0
LINE
  8
0
 10
-173.412506
 20
-112.416664
 11
-121.874893
 21
-112.416664
  0
LINE
  8
0
 10
-152.912506
 20
-134.916656
 11
-145.412506
 21
-134.916656
  0
LINE
  8
0
 10
-164.314423
 20
-138.916656
 11
-162.912506
 21
-138.916656
  0
LINE
  8
0
 10
-166.912506
 20
-134.416656
 11
-166.912506
 21
-90.416649
  0
LINE
  8
0
 10
-166.912521
 20
-134.416672
 11
-164.314438
 21
-138.916672
  0
LINE
  8
0
 10
-162.912506
 20
-138.916656
 11
-162.912506
 21
-85.916664
  0
LINE
  8
0
 10
-142.412506
 20
-131.916656
 11
-142.412506
 21
-92.916664
  0
LINE
  8
0
 10
-162.912506
 20
-135.334167
 11
-161.912506
 21
-135.334167
  0
LINE
  8
0
 10
-161.912506
 20
-139.916656
 11
-161.912506
 21
-84.916664
  0
LINE
  8
0
 10
-162.912506
 20
-137.834167
 11
-161.912506
 21
-137.834167
  0
LINE
  8
0
 10
-152.912506
 20
-138.916656
 11
-152.912506
 21
-85.916672
  0
LINE
  8
0
 10
-161.912506
 20
-139.916656
 11
-153.912506
 21
-139.916656
  0
LINE
  8
0
 10
-152.912506
 20
-138.916656
 11
-153.912521
 21
-139.916672
  0
LINE
  8
0
 10
-164.314423
 20
-138.916656
 11
-164.314423
 21
-85.916664
  0
LINE
  8
0
 10
-153.912506
 20
-139.916656
 11
-153.912506
 21
-84.916672
  0
LINE
  8
0
 10
-124.412506
 20
-107.133522
 11
-124.412506
 21
-117.727661
  0
LINE
  8
0
 10
-136.412506
 20
-105.416664
 11
-136.412506
 21
-119.416664
  0
LINE
  8
0
 10
-142.412506
 20
-119.416664
 11
-136.412506
 21
-119.416664
  0
LINE
  8
0
 10
-136.412506
 20
-118.995163
 11
-134.412506
 21
-118.995163
  0
LINE
  8
0
 10
-134.412506
 20
-105.838165
 11
-134.412506
 21
-118.995163
  0
LINE
  8
0
 10
-124.560463
 20
-117.875633
 11
-134.412491
 21
-118.139175
  0
LINE
  8
0
 10
-124.412506
 20
-117.727676
 11
-125.439995
 21
-118.755165
  0
LINE
  8
0
 10
-125.439987
 20
-118.755157
 11
-134.412506
 21
-118.995171
  0
LINE
  8
0
 10
-125.412148
 20
-106.078926
 11
-125.412148
 21
-118.754402
  0
LINE
  8
0
 10
-134.412521
 20
-118.139153
 11
-135.712509
 21
-118.995155
  0
LINE
  8
0
 10
-170.412506
 20
-132.916656
 11
-170.412506
 21
-91.916664
  0
LINE
  8
0
 10
-169.912506
 20
-133.416656
 11
-169.912506
 21
-91.416695
  0
LINE
  8
0
 10
-169.912506
 20
-133.416656
 11
-166.912506
 21
-133.416656
  0
LINE
  8
0
 10
-169.912476
 20
-133.416656
 11
-170.412491
 21
-132.916656
  0
LINE
  8
0
 10
-167.412506
 20
-133.416656
 11
-167.412506
 21
-91.416664
  0
LINE
  8
0
 10
-152.912506
 20
-89.916664
 11
-145.412506
 21
-89.916664
  0
LINE
  8
0
 10
-164.314423
 20
-85.916664
 11
-162.912506
 21
-85.916664
  0
LINE
  8
0
 10
-166.912537
 20
-90.416649
 11
-164.314453
 21
-85.916641
  0
LINE
  8
0
 10
-162.912506
 20
-89.499168
 11
-161.912506
 21
-89.499168
  0
LINE
  8
0
 10
-162.912506
 20
-86.999168
 11
-161.912506
 21
-86.999168
  0
LINE
  8
0
 10
-161.912506
 20
-84.916664
 11
-153.912506
 21
-84.916664
  0
LINE
  8
0
 10
-152.912506
 20
-85.916656
 11
-153.912521
 21
-84.916656
  0
LINE
  8
0
 10
-142.412506
 20
-105.416664
 11
-136.412506
 21
-105.416664
  0
LINE
  8
0
 10
-136.412506
 20
-105.838165
 11
-134.412506
 21
-105.838165
  0
LINE
  8
0
 10
-124.560471
 20
-106.957687
 11
-134.412506
 21
-106.694145
  0
LINE
  8
0
 10
-124.412514
 20
-107.105659
 11
-125.440002
 21
-106.078171
  0
LINE
  8
0
 10
-125.439987
 20
-106.078201
 11
-134.412506
 21
-105.838181
  0
LINE
  8
0
 10
-134.412521
 20
-106.694176
 11
-135.712509
 21
-105.838181
  0
LINE
  8
0
 10
-169.912506
 20
-91.416664
 11
-166.912506
 21
-91.416664
  0
LINE
  8
0
 10
-169.912506
 20
-91.416664
 11
-170.412506
 21
-91.916656
  0
LINE
  8
0
 10
-136.412506
 20
-119.416656
 11
-142.412506
 21
-105.416664
  0
LINE
  8
0
 10
-136.412506
 20
-105.416656
 11
-142.412506
 21
-119.416656
  0
LINE
  8
0
 10
-130.412506
 20
-104.916664
 11
-130.412506
 21
-119.916664
  0
LINE
  8
0
 10
-161.912506
 20
-112.416664
 11
-153.912506
 21
-112.416664
  0
LINE
  8
0
 10
-161.912506
 20
-113.916664
 11
-153.912506
 21
-113.916664
  0
LINE
  8
0
 10
-161.912506
 20
-110.916664
 11
-153.912506
 21
-110.916664
  0
LINE
  8
0
 10
-161.912506
 20
-109.416664
 11
-153.912506
 21
-109.416664
  0
LINE
  8
0
 10
-161.912506
 20
-115.416664
 11
-153.912506
 21
-115.416664
  0
LINE
  8
0
 10
-161.912506
 20
-107.916664
 11
-153.912506
 21
-107.916664
  0
LINE
  8
0
 10
-161.912506
 20
-116.916664
 11
-153.912506
 21
-116.916664
  0
LINE
  8
0
 10
-161.912506
 20
-106.416664
 11
-153.912506
 21
-106.416664
  0
LINE
  8
0
 10
-161.912506
 20
-118.416664
 11
-153.912506
 21
-118.416664
  0
LINE
  8
0
 10
-161.912506
 20
-104.916664
 11
-153.912506
 21
-104.916664
  0
LINE
  8
0
 10
-161.912506
 20
-119.916664
 11
-153.912506
 21
-119.916664
  0
LINE
  8
0
 10
-161.912506
 20
-103.416664
 11
-153.912506
 21
-103.416664
  0
LINE
  8
0
 10
-161.912506
 20
-121.416664
 11
-153.912506
 21
-121.416664
  0
LINE
  8
0
 10
-161.912506
 20
-101.916664
 11
-153.912506
 21
-101.916664
  0
LINE
  8
0
 10
-161.912506
 20
-122.916664
 11
-153.912506
 21
-122.916664
  0
LINE
  8
0
 10
-161.912506
 20
-100.416664
 11
-153.912506
 21
-100.416664
  0
LINE
  8
0
 10
-161.912506
 20
-124.416664
 11
-153.912506
 21
-124.416664
  0
LINE
  8
0
 10
-161.912506
 20
-98.916664
 11
-153.912506
 21
-98.916664
  0
LINE
  8
0
 10
-161.912506
 20
-125.916664
 11
-153.912506
 21
-125.916664
  0
LINE
  8
0
 10
-161.912506
 20
-97.416664
 11
-153.912506
 21
-97.416664
  0
LINE
  8
0
 10
-161.912506
 20
-127.416664
 11
-153.912506
 21
-127.416664
  0
LINE
  8
0
 10
-161.912506
 20
-95.916664
 11
-153.912506
 21
-95.916664
  0
LINE
  8
0
 10
-161.912506
 20
-128.916656
 11
-153.912506
 21
-128.916656
  0
LINE
  8
0
 10
-161.912506
 20
-94.416664
 11
-153.912506
 21
-94.416664
  0
LINE
  8
0
 10
-161.912506
 20
-130.416656
 11
-153.912506
 21
-130.416656
  0
LINE
  8
0
 10
-161.912506
 20
-92.916664
 11
-153.912506
 21
-92.916664
  0
LINE
  8
0
 10
-161.912506
 20
-131.916656
 11
-153.912506
 21
-131.916656
  0
LINE
  8
0
 10
-161.912506
 20
-91.416664
 11
-153.912506
 21
-91.416664
  0
LINE
  8
0
 10
-161.912506
 20
-133.416656
 11
-153.912506
 21
-133.416656
  0
LINE
  8
0
 10
-161.912506
 20
-89.916664
 11
-153.912506
 21
-89.916664
  0
LINE
  8
0
 10
-161.912506
 20
-134.916656
 11
-153.912506
 21
-134.916656
  0
LINE
  8
0
 10
-161.912506
 20
-88.416664
 11
-153.912506
 21
-88.416664
  0
LINE
  8
0
 10
-161.912506
 20
-136.416656
 11
-153.912506
 21
-136.416656
  0
LINE
  8
0
 10
-161.912506
 20
-86.916664
 11
-153.912506
 21
-86.916664
  0
LINE
  8
0
 10
-161.912506
 20
-137.916656
 11
-153.912506
 21
-137.916656
  0
LINE
  8
0
 10
-161.912506
 20
-85.416664
 11
-153.912506
 21
-85.416664
  0
LINE
  8
0
 10
-161.912506
 20
-139.416656
 11
-153.912506
 21
-139.416656
  0
LINE
  8
0
 10
-169.912506
 20
-112.416664
 11
-167.412506
 21
-112.416664
  0
LINE
  8
0
 10
-169.912506
 20
-113.916664
 11
-167.412506
 21
-113.916664
  0
LINE
  8
0
 10
-169.912506
 20
-110.916664
 11
-167.412506
 21
-110.916664
  0
LINE
  8
0
 10
-169.912506
 20
-109.416664
 11
-167.412506
 21
-109.416664
  0
LINE
  8
0
 10
-169.912506
 20
-115.416664
 11
-167.412506
 21
-115.416664
  0
LINE
  8
0
 10
-169.912506
 20
-107.916664
 11
-167.412506
 21
-107.916664
  0
LINE
  8
0
 10
-169.912506
 20
-116.916664
 11
-167.412506
 21
-116.916664
  0
LINE
  8
0
 10
-169.912506
 20
-106.416664
 11
-167.412506
 21
-106.416664
  0
LINE
  8
0
 10
-169.912506
 20
-118.416664
 11
-167.412506
 21
-118.416664
  0
LINE
  8
0
 10
-169.912506
 20
-104.916664
 11
-167.412506
 21
-104.916664
  0
LINE
  8
0
 10
-169.912506
 20
-119.916664
 11
-167.412506
 21
-119.916664
  0
LINE
  8
0
 10
-169.912506
 20
-103.416664
 11
-167.412506
 21
-103.416664
  0
LINE
  8
0
 10
-169.912506
 20
-121.416664
 11
-167.412506
 21
-121.416664
  0
LINE
  8
0
 10
-169.912506
 20
-101.916664
 11
-167.412506
 21
-101.916664
  0
LINE
  8
0
 10
-169.912506
 20
-122.916664
 11
-167.412506
 21
-122.916664
  0
LINE
  8
0
 10
-169.912506
 20
-100.416664
 11
-167.412506
 21
-100.416664
  0
LINE
  8
0
 10
-169.912506
 20
-124.416664
 11
-167.412506
 21
-124.416664
  0
LINE
  8
0
 10
-169.912506
 20
-98.916664
 11
-167.412506
 21
-98.916664
  0
LINE
  8
0
 10
-169.912506
 20
-125.916664
 11
-167.412506
 21
-125.916664
  0
LINE
  8
0
 10
-169.912506
 20
-97.416664
 11
-167.412506
 21
-97.416664
  0
LINE
  8
0
 10
-169.912506
 20
-127.416664
 11
-167.412506
 21
-127.416664
  0
LINE
  8
0
 10
-169.912506
 20
-95.916664
 11
-167.412506
 21
-95.916664
  0
LINE
  8
0
 10
-169.912506
 20
-128.916656
 11
-167.412506
 21
-128.916656
  0
LINE
  8
0
 10
-169.912506
 20
-94.416664
 11
-167.412506
 21
-94.416664
  0
LINE
  8
0
 10
-169.912506
 20
-130.416656
 11
-167.412506
 21
-130.416656
  0
LINE
  8
0
 10
-169.912506
 20
-92.916664
 11
-167.412506
 21
-92.916664
  0
LINE
  8
0
 10
-169.912506
 20
-131.916656
 11
-167.412506
 21
-131.916656
  0
LINE
  8
0
 10
-169.912506
 20
-91.416664
 11
-167.412506
 21
-91.416664
  0
LINE
  8
0
 10
-169.912506
 20
-133.416656
 11
-167.412506
 21
-133.416656
  0
ARC
  8
0
 10
-145.412506
 20
-131.916656
 40
3.000000
 50
270.000000
 51
359.999695
  0
ARC
  8
0
 10
-145.412506
 20
-92.916664
 40
3.000000
 50
0.000000
 51
90.000000
  0
POINT
  8
0
 10
-1.575012
 20
-139.744781
  0
POINT
  8
0
 10
24.674988
 20
-139.744781
  0
LINE
  8
0
 10
13.424995
 20
-180.793594
 11
13.424995
 21
-167.394791
  0
LINE
  8
0
 10
8.424995
 20
-179.303864
 11
8.424995
 21
-167.394791
  0
LINE
  8
0
 10
-27.825012
 20
-119.794785
 11
-27.825012
 21
-159.694778
  0
LINE
  8
0
 10
24.674988
 20
-119.794785
 11
24.674988
 21
-159.694778
  0
LINE
  8
0
 10
-21.525017
 20
-113.494781
 11
18.374992
 21
-113.494781
  0
LINE
  8
0
 10
-21.525017
 20
-165.994781
 11
18.374992
 21
-165.994781
  0
LINE
  8
0
 10
-32.640800
 20
-139.744781
 11
30.717285
 21
-139.744781
  0
LINE
  8
0
 10
-1.575012
 20
-109.654358
 11
-1.575012
 21
-169.434097
  0
LINE
  8
0
 10
10.924988
 20
-163.540314
 11
10.924988
 21
-183.894241
  0
LINE
  8
0
 10
5.424988
 20
-167.394791
 11
16.424988
 21
-167.394791
  0
LINE
  8
0
 10
5.424988
 20
-165.994781
 11
5.424988
 21
-167.394791
  0
LINE
  8
0
 10
16.424988
 20
-165.994781
 11
16.424988
 21
-167.394791
  0
LINE
  8
0
 10
-25.484077
 20
-159.744781
 11
-17.906364
 21
-159.744781
  0
LINE
  8
0
 10
-25.905060
 20
-119.744781
 11
-17.485374
 21
-119.744781
  0
LINE
  8
0
 10
-21.575012
 20
-115.548134
 11
-21.575012
 21
-123.967819
  0
LINE
  8
0
 10
18.424988
 20
-115.548134
 11
18.424988
 21
-123.757324
  0
LINE
  8
0
 10
-21.575012
 20
-155.752121
 11
-21.575012
 21
-163.750809
  0
LINE
  8
0
 10
14.930389
 20
-119.744781
 11
21.876633
 21
-119.744781
  0
LINE
  8
0
 10
-15.793839
 20
-136.730621
 11
-4.663059
 21
-138.097305
  0
LINE
  8
0
 10
-15.967204
 20
-137.714081
 11
-5.040257
 21
-140.236771
  0
LINE
  8
0
 10
4.830832
 20
-135.140106
 11
6.064736
 21
-136.018646
  0
LINE
  8
0
 10
-17.561966
 20
-147.046570
 11
-4.071690
 21
-139.873657
  0
LINE
  8
0
 10
-17.171455
 20
-147.847229
 11
-3.213684
 21
-141.632843
  0
LINE
  8
0
 10
-0.072043
 20
-137.747009
 11
4.830838
 21
-135.140106
  0
LINE
  8
0
 10
0.924572
 20
-139.790359
 11
5.997387
 21
-137.531799
  0
LINE
  8
0
 10
6.064751
 20
-136.018631
 11
5.997384
 21
-137.531799
  0
ARC
  8
0
 10
-21.525017
 20
-159.694778
 40
6.299999
 50
180.000000
 51
270.000031
  0
ARC
  8
0
 10
-21.525017
 20
-119.794785
 40
6.300003
 50
89.999985
 51
180.000000
  0
ARC
  8
0
 10
18.374992
 20
-119.794785
 40
6.299999
 50
0.000000
 51
89.999985
  0
ARC
  8
0
 10
18.374992
 20
-159.694778
 40
6.300003
 50
270.000031
 51
0.000000
  0
CIRCLE
  8
0
 10
-1.575012
 20
-139.744781
 40
22.500000
  0
CIRCLE
  8
0
 10
-21.575012
 20
-159.744781
 40
2.000000
  0
CIRCLE
  8
0
 10
18.424988
 20
-119.744781
 40
2.000000
  0
CIRCLE
  8
0
 10
18.424988
 20
-119.744781
 40
1.650000
  0
CIRCLE
  8
0
 10
-21.575012
 20
-159.744781
 40
1.650000
  0
CIRCLE
  8
0
 10
-21.575012
 20
-119.744781
 40
2.250000
  0
ARC
  8
0
 10
-1.575012
 20
-139.744781
 40
3.500002
 50
221.600388
 51
6.399673
  0
ARC
  8
0
 10
-17.352730
 20
-147.440079
 40
0.445678
 50
118.000427
 51
293.999939
  0
CIRCLE
  8
0
 10
-1.575012
 20
-139.744781
 40
2.500000
  0
ARC
  8
0
 10
-15.854753
 20
-137.226898
 40
0.500004
 50
83.000122
 51
257.000061
  0
ARC
  8
0
 10
-1.575012
 20
-139.744781
 40
3.499997
 50
45.600449
 51
151.919785
  0
POLYLINE
  8
0
 66
     1
  0
VERTEX
  8
0
 10
8.425412
 20
-179.304108
  0
VERTEX
  8
0
 10
8.949479
 20
-179.009048
  0
VERTEX
  8
0
 10
9.699815
 20
-178.989624
  0
VERTEX
  8
0
 10
10.442954
 20
-179.358063
  0
VERTEX
  8
0
 10
11.178864
 20
-179.981400
  0
VERTEX
  8
0
 10
11.851750
 20
-180.595078
  0
VERTEX
  8
0
 10
12.405813
 20
-180.934555
  0
VERTEX
  8
0
 10
12.921748
 20
-180.938004
  0
VERTEX
  8
0
 10
13.424219
 20
-180.793991
  0
SEQEND
  0
POINT
  8
0
 10
132.316650
 20
-139.744781
  0
POINT
  8
0
 10
138.316650
 20
-139.744781
  0
LINE
  8
0
 10
141.337921
 20
-139.744781
 11
78.233971
 21
-139.744781
  0
LINE
  8
0
 10
119.316620
 20
-155.327225
 11
119.316620
 21
-150.997101
  0
LINE
  8
0
 10
119.316620
 20
-124.744781
 11
119.316620
 21
-124.909973
  0
LINE
  8
0
 10
117.816650
 20
-164.494781
 11
117.816650
 21
-114.994781
  0
LINE
  8
0
 10
83.816650
 20
-162.494797
 11
83.816650
 21
-116.994781
  0
LINE
  8
0
 10
119.316650
 20
-157.244781
 11
119.316650
 21
-122.244781
  0
LINE
  8
0
 10
119.316650
 20
-157.244781
 11
117.816650
 21
-157.244781
  0
LINE
  8
0
 10
119.316650
 20
-122.244781
 11
117.816650
 21
-122.244781
  0
LINE
  8
0
 10
126.316650
 20
-146.744781
 11
126.316650
 21
-132.744781
  0
LINE
  8
0
 10
137.317139
 20
-146.167007
 11
126.316650
 21
-146.510773
  0
LINE
  8
0
 10
138.145554
 20
-145.285172
 11
128.616638
 21
-145.582947
  0
LINE
  8
0
 10
138.145554
 20
-134.204453
 11
128.616608
 21
-133.906677
  0
LINE
  8
0
 10
137.317169
 20
-133.322540
 11
126.316681
 21
-132.978775
  0
LINE
  8
0
 10
128.616638
 20
-146.438904
 11
128.616638
 21
-133.050659
  0
LINE
  8
0
 10
126.316650
 20
-146.744797
 11
119.316650
 21
-146.744797
  0
LINE
  8
0
 10
126.316650
 20
-132.744781
 11
119.316650
 21
-132.744781
  0
LINE
  8
0
 10
125.691406
 20
-139.744781
 11
119.316650
 21
-139.744781
  0
LINE
  8
0
 10
116.316650
 20
-113.494781
 11
87.316650
 21
-113.494781
  0
LINE
  8
0
 10
116.316650
 20
-165.994781
 11
87.316650
 21
-165.994781
  0
LINE
  8
0
 10
109.316650
 20
-183.059433
 11
109.316650
 21
-163.874084
  0
LINE
  8
0
 10
114.816650
 20
-167.394791
 11
114.816650
 21
-165.994781
  0
LINE
  8
0
 10
103.816650
 20
-167.394791
 11
103.816650
 21
-165.994781
  0
LINE
  8
0
 10
114.816650
 20
-167.394791
 11
103.816650
 21
-167.394791
  0
LINE
  8
0
 10
114.816650
 20
-165.994781
 11
114.816650
 21
-113.494781
  0
LINE
  8
0
 10
138.316650
 20
-145.103012
 11
138.316650
 21
-134.386536
  0
LINE
  8
0
 10
137.317154
 20
-146.166992
 11
138.316666
 21
-145.102997
  0
LINE
  8
0
 10
137.317169
 20
-133.322525
 11
138.316681
 21
-134.386520
  0
LINE
  8
0
 10
137.317139
 20
-146.167007
 11
137.317139
 21
-133.322540
  0
LINE
  8
0
 10
111.816650
 20
-179.065582
 11
111.816650
 21
-167.394791
  0
LINE
  8
0
 10
106.816650
 20
-178.601471
 11
106.816650
 21
-167.394791
  0
LINE
  8
0
 10
132.316650
 20
-132.244781
 11
132.316650
 21
-147.244781
  0
ARC
  8
0
 10
116.207977
 20
-143.244781
 40
10.108679
 50
339.742584
 51
20.257330
  0
ARC
  8
0
 10
116.207977
 20
-136.244781
 40
10.108679
 50
339.742584
 51
20.257330
  0
ARC
  8
0
 10
87.316650
 20
-162.494781
 40
3.500000
 50
180.000000
 51
270.000000
  0
ARC
  8
0
 10
87.316650
 20
-116.994781
 40
3.500000
 50
90.000000
 51
180.000000
  0
ARC
  8
0
 10
116.316650
 20
-164.494781
 40
1.500000
 50
270.000000
 51
0.000000
  0
ARC
  8
0
 10
116.316650
 20
-114.994781
 40
1.500000
 50
0.000000
 51
90.000000
  0
POLYLINE
  8
0
 66
     1
  0
VERTEX
  8
0
 10
106.817360
 20
-178.601486
  0
VERTEX
  8
0
 10
107.408951
 20
-178.131973
  0
VERTEX
  8
0
 10
108.222748
 20
-177.997482
  0
VERTEX
  8
0
 10
108.917328
 20
-178.306595
  0
VERTEX
  8
0
 10
109.614761
 20
-178.849991
  0
VERTEX
  8
0
 10
110.255325
 20
-179.369797
  0
VERTEX
  8
0
 10
110.779282
 20
-179.608109
  0
VERTEX
  8
0
 10
111.333694
 20
-179.427597
  0
VERTEX
  8
0
 10
111.816307
 20
-179.065582
  0
SEQEND
  0
POINT
  8
0
 10
-1.575012
 20
-50.516319
  0
POINT
  8
0
 10
5.003493
 20
-50.516319
  0
LINE
  8
0
 10
-1.575012
 20
-41.920135
 11
-1.575012
 21
-103.116287
  0
LINE
  8
0
 10
-26.325012
 20
-65.016319
 11
23.174988
 21
-65.016319
  0
LINE
  8
0
 10
-24.325012
 20
-99.016312
 11
21.174988
 21
-99.016312
  0
LINE
  8
0
 10
-27.875008
 20
-68.016319
 11
24.724991
 21
-68.016319
  0
LINE
  8
0
 10
-19.075012
 20
-63.516319
 11
15.924988
 21
-63.516319
  0
LINE
  8
0
 10
-19.075012
 20
-63.516319
 11
-19.075012
 21
-65.016319
  0
LINE
  8
0
 10
15.924988
 20
-63.516319
 11
15.924988
 21
-65.016319
  0
LINE
  8
0
 10
-8.575012
 20
-56.516319
 11
5.425003
 21
-56.516319
  0
LINE
  8
0
 10
-5.616463
 20
-57.141533
 11
-5.616463
 21
-63.516319
  0
LINE
  8
0
 10
-9.657921
 20
-57.141533
 11
-9.657921
 21
-63.516319
  0
LINE
  8
0
 10
2.466438
 20
-57.141533
 11
2.466438
 21
-63.516319
  0
LINE
  8
0
 10
6.507889
 20
-57.141533
 11
6.507889
 21
-63.516319
  0
LINE
  8
0
 10
-7.997243
 20
-45.515827
 11
-8.341009
 21
-56.516315
  0
LINE
  8
0
 10
-7.115356
 20
-44.687393
 11
-7.413135
 21
-54.216316
  0
LINE
  8
0
 10
3.965333
 20
-44.687386
 11
4.263112
 21
-54.216320
  0
LINE
  8
0
 10
4.847228
 20
-45.515827
 11
5.190993
 21
-56.516315
  0
LINE
  8
0
 10
-8.575016
 20
-56.516304
 11
-9.657919
 21
-57.141514
  0
LINE
  8
0
 10
5.424962
 20
-56.516357
 11
6.507855
 21
-57.141571
  0
LINE
  8
0
 10
-8.269135
 20
-54.216316
 11
5.119125
 21
-54.216316
  0
LINE
  8
0
 10
24.674988
 20
-66.516319
 11
24.674988
 21
-95.516319
  0
LINE
  8
0
 10
-27.825012
 20
-66.516319
 11
-27.825012
 21
-95.516319
  0
LINE
  8
0
 10
-6.933250
 20
-44.516319
 11
3.783226
 21
-44.516319
  0
LINE
  8
0
 10
-7.997234
 20
-45.515835
 11
-6.933233
 21
-44.516319
  0
LINE
  8
0
 10
4.847238
 20
-45.515793
 11
3.783248
 21
-44.516285
  0
LINE
  8
0
 10
-7.997246
 20
-45.515831
 11
4.847221
 21
-45.515831
  0
LINE
  8
0
 10
-11.095465
 20
-50.516319
 11
8.282448
 21
-50.516319
  0
ARC
  8
0
 10
4.487160
 20
-60.094467
 40
3.578153
 50
64.383591
 51
124.384239
  0
ARC
  8
0
 10
-1.575012
 20
-69.891098
 40
13.374786
 50
72.412064
 51
107.587982
  0
ARC
  8
0
 10
-7.637192
 20
-60.094475
 40
3.578162
 50
55.615875
 51
115.615746
  0
ARC
  8
0
 10
-26.325012
 20
-66.516319
 40
1.500000
 50
90.000000
 51
180.000000
  0
ARC
  8
0
 10
23.174988
 20
-66.516319
 40
1.500000
 50
0.000000
 51
90.000000
  0
ARC
  8
0
 10
-24.325012
 20
-95.516319
 40
3.500000
 50
180.000000
 51
270.000031
  0
ARC
  8
0
 10
21.174988
 20
-95.516312
 40
3.500000
 50
270.000031
 51
0.000000
  0
ENDSEC
  0
EOF
