  0
SECTION
  2
HEADER
  0
ENDSEC
  0
SECTION
  2
TABLES
  0
TABLE
  2
LTYPE
 70
     4
  0
LTYPE
  2
CONTINUOUS
 70
    64
  3
Solid line
 72
    65
 73
     0
 40
0.000000
  0
LTYPE
  2
DASHED
 70
    64
  3
__ __ __ __ __ __ __ __ __ __ __ __ __ __ __
 72
    65
 73
     2
 40
3.500000
 49
2.000000
 49
-1.500000
  0
LTYPE
  2
CENTER
 70
    64
  3
____ _ ____ _ ____ _ ____ _ ____ _ ____ _ ____
 72
    65
 73
     4
 40
17.500000
 49
13.000000
 49
-1.500000
 49
1.500000
 49
-1.500000
  0
LTYPE
  2
PHANTOM
 70
    64
  3
_____ _ _ _____ _ _ _____ _ _ _____ _ _ ____  
 72
    65
 73
     6
 40
15.500000
 49
8.000000
 49
-1.500000
 49
1.500000
 49
-1.500000
 49
1.500000
 49
-1.500000
  0
LTYPE
  2
DASHED1
 70
    64
  3
__ __ __ __ __ __ __ __ __ __ __ __ __ __ __
 72
    65
 73
     2
 40
1.500000
 49
1.000000
 49
-0.500000
  0
LTYPE
  2
DASHED2
 70
    64
  3
__ __ __ __ __ __ __ __ __ __ __ __ __ __ __
 72
    65
 73
     2
 40
3.500000
 49
2.500000
 49
-1.000000
  0
LTYPE
  2
DASHED3
 70
    64
  3
__ __ __ __ __ __ __ __ __ __ __ __ __ __ __
 72
    65
 73
     2
 40
6.000000
 49
4.000000
 49
-2.000000
  0
LTYPE
  2
DASHED4
 70
    64
  3
__ __ __ __ __ __ __ __ __ __ __ __ __ __ __
 72
    65
 73
     2
 40
12.000000
 49
10.000000
 49
-2.000000
  0
LTYPE
  2
DASHED5
 70
    64
  3
__ __ __ __ __ __ __ __ __ __ __ __ __ __ __
 72
    65
 73
     2
 40
17.000000
 49
15.000000
 49
-2.000000
  0
LTYPE
  2
DASHED6
 70
    64
  3
__ __ __ __ __ __ __ __ __ __ __ __ __ __ __
 72
    65
 73
     2
 40
29.000000
 49
27.000000
 49
-2.000000
  0
LTYPE
  2
PHANTOM1
 70
    64
  3
_____ _ _ _____ _ _ _____ _ _ _____ _ _ ____  
 72
    65
 73
     6
 40
31.000000
 49
25.000000
 49
-1.500000
 49
1.000000
 49
-1.000000
 49
1.000000
 49
-1.500000
  0
LTYPE
  2
PHANTOM2
 70
    64
  3
_____ _ _ _____ _ _ _____ _ _ _____ _ _ ____  
 72
    65
 73
     6
 40
36.000000
 49
27.000000
 49
-1.500000
 49
2.500000
 49
-1.000000
 49
2.500000
 49
-1.500000
  0
LTYPE
  2
PHANTOM3
 70
    64
  3
_____ _ _ _____ _ _ _____ _ _ _____ _ _ ____  
 72
    65
 73
     6
 40
78.000000
 49
64.000000
 49
-2.000000
 49
4.000000
 49
-2.000000
 49
4.000000
 49
-2.000000
  0
LTYPE
  2
CENTER1
 70
    64
  3
____ _ ____ _ ____ _ ____ _ ____ _ ____ _ ____
 72
    65
 73
     4
 40
19.000000
 49
14.000000
 49
-1.000000
 49
3.000000
 49
-1.000000
  0
LTYPE
  2
CENTER2
 70
    64
  3
____ _ ____ _ ____ _ ____ _ ____ _ ____ _ ____
 72
    65
 73
     4
 40
28.500000
 49
25.000000
 49
-1.000000
 49
1.500000
 49
-1.000000
  0
LTYPE
  2
CENTER3
 70
    64
  3
____ _ ____ _ ____ _ ____ _ ____ _ ____ _ ____
 72
    65
 73
     4
 40
31.500000
 49
27.000000
 49
-1.000000
 49
2.500000
 49
-1.000000
  0
LTYPE
  2
CENTER4
 70
    64
  3
____ _ ____ _ ____ _ ____ _ ____ _ ____ _ ____
 72
    65
 73
     4
 40
50.000000
 49
45.000000
 49
-1.000000
 49
3.000000
 49
-1.000000
  0
LTYPE
  2
CENTER5
 70
    64
  3
____ _ ____ _ ____ _ ____ _ ____ _ ____ _ ____
 72
    65
 73
     4
 40
100.000000
 49
92.000000
 49
-2.000000
 49
4.000000
 49
-2.000000
  0
LTYPE
  2
SBK1
 70
    64
  3
______ _ _ _ ______ _ _ _ ______ _ _ _ _____  
 72
    65
 73
     8
 40
60.500000
 49
45.000000
 49
-2.000000
 49
2.500000
 49
-2.000000
 49
2.500000
 49
-2.000000
 49
2.500000
 49
-2.000000
  0
LTYPE
  2
SBK2
 70
    64
  3
______ _ _ _ ______ _ _ _ ______ _ _ _ _____  
 72
    65
 73
     8
 40
84.000000
 49
64.000000
 49
-2.000000
 49
4.000000
 49
-2.000000
 49
4.000000
 49
-2.000000
 49
4.000000
 49
-2.000000
  0
LTYPE
  2
STCH
 70
    64
  3
__ __ __ __ __ __ __ __ __ __ __ __ __ __ __
 72
    65
 73
     2
 40
3.000000
 49
1.000000
 49
-2.000000
  0
LTYPE
  2
MTCH
 70
    64
  3
_____ _ _ _____ _ _ _____ _ _ _____ _ _ ____  
 72
    65
 73
     6
 40
80.000000
 49
66.000000
 49
-2.000000
 49
4.000000
 49
-2.000000
 49
4.000000
 49
-2.000000
  0
ENDTAB
  0
TABLE
  2
LAYER
 70
     1
  0
LAYER
  2
0
 70
     0
 62
     7
  6
CONTINUOUS
  0
ENDTAB
  0
TABLE
  2
STYLE
 70
     1
  0
STYLE
  2
STANDARD
 70
     0
 40
0.000000
 41
1.000000
 50
0.000000
 71
     0
 42
0.200000
  3
txt
  4
BIGFONT
  0
ENDTAB
  0
TABLE
  2
VIEW
 70
     0
  0
ENDTAB
  0
ENDSEC
  0
SECTION
  2
BLOCKS
  0
ENDSEC
  0
SECTION
  2
ENTITIES
  0
LINE
  8
0
 10
-194.250000
 20
132.600006
 11
194.800003
 21
132.600006
  0
LINE
  8
0
 10
194.800003
 20
132.600006
 11
194.800003
 21
-133.500000
  0
LINE
  8
0
 10
-194.250000
 20
132.600006
 11
-194.250000
 21
-133.500000
  0
LINE
  8
0
 10
-194.250000
 20
-133.500000
 11
194.800003
 21
-133.500000
  0
LINE
  8
0
 10
210.000000
 20
148.500000
 11
210.000000
 21
-148.500000
  0
LINE
  8
0
 10
-210.000000
 20
148.500000
 11
-210.000000
 21
-148.500000
  0
LINE
  8
0
 10
-210.000000
 20
148.500000
 11
210.000000
 21
148.500000
  0
LINE
  8
0
 10
-210.000000
 20
-148.500000
 11
210.000000
 21
-148.500000
  0
LINE
  8
0
 10
109.800003
 20
-118.500000
 11
109.800003
 21
-133.500000
  0
LINE
  8
0
 10
109.800003
 20
-118.500000
 11
194.800003
 21
-118.500000
  0
LINE
  8
0
 10
109.800003
 20
132.600006
 11
109.800003
 21
117.600006
  0
LINE
  8
0
 10
109.800003
 20
117.600006
 11
194.800003
 21
117.600006
  0
LINE
  8
0
 10
-194.250000
 20
117.600006
 11
-109.250000
 21
117.600006
  0
LINE
  8
0
 10
-109.250000
 20
132.600006
 11
-109.250000
 21
117.600006
  0
LINE
  8
0
 10
109.800003
 20
-113.500000
 11
109.800003
 21
-133.500000
  0
LINE
  8
0
 10
-194.250000
 20
-113.500000
 11
109.800003
 21
-113.500000
  0
LINE
  8
0
 10
-194.250000
 20
-123.500000
 11
109.800003
 21
-123.500000
  0
LINE
  8
0
 10
-4.724998
 20
-123.500000
 11
-4.724998
 21
132.600006
  0
TEXT
  8
0
 10
115.907150
 20
122.050003
 40
4.500000
  1
DATE : AUG ,1992
 50
0.000000
 41
1.052631
 51
0.000000
  7
STANDARD
  0
TEXT
  8
0
 10
113.700279
 20
-130.669998
 40
6.300000
  1
KOGANEI CORP.
 50
0.000000
 41
1.052632
 51
0.000000
  7
STANDARD
  0
TEXT
  8
0
 10
-108.630157
 20
-121.550003
 40
4.500000
  1
8-20D
 50
0.000000
 41
1.052632
 51
0.000000
  7
STANDARD
  0
TEXT
  8
0
 10
40.894844
 20
-121.550003
 40
4.500000
  1
8-40D
 50
0.000000
 41
1.052632
 51
0.000000
  7
STANDARD
  0
TEXT
  8
0
 10
-18.117655
 20
-131.550003
 40
4.500000
  1
D MODULE
 50
0.000000
 41
1.052632
 51
0.000000
  7
STANDARD
  0
TEXT
  8
0
 10
-165.642654
 20
122.050003
 40
4.500000
  1
MODULE
 50
0.000000
 41
1.052632
 51
0.000000
  7
STANDARD
  0
POINT
  8
0
 10
-153.450302
 20
-53.336796
  0
POINT
  8
0
 10
-138.750305
 20
-53.336796
  0
LINE
  8
0
 10
-162.916977
 20
-53.336796
 11
-135.494034
 21
-53.336796
  0
LINE
  8
0
 10
-148.450302
 20
-9.470158
 11
-148.450302
 21
-96.336792
  0
LINE
  8
0
 10
-158.150299
 20
-17.336826
 11
-158.150299
 21
-89.336792
  0
LINE
  8
0
 10
-138.750305
 20
-17.336826
 11
-138.750305
 21
-89.336792
  0
LINE
  8
0
 10
-143.750305
 20
-44.336796
 11
-138.750305
 21
-44.336796
  0
LINE
  8
0
 10
-143.750305
 20
-62.336826
 11
-138.750305
 21
-62.336826
  0
LINE
  8
0
 10
-158.150299
 20
-64.336792
 11
-153.150299
 21
-64.336792
  0
LINE
  8
0
 10
-158.150299
 20
-42.336826
 11
-153.150299
 21
-42.336826
  0
LINE
  8
0
 10
-143.750305
 20
-44.336845
 11
-153.150299
 21
-42.336842
  0
LINE
  8
0
 10
-143.750290
 20
-62.336868
 11
-153.150284
 21
-64.336868
  0
LINE
  8
0
 10
-155.150299
 20
-92.336823
 11
-141.750305
 21
-92.336823
  0
LINE
  8
0
 10
-155.150299
 20
-14.336796
 11
-141.750305
 21
-14.336796
  0
LINE
  8
0
 10
-158.150299
 20
-89.336761
 11
-155.150284
 21
-92.336792
  0
LINE
  8
0
 10
-141.750336
 20
-92.336739
 11
-138.750366
 21
-89.336761
  0
LINE
  8
0
 10
-158.150253
 20
-17.336842
 11
-155.150253
 21
-14.336834
  0
LINE
  8
0
 10
-141.750244
 20
-14.336739
 11
-138.750244
 21
-17.336742
  0
LINE
  8
0
 10
-155.552216
 20
-46.836796
 11
-155.552216
 21
-59.836826
  0
LINE
  8
0
 10
-141.348389
 20
-48.836796
 11
-141.348389
 21
-57.836796
  0
LINE
  8
0
 10
-155.552216
 20
-46.836796
 11
-153.150299
 21
-46.836796
  0
LINE
  8
0
 10
-155.552216
 20
-59.836826
 11
-153.150299
 21
-59.836826
  0
LINE
  8
0
 10
-143.750305
 20
-57.836826
 11
-141.348389
 21
-57.836826
  0
LINE
  8
0
 10
-143.750305
 20
-48.836796
 11
-141.348389
 21
-48.836796
  0
LINE
  8
0
 10
-143.750305
 20
-44.336796
 11
-143.750305
 21
-48.836796
  0
LINE
  8
0
 10
-153.150299
 20
-42.336826
 11
-153.150299
 21
-46.836796
  0
LINE
  8
0
 10
-153.150299
 20
-64.336792
 11
-153.150299
 21
-59.836826
  0
LINE
  8
0
 10
-143.750305
 20
-62.336826
 11
-143.750305
 21
-57.836796
  0
LINE
  8
0
 10
-143.750290
 20
-57.836842
 11
-153.150284
 21
-59.836842
  0
LINE
  8
0
 10
-153.150330
 20
-46.836781
 11
-143.750320
 21
-48.836781
  0
LINE
  8
0
 10
-158.150314
 20
-64.336792
 11
-155.552231
 21
-59.836784
  0
LINE
  8
0
 10
-155.552231
 20
-46.836777
 11
-158.150299
 21
-42.336792
  0
LINE
  8
0
 10
-138.750381
 20
-44.336761
 11
-141.348450
 21
-48.836742
  0
LINE
  8
0
 10
-141.348404
 20
-57.836784
 11
-138.750320
 21
-62.336792
  0
LINE
  8
0
 10
-155.594147
 20
-84.336792
 11
-141.707031
 21
-84.336792
  0
LINE
  8
0
 10
-156.261810
 20
-22.336826
 11
-141.039383
 21
-22.336826
  0
LINE
  8
0
 10
-150.450302
 20
-18.836796
 11
-146.450302
 21
-18.836796
  0
LINE
  8
0
 10
-150.450302
 20
-25.836796
 11
-146.450302
 21
-25.836796
  0
LINE
  8
0
 10
-150.450302
 20
-87.836823
 11
-146.450302
 21
-87.836823
  0
LINE
  8
0
 10
-150.450302
 20
-80.836792
 11
-146.450302
 21
-80.836792
  0
LINE
  8
0
 10
-154.736084
 20
-91.336792
 11
-142.164520
 21
-91.336792
  0
LINE
  8
0
 10
-157.150299
 20
-88.922592
 11
-154.736099
 21
-91.336777
  0
LINE
  8
0
 10
-142.164551
 20
-91.336800
 11
-139.750336
 21
-88.922577
  0
LINE
  8
0
 10
-139.750305
 20
-17.751011
 11
-139.750305
 21
-44.336796
  0
LINE
  8
0
 10
-157.150299
 20
-17.751011
 11
-157.150299
 21
-42.336826
  0
LINE
  8
0
 10
-157.150269
 20
-17.751057
 11
-154.736069
 21
-15.336838
  0
LINE
  8
0
 10
-154.736084
 20
-15.336826
 11
-142.164520
 21
-15.336826
  0
LINE
  8
0
 10
-142.164459
 20
-15.336735
 11
-139.750244
 21
-17.750950
  0
LINE
  8
0
 10
-157.150299
 20
-64.336792
 11
-157.150299
 21
-88.922577
  0
LINE
  8
0
 10
-139.750305
 20
-63.336758
 11
-157.150299
 21
-65.336761
  0
LINE
  8
0
 10
-139.750290
 20
-43.336750
 11
-157.150284
 21
-41.336750
  0
LINE
  8
0
 10
-139.750305
 20
-62.336826
 11
-139.750305
 21
-88.922577
  0
LINE
  8
0
 10
-157.150269
 20
-41.336826
 11
-158.150284
 21
-42.336838
  0
LINE
  8
0
 10
-158.150284
 20
-64.336815
 11
-157.150284
 21
-65.336815
  0
LINE
  8
0
 10
-139.750290
 20
-63.336823
 11
-138.750275
 21
-62.336811
  0
LINE
  8
0
 10
-138.750320
 20
-44.336792
 11
-139.750305
 21
-43.336811
  0
LINE
  8
0
 10
-138.750290
 20
-62.336933
 11
-148.450287
 21
-63.336933
  0
LINE
  8
0
 10
-138.750320
 20
-44.336945
 11
-148.450317
 21
-43.336945
  0
LINE
  8
0
 10
-154.736069
 20
-15.336819
 11
-155.150299
 21
-14.336792
  0
LINE
  8
0
 10
-157.150269
 20
-17.750919
 11
-158.150269
 21
-17.336697
  0
LINE
  8
0
 10
-139.750290
 20
-17.751022
 11
-138.750305
 21
-17.336796
  0
LINE
  8
0
 10
-142.164505
 20
-15.336811
 11
-141.750290
 21
-14.336777
  0
LINE
  8
0
 10
-157.150269
 20
-88.922653
 11
-158.150269
 21
-89.336868
  0
LINE
  8
0
 10
-154.736084
 20
-91.336807
 11
-155.150269
 21
-92.336792
  0
LINE
  8
0
 10
-141.750305
 20
-92.336807
 11
-142.164520
 21
-91.336800
  0
LINE
  8
0
 10
-139.750290
 20
-88.922569
 11
-138.750290
 21
-89.336792
  0
LINE
  8
0
 10
-149.950302
 20
-52.470798
 11
-149.950302
 21
-54.202824
  0
LINE
  8
0
 10
-146.950302
 20
-52.470798
 11
-146.950302
 21
-54.202824
  0
LINE
  8
0
 10
-149.950302
 20
-52.470757
 11
-148.450287
 21
-51.604729
  0
LINE
  8
0
 10
-148.450317
 20
-55.068810
 11
-146.950302
 21
-54.202782
  0
LINE
  8
0
 10
-148.450317
 20
-51.604767
 11
-146.950333
 21
-52.470787
  0
LINE
  8
0
 10
-149.950287
 20
-54.202820
 11
-148.450287
 21
-55.068848
  0
CIRCLE
  8
0
 10
-148.450302
 20
-53.336796
 40
4.000000
  0
ARC
  8
0
 10
-150.450302
 20
-22.336826
 40
3.500000
 50
90.000000
 51
270.000000
  0
ARC
  8
0
 10
-146.450302
 20
-22.336826
 40
3.500000
 50
270.000000
 51
90.000000
  0
ARC
  8
0
 10
-150.450302
 20
-84.336792
 40
3.500000
 50
90.000000
 51
270.000000
  0
ARC
  8
0
 10
-146.450302
 20
-84.336792
 40
3.500000
 50
270.000000
 51
90.000000
  0
CIRCLE
  8
0
 10
-148.450302
 20
-53.336796
 40
3.500000
  0
CIRCLE
  8
0
 10
-148.450302
 20
-53.336796
 40
2.980385
  0
CIRCLE
  8
0
 10
-148.450302
 20
-53.336796
 40
1.732051
  0
POINT
  8
0
 10
-84.606110
 20
-53.336796
  0
POINT
  8
0
 10
-44.606102
 20
-53.336796
  0
LINE
  8
0
 10
-105.106110
 20
-46.836796
 11
-105.106110
 21
-59.836826
  0
LINE
  8
0
 10
-96.606110
 20
-44.336796
 11
-96.606110
 21
-62.336826
  0
LINE
  8
0
 10
-100.606110
 20
-42.336826
 11
-100.606110
 21
-64.336792
  0
LINE
  8
0
 10
-100.606110
 20
-62.336826
 11
-96.606110
 21
-62.336826
  0
LINE
  8
0
 10
-100.606110
 20
-44.336796
 11
-96.606110
 21
-44.336796
  0
LINE
  8
0
 10
-69.606102
 20
-64.336792
 11
-62.191887
 21
-64.336792
  0
LINE
  8
0
 10
-69.606102
 20
-42.336826
 11
-62.191887
 21
-42.336826
  0
LINE
  8
0
 10
-99.606110
 20
-42.336826
 11
-99.606110
 21
-64.336823
  0
LINE
  8
0
 10
-100.606148
 20
-62.336807
 11
-105.106140
 21
-57.836811
  0
LINE
  8
0
 10
-100.606117
 20
-44.336819
 11
-105.106094
 21
-48.836803
  0
LINE
  8
0
 10
-100.606125
 20
-64.336823
 11
-105.106117
 21
-59.836834
  0
LINE
  8
0
 10
-100.606094
 20
-42.336796
 11
-105.106079
 21
-46.836781
  0
LINE
  8
0
 10
-44.606102
 20
-14.336796
 11
-44.606102
 21
-92.336823
  0
LINE
  8
0
 10
-98.606110
 20
-65.336823
 11
-62.606102
 21
-65.336823
  0
LINE
  8
0
 10
-98.606110
 20
-41.336796
 11
-62.606102
 21
-41.336796
  0
LINE
  8
0
 10
-98.606178
 20
-65.336876
 11
-99.606186
 21
-64.336876
  0
LINE
  8
0
 10
-99.606094
 20
-42.336834
 11
-98.606110
 21
-41.336842
  0
LINE
  8
0
 10
-52.606102
 20
-15.336796
 11
-52.606102
 21
-31.336796
  0
LINE
  8
0
 10
-51.606102
 20
-92.336823
 11
-44.606102
 21
-92.336823
  0
LINE
  8
0
 10
-51.606102
 20
-14.336796
 11
-44.606102
 21
-14.336796
  0
LINE
  8
0
 10
-51.606121
 20
-92.336800
 11
-52.606125
 21
-91.336792
  0
LINE
  8
0
 10
-52.606079
 20
-15.336842
 11
-51.606075
 21
-14.336838
  0
LINE
  8
0
 10
-52.606148
 20
-75.336807
 11
-62.606136
 21
-65.336815
  0
LINE
  8
0
 10
-52.606144
 20
-31.336809
 11
-62.606155
 21
-41.336823
  0
LINE
  8
0
 10
-51.606174
 20
-74.922623
 11
-62.191963
 21
-64.336830
  0
LINE
  8
0
 10
-51.606136
 20
-31.751030
 11
-62.191910
 21
-42.336807
  0
LINE
  8
0
 10
-51.606102
 20
-14.336796
 11
-51.606102
 21
-31.751041
  0
LINE
  8
0
 10
-51.606102
 20
-74.922607
 11
-51.606102
 21
-92.336823
  0
LINE
  8
0
 10
-52.606102
 20
-75.336792
 11
-52.606102
 21
-91.336792
  0
LINE
  8
0
 10
-98.606110
 20
-65.336792
 11
-98.606110
 21
-62.336826
  0
LINE
  8
0
 10
-98.606110
 20
-41.336796
 11
-98.606110
 21
-44.336796
  0
LINE
  8
0
 10
-84.606110
 20
-39.160343
 11
-84.606110
 21
-68.307343
  0
LINE
  8
0
 10
-72.606110
 20
-43.336796
 11
-72.606110
 21
-63.336796
  0
LINE
  8
0
 10
-51.606102
 20
-17.336826
 11
-44.606102
 21
-17.336826
  0
LINE
  8
0
 10
-51.606102
 20
-89.336792
 11
-44.606102
 21
-89.336792
  0
LINE
  8
0
 10
-51.606129
 20
-89.336838
 11
-52.606117
 21
-88.922630
  0
LINE
  8
0
 10
-51.606106
 20
-17.336819
 11
-52.606110
 21
-17.751034
  0
LINE
  8
0
 10
-108.772774
 20
-53.336796
 11
-40.801907
 21
-53.336796
  0
LINE
  8
0
 10
-69.606102
 20
-41.336796
 11
-69.606102
 21
-65.336792
  0
LINE
  8
0
 10
-98.606110
 20
-43.336796
 11
-69.606102
 21
-43.336796
  0
LINE
  8
0
 10
-98.606110
 20
-63.336796
 11
-69.606102
 21
-63.336796
  0
LINE
  8
0
 10
-99.606110
 20
-44.336796
 11
-72.606110
 21
-44.336796
  0
LINE
  8
0
 10
-99.606110
 20
-62.336826
 11
-72.606110
 21
-62.336826
  0
LINE
  8
0
 10
-98.606148
 20
-63.336830
 11
-99.606155
 21
-62.336830
  0
LINE
  8
0
 10
-98.606087
 20
-43.336823
 11
-99.606087
 21
-44.336823
  0
LINE
  8
0
 10
-100.606110
 20
-64.336792
 11
-99.606110
 21
-64.336792
  0
LINE
  8
0
 10
-100.606110
 20
-42.336826
 11
-99.606110
 21
-42.336826
  0
LINE
  8
0
 10
-62.191933
 20
-42.336796
 11
-62.606148
 21
-41.336792
  0
LINE
  8
0
 10
-51.606140
 20
-31.751089
 11
-52.606136
 21
-31.336876
  0
LINE
  8
0
 10
-62.191879
 20
-64.336823
 11
-62.606087
 21
-65.336800
  0
LINE
  8
0
 10
-51.606113
 20
-74.922646
 11
-52.606102
 21
-75.336861
  0
LINE
  8
0
 10
-105.806107
 20
-49.836826
 11
-105.106110
 21
-49.836826
  0
LINE
  8
0
 10
-105.806061
 20
-49.836819
 11
-106.106064
 21
-50.356438
  0
LINE
  8
0
 10
-106.106110
 20
-50.356419
 11
-106.106110
 21
-56.317204
  0
LINE
  8
0
 10
-105.806107
 20
-49.836826
 11
-105.806107
 21
-56.836796
  0
LINE
  8
0
 10
-105.806107
 20
-56.836792
 11
-106.106125
 21
-56.317142
  0
LINE
  8
0
 10
-105.806107
 20
-56.836796
 11
-105.106110
 21
-56.836796
  0
LINE
  8
0
 10
-55.772774
 20
-22.336796
 11
-40.801907
 21
-22.336796
  0
LINE
  8
0
 10
-55.772774
 20
-84.336792
 11
-40.801907
 21
-84.336792
  0
POINT
  8
0
 10
-153.450302
 20
55.510010
  0
POINT
  8
0
 10
-143.450302
 20
55.510010
  0
LINE
  8
0
 10
-155.552216
 20
35.010010
 11
-141.348373
 21
35.010010
  0
LINE
  8
0
 10
-158.150299
 20
40.510010
 11
-143.450302
 21
40.510010
  0
LINE
  8
0
 10
-158.150299
 20
39.510040
 11
-138.750305
 21
39.510040
  0
LINE
  8
0
 10
-158.150284
 20
39.510017
 11
-155.552216
 21
35.010017
  0
LINE
  8
0
 10
-138.750320
 20
39.510002
 11
-141.348404
 21
35.010025
  0
LINE
  8
0
 10
-143.450302
 20
43.510010
 11
-138.750305
 21
43.510010
  0
LINE
  8
0
 10
-143.450302
 20
40.510010
 11
-143.450302
 21
43.510010
  0
LINE
  8
0
 10
-158.150299
 20
39.510040
 11
-158.150299
 21
40.510010
  0
LINE
  8
0
 10
-138.750305
 20
39.510040
 11
-138.750305
 21
43.510010
  0
LINE
  8
0
 10
-148.450302
 20
31.343323
 11
-148.450302
 21
98.012482
  0
LINE
  8
0
 10
-158.150299
 20
70.510010
 11
-158.150299
 21
95.510010
  0
LINE
  8
0
 10
-158.150299
 20
95.510010
 11
-138.750305
 21
95.510010
  0
LINE
  8
0
 10
-157.150299
 20
87.510010
 11
-139.750305
 21
87.510010
  0
LINE
  8
0
 10
-158.150299
 20
70.510010
 11
-138.750305
 21
70.510010
  0
LINE
  8
0
 10
-158.150299
 20
77.510010
 11
-138.750305
 21
77.510010
  0
LINE
  8
0
 10
-158.150299
 20
88.510010
 11
-138.750305
 21
88.510010
  0
LINE
  8
0
 10
-157.150299
 20
70.510010
 11
-157.150299
 21
87.510010
  0
LINE
  8
0
 10
-139.750305
 20
70.510010
 11
-139.750305
 21
87.510010
  0
LINE
  8
0
 10
-155.150299
 20
88.510010
 11
-155.150299
 21
95.510010
  0
LINE
  8
0
 10
-141.750305
 20
88.510010
 11
-141.750305
 21
95.510010
  0
LINE
  8
0
 10
-153.450302
 20
41.510010
 11
-153.450302
 21
70.510010
  0
LINE
  8
0
 10
-143.450302
 20
43.510010
 11
-143.450302
 21
67.510010
  0
LINE
  8
0
 10
-153.450302
 20
41.510010
 11
-143.450302
 21
41.510010
  0
LINE
  8
0
 10
-152.450302
 20
40.510010
 11
-152.450302
 21
70.510010
  0
LINE
  8
0
 10
-144.450317
 20
40.510010
 11
-144.450317
 21
70.510010
  0
LINE
  8
0
 10
-158.150299
 20
55.510010
 11
-138.750305
 21
55.510010
  0
LINE
  8
0
 10
-144.450317
 20
67.510010
 11
-138.750305
 21
67.510010
  0
LINE
  8
0
 10
-138.750305
 20
95.510010
 11
-138.750305
 21
67.510010
  0
LINE
  8
0
 10
-153.450302
 20
41.509995
 11
-152.450317
 21
40.510006
  0
LINE
  8
0
 10
-143.450256
 20
41.510010
 11
-144.450256
 21
40.510006
  0
LINE
  8
0
 10
-157.150314
 20
87.509995
 11
-158.150299
 21
88.509987
  0
LINE
  8
0
 10
-139.750275
 20
87.510040
 11
-138.750290
 21
88.510017
  0
LINE
  8
0
 10
-155.150330
 20
88.510010
 11
-154.736115
 21
87.510002
  0
LINE
  8
0
 10
-141.750305
 20
88.510017
 11
-142.164520
 21
87.510010
  0
LINE
  8
0
 10
-143.750305
 20
40.510010
 11
-143.750305
 21
35.010010
  0
LINE
  8
0
 10
-153.150299
 20
40.510010
 11
-153.150299
 21
35.010010
  0
LINE
  8
0
 10
-151.950317
 20
34.310028
 11
-151.950317
 21
35.010010
  0
LINE
  8
0
 10
-151.950333
 20
34.309986
 11
-151.430725
 21
34.009987
  0
LINE
  8
0
 10
-151.430695
 20
34.010010
 11
-145.469910
 21
34.010010
  0
LINE
  8
0
 10
-151.950317
 20
34.310028
 11
-144.950302
 21
34.310028
  0
LINE
  8
0
 10
-144.950333
 20
34.310074
 11
-145.469925
 21
34.010086
  0
LINE
  8
0
 10
-144.950302
 20
34.310028
 11
-144.950302
 21
35.010010
  0
POINT
  8
0
 10
41.794483
 20
-49.336796
  0
POINT
  8
0
 10
63.294483
 20
-49.336796
  0
LINE
  8
0
 10
32.294483
 20
-7.336796
 11
32.294483
 21
-91.336792
  0
LINE
  8
0
 10
63.294483
 20
-7.336796
 11
63.294483
 21
-91.336792
  0
LINE
  8
0
 10
35.294483
 20
-94.336792
 11
60.294483
 21
-94.336792
  0
LINE
  8
0
 10
35.294483
 20
-4.336796
 11
60.294483
 21
-4.336796
  0
LINE
  8
0
 10
28.586517
 20
-49.336796
 11
66.580620
 21
-49.336796
  0
LINE
  8
0
 10
33.294483
 20
-65.336761
 11
62.294483
 21
-65.336761
  0
LINE
  8
0
 10
33.294483
 20
-33.336796
 11
62.294483
 21
-33.336796
  0
LINE
  8
0
 10
62.294483
 20
-7.751011
 11
62.294483
 21
-33.336796
  0
LINE
  8
0
 10
33.294483
 20
-7.750980
 11
33.294483
 21
-33.336796
  0
LINE
  8
0
 10
32.294472
 20
-34.336769
 11
33.294495
 21
-33.336746
  0
LINE
  8
0
 10
62.294479
 20
-65.336800
 11
63.294479
 21
-64.336800
  0
LINE
  8
0
 10
62.294491
 20
-33.336746
 11
63.294495
 21
-34.336750
  0
LINE
  8
0
 10
32.294498
 20
-64.336784
 11
33.294506
 21
-65.336792
  0
LINE
  8
0
 10
33.294483
 20
-65.336761
 11
33.294483
 21
-90.922546
  0
LINE
  8
0
 10
62.294483
 20
-65.336761
 11
62.294483
 21
-90.922546
  0
LINE
  8
0
 10
32.294464
 20
-91.336784
 11
35.294472
 21
-94.336792
  0
LINE
  8
0
 10
60.294525
 20
-4.336777
 11
63.294518
 21
-7.336769
  0
LINE
  8
0
 10
60.294472
 20
-94.336807
 11
63.294476
 21
-91.336807
  0
LINE
  8
0
 10
32.294479
 20
-7.336761
 11
35.294502
 21
-4.336739
  0
LINE
  8
0
 10
35.708714
 20
-93.336792
 11
59.880268
 21
-93.336792
  0
LINE
  8
0
 10
35.708698
 20
-5.336765
 11
59.880268
 21
-5.336765
  0
LINE
  8
0
 10
33.294464
 20
-7.750961
 11
35.708679
 21
-5.336746
  0
LINE
  8
0
 10
59.880318
 20
-5.336761
 11
62.294540
 21
-7.750980
  0
LINE
  8
0
 10
33.294525
 20
-90.922569
 11
35.708733
 21
-93.336777
  0
LINE
  8
0
 10
59.880272
 20
-93.336823
 11
62.294487
 21
-90.922607
  0
LINE
  8
0
 10
33.294449
 20
-90.922630
 11
32.294472
 21
-91.336830
  0
LINE
  8
0
 10
35.708664
 20
-93.336807
 11
35.294468
 21
-94.336777
  0
LINE
  8
0
 10
59.880272
 20
-93.336807
 11
60.294479
 21
-94.336792
  0
LINE
  8
0
 10
62.294483
 20
-90.922577
 11
63.294487
 21
-91.336792
  0
LINE
  8
0
 10
35.294529
 20
-4.336788
 11
35.708744
 21
-5.336792
  0
LINE
  8
0
 10
33.294441
 20
-7.751102
 11
32.294441
 21
-7.336891
  0
LINE
  8
0
 10
60.294510
 20
-4.336788
 11
59.880287
 21
-5.336792
  0
LINE
  8
0
 10
63.294472
 20
-7.336708
 11
62.294472
 21
-7.750927
  0
LINE
  8
0
 10
39.254414
 20
-84.336792
 11
56.689228
 21
-84.336792
  0
LINE
  8
0
 10
47.794483
 20
-1.009678
 11
47.794483
 21
-98.121521
  0
LINE
  8
0
 10
45.794483
 20
-80.836792
 11
49.794483
 21
-80.836792
  0
LINE
  8
0
 10
45.794483
 20
-87.836761
 11
49.794483
 21
-87.836761
  0
LINE
  8
0
 10
39.254414
 20
-14.336796
 11
56.689228
 21
-14.336796
  0
LINE
  8
0
 10
45.794483
 20
-17.836765
 11
49.794483
 21
-17.836765
  0
LINE
  8
0
 10
45.794483
 20
-10.836796
 11
49.794483
 21
-10.836796
  0
LINE
  8
0
 10
32.294483
 20
-24.336796
 11
63.294483
 21
-24.336796
  0
LINE
  8
0
 10
32.294483
 20
-74.336792
 11
63.294483
 21
-74.336792
  0
LINE
  8
0
 10
32.294483
 20
-34.336796
 11
42.294483
 21
-34.336796
  0
LINE
  8
0
 10
32.294483
 20
-64.336792
 11
42.294483
 21
-64.336792
  0
LINE
  8
0
 10
58.294483
 20
-60.336765
 11
63.294483
 21
-60.336765
  0
LINE
  8
0
 10
58.294483
 20
-38.336796
 11
63.294483
 21
-38.336796
  0
LINE
  8
0
 10
58.294483
 20
-38.336796
 11
58.294483
 21
-60.336765
  0
LINE
  8
0
 10
37.294483
 20
-39.836796
 11
37.294483
 21
-58.836796
  0
LINE
  8
0
 10
37.294483
 20
-39.836796
 11
42.294483
 21
-39.836796
  0
LINE
  8
0
 10
37.294483
 20
-58.836796
 11
42.294483
 21
-58.836796
  0
LINE
  8
0
 10
42.294518
 20
-34.336693
 11
58.294514
 21
-38.336689
  0
LINE
  8
0
 10
58.294495
 20
-60.336758
 11
42.294483
 21
-64.336761
  0
LINE
  8
0
 10
42.294510
 20
-39.836700
 11
58.294518
 21
-43.836704
  0
LINE
  8
0
 10
42.294495
 20
-58.836777
 11
58.294506
 21
-54.836777
  0
LINE
  8
0
 10
58.294464
 20
-54.836788
 11
63.294464
 21
-60.336784
  0
LINE
  8
0
 10
58.294514
 20
-43.836796
 11
63.294521
 21
-38.336788
  0
LINE
  8
0
 10
32.294472
 20
-34.336803
 11
37.294468
 21
-39.836800
  0
LINE
  8
0
 10
37.294518
 20
-58.836784
 11
32.294510
 21
-64.336792
  0
LINE
  8
0
 10
42.294483
 20
-64.336792
 11
42.294483
 21
-58.836796
  0
LINE
  8
0
 10
42.294483
 20
-39.836796
 11
42.294483
 21
-34.336796
  0
LINE
  8
0
 10
45.294483
 20
-47.893436
 11
45.294483
 21
-50.780155
  0
LINE
  8
0
 10
50.294483
 20
-47.893436
 11
50.294483
 21
-50.780155
  0
LINE
  8
0
 10
45.294495
 20
-47.893379
 11
47.794468
 21
-46.450020
  0
LINE
  8
0
 10
47.794502
 20
-52.223518
 11
50.294472
 21
-50.780159
  0
LINE
  8
0
 10
47.794502
 20
-46.449993
 11
50.294502
 21
-47.893368
  0
LINE
  8
0
 10
45.294472
 20
-50.780155
 11
47.794472
 21
-52.223530
  0
ARC
  8
0
 10
49.794483
 20
-84.336792
 40
3.500000
 50
270.000000
 51
90.000000
  0
ARC
  8
0
 10
45.794483
 20
-84.336792
 40
3.500000
 50
90.000000
 51
270.000000
  0
ARC
  8
0
 10
49.794483
 20
-14.336796
 40
3.500000
 50
269.999939
 51
89.999939
  0
ARC
  8
0
 10
45.794483
 20
-14.336796
 40
3.500000
 50
89.999939
 51
269.999939
  0
CIRCLE
  8
0
 10
47.794483
 20
-49.336796
 40
5.500000
  0
CIRCLE
  8
0
 10
47.794483
 20
-49.336796
 40
5.000000
  0
CIRCLE
  8
0
 10
47.794483
 20
-49.336796
 40
4.307180
  0
CIRCLE
  8
0
 10
47.794483
 20
-49.336796
 40
2.886752
  0
POINT
  8
0
 10
113.106049
 20
-49.336796
  0
POINT
  8
0
 10
158.106049
 20
-49.336796
  0
LINE
  8
0
 10
79.952164
 20
-49.336796
 11
162.506744
 21
-49.336796
  0
LINE
  8
0
 10
158.106049
 20
-4.336796
 11
158.106049
 21
-94.336792
  0
LINE
  8
0
 10
150.106049
 20
-5.336765
 11
150.106049
 21
-24.336796
  0
LINE
  8
0
 10
93.106049
 20
-34.336796
 11
93.106049
 21
-64.336792
  0
LINE
  8
0
 10
151.106049
 20
-4.336796
 11
158.106049
 21
-4.336796
  0
LINE
  8
0
 10
151.106049
 20
-94.336792
 11
158.106049
 21
-94.336792
  0
LINE
  8
0
 10
141.106049
 20
-33.336830
 11
150.106049
 21
-24.336821
  0
LINE
  8
0
 10
141.106094
 20
-65.336754
 11
150.106110
 21
-74.336761
  0
LINE
  8
0
 10
150.106049
 20
-74.336792
 11
150.106049
 21
-93.336792
  0
LINE
  8
0
 10
151.106049
 20
-7.336796
 11
158.106049
 21
-7.336796
  0
LINE
  8
0
 10
151.106049
 20
-91.336792
 11
158.106049
 21
-91.336792
  0
LINE
  8
0
 10
151.106049
 20
-73.922577
 11
151.106049
 21
-94.336792
  0
LINE
  8
0
 10
141.520309
 20
-64.336777
 11
151.106094
 21
-73.922562
  0
LINE
  8
0
 10
141.520264
 20
-34.336796
 11
151.106064
 21
-24.750998
  0
LINE
  8
0
 10
151.106049
 20
-4.336796
 11
151.106049
 21
-24.750980
  0
LINE
  8
0
 10
133.106049
 20
-33.336796
 11
133.106049
 21
-65.336761
  0
LINE
  8
0
 10
133.106049
 20
-34.336796
 11
141.520294
 21
-34.336796
  0
LINE
  8
0
 10
91.106049
 20
-64.336792
 11
93.106049
 21
-64.336792
  0
LINE
  8
0
 10
151.106049
 20
-73.922623
 11
150.106079
 21
-74.336823
  0
LINE
  8
0
 10
150.106018
 20
-24.336899
 11
151.106033
 21
-24.751114
  0
LINE
  8
0
 10
150.106049
 20
-93.336761
 11
151.106049
 21
-94.336761
  0
LINE
  8
0
 10
150.106079
 20
-5.336761
 11
151.106064
 21
-4.336784
  0
LINE
  8
0
 10
150.106079
 20
-90.336792
 11
151.106079
 21
-91.336792
  0
LINE
  8
0
 10
150.106079
 20
-8.336739
 11
151.106049
 21
-7.336758
  0
LINE
  8
0
 10
113.106049
 20
-31.873661
 11
113.106049
 21
-66.581604
  0
LINE
  8
0
 10
94.106049
 20
-33.336796
 11
94.106049
 21
-37.336796
  0
LINE
  8
0
 10
93.106087
 20
-64.336777
 11
94.106087
 21
-65.336777
  0
LINE
  8
0
 10
93.106041
 20
-34.336769
 11
94.106041
 21
-33.336769
  0
LINE
  8
0
 10
94.106049
 20
-61.336796
 11
133.106049
 21
-61.336796
  0
LINE
  8
0
 10
94.106049
 20
-37.336796
 11
133.106049
 21
-37.336796
  0
LINE
  8
0
 10
91.106049
 20
-38.336796
 11
133.106049
 21
-38.336796
  0
LINE
  8
0
 10
91.106049
 20
-60.336765
 11
133.106049
 21
-60.336765
  0
LINE
  8
0
 10
94.106033
 20
-37.336811
 11
93.106056
 21
-38.336792
  0
LINE
  8
0
 10
93.106033
 20
-60.336781
 11
94.106033
 21
-61.336777
  0
LINE
  8
0
 10
91.106049
 20
-34.336796
 11
91.106049
 21
-64.336792
  0
LINE
  8
0
 10
85.606049
 20
-39.836796
 11
85.606049
 21
-58.836796
  0
LINE
  8
0
 10
94.106049
 20
-65.336761
 11
141.106049
 21
-65.336761
  0
LINE
  8
0
 10
94.106049
 20
-33.336796
 11
141.106049
 21
-33.336796
  0
LINE
  8
0
 10
141.520157
 20
-64.336731
 11
141.105942
 21
-65.336739
  0
LINE
  8
0
 10
141.520279
 20
-34.336792
 11
141.106064
 21
-33.336800
  0
LINE
  8
0
 10
91.106049
 20
-34.336796
 11
93.106049
 21
-34.336796
  0
LINE
  8
0
 10
85.606026
 20
-54.836830
 11
91.106026
 21
-60.336830
  0
LINE
  8
0
 10
91.106049
 20
-64.336800
 11
85.606049
 21
-58.836796
  0
LINE
  8
0
 10
85.606056
 20
-43.836784
 11
91.106056
 21
-38.336792
  0
LINE
  8
0
 10
85.606064
 20
-39.836784
 11
91.106033
 21
-34.336811
  0
LINE
  8
0
 10
98.106049
 20
-38.336796
 11
98.106049
 21
-60.336765
  0
LINE
  8
0
 10
94.106049
 20
-61.336796
 11
94.106049
 21
-65.336761
  0
LINE
  8
0
 10
133.106049
 20
-34.336796
 11
141.520294
 21
-34.336796
  0
LINE
  8
0
 10
133.106049
 20
-64.336792
 11
141.520294
 21
-64.336792
  0
LINE
  8
0
 10
84.506042
 20
-44.336796
 11
85.606049
 21
-44.336796
  0
LINE
  8
0
 10
84.506058
 20
-44.336769
 11
84.106049
 21
-45.029606
  0
LINE
  8
0
 10
84.106049
 20
-45.029606
 11
84.106049
 21
-53.643955
  0
LINE
  8
0
 10
84.506042
 20
-44.336796
 11
84.506042
 21
-54.336796
  0
LINE
  8
0
 10
84.506088
 20
-54.336754
 11
84.106094
 21
-53.643944
  0
LINE
  8
0
 10
84.506042
 20
-54.336796
 11
85.606049
 21
-54.336796
  0
LINE
  8
0
 10
146.272720
 20
-84.336792
 11
162.506744
 21
-84.336792
  0
LINE
  8
0
 10
146.606049
 20
-14.336796
 11
162.506744
 21
-14.336796
  0
POINT
  8
0
 10
41.794483
 20
59.510010
  0
POINT
  8
0
 10
58.594501
 20
59.510010
  0
LINE
  8
0
 10
32.294483
 20
39.510010
 11
63.294514
 21
39.510010
  0
LINE
  8
0
 10
32.294483
 20
104.510010
 11
63.294514
 21
104.510010
  0
LINE
  8
0
 10
32.294483
 20
79.510010
 11
63.294514
 21
79.510010
  0
LINE
  8
0
 10
33.294514
 20
96.510010
 11
62.294483
 21
96.510010
  0
LINE
  8
0
 10
32.294483
 20
87.510010
 11
63.294514
 21
87.510010
  0
LINE
  8
0
 10
32.294483
 20
104.510010
 11
32.294483
 21
79.510010
  0
LINE
  8
0
 10
63.294514
 20
104.510010
 11
63.294514
 21
74.510010
  0
LINE
  8
0
 10
47.794483
 20
109.828674
 11
47.794483
 21
25.828674
  0
LINE
  8
0
 10
58.594501
 20
74.510010
 11
58.594501
 21
40.510010
  0
LINE
  8
0
 10
41.794483
 20
79.510010
 11
41.794483
 21
40.510010
  0
LINE
  8
0
 10
41.794434
 20
40.509933
 11
42.794430
 21
39.509933
  0
LINE
  8
0
 10
58.594505
 20
40.510017
 11
57.594482
 21
39.509991
  0
LINE
  8
0
 10
57.594501
 20
74.510010
 11
63.294514
 21
74.510010
  0
LINE
  8
0
 10
42.794483
 20
39.510010
 11
42.794483
 21
79.510010
  0
LINE
  8
0
 10
57.594501
 20
39.510010
 11
57.594501
 21
79.510010
  0
LINE
  8
0
 10
41.794483
 20
40.509979
 11
58.594501
 21
40.509979
  0
LINE
  8
0
 10
32.294483
 20
97.510010
 11
63.294514
 21
97.510010
  0
LINE
  8
0
 10
33.294514
 20
96.510010
 11
33.294514
 21
79.510010
  0
LINE
  8
0
 10
62.294483
 20
96.510010
 11
62.294483
 21
79.510010
  0
LINE
  8
0
 10
33.294456
 20
96.509972
 11
32.294456
 21
97.509979
  0
LINE
  8
0
 10
62.294506
 20
96.509972
 11
63.294529
 21
97.509995
  0
LINE
  8
0
 10
35.708721
 20
96.510010
 11
35.294518
 21
97.510010
  0
LINE
  8
0
 10
59.880264
 20
96.510040
 11
60.294483
 21
97.510048
  0
LINE
  8
0
 10
35.294483
 20
97.510010
 11
35.294483
 21
104.510010
  0
LINE
  8
0
 10
60.294483
 20
97.510010
 11
60.294483
 21
104.510010
  0
LINE
  8
0
 10
37.794483
 20
32.010010
 11
57.794483
 21
32.010010
  0
LINE
  8
0
 10
32.294483
 20
37.510010
 11
63.294514
 21
37.510010
  0
LINE
  8
0
 10
32.294483
 20
39.510010
 11
32.294483
 21
37.510010
  0
LINE
  8
0
 10
63.294514
 20
44.510010
 11
63.294514
 21
37.510010
  0
LINE
  8
0
 10
32.294483
 20
59.510010
 11
63.294514
 21
59.510010
  0
LINE
  8
0
 10
58.794483
 20
44.510010
 11
63.294514
 21
44.510010
  0
LINE
  8
0
 10
58.794483
 20
44.510010
 11
58.794483
 21
39.510010
  0
LINE
  8
0
 10
32.294434
 20
37.509949
 11
37.794426
 21
32.009953
  0
LINE
  8
0
 10
63.294495
 20
37.510040
 11
57.794525
 21
32.010071
  0
LINE
  8
0
 10
42.294483
 20
39.510010
 11
42.294483
 21
32.010010
  0
LINE
  8
0
 10
57.794483
 20
32.010010
 11
57.794483
 21
39.510010
  0
LINE
  8
0
 10
42.794483
 20
30.910004
 11
42.794483
 21
32.010010
  0
LINE
  8
0
 10
42.794518
 20
30.910053
 11
43.487339
 21
30.510052
  0
LINE
  8
0
 10
43.487293
 20
30.509979
 11
52.101643
 21
30.509979
  0
LINE
  8
0
 10
42.794483
 20
30.910004
 11
52.794483
 21
30.910004
  0
LINE
  8
0
 10
52.794498
 20
30.910051
 11
52.101688
 21
30.510057
  0
LINE
  8
0
 10
52.794483
 20
30.910004
 11
52.794483
 21
32.010010
  0
ENDSEC
  0
EOF
