  0
SECTION
  2
HEADER
  0
ENDSEC
  0
SECTION
  2
TABLES
  0
TABLE
  2
LTYPE
 70
     4
  0
LTYPE
  2
CONTINUOUS
 70
    64
  3
Solid line
 72
    65
 73
     0
 40
0.000000
  0
LTYPE
  2
DASHED
 70
    64
  3
__ __ __ __ __ __ __ __ __ __ __ __ __ __ __
 72
    65
 73
     2
 40
3.500000
 49
2.000000
 49
-1.500000
  0
LTYPE
  2
CENTER
 70
    64
  3
____ _ ____ _ ____ _ ____ _ ____ _ ____ _ ____
 72
    65
 73
     4
 40
17.500000
 49
13.000000
 49
-1.500000
 49
1.500000
 49
-1.500000
  0
LTYPE
  2
PHANTOM
 70
    64
  3
_____ _ _ _____ _ _ _____ _ _ _____ _ _ ____  
 72
    65
 73
     6
 40
15.500000
 49
8.000000
 49
-1.500000
 49
1.500000
 49
-1.500000
 49
1.500000
 49
-1.500000
  0
LTYPE
  2
DASHED1
 70
    64
  3
__ __ __ __ __ __ __ __ __ __ __ __ __ __ __
 72
    65
 73
     2
 40
1.500000
 49
1.000000
 49
-0.500000
  0
LTYPE
  2
DASHED2
 70
    64
  3
__ __ __ __ __ __ __ __ __ __ __ __ __ __ __
 72
    65
 73
     2
 40
3.500000
 49
2.500000
 49
-1.000000
  0
LTYPE
  2
DASHED3
 70
    64
  3
__ __ __ __ __ __ __ __ __ __ __ __ __ __ __
 72
    65
 73
     2
 40
6.000000
 49
4.000000
 49
-2.000000
  0
LTYPE
  2
DASHED4
 70
    64
  3
__ __ __ __ __ __ __ __ __ __ __ __ __ __ __
 72
    65
 73
     2
 40
12.000000
 49
10.000000
 49
-2.000000
  0
LTYPE
  2
DASHED5
 70
    64
  3
__ __ __ __ __ __ __ __ __ __ __ __ __ __ __
 72
    65
 73
     2
 40
17.000000
 49
15.000000
 49
-2.000000
  0
LTYPE
  2
DASHED6
 70
    64
  3
__ __ __ __ __ __ __ __ __ __ __ __ __ __ __
 72
    65
 73
     2
 40
29.000000
 49
27.000000
 49
-2.000000
  0
LTYPE
  2
PHANTOM1
 70
    64
  3
_____ _ _ _____ _ _ _____ _ _ _____ _ _ ____  
 72
    65
 73
     6
 40
31.000000
 49
25.000000
 49
-1.500000
 49
1.000000
 49
-1.000000
 49
1.000000
 49
-1.500000
  0
LTYPE
  2
PHANTOM2
 70
    64
  3
_____ _ _ _____ _ _ _____ _ _ _____ _ _ ____  
 72
    65
 73
     6
 40
36.000000
 49
27.000000
 49
-1.500000
 49
2.500000
 49
-1.000000
 49
2.500000
 49
-1.500000
  0
LTYPE
  2
PHANTOM3
 70
    64
  3
_____ _ _ _____ _ _ _____ _ _ _____ _ _ ____  
 72
    65
 73
     6
 40
78.000000
 49
64.000000
 49
-2.000000
 49
4.000000
 49
-2.000000
 49
4.000000
 49
-2.000000
  0
LTYPE
  2
CENTER1
 70
    64
  3
____ _ ____ _ ____ _ ____ _ ____ _ ____ _ ____
 72
    65
 73
     4
 40
19.000000
 49
14.000000
 49
-1.000000
 49
3.000000
 49
-1.000000
  0
LTYPE
  2
CENTER2
 70
    64
  3
____ _ ____ _ ____ _ ____ _ ____ _ ____ _ ____
 72
    65
 73
     4
 40
28.500000
 49
25.000000
 49
-1.000000
 49
1.500000
 49
-1.000000
  0
LTYPE
  2
CENTER3
 70
    64
  3
____ _ ____ _ ____ _ ____ _ ____ _ ____ _ ____
 72
    65
 73
     4
 40
31.500000
 49
27.000000
 49
-1.000000
 49
2.500000
 49
-1.000000
  0
LTYPE
  2
CENTER4
 70
    64
  3
____ _ ____ _ ____ _ ____ _ ____ _ ____ _ ____
 72
    65
 73
     4
 40
50.000000
 49
45.000000
 49
-1.000000
 49
3.000000
 49
-1.000000
  0
LTYPE
  2
CENTER5
 70
    64
  3
____ _ ____ _ ____ _ ____ _ ____ _ ____ _ ____
 72
    65
 73
     4
 40
100.000000
 49
92.000000
 49
-2.000000
 49
4.000000
 49
-2.000000
  0
LTYPE
  2
SBK1
 70
    64
  3
______ _ _ _ ______ _ _ _ ______ _ _ _ _____  
 72
    65
 73
     8
 40
60.500000
 49
45.000000
 49
-2.000000
 49
2.500000
 49
-2.000000
 49
2.500000
 49
-2.000000
 49
2.500000
 49
-2.000000
  0
LTYPE
  2
SBK2
 70
    64
  3
______ _ _ _ ______ _ _ _ ______ _ _ _ _____  
 72
    65
 73
     8
 40
84.000000
 49
64.000000
 49
-2.000000
 49
4.000000
 49
-2.000000
 49
4.000000
 49
-2.000000
 49
4.000000
 49
-2.000000
  0
LTYPE
  2
STCH
 70
    64
  3
__ __ __ __ __ __ __ __ __ __ __ __ __ __ __
 72
    65
 73
     2
 40
3.000000
 49
1.000000
 49
-2.000000
  0
LTYPE
  2
MTCH
 70
    64
  3
_____ _ _ _____ _ _ _____ _ _ _____ _ _ ____  
 72
    65
 73
     6
 40
80.000000
 49
66.000000
 49
-2.000000
 49
4.000000
 49
-2.000000
 49
4.000000
 49
-2.000000
  0
ENDTAB
  0
TABLE
  2
LAYER
 70
     1
  0
LAYER
  2
0
 70
     0
 62
     7
  6
CONTINUOUS
  0
ENDTAB
  0
TABLE
  2
STYLE
 70
     1
  0
STYLE
  2
STANDARD
 70
     0
 40
0.000000
 41
1.000000
 50
0.000000
 71
     0
 42
0.200000
  3
txt
  4
BIGFONT
  0
ENDTAB
  0
TABLE
  2
VIEW
 70
     0
  0
ENDTAB
  0
ENDSEC
  0
SECTION
  2
BLOCKS
  0
ENDSEC
  0
SECTION
  2
ENTITIES
  0
LINE
  8
0
 10
-420.500000
 20
297.000000
 11
420.500000
 21
297.000000
  0
LINE
  8
0
 10
-420.500000
 20
-297.000000
 11
420.500000
 21
-297.000000
  0
LINE
  8
0
 10
420.500000
 20
297.000000
 11
420.500000
 21
-297.000000
  0
LINE
  8
0
 10
-420.500000
 20
297.000000
 11
-420.500000
 21
-297.000000
  0
LINE
  8
0
 10
399.799988
 20
276.250000
 11
399.799988
 21
-276.750000
  0
LINE
  8
0
 10
-399.250000
 20
276.250000
 11
-399.250000
 21
-276.750000
  0
LINE
  8
0
 10
-399.250000
 20
276.250000
 11
399.799988
 21
276.250000
  0
LINE
  8
0
 10
-399.250000
 20
-276.750000
 11
399.799988
 21
-276.750000
  0
LINE
  8
0
 10
239.799988
 20
-251.750000
 11
399.799988
 21
-251.750000
  0
LINE
  8
0
 10
239.799988
 20
251.250000
 11
399.799988
 21
251.250000
  0
LINE
  8
0
 10
-399.250000
 20
251.250000
 11
-239.250000
 21
251.250000
  0
LINE
  8
0
 10
239.799988
 20
-251.750000
 11
239.799988
 21
-276.750000
  0
LINE
  8
0
 10
239.799988
 20
251.250000
 11
239.799988
 21
276.250000
  0
LINE
  8
0
 10
-239.250000
 20
276.250000
 11
-239.250000
 21
251.250000
  0
LINE
  8
0
 10
-132.899994
 20
-276.750000
 11
-132.899994
 21
276.250000
  0
LINE
  8
0
 10
133.450012
 20
-261.750000
 11
133.450012
 21
-12.750000
  0
LINE
  8
0
 10
-399.250000
 20
-12.750000
 11
399.799988
 21
-12.750000
  0
LINE
  8
0
 10
-399.250000
 20
2.250000
 11
399.799988
 21
2.250000
  0
LINE
  8
0
 10
-399.250000
 20
17.250000
 11
399.799988
 21
17.250000
  0
LINE
  8
0
 10
-399.250000
 20
-246.750000
 11
399.799988
 21
-246.750000
  0
LINE
  8
0
 10
133.450012
 20
2.250000
 11
133.450012
 21
276.250000
  0
LINE
  8
0
 10
-399.250000
 20
-261.750000
 11
239.799988
 21
-261.750000
  0
TEXT
  8
0
 10
-383.285309
 20
256.649994
 40
9.000000
  1
MODULE,ADAPTER
 50
0.000000
 41
1.052632
 51
0.000000
  7
STANDARD
  0
TEXT
  8
0
 10
242.014816
 20
-274.500000
 40
12.500000
  1
KOGANEI CORP.
 50
0.000000
 41
1.052632
 51
0.000000
  7
STANDARD
  0
TEXT
  8
0
 10
251.264664
 20
256.649994
 40
9.000000
  1
DATE: SEP ,1992
 50
0.000000
 41
1.052632
 51
0.000000
  7
STANDARD
  0
TEXT
  8
0
 10
-303.110321
 20
-12.350000
 40
9.000000
  1
F MODULE
 50
0.000000
 41
1.052632
 51
0.000000
  7
STANDARD
  0
TEXT
  8
0
 10
96.414703
 20
-12.350000
 40
9.000000
  1
T MODULE
 50
0.000000
 41
1.052632
 51
0.000000
  7
STANDARD
  0
TEXT
  8
0
 10
-289.610321
 20
2.650000
 40
9.000000
  1
8-60F
 50
0.000000
 41
1.052632
 51
0.000000
  7
STANDARD
  0
TEXT
  8
0
 10
-27.760319
 20
2.650000
 40
9.000000
  1
8-60T3
 50
0.000000
 41
1.052632
 51
0.000000
  7
STANDARD
  0
TEXT
  8
0
 10
234.089691
 20
2.650000
 40
9.000000
  1
8-60DT3
 50
0.000000
 41
1.052632
 51
0.000000
  7
STANDARD
  0
TEXT
  8
0
 10
-289.610321
 20
-261.350006
 40
9.000000
  1
8-60D
 50
0.000000
 41
1.052632
 51
0.000000
  7
STANDARD
  0
TEXT
  8
0
 10
-27.760319
 20
-261.350006
 40
9.000000
  1
8-60S3
 50
0.000000
 41
1.052632
 51
0.000000
  7
STANDARD
  0
TEXT
  8
0
 10
154.089691
 20
-261.350006
 40
9.000000
  1
8-60DS3
 50
0.000000
 41
1.052632
 51
0.000000
  7
STANDARD
  0
TEXT
  8
0
 10
91.914703
 20
-276.350006
 40
9.000000
  1
S ADAPTER
 50
0.000000
 41
1.052632
 51
0.000000
  7
STANDARD
  0
TEXT
  8
0
 10
-303.110321
 20
-276.350006
 40
9.000000
  1
D MODULE
 50
0.000000
 41
1.052632
 51
0.000000
  7
STANDARD
  0
POINT
  8
0
 10
-331.919922
 20
84.910988
  0
POINT
  8
0
 10
-310.419891
 20
84.910988
  0
LINE
  8
0
 10
-345.628143
 20
84.910988
 11
-303.628113
 21
84.910988
  0
LINE
  8
0
 10
-341.419922
 20
69.910988
 11
-310.419922
 21
69.910988
  0
LINE
  8
0
 10
-341.419922
 20
99.910988
 11
-310.419922
 21
99.910988
  0
LINE
  8
0
 10
-341.419922
 20
99.910988
 11
-341.419922
 21
69.910988
  0
LINE
  8
0
 10
-310.419891
 20
99.910988
 11
-310.419891
 21
69.910988
  0
LINE
  8
0
 10
-334.865265
 20
94.410980
 11
-334.865265
 21
75.410988
  0
LINE
  8
0
 10
-316.974579
 20
94.410980
 11
-316.974579
 21
75.410988
  0
LINE
  8
0
 10
-334.865265
 20
94.410980
 11
-316.974579
 21
94.410980
  0
LINE
  8
0
 10
-334.865265
 20
75.410988
 11
-316.974579
 21
75.410988
  0
LINE
  8
0
 10
-341.419922
 20
99.910973
 11
-334.865265
 21
94.410965
  0
LINE
  8
0
 10
-341.419922
 20
69.910988
 11
-334.865265
 21
75.410988
  0
LINE
  8
0
 10
-316.974548
 20
75.410988
 11
-310.419891
 21
69.910988
  0
LINE
  8
0
 10
-316.974579
 20
94.411003
 11
-310.419922
 21
99.910995
  0
LINE
  8
0
 10
-325.919922
 20
103.135178
 11
-325.919922
 21
65.957199
  0
LINE
  8
0
 10
-328.419922
 20
86.354362
 11
-328.419922
 21
83.467613
  0
LINE
  8
0
 10
-323.419922
 20
86.354362
 11
-323.419922
 21
83.467613
  0
LINE
  8
0
 10
-328.419922
 20
86.354355
 11
-325.919922
 21
87.797729
  0
LINE
  8
0
 10
-325.919922
 20
82.024231
 11
-323.419922
 21
83.467606
  0
LINE
  8
0
 10
-328.419922
 20
83.467598
 11
-325.919891
 21
82.024208
  0
LINE
  8
0
 10
-325.919922
 20
87.797737
 11
-323.419922
 21
86.354362
  0
CIRCLE
  8
0
 10
-325.919922
 20
84.910988
 40
5.500000
  0
CIRCLE
  8
0
 10
-325.919922
 20
84.910988
 40
5.000000
  0
CIRCLE
  8
0
 10
-325.919922
 20
84.910988
 40
2.886752
  0
POINT
  8
0
 10
-193.652252
 20
84.910988
  0
POINT
  8
0
 10
-166.152252
 20
84.910988
  0
LINE
  8
0
 10
-213.652252
 20
99.910988
 11
-213.652252
 21
69.910988
  0
LINE
  8
0
 10
-215.652252
 20
99.910988
 11
-171.652252
 21
99.910988
  0
LINE
  8
0
 10
-215.652252
 20
69.910988
 11
-171.652252
 21
69.910988
  0
LINE
  8
0
 10
-215.652267
 20
99.910988
 11
-215.652267
 21
69.910988
  0
LINE
  8
0
 10
-221.152252
 20
94.410980
 11
-221.152252
 21
75.410988
  0
LINE
  8
0
 10
-221.152252
 20
94.410995
 11
-215.652252
 21
99.910995
  0
LINE
  8
0
 10
-221.152283
 20
75.410980
 11
-215.652267
 21
69.910973
  0
LINE
  8
0
 10
-226.693787
 20
84.910988
 11
-163.166260
 21
84.910988
  0
LINE
  8
0
 10
-173.652252
 20
99.910988
 11
-173.652252
 21
69.910988
  0
LINE
  8
0
 10
-193.652252
 20
103.456902
 11
-193.652252
 21
66.456902
  0
LINE
  8
0
 10
-222.652252
 20
89.310989
 11
-222.652252
 21
80.510986
  0
LINE
  8
0
 10
-222.052261
 20
79.910988
 11
-221.152252
 21
79.910988
  0
LINE
  8
0
 10
-222.052246
 20
89.910988
 11
-221.152252
 21
89.910988
  0
LINE
  8
0
 10
-222.652252
 20
80.511002
 11
-222.052246
 21
79.911011
  0
LINE
  8
0
 10
-222.652252
 20
89.310989
 11
-222.052231
 21
89.910995
  0
LINE
  8
0
 10
-222.052261
 20
89.910988
 11
-222.052261
 21
79.910988
  0
LINE
  8
0
 10
-171.652252
 20
99.910988
 11
-171.652252
 21
69.910988
  0
LINE
  8
0
 10
-171.652252
 20
69.910973
 11
-166.152252
 21
75.410973
  0
LINE
  8
0
 10
-171.652252
 20
99.910995
 11
-166.152252
 21
94.410995
  0
LINE
  8
0
 10
-166.152252
 20
94.410988
 11
-166.152252
 21
75.410980
  0
POINT
  8
0
 10
-331.919922
 20
183.126877
  0
POINT
  8
0
 10
-319.919922
 20
183.126877
  0
LINE
  8
0
 10
-325.919952
 20
214.827484
 11
-325.919952
 21
150.154907
  0
LINE
  8
0
 10
-341.419952
 20
205.126877
 11
-341.419952
 21
203.126892
  0
LINE
  8
0
 10
-310.419922
 20
205.126877
 11
-310.419922
 21
203.126892
  0
LINE
  8
0
 10
-341.419952
 20
163.126877
 11
-310.419952
 21
163.126877
  0
LINE
  8
0
 10
-341.419952
 20
161.126892
 11
-310.419952
 21
161.126892
  0
LINE
  8
0
 10
-341.419952
 20
161.126892
 11
-334.865326
 21
155.626892
  0
LINE
  8
0
 10
-316.974579
 20
155.626877
 11
-310.419922
 21
161.126877
  0
LINE
  8
0
 10
-334.865295
 20
155.626892
 11
-316.974609
 21
155.626892
  0
LINE
  8
0
 10
-341.419952
 20
203.126892
 11
-331.919922
 21
203.126892
  0
LINE
  8
0
 10
-319.919922
 20
203.126892
 11
-319.919922
 21
163.126877
  0
LINE
  8
0
 10
-331.919922
 20
203.126892
 11
-331.919922
 21
163.126877
  0
LINE
  8
0
 10
-319.919922
 20
203.126892
 11
-310.419952
 21
203.126892
  0
LINE
  8
0
 10
-341.419952
 20
163.126877
 11
-341.419952
 21
161.126877
  0
LINE
  8
0
 10
-310.419922
 20
163.126877
 11
-310.419922
 21
161.126877
  0
LINE
  8
0
 10
-336.979828
 20
183.126877
 11
-314.979828
 21
183.126877
  0
LINE
  8
0
 10
-330.319946
 20
154.126877
 11
-321.519928
 21
154.126877
  0
LINE
  8
0
 10
-320.919952
 20
155.626877
 11
-320.919952
 21
154.726868
  0
LINE
  8
0
 10
-330.919952
 20
155.626877
 11
-330.919952
 21
154.726868
  0
LINE
  8
0
 10
-330.919922
 20
154.726883
 11
-330.319946
 21
154.126923
  0
LINE
  8
0
 10
-321.519958
 20
154.126907
 11
-320.919952
 21
154.726913
  0
LINE
  8
0
 10
-330.919952
 20
154.726883
 11
-320.919952
 21
154.726883
  0
LINE
  8
0
 10
-341.419952
 20
205.126877
 11
-310.419952
 21
205.126877
  0
LINE
  8
0
 10
-341.419922
 20
205.126862
 11
-334.865265
 21
210.626862
  0
LINE
  8
0
 10
-316.974548
 20
210.626877
 11
-310.419922
 21
205.126862
  0
LINE
  8
0
 10
-334.865295
 20
210.626892
 11
-316.974609
 21
210.626892
  0
POINT
  8
0
 10
-67.020752
 20
84.910980
  0
POINT
  8
0
 10
-10.020752
 20
84.910980
  0
LINE
  8
0
 10
-80.729004
 20
84.910980
 11
-7.637085
 21
84.910980
  0
LINE
  8
0
 10
-76.520752
 20
69.910980
 11
-11.020752
 21
69.910980
  0
LINE
  8
0
 10
-76.520752
 20
99.910980
 11
-11.020752
 21
99.910980
  0
LINE
  8
0
 10
-76.520752
 20
99.910980
 11
-76.520752
 21
69.910980
  0
LINE
  8
0
 10
-45.520813
 20
99.910980
 11
-45.520813
 21
69.910980
  0
LINE
  8
0
 10
-69.966125
 20
94.410965
 11
-69.966125
 21
75.410980
  0
LINE
  8
0
 10
-52.075439
 20
94.410965
 11
-52.075439
 21
75.410980
  0
LINE
  8
0
 10
-69.966125
 20
94.410980
 11
-52.075439
 21
94.410980
  0
LINE
  8
0
 10
-69.966125
 20
75.410980
 11
-52.075439
 21
75.410980
  0
LINE
  8
0
 10
-76.520729
 20
99.910934
 11
-69.966156
 21
94.410980
  0
LINE
  8
0
 10
-76.520844
 20
69.910912
 11
-69.966171
 21
75.410934
  0
LINE
  8
0
 10
-52.075481
 20
75.410995
 11
-45.520802
 21
69.910980
  0
LINE
  8
0
 10
-52.075420
 20
94.410896
 11
-45.520744
 21
99.910919
  0
LINE
  8
0
 10
-61.020752
 20
103.135162
 11
-61.020752
 21
65.957184
  0
LINE
  8
0
 10
-63.520752
 20
86.354340
 11
-63.520752
 21
83.467621
  0
LINE
  8
0
 10
-58.520752
 20
86.354355
 11
-58.520752
 21
83.467621
  0
LINE
  8
0
 10
-63.520782
 20
86.354355
 11
-61.020813
 21
87.797714
  0
LINE
  8
0
 10
-61.020737
 20
82.024147
 11
-58.520767
 21
83.467506
  0
LINE
  8
0
 10
-63.520729
 20
83.467644
 11
-61.020706
 21
82.024254
  0
LINE
  8
0
 10
-61.020741
 20
87.797752
 11
-58.520714
 21
86.354362
  0
LINE
  8
0
 10
-11.020821
 20
69.911064
 11
-10.020844
 21
70.911049
  0
LINE
  8
0
 10
-10.020752
 20
98.910965
 11
-10.020752
 21
70.910980
  0
LINE
  8
0
 10
-11.020840
 20
99.910942
 11
-10.020817
 21
98.910919
  0
LINE
  8
0
 10
-11.020752
 20
99.910980
 11
-11.020752
 21
69.910980
  0
LINE
  8
0
 10
-10.020752
 20
70.910980
 11
-45.520752
 21
70.910980
  0
LINE
  8
0
 10
-10.020752
 20
98.910965
 11
-45.520752
 21
98.910965
  0
LINE
  8
0
 10
-36.020752
 20
111.894745
 11
-36.020752
 21
96.673523
  0
LINE
  8
0
 10
-51.020752
 20
107.910965
 11
-21.020752
 21
107.910965
  0
LINE
  8
0
 10
-20.020752
 20
106.910980
 11
-20.020752
 21
99.910980
  0
LINE
  8
0
 10
-52.020813
 20
106.910980
 11
-52.020813
 21
99.910980
  0
LINE
  8
0
 10
-52.020752
 20
106.910995
 11
-51.020775
 21
107.910973
  0
LINE
  8
0
 10
-21.020794
 20
107.910927
 11
-20.020813
 21
106.910950
  0
LINE
  8
0
 10
-52.020752
 20
106.910980
 11
-20.020752
 21
106.910980
  0
LINE
  8
0
 10
-15.020752
 20
94.910980
 11
-15.020752
 21
74.910980
  0
LINE
  8
0
 10
-45.520752
 20
74.910980
 11
-15.020752
 21
74.910980
  0
LINE
  8
0
 10
-45.520752
 20
94.910980
 11
-15.020752
 21
94.910980
  0
LINE
  8
0
 10
-15.726074
 20
94.419830
 11
-15.726074
 21
75.402130
  0
LINE
  8
0
 10
-45.520752
 20
94.419830
 11
-15.726074
 21
94.419830
  0
LINE
  8
0
 10
-45.520752
 20
75.402130
 11
-15.726074
 21
75.402130
  0
LINE
  8
0
 10
-15.726185
 20
75.402069
 11
-15.020851
 21
74.910912
  0
LINE
  8
0
 10
-15.726173
 20
94.419899
 11
-15.020885
 21
94.911018
  0
CIRCLE
  8
0
 10
-61.020752
 20
84.910980
 40
5.500000
  0
CIRCLE
  8
0
 10
-61.020752
 20
84.910980
 40
5.000000
  0
CIRCLE
  8
0
 10
-61.020752
 20
84.910980
 40
2.886752
  0
POINT
  8
0
 10
77.979248
 20
84.910980
  0
POINT
  8
0
 10
105.479248
 20
84.910980
  0
LINE
  8
0
 10
57.979248
 20
99.910980
 11
57.979248
 21
69.910980
  0
LINE
  8
0
 10
55.979248
 20
99.910980
 11
99.979248
 21
99.910980
  0
LINE
  8
0
 10
55.979248
 20
69.910980
 11
99.979248
 21
69.910980
  0
LINE
  8
0
 10
55.979248
 20
99.910980
 11
55.979248
 21
69.910980
  0
LINE
  8
0
 10
50.479248
 20
94.410965
 11
50.479248
 21
75.410980
  0
LINE
  8
0
 10
50.479225
 20
94.410912
 11
55.979240
 21
99.910927
  0
LINE
  8
0
 10
50.479248
 20
75.411011
 11
55.979263
 21
69.910995
  0
LINE
  8
0
 10
44.937744
 20
84.910980
 11
108.465210
 21
84.910980
  0
LINE
  8
0
 10
97.979248
 20
99.910980
 11
97.979248
 21
69.910980
  0
LINE
  8
0
 10
77.979248
 20
111.441711
 11
77.979248
 21
66.456909
  0
LINE
  8
0
 10
48.979248
 20
89.310974
 11
48.979248
 21
80.510956
  0
LINE
  8
0
 10
49.579224
 20
79.910980
 11
50.479248
 21
79.910980
  0
LINE
  8
0
 10
49.579224
 20
89.910980
 11
50.479248
 21
89.910980
  0
LINE
  8
0
 10
48.979218
 20
80.511009
 11
49.579247
 21
79.910980
  0
LINE
  8
0
 10
48.979172
 20
89.310989
 11
49.579163
 21
89.910973
  0
LINE
  8
0
 10
49.579224
 20
89.910980
 11
49.579224
 21
79.910980
  0
LINE
  8
0
 10
99.979248
 20
99.910980
 11
99.979248
 21
69.910980
  0
LINE
  8
0
 10
99.979332
 20
69.910889
 11
105.479355
 21
75.410904
  0
LINE
  8
0
 10
99.979256
 20
99.911011
 11
105.479225
 21
94.411041
  0
LINE
  8
0
 10
105.479248
 20
94.410980
 11
105.479248
 21
75.410980
  0
LINE
  8
0
 10
57.979179
 20
98.910965
 11
58.979202
 21
99.910995
  0
LINE
  8
0
 10
57.979195
 20
70.910934
 11
58.979218
 21
69.910919
  0
LINE
  8
0
 10
96.979332
 20
69.910835
 11
97.979317
 21
70.910812
  0
LINE
  8
0
 10
96.979248
 20
99.910950
 11
97.979225
 21
98.910973
  0
LINE
  8
0
 10
58.979248
 20
99.910980
 11
58.979248
 21
69.910980
  0
LINE
  8
0
 10
96.979248
 20
69.910980
 11
96.979248
 21
99.910980
  0
LINE
  8
0
 10
57.979248
 20
98.910965
 11
97.979248
 21
98.910965
  0
LINE
  8
0
 10
57.979248
 20
70.910980
 11
97.979248
 21
70.910980
  0
LINE
  8
0
 10
62.979248
 20
107.910965
 11
92.979248
 21
107.910965
  0
LINE
  8
0
 10
93.979248
 20
106.910980
 11
93.979248
 21
99.910980
  0
LINE
  8
0
 10
61.979248
 20
106.910980
 11
61.979248
 21
99.910980
  0
LINE
  8
0
 10
61.979156
 20
106.911011
 11
62.979137
 21
107.910995
  0
LINE
  8
0
 10
93.979195
 20
106.910942
 11
92.979172
 21
107.910965
  0
LINE
  8
0
 10
61.979248
 20
106.910980
 11
93.979248
 21
106.910980
  0
CIRCLE
  8
0
 10
77.979248
 20
84.910980
 40
13.500000
  0
CIRCLE
  8
0
 10
77.979248
 20
84.910980
 40
7.475000
  0
CIRCLE
  8
0
 10
77.979248
 20
84.910980
 40
8.331000
  0
POINT
  8
0
 10
-67.020752
 20
184.910980
  0
POINT
  8
0
 10
-10.020752
 20
184.910980
  0
LINE
  8
0
 10
-61.020752
 20
216.611572
 11
-61.020752
 21
151.938995
  0
LINE
  8
0
 10
-76.520752
 20
206.910980
 11
-76.520752
 21
204.910980
  0
LINE
  8
0
 10
-45.520752
 20
206.910980
 11
-45.520752
 21
204.910980
  0
LINE
  8
0
 10
-76.520752
 20
164.910980
 11
-11.020752
 21
164.910980
  0
LINE
  8
0
 10
-76.520752
 20
162.910980
 11
-45.520752
 21
162.910980
  0
LINE
  8
0
 10
-76.520782
 20
162.910965
 11
-69.966110
 21
157.410950
  0
LINE
  8
0
 10
-52.075432
 20
157.410965
 11
-45.520805
 21
162.910950
  0
LINE
  8
0
 10
-69.966064
 20
157.410980
 11
-52.075378
 21
157.410980
  0
LINE
  8
0
 10
-76.520752
 20
204.910980
 11
-67.020752
 21
204.910980
  0
LINE
  8
0
 10
-55.020752
 20
204.910980
 11
-55.020752
 21
164.910980
  0
LINE
  8
0
 10
-67.020752
 20
204.910980
 11
-67.020752
 21
164.910980
  0
LINE
  8
0
 10
-55.020752
 20
204.910980
 11
-11.020752
 21
204.910980
  0
LINE
  8
0
 10
-76.520752
 20
164.910980
 11
-76.520752
 21
162.910980
  0
LINE
  8
0
 10
-45.520752
 20
164.910980
 11
-45.520752
 21
162.910980
  0
LINE
  8
0
 10
-72.080627
 20
184.910980
 11
-4.994446
 21
184.910980
  0
LINE
  8
0
 10
-65.420776
 20
155.910980
 11
-56.620728
 21
155.910980
  0
LINE
  8
0
 10
-56.020752
 20
157.410980
 11
-56.020752
 21
156.510986
  0
LINE
  8
0
 10
-66.020752
 20
157.410980
 11
-66.020752
 21
156.510986
  0
LINE
  8
0
 10
-66.020767
 20
156.511002
 11
-65.420738
 21
155.910980
  0
LINE
  8
0
 10
-56.620792
 20
155.910980
 11
-56.020760
 21
156.511002
  0
LINE
  8
0
 10
-66.020752
 20
156.510986
 11
-56.020752
 21
156.510986
  0
LINE
  8
0
 10
-76.520752
 20
206.910980
 11
-45.520752
 21
206.910980
  0
LINE
  8
0
 10
-76.520744
 20
206.910980
 11
-69.966118
 21
212.410965
  0
LINE
  8
0
 10
-52.075455
 20
212.410995
 11
-45.520828
 21
206.911011
  0
LINE
  8
0
 10
-69.966064
 20
212.410980
 11
-52.075378
 21
212.410980
  0
LINE
  8
0
 10
-10.020752
 20
203.910980
 11
-10.020752
 21
165.910980
  0
LINE
  8
0
 10
-11.020828
 20
164.911026
 11
-10.020847
 21
165.911011
  0
LINE
  8
0
 10
-11.020775
 20
204.910873
 11
-10.020794
 21
203.910904
  0
LINE
  8
0
 10
-55.020790
 20
165.910934
 11
-54.020813
 21
164.910950
  0
LINE
  8
0
 10
-55.020824
 20
203.911011
 11
-54.020844
 21
204.910980
  0
LINE
  8
0
 10
-55.020752
 20
203.910965
 11
-10.020752
 21
203.910965
  0
LINE
  8
0
 10
-10.020752
 20
165.910980
 11
-55.020752
 21
165.910980
  0
LINE
  8
0
 10
-54.020752
 20
204.910980
 11
-54.020752
 21
164.910980
  0
LINE
  8
0
 10
-11.020752
 20
164.910980
 11
-11.020752
 21
204.910980
  0
LINE
  8
0
 10
-36.020752
 20
208.788544
 11
-36.020752
 21
161.222183
  0
CIRCLE
  8
0
 10
-36.020752
 20
184.910980
 40
5.722500
  0
CIRCLE
  8
0
 10
-36.020752
 20
184.910980
 40
6.578500
  0
CIRCLE
  8
0
 10
-36.020752
 20
184.910980
 40
16.000000
  0
CIRCLE
  8
0
 10
-36.020752
 20
184.910980
 40
15.000000
  0
POINT
  8
0
 10
184.329224
 20
84.910980
  0
POINT
  8
0
 10
241.329224
 20
84.910980
  0
LINE
  8
0
 10
170.621094
 20
84.910980
 11
245.903564
 21
84.910980
  0
LINE
  8
0
 10
174.829224
 20
69.910980
 11
240.329224
 21
69.910980
  0
LINE
  8
0
 10
174.829224
 20
99.910980
 11
240.329224
 21
99.910980
  0
LINE
  8
0
 10
174.829224
 20
126.910950
 11
174.829224
 21
42.910980
  0
LINE
  8
0
 10
205.829224
 20
126.910950
 11
205.829224
 21
107.910980
  0
LINE
  8
0
 10
181.383911
 20
94.410950
 11
181.383911
 21
75.410980
  0
LINE
  8
0
 10
199.274536
 20
94.410950
 11
199.274536
 21
75.410980
  0
LINE
  8
0
 10
181.383911
 20
94.410950
 11
199.274658
 21
94.410950
  0
LINE
  8
0
 10
181.383911
 20
75.410980
 11
199.274658
 21
75.410980
  0
LINE
  8
0
 10
174.829117
 20
99.911095
 11
181.383743
 21
94.411102
  0
LINE
  8
0
 10
174.829239
 20
69.910858
 11
181.383881
 21
75.410843
  0
LINE
  8
0
 10
199.274475
 20
75.410973
 11
205.829117
 21
69.910995
  0
LINE
  8
0
 10
199.274750
 20
94.410851
 11
205.829391
 21
99.910835
  0
LINE
  8
0
 10
177.829224
 20
39.910980
 11
202.829224
 21
39.910980
  0
LINE
  8
0
 10
177.829224
 20
129.910980
 11
202.829224
 21
129.910980
  0
LINE
  8
0
 10
174.829285
 20
126.910896
 11
177.829300
 21
129.910919
  0
LINE
  8
0
 10
202.829147
 20
129.910873
 11
205.829163
 21
126.910843
  0
LINE
  8
0
 10
174.829346
 20
42.911045
 11
177.829330
 21
39.911064
  0
LINE
  8
0
 10
202.829468
 20
39.910709
 11
205.829453
 21
42.910690
  0
LINE
  8
0
 10
175.829224
 20
126.496765
 11
175.829224
 21
99.910980
  0
LINE
  8
0
 10
204.829224
 20
126.496765
 11
204.829224
 21
107.910980
  0
LINE
  8
0
 10
202.415298
 20
40.910721
 11
204.829498
 21
43.324913
  0
LINE
  8
0
 10
178.243408
 20
40.910980
 11
202.415039
 21
40.910980
  0
LINE
  8
0
 10
175.829315
 20
43.325275
 11
178.243561
 21
40.911037
  0
LINE
  8
0
 10
175.829285
 20
126.496719
 11
178.243484
 21
128.910919
  0
LINE
  8
0
 10
178.243408
 20
128.910950
 11
202.415039
 21
128.910950
  0
LINE
  8
0
 10
202.414948
 20
128.910919
 11
204.829132
 21
126.496719
  0
LINE
  8
0
 10
175.829224
 20
69.910980
 11
175.829224
 21
43.325165
  0
LINE
  8
0
 10
204.829224
 20
69.910980
 11
204.829224
 21
43.325165
  0
LINE
  8
0
 10
175.829224
 20
107.910980
 11
204.829346
 21
107.910980
  0
LINE
  8
0
 10
175.829224
 20
61.910950
 11
204.829346
 21
61.910950
  0
LINE
  8
0
 10
177.829224
 20
119.910980
 11
202.829224
 21
119.910980
  0
LINE
  8
0
 10
177.829224
 20
49.910980
 11
202.829224
 21
49.910980
  0
LINE
  8
0
 10
188.329224
 20
54.410950
 11
192.329346
 21
54.410950
  0
LINE
  8
0
 10
188.329224
 20
45.410980
 11
192.329346
 21
45.410980
  0
LINE
  8
0
 10
188.329224
 20
124.410950
 11
192.329346
 21
124.410950
  0
LINE
  8
0
 10
188.329224
 20
115.410980
 11
192.329346
 21
115.410980
  0
LINE
  8
0
 10
190.329224
 20
133.452820
 11
190.329224
 21
34.119507
  0
LINE
  8
0
 10
175.829254
 20
107.911118
 11
174.829239
 21
107.444794
  0
LINE
  8
0
 10
175.829208
 20
61.910995
 11
174.829193
 21
62.377312
  0
LINE
  8
0
 10
204.829041
 20
61.910980
 11
205.829056
 21
62.377296
  0
LINE
  8
0
 10
187.829224
 20
86.354340
 11
187.829224
 21
83.467590
  0
LINE
  8
0
 10
192.829224
 20
86.354340
 11
192.829224
 21
83.467590
  0
LINE
  8
0
 10
187.829239
 20
86.354362
 11
190.329208
 21
87.797722
  0
LINE
  8
0
 10
190.329193
 20
82.024193
 11
192.829163
 21
83.467552
  0
LINE
  8
0
 10
187.829224
 20
83.467659
 11
190.329193
 21
82.024300
  0
LINE
  8
0
 10
190.329285
 20
87.797768
 11
192.829254
 21
86.354408
  0
LINE
  8
0
 10
241.329224
 20
98.910950
 11
241.329224
 21
70.910950
  0
LINE
  8
0
 10
240.329132
 20
99.910866
 11
241.329117
 21
98.910889
  0
LINE
  8
0
 10
240.329102
 20
69.911140
 11
241.329086
 21
70.911118
  0
LINE
  8
0
 10
240.329224
 20
69.910980
 11
240.329224
 21
99.910980
  0
LINE
  8
0
 10
241.329224
 20
70.910980
 11
205.829224
 21
70.910980
  0
LINE
  8
0
 10
241.329224
 20
98.910950
 11
205.829224
 21
98.910950
  0
LINE
  8
0
 10
236.329224
 20
94.910980
 11
236.329224
 21
74.910980
  0
LINE
  8
0
 10
205.829224
 20
94.910980
 11
236.329224
 21
94.910980
  0
LINE
  8
0
 10
205.829224
 20
74.910980
 11
236.329224
 21
74.910980
  0
LINE
  8
0
 10
215.329224
 20
110.028961
 11
215.329224
 21
97.166626
  0
LINE
  8
0
 10
200.329224
 20
107.910980
 11
230.329224
 21
107.910980
  0
LINE
  8
0
 10
199.329224
 20
106.910950
 11
199.329224
 21
99.910980
  0
LINE
  8
0
 10
231.329224
 20
106.910950
 11
231.329224
 21
99.910980
  0
LINE
  8
0
 10
199.329117
 20
106.911034
 11
200.329102
 21
107.911011
  0
LINE
  8
0
 10
230.329269
 20
107.910812
 11
231.329254
 21
106.910828
  0
LINE
  8
0
 10
205.829224
 20
99.910980
 11
205.829224
 21
42.910950
  0
LINE
  8
0
 10
199.329346
 20
106.910950
 11
231.329224
 21
106.910950
  0
LINE
  8
0
 10
205.829224
 20
94.419830
 11
235.624023
 21
94.419830
  0
LINE
  8
0
 10
205.829224
 20
75.402100
 11
235.624023
 21
75.402100
  0
LINE
  8
0
 10
235.623901
 20
94.419830
 11
235.623901
 21
75.402100
  0
LINE
  8
0
 10
235.623886
 20
94.419876
 11
236.329224
 21
94.911034
  0
LINE
  8
0
 10
235.624023
 20
75.402000
 11
236.329315
 21
74.910873
  0
CIRCLE
  8
0
 10
190.329224
 20
84.910980
 40
5.500000
  0
ARC
  8
0
 10
188.329224
 20
49.910980
 40
4.500000
 50
90.000000
 51
270.000000
  0
ARC
  8
0
 10
192.329224
 20
49.910980
 40
4.500000
 50
270.000000
 51
90.000000
  0
ARC
  8
0
 10
188.329224
 20
119.910980
 40
4.500000
 50
90.000000
 51
270.000000
  0
ARC
  8
0
 10
192.329224
 20
119.910980
 40
4.500000
 50
270.000000
 51
90.000000
  0
CIRCLE
  8
0
 10
190.329224
 20
84.910980
 40
5.000000
  0
CIRCLE
  8
0
 10
190.329224
 20
84.910980
 40
2.886752
  0
POINT
  8
0
 10
319.329224
 20
84.910980
  0
POINT
  8
0
 10
364.329224
 20
84.910980
  0
LINE
  8
0
 10
299.329224
 20
99.910980
 11
299.329224
 21
69.910980
  0
LINE
  8
0
 10
297.329224
 20
99.910980
 11
346.795166
 21
99.910980
  0
LINE
  8
0
 10
297.329224
 20
69.910980
 11
346.795166
 21
69.910980
  0
LINE
  8
0
 10
297.329102
 20
99.910980
 11
297.329102
 21
69.910980
  0
LINE
  8
0
 10
291.829224
 20
94.410950
 11
291.829224
 21
75.410980
  0
LINE
  8
0
 10
291.829224
 20
94.410866
 11
297.329254
 21
99.910881
  0
LINE
  8
0
 10
291.829346
 20
75.411049
 11
297.329376
 21
69.911034
  0
LINE
  8
0
 10
357.329224
 20
129.910980
 11
364.329224
 21
129.910980
  0
LINE
  8
0
 10
357.329224
 20
39.910980
 11
364.329224
 21
39.910980
  0
LINE
  8
0
 10
286.287720
 20
84.910980
 11
369.356812
 21
84.910980
  0
LINE
  8
0
 10
364.329224
 20
129.910980
 11
364.329224
 21
39.910980
  0
LINE
  8
0
 10
356.329224
 20
128.910950
 11
356.329224
 21
107.910980
  0
LINE
  8
0
 10
356.329224
 20
61.910950
 11
356.329224
 21
40.910950
  0
LINE
  8
0
 10
356.329193
 20
40.911003
 11
357.329224
 21
39.910980
  0
LINE
  8
0
 10
356.329041
 20
128.910950
 11
357.329102
 21
129.911026
  0
LINE
  8
0
 10
357.329224
 20
126.910950
 11
364.329224
 21
126.910950
  0
LINE
  8
0
 10
357.329224
 20
42.910980
 11
364.329224
 21
42.910980
  0
LINE
  8
0
 10
346.794983
 20
69.910828
 11
356.329010
 21
61.910824
  0
LINE
  8
0
 10
346.795135
 20
99.911125
 11
356.329163
 21
107.911133
  0
LINE
  8
0
 10
357.329102
 20
129.910980
 11
357.329102
 21
107.444672
  0
LINE
  8
0
 10
347.158997
 20
98.911095
 11
357.329071
 21
107.444817
  0
LINE
  8
0
 10
339.329224
 20
98.910950
 11
347.159180
 21
98.910950
  0
LINE
  8
0
 10
339.329224
 20
70.910980
 11
347.159180
 21
70.910980
  0
LINE
  8
0
 10
347.159058
 20
70.910851
 11
357.329163
 21
62.377129
  0
LINE
  8
0
 10
357.329102
 20
62.377258
 11
357.329102
 21
39.910980
  0
LINE
  8
0
 10
339.329224
 20
99.910980
 11
339.329224
 21
69.910980
  0
LINE
  8
0
 10
347.159607
 20
70.910744
 11
346.795654
 21
69.910767
  0
LINE
  8
0
 10
357.329163
 20
62.377254
 11
356.329132
 21
61.910942
  0
LINE
  8
0
 10
347.159637
 20
98.911163
 11
346.795624
 21
99.911247
  0
LINE
  8
0
 10
357.329163
 20
107.444504
 11
356.329041
 21
107.910866
  0
LINE
  8
0
 10
357.329102
 20
126.911087
 11
356.329071
 21
126.496872
  0
LINE
  8
0
 10
357.329193
 20
42.910946
 11
356.329193
 21
43.325161
  0
LINE
  8
0
 10
319.329224
 20
111.402588
 11
319.329224
 21
66.456879
  0
LINE
  8
0
 10
290.329224
 20
89.310974
 11
290.329224
 21
80.510956
  0
LINE
  8
0
 10
290.929199
 20
79.910980
 11
291.829224
 21
79.910980
  0
LINE
  8
0
 10
290.929199
 20
89.910980
 11
291.829224
 21
89.910980
  0
LINE
  8
0
 10
290.329163
 20
80.510880
 11
290.929169
 21
79.910896
  0
LINE
  8
0
 10
290.329193
 20
89.311073
 11
290.929230
 21
89.911102
  0
LINE
  8
0
 10
290.929199
 20
89.910980
 11
290.929199
 21
79.910980
  0
LINE
  8
0
 10
354.162598
 20
119.910980
 11
367.829224
 21
119.910980
  0
LINE
  8
0
 10
353.829224
 20
49.910980
 11
368.162598
 21
49.910980
  0
LINE
  8
0
 10
299.329132
 20
98.911034
 11
300.329102
 21
99.911018
  0
LINE
  8
0
 10
299.329163
 20
70.910828
 11
300.329163
 21
69.910843
  0
LINE
  8
0
 10
338.329193
 20
69.910896
 11
339.329193
 21
70.910873
  0
LINE
  8
0
 10
338.329102
 20
99.910889
 11
339.329102
 21
98.910904
  0
LINE
  8
0
 10
300.329224
 20
99.910980
 11
300.329224
 21
69.910980
  0
LINE
  8
0
 10
338.329224
 20
69.910950
 11
338.329224
 21
99.910980
  0
LINE
  8
0
 10
299.329224
 20
98.910950
 11
339.329224
 21
98.910950
  0
LINE
  8
0
 10
299.329224
 20
70.910980
 11
339.329224
 21
70.910980
  0
LINE
  8
0
 10
304.329224
 20
107.910980
 11
334.329224
 21
107.910980
  0
LINE
  8
0
 10
303.329224
 20
106.910950
 11
303.329224
 21
99.910980
  0
LINE
  8
0
 10
335.329224
 20
106.910950
 11
335.329224
 21
99.910980
  0
LINE
  8
0
 10
303.329193
 20
106.910980
 11
304.329224
 21
107.910995
  0
LINE
  8
0
 10
334.328979
 20
107.910736
 11
335.328949
 21
106.910759
  0
LINE
  8
0
 10
303.329224
 20
106.910950
 11
335.329224
 21
106.910950
  0
CIRCLE
  8
0
 10
319.329224
 20
84.910980
 40
13.500000
  0
CIRCLE
  8
0
 10
319.329224
 20
84.910980
 40
7.475000
  0
CIRCLE
  8
0
 10
319.329224
 20
84.910980
 40
8.331000
  0
POINT
  8
0
 10
184.329224
 20
184.910980
  0
POINT
  8
0
 10
241.329224
 20
184.910980
  0
LINE
  8
0
 10
190.329224
 20
232.456894
 11
190.329224
 21
149.452850
  0
LINE
  8
0
 10
174.829224
 20
229.910965
 11
174.829224
 21
204.910980
  0
LINE
  8
0
 10
205.829224
 20
229.910965
 11
205.829224
 21
204.910980
  0
LINE
  8
0
 10
174.829224
 20
164.910980
 11
240.329224
 21
164.910980
  0
LINE
  8
0
 10
174.829224
 20
162.910980
 11
205.829224
 21
162.910980
  0
LINE
  8
0
 10
174.829132
 20
162.910843
 11
181.383804
 21
157.410828
  0
LINE
  8
0
 10
199.274612
 20
157.411102
 11
205.829193
 21
162.911041
  0
LINE
  8
0
 10
181.383911
 20
157.410950
 11
199.274658
 21
157.410950
  0
LINE
  8
0
 10
174.829224
 20
229.910995
 11
205.829224
 21
229.910995
  0
LINE
  8
0
 10
174.829224
 20
204.910980
 11
184.329346
 21
204.910980
  0
LINE
  8
0
 10
175.829224
 20
221.910980
 11
204.829346
 21
221.910980
  0
LINE
  8
0
 10
174.829224
 20
222.910980
 11
205.829224
 21
222.910980
  0
LINE
  8
0
 10
175.829224
 20
221.910980
 11
175.829224
 21
204.910980
  0
LINE
  8
0
 10
204.829224
 20
221.910980
 11
204.829224
 21
204.910980
  0
LINE
  8
0
 10
196.329224
 20
204.910980
 11
196.329224
 21
164.910980
  0
LINE
  8
0
 10
184.329224
 20
204.910980
 11
184.329224
 21
164.910980
  0
LINE
  8
0
 10
196.329224
 20
204.910980
 11
240.329224
 21
204.910980
  0
LINE
  8
0
 10
202.829224
 20
229.910965
 11
202.829224
 21
222.910980
  0
LINE
  8
0
 10
177.829224
 20
229.910965
 11
177.829224
 21
222.910980
  0
LINE
  8
0
 10
175.829254
 20
221.910828
 11
174.829224
 21
222.910858
  0
LINE
  8
0
 10
204.829224
 20
221.911011
 11
205.829208
 21
222.910980
  0
LINE
  8
0
 10
177.829132
 20
222.910934
 11
178.243347
 21
221.910965
  0
LINE
  8
0
 10
202.829132
 20
222.910980
 11
202.414948
 21
221.911026
  0
LINE
  8
0
 10
175.829224
 20
212.376984
 11
204.829346
 21
212.376984
  0
LINE
  8
0
 10
174.829254
 20
212.740891
 11
175.829163
 21
212.376923
  0
LINE
  8
0
 10
205.829208
 20
212.740936
 11
204.829300
 21
212.376968
  0
LINE
  8
0
 10
174.829224
 20
164.910980
 11
174.829224
 21
162.910980
  0
LINE
  8
0
 10
205.829224
 20
164.910980
 11
205.829224
 21
162.910980
  0
LINE
  8
0
 10
179.269409
 20
184.910980
 11
246.652832
 21
184.910980
  0
LINE
  8
0
 10
185.929199
 20
155.910980
 11
194.729248
 21
155.910980
  0
LINE
  8
0
 10
195.329224
 20
157.410950
 11
195.329224
 21
156.510956
  0
LINE
  8
0
 10
185.329224
 20
157.410950
 11
185.329224
 21
156.510956
  0
LINE
  8
0
 10
185.329178
 20
156.510880
 11
185.929169
 21
155.910889
  0
LINE
  8
0
 10
194.729218
 20
155.910873
 11
195.329208
 21
156.510864
  0
LINE
  8
0
 10
185.329224
 20
156.510986
 11
195.329224
 21
156.510986
  0
LINE
  8
0
 10
241.329224
 20
203.910980
 11
241.329224
 21
165.910980
  0
LINE
  8
0
 10
240.329147
 20
164.911057
 11
241.329163
 21
165.911072
  0
LINE
  8
0
 10
240.329224
 20
204.910889
 11
241.329208
 21
203.910904
  0
LINE
  8
0
 10
196.329224
 20
165.910858
 11
197.329239
 21
164.910843
  0
LINE
  8
0
 10
196.329056
 20
203.911194
 11
197.329086
 21
204.911209
  0
LINE
  8
0
 10
196.329224
 20
165.910980
 11
241.329224
 21
165.910980
  0
LINE
  8
0
 10
241.329224
 20
203.910980
 11
196.329224
 21
203.910980
  0
LINE
  8
0
 10
240.329224
 20
164.910980
 11
240.329224
 21
204.910980
  0
LINE
  8
0
 10
197.329224
 20
164.910950
 11
197.329224
 21
204.910980
  0
LINE
  8
0
 10
215.329224
 20
208.141052
 11
215.329224
 21
162.186310
  0
CIRCLE
  8
0
 10
215.329224
 20
184.910980
 40
16.000000
  0
CIRCLE
  8
0
 10
215.329224
 20
184.910980
 40
15.000000
  0
CIRCLE
  8
0
 10
215.329224
 20
184.910980
 40
5.722500
  0
CIRCLE
  8
0
 10
215.329224
 20
184.910980
 40
6.578500
  0
POINT
  8
0
 10
-342.089020
 20
-181.243317
  0
POINT
  8
0
 10
-320.588989
 20
-181.243317
  0
LINE
  8
0
 10
-355.797241
 20
-181.243317
 11
-313.797211
 21
-181.243317
  0
LINE
  8
0
 10
-351.589020
 20
-196.243301
 11
-320.589020
 21
-196.243301
  0
LINE
  8
0
 10
-351.589020
 20
-166.243317
 11
-320.589020
 21
-166.243317
  0
LINE
  8
0
 10
-351.589020
 20
-139.243286
 11
-351.589020
 21
-223.243286
  0
LINE
  8
0
 10
-320.588989
 20
-139.243286
 11
-320.588989
 21
-223.243286
  0
LINE
  8
0
 10
-345.034363
 20
-171.743317
 11
-345.034363
 21
-190.743317
  0
LINE
  8
0
 10
-327.143677
 20
-171.743317
 11
-327.143677
 21
-190.743317
  0
LINE
  8
0
 10
-345.034363
 20
-171.743286
 11
-327.143677
 21
-171.743286
  0
LINE
  8
0
 10
-345.034363
 20
-190.743317
 11
-327.143677
 21
-190.743317
  0
LINE
  8
0
 10
-351.589050
 20
-166.243332
 11
-345.034393
 21
-171.743347
  0
LINE
  8
0
 10
-351.589020
 20
-196.243286
 11
-345.034363
 21
-190.743286
  0
LINE
  8
0
 10
-327.143677
 20
-190.743286
 11
-320.589020
 21
-196.243286
  0
LINE
  8
0
 10
-327.143738
 20
-171.743256
 11
-320.589111
 21
-166.243240
  0
LINE
  8
0
 10
-348.589020
 20
-226.243301
 11
-323.589020
 21
-226.243301
  0
LINE
  8
0
 10
-348.588989
 20
-136.243317
 11
-323.589020
 21
-136.243317
  0
LINE
  8
0
 10
-351.589111
 20
-139.243164
 11
-348.589111
 21
-136.243164
  0
LINE
  8
0
 10
-323.588989
 20
-136.243317
 11
-320.588989
 21
-139.243301
  0
LINE
  8
0
 10
-351.589111
 20
-223.243408
 11
-348.589111
 21
-226.243439
  0
LINE
  8
0
 10
-323.589142
 20
-226.243179
 11
-320.589111
 21
-223.243179
  0
LINE
  8
0
 10
-350.588989
 20
-139.657501
 11
-350.588989
 21
-166.243286
  0
LINE
  8
0
 10
-321.589020
 20
-139.657501
 11
-321.589020
 21
-166.243286
  0
LINE
  8
0
 10
-324.003326
 20
-225.243195
 11
-321.589111
 21
-222.828979
  0
LINE
  8
0
 10
-348.174774
 20
-225.243301
 11
-324.003265
 21
-225.243301
  0
LINE
  8
0
 10
-350.589081
 20
-222.829193
 11
-348.174896
 21
-225.243393
  0
LINE
  8
0
 10
-350.589081
 20
-139.657410
 11
-348.174835
 21
-137.243179
  0
LINE
  8
0
 10
-348.174774
 20
-137.243317
 11
-324.003265
 21
-137.243317
  0
LINE
  8
0
 10
-324.003204
 20
-137.243286
 11
-321.588959
 21
-139.657516
  0
LINE
  8
0
 10
-350.588989
 20
-196.243301
 11
-350.588989
 21
-222.829086
  0
LINE
  8
0
 10
-321.589020
 20
-196.243301
 11
-321.589020
 21
-222.829086
  0
LINE
  8
0
 10
-350.588989
 20
-158.243317
 11
-321.589020
 21
-158.243317
  0
LINE
  8
0
 10
-350.588989
 20
-204.243301
 11
-321.589020
 21
-204.243301
  0
LINE
  8
0
 10
-348.588989
 20
-146.243317
 11
-323.589020
 21
-146.243317
  0
LINE
  8
0
 10
-348.589020
 20
-216.243301
 11
-323.589020
 21
-216.243301
  0
LINE
  8
0
 10
-338.088989
 20
-211.743301
 11
-334.089020
 21
-211.743301
  0
LINE
  8
0
 10
-338.088989
 20
-220.743317
 11
-334.089020
 21
-220.743317
  0
LINE
  8
0
 10
-338.088989
 20
-141.743286
 11
-334.089020
 21
-141.743286
  0
LINE
  8
0
 10
-338.088989
 20
-150.743317
 11
-334.089020
 21
-150.743317
  0
LINE
  8
0
 10
-336.089020
 20
-132.701416
 11
-336.089020
 21
-232.034760
  0
LINE
  8
0
 10
-350.588989
 20
-158.243301
 11
-351.588989
 21
-158.709610
  0
LINE
  8
0
 10
-321.589050
 20
-158.243317
 11
-320.589020
 21
-158.709625
  0
LINE
  8
0
 10
-350.588989
 20
-204.243347
 11
-351.588989
 21
-203.777054
  0
LINE
  8
0
 10
-321.588989
 20
-204.243317
 11
-320.588959
 21
-203.777008
  0
LINE
  8
0
 10
-338.589020
 20
-179.799927
 11
-338.589020
 21
-182.686676
  0
LINE
  8
0
 10
-333.589020
 20
-179.799927
 11
-333.589020
 21
-182.686676
  0
LINE
  8
0
 10
-338.589020
 20
-179.799866
 11
-336.089020
 21
-178.356491
  0
LINE
  8
0
 10
-336.088989
 20
-184.129974
 11
-333.588989
 21
-182.686600
  0
LINE
  8
0
 10
-338.588989
 20
-182.686661
 11
-336.089050
 21
-184.130005
  0
LINE
  8
0
 10
-336.088989
 20
-178.356552
 11
-333.589050
 21
-179.799896
  0
CIRCLE
  8
0
 10
-336.089020
 20
-181.243317
 40
5.500000
  0
ARC
  8
0
 10
-338.088989
 20
-216.243301
 40
4.500000
 50
90.000000
 51
270.000000
  0
ARC
  8
0
 10
-334.089020
 20
-216.243301
 40
4.500000
 50
270.000000
 51
90.000000
  0
ARC
  8
0
 10
-338.088989
 20
-146.243317
 40
4.500000
 50
90.000000
 51
270.000000
  0
ARC
  8
0
 10
-334.089020
 20
-146.243317
 40
4.500000
 50
270.000000
 51
90.000000
  0
CIRCLE
  8
0
 10
-336.089020
 20
-181.243317
 40
5.000000
  0
CIRCLE
  8
0
 10
-336.089020
 20
-181.243317
 40
2.886752
  0
POINT
  8
0
 10
-211.848053
 20
-181.243317
  0
POINT
  8
0
 10
-166.848053
 20
-181.243317
  0
LINE
  8
0
 10
-231.848053
 20
-166.243286
 11
-231.848053
 21
-196.243301
  0
LINE
  8
0
 10
-233.848053
 20
-166.243317
 11
-184.382080
 21
-166.243317
  0
LINE
  8
0
 10
-233.848053
 20
-196.243301
 11
-184.382080
 21
-196.243301
  0
LINE
  8
0
 10
-233.848083
 20
-166.243286
 11
-233.848083
 21
-196.243301
  0
LINE
  8
0
 10
-239.348053
 20
-171.743317
 11
-239.348053
 21
-190.743317
  0
LINE
  8
0
 10
-239.348083
 20
-171.743256
 11
-233.848083
 21
-166.243271
  0
LINE
  8
0
 10
-239.348129
 20
-190.743301
 11
-233.848099
 21
-196.243332
  0
LINE
  8
0
 10
-173.848053
 20
-136.243317
 11
-166.848053
 21
-136.243317
  0
LINE
  8
0
 10
-173.848053
 20
-226.243301
 11
-166.848053
 21
-226.243301
  0
LINE
  8
0
 10
-244.889587
 20
-181.243317
 11
-161.820511
 21
-181.243317
  0
LINE
  8
0
 10
-166.848053
 20
-136.243286
 11
-166.848053
 21
-226.243301
  0
LINE
  8
0
 10
-174.848053
 20
-137.243317
 11
-174.848053
 21
-158.243317
  0
LINE
  8
0
 10
-174.848053
 20
-204.243271
 11
-174.848053
 21
-225.243301
  0
LINE
  8
0
 10
-174.848053
 20
-225.243286
 11
-173.848053
 21
-226.243286
  0
LINE
  8
0
 10
-174.848053
 20
-137.243286
 11
-173.848053
 21
-136.243286
  0
LINE
  8
0
 10
-173.848053
 20
-139.243286
 11
-166.848053
 21
-139.243286
  0
LINE
  8
0
 10
-173.848053
 20
-223.243317
 11
-166.848053
 21
-223.243317
  0
LINE
  8
0
 10
-184.382095
 20
-196.243286
 11
-174.848083
 21
-204.243271
  0
LINE
  8
0
 10
-184.382050
 20
-166.243347
 11
-174.848007
 21
-158.243347
  0
LINE
  8
0
 10
-173.848053
 20
-136.243286
 11
-173.848053
 21
-158.709625
  0
LINE
  8
0
 10
-184.018112
 20
-167.243378
 11
-173.848053
 21
-158.709686
  0
LINE
  8
0
 10
-191.848053
 20
-167.243317
 11
-184.018112
 21
-167.243317
  0
LINE
  8
0
 10
-191.848053
 20
-195.243301
 11
-184.018112
 21
-195.243301
  0
LINE
  8
0
 10
-184.018097
 20
-195.243347
 11
-173.848053
 21
-203.777039
  0
LINE
  8
0
 10
-173.848053
 20
-203.776962
 11
-173.848053
 21
-226.243301
  0
LINE
  8
0
 10
-191.848053
 20
-166.243286
 11
-191.848053
 21
-196.243301
  0
LINE
  8
0
 10
-184.018219
 20
-195.243256
 11
-184.382187
 21
-196.243271
  0
LINE
  8
0
 10
-173.848022
 20
-203.776978
 11
-174.848022
 21
-204.243286
  0
LINE
  8
0
 10
-184.018188
 20
-167.243317
 11
-184.382141
 21
-166.243317
  0
LINE
  8
0
 10
-173.848053
 20
-158.709671
 11
-174.848038
 21
-158.243378
  0
LINE
  8
0
 10
-173.848068
 20
-139.243347
 11
-174.848068
 21
-139.657562
  0
LINE
  8
0
 10
-173.848053
 20
-223.243286
 11
-174.848053
 21
-222.829071
  0
LINE
  8
0
 10
-211.848053
 20
-162.697388
 11
-211.848053
 21
-199.697372
  0
LINE
  8
0
 10
-240.848053
 20
-176.843292
 11
-240.848053
 21
-185.643311
  0
LINE
  8
0
 10
-240.248047
 20
-186.243301
 11
-239.348053
 21
-186.243301
  0
LINE
  8
0
 10
-240.248047
 20
-176.243317
 11
-239.348053
 21
-176.243317
  0
LINE
  8
0
 10
-240.848083
 20
-185.643265
 11
-240.248032
 21
-186.243317
  0
LINE
  8
0
 10
-240.848068
 20
-176.843292
 11
-240.248047
 21
-176.243286
  0
LINE
  8
0
 10
-240.248047
 20
-176.243286
 11
-240.248047
 21
-186.243301
  0
LINE
  8
0
 10
-177.014725
 20
-146.243317
 11
-163.348053
 21
-146.243317
  0
LINE
  8
0
 10
-177.348053
 20
-216.243301
 11
-163.014725
 21
-216.243301
  0
POINT
  8
0
 10
-330.089020
 20
-73.027420
  0
POINT
  8
0
 10
-342.089020
 20
-73.027420
  0
LINE
  8
0
 10
-351.589050
 20
-28.027420
 11
-320.589050
 21
-28.027420
  0
LINE
  8
0
 10
-351.589050
 20
-53.027420
 11
-342.089020
 21
-53.027420
  0
LINE
  8
0
 10
-350.589020
 20
-36.027420
 11
-321.589050
 21
-36.027420
  0
LINE
  8
0
 10
-351.589050
 20
-35.027451
 11
-320.589050
 21
-35.027451
  0
LINE
  8
0
 10
-350.589020
 20
-36.027420
 11
-350.589020
 21
-53.027420
  0
LINE
  8
0
 10
-321.589050
 20
-36.027420
 11
-321.589050
 21
-53.027420
  0
LINE
  8
0
 10
-330.089020
 20
-53.027420
 11
-330.089020
 21
-93.027420
  0
LINE
  8
0
 10
-342.089020
 20
-53.027420
 11
-342.089020
 21
-93.027420
  0
LINE
  8
0
 10
-330.089020
 20
-53.027420
 11
-320.589050
 21
-53.027420
  0
LINE
  8
0
 10
-323.589050
 20
-28.027420
 11
-323.589050
 21
-35.027390
  0
LINE
  8
0
 10
-348.589050
 20
-28.027420
 11
-348.589050
 21
-35.027390
  0
LINE
  8
0
 10
-350.588989
 20
-36.027428
 11
-351.589020
 21
-35.027405
  0
LINE
  8
0
 10
-321.588989
 20
-36.027466
 11
-320.588989
 21
-35.027466
  0
LINE
  8
0
 10
-348.589020
 20
-35.027386
 11
-348.174805
 21
-36.027390
  0
LINE
  8
0
 10
-323.588928
 20
-35.027439
 11
-324.003113
 21
-36.027416
  0
LINE
  8
0
 10
-350.589020
 20
-45.561417
 11
-321.589050
 21
-45.561417
  0
LINE
  8
0
 10
-351.588989
 20
-45.197487
 11
-350.589020
 21
-45.561470
  0
LINE
  8
0
 10
-320.588989
 20
-45.197536
 11
-321.588989
 21
-45.561531
  0
LINE
  8
0
 10
-351.589050
 20
-93.027420
 11
-351.589050
 21
-95.027390
  0
LINE
  8
0
 10
-320.589020
 20
-93.027420
 11
-320.589020
 21
-95.027390
  0
LINE
  8
0
 10
-347.148926
 20
-73.027420
 11
-325.148926
 21
-73.027420
  0
LINE
  8
0
 10
-340.489044
 20
-102.027451
 11
-331.689026
 21
-102.027451
  0
LINE
  8
0
 10
-331.089050
 20
-100.527420
 11
-331.089050
 21
-101.427444
  0
LINE
  8
0
 10
-341.089050
 20
-100.527420
 11
-341.089050
 21
-101.427444
  0
LINE
  8
0
 10
-341.089020
 20
-101.427422
 11
-340.489044
 21
-102.027412
  0
LINE
  8
0
 10
-331.689087
 20
-102.027321
 11
-331.089081
 21
-101.427315
  0
LINE
  8
0
 10
-341.089050
 20
-101.427444
 11
-331.089050
 21
-101.427444
  0
LINE
  8
0
 10
-336.089050
 20
-25.481491
 11
-336.089050
 21
-108.485580
  0
LINE
  8
0
 10
-351.589050
 20
-28.027420
 11
-351.589050
 21
-53.027420
  0
LINE
  8
0
 10
-320.589020
 20
-28.027420
 11
-320.589020
 21
-53.027420
  0
LINE
  8
0
 10
-351.589050
 20
-93.027420
 11
-320.589050
 21
-93.027420
  0
LINE
  8
0
 10
-351.589050
 20
-95.027451
 11
-320.589050
 21
-95.027451
  0
LINE
  8
0
 10
-351.589050
 20
-95.027420
 11
-345.034393
 21
-100.527420
  0
LINE
  8
0
 10
-327.143616
 20
-100.527481
 11
-320.588959
 21
-95.027473
  0
LINE
  8
0
 10
-345.034393
 20
-100.527420
 11
-327.143707
 21
-100.527420
  0
POINT
  8
0
 10
-64.020752
 20
-179.089020
  0
POINT
  8
0
 10
-36.020752
 20
-179.089020
  0
LINE
  8
0
 10
-77.728973
 20
-179.089020
 11
-32.845947
 21
-179.089020
  0
LINE
  8
0
 10
-73.520752
 20
-194.089020
 11
-37.020782
 21
-194.089020
  0
LINE
  8
0
 10
-73.520752
 20
-164.089020
 11
-37.020782
 21
-164.089020
  0
LINE
  8
0
 10
-73.520752
 20
-164.089020
 11
-73.520752
 21
-194.089020
  0
LINE
  8
0
 10
-42.520752
 20
-164.089020
 11
-42.520752
 21
-194.089020
  0
LINE
  8
0
 10
-66.966095
 20
-169.589020
 11
-66.966095
 21
-188.589020
  0
LINE
  8
0
 10
-49.075409
 20
-169.589020
 11
-49.075409
 21
-188.589020
  0
LINE
  8
0
 10
-66.966095
 20
-169.589020
 11
-49.075409
 21
-169.589020
  0
LINE
  8
0
 10
-66.966095
 20
-188.589020
 11
-49.075409
 21
-188.589020
  0
LINE
  8
0
 10
-73.520760
 20
-164.089020
 11
-66.966118
 21
-169.589020
  0
LINE
  8
0
 10
-73.520721
 20
-194.089035
 11
-66.966072
 21
-188.589035
  0
LINE
  8
0
 10
-49.075417
 20
-188.589035
 11
-42.520763
 21
-194.089035
  0
LINE
  8
0
 10
-49.075367
 20
-169.589035
 11
-42.520718
 21
-164.089035
  0
LINE
  8
0
 10
-58.020752
 20
-160.864822
 11
-58.020752
 21
-198.042801
  0
LINE
  8
0
 10
-60.520752
 20
-177.645630
 11
-60.520752
 21
-180.532379
  0
LINE
  8
0
 10
-55.520752
 20
-177.645630
 11
-55.520752
 21
-180.532379
  0
LINE
  8
0
 10
-60.520760
 20
-177.645660
 11
-58.020760
 21
-176.202286
  0
LINE
  8
0
 10
-58.020725
 20
-181.975815
 11
-55.520729
 21
-180.532440
  0
LINE
  8
0
 10
-60.520756
 20
-180.532394
 11
-58.020760
 21
-181.975769
  0
LINE
  8
0
 10
-58.020752
 20
-176.202271
 11
-55.520752
 21
-177.645645
  0
LINE
  8
0
 10
-37.020782
 20
-194.089020
 11
-36.020782
 21
-193.089020
  0
LINE
  8
0
 10
-36.020752
 20
-165.089020
 11
-36.020752
 21
-193.089020
  0
LINE
  8
0
 10
-37.020744
 20
-164.089050
 11
-36.020744
 21
-165.089050
  0
LINE
  8
0
 10
-37.020782
 20
-164.089020
 11
-37.020782
 21
-194.089020
  0
LINE
  8
0
 10
-36.020752
 20
-193.089020
 11
-42.520752
 21
-193.089020
  0
LINE
  8
0
 10
-36.020752
 20
-165.089020
 11
-42.520752
 21
-165.089020
  0
CIRCLE
  8
0
 10
-58.020752
 20
-179.089020
 40
5.500000
  0
CIRCLE
  8
0
 10
-58.020752
 20
-179.089020
 40
5.000000
  0
CIRCLE
  8
0
 10
-58.020752
 20
-179.089020
 40
2.886752
  0
POINT
  8
0
 10
72.979248
 20
-179.089020
  0
POINT
  8
0
 10
100.479218
 20
-179.089020
  0
LINE
  8
0
 10
52.979248
 20
-164.089020
 11
52.979248
 21
-194.089020
  0
LINE
  8
0
 10
50.979218
 20
-164.089020
 11
94.979218
 21
-164.089020
  0
LINE
  8
0
 10
50.979218
 20
-194.089020
 11
94.979218
 21
-194.089020
  0
LINE
  8
0
 10
50.979218
 20
-164.089020
 11
50.979218
 21
-194.089020
  0
LINE
  8
0
 10
45.479248
 20
-169.589020
 11
45.479248
 21
-188.589020
  0
LINE
  8
0
 10
45.479256
 20
-169.589096
 11
50.979248
 21
-164.089111
  0
LINE
  8
0
 10
45.479271
 20
-188.589050
 11
50.979267
 21
-194.089035
  0
LINE
  8
0
 10
39.937653
 20
-179.089020
 11
103.465240
 21
-179.089020
  0
LINE
  8
0
 10
92.979218
 20
-164.089020
 11
92.979218
 21
-194.089020
  0
LINE
  8
0
 10
72.979248
 20
-160.543091
 11
72.979248
 21
-197.543091
  0
LINE
  8
0
 10
43.979218
 20
-174.689011
 11
43.979218
 21
-183.489014
  0
LINE
  8
0
 10
44.579254
 20
-184.089020
 11
45.479248
 21
-184.089020
  0
LINE
  8
0
 10
44.579254
 20
-174.089020
 11
45.479248
 21
-174.089020
  0
LINE
  8
0
 10
43.979202
 20
-183.489029
 11
44.579208
 21
-184.089050
  0
LINE
  8
0
 10
43.979176
 20
-174.689026
 11
44.579185
 21
-174.089020
  0
LINE
  8
0
 10
44.579224
 20
-174.089020
 11
44.579224
 21
-184.089020
  0
LINE
  8
0
 10
94.979218
 20
-164.089020
 11
94.979218
 21
-194.089020
  0
LINE
  8
0
 10
94.979256
 20
-194.089020
 11
100.479248
 21
-188.589035
  0
LINE
  8
0
 10
94.979324
 20
-164.089020
 11
100.479324
 21
-169.589005
  0
LINE
  8
0
 10
100.479218
 20
-169.589020
 11
100.479218
 21
-188.589020
  0
LINE
  8
0
 10
52.979225
 20
-165.089020
 11
53.979225
 21
-164.089020
  0
LINE
  8
0
 10
52.979179
 20
-193.089035
 11
53.979179
 21
-194.089035
  0
LINE
  8
0
 10
91.979263
 20
-194.089050
 11
92.979248
 21
-193.089081
  0
LINE
  8
0
 10
91.979179
 20
-164.089005
 11
92.979202
 21
-165.089020
  0
LINE
  8
0
 10
53.979218
 20
-164.089020
 11
53.979218
 21
-194.089020
  0
LINE
  8
0
 10
91.979218
 20
-194.089020
 11
91.979218
 21
-164.089020
  0
LINE
  8
0
 10
52.979218
 20
-165.089020
 11
92.979218
 21
-165.089020
  0
LINE
  8
0
 10
52.979218
 20
-193.089020
 11
92.979218
 21
-193.089020
  0
CIRCLE
  8
0
 10
72.979248
 20
-179.089020
 40
7.475000
  0
CIRCLE
  8
0
 10
72.979248
 20
-179.089020
 40
8.331000
  0
POINT
  8
0
 10
-64.020752
 20
-79.089027
  0
POINT
  8
0
 10
-36.020752
 20
-79.089027
  0
LINE
  8
0
 10
-58.020752
 20
-47.388412
 11
-58.020752
 21
-112.060989
  0
LINE
  8
0
 10
-73.520752
 20
-57.089020
 11
-73.520752
 21
-59.089005
  0
LINE
  8
0
 10
-42.520752
 20
-57.089020
 11
-42.520752
 21
-59.089005
  0
LINE
  8
0
 10
-73.520752
 20
-99.089027
 11
-37.020782
 21
-99.089027
  0
LINE
  8
0
 10
-73.520752
 20
-101.089027
 11
-42.520752
 21
-101.089027
  0
LINE
  8
0
 10
-73.520767
 20
-101.089050
 11
-66.966118
 21
-106.589050
  0
LINE
  8
0
 10
-49.075455
 20
-106.589035
 11
-42.520782
 21
-101.089012
  0
LINE
  8
0
 10
-66.966095
 20
-106.589027
 11
-49.075409
 21
-106.589027
  0
LINE
  8
0
 10
-73.520752
 20
-59.089012
 11
-64.020721
 21
-59.089012
  0
LINE
  8
0
 10
-52.020782
 20
-59.089005
 11
-52.020782
 21
-99.089020
  0
LINE
  8
0
 10
-64.020752
 20
-59.089005
 11
-64.020752
 21
-99.089020
  0
LINE
  8
0
 10
-52.020782
 20
-59.089012
 11
-37.020782
 21
-59.089012
  0
LINE
  8
0
 10
-73.520752
 20
-99.089020
 11
-73.520752
 21
-101.089020
  0
LINE
  8
0
 10
-42.520752
 20
-99.089020
 11
-42.520752
 21
-101.089020
  0
LINE
  8
0
 10
-69.080627
 20
-79.089027
 11
-31.307892
 21
-79.089027
  0
LINE
  8
0
 10
-62.420746
 20
-108.089027
 11
-53.620758
 21
-108.089027
  0
LINE
  8
0
 10
-53.020752
 20
-106.589020
 11
-53.020752
 21
-107.489014
  0
LINE
  8
0
 10
-63.020752
 20
-106.589020
 11
-63.020752
 21
-107.489014
  0
LINE
  8
0
 10
-63.020771
 20
-107.489037
 11
-62.420773
 21
-108.089035
  0
LINE
  8
0
 10
-53.620766
 20
-108.089043
 11
-53.020752
 21
-107.489029
  0
LINE
  8
0
 10
-63.020752
 20
-107.489021
 11
-53.020752
 21
-107.489021
  0
LINE
  8
0
 10
-73.520752
 20
-57.089012
 11
-42.520752
 21
-57.089012
  0
LINE
  8
0
 10
-73.520744
 20
-57.089008
 11
-66.966095
 21
-51.589005
  0
LINE
  8
0
 10
-49.075455
 20
-51.589081
 11
-42.520805
 21
-57.089081
  0
LINE
  8
0
 10
-66.966095
 20
-51.589012
 11
-49.075409
 21
-51.589012
  0
LINE
  8
0
 10
-36.020752
 20
-60.089005
 11
-36.020752
 21
-98.089020
  0
LINE
  8
0
 10
-37.020775
 20
-99.089020
 11
-36.020752
 21
-98.088989
  0
LINE
  8
0
 10
-37.020813
 20
-59.089066
 11
-36.020821
 21
-60.089054
  0
LINE
  8
0
 10
-52.020752
 20
-98.089050
 11
-51.020752
 21
-99.089050
  0
LINE
  8
0
 10
-52.020760
 20
-60.089024
 11
-51.020760
 21
-59.089020
  0
LINE
  8
0
 10
-52.020782
 20
-60.089027
 11
-36.020752
 21
-60.089027
  0
LINE
  8
0
 10
-36.020752
 20
-98.089027
 11
-52.020782
 21
-98.089027
  0
LINE
  8
0
 10
-51.020752
 20
-59.089020
 11
-51.020752
 21
-99.089020
  0
LINE
  8
0
 10
-37.020782
 20
-99.089020
 11
-37.020782
 21
-59.089005
  0
POINT
  8
0
 10
190.329285
 20
-179.089020
  0
POINT
  8
0
 10
218.329285
 20
-179.089020
  0
LINE
  8
0
 10
176.621048
 20
-179.089020
 11
221.971573
 21
-179.089020
  0
LINE
  8
0
 10
180.829269
 20
-194.089020
 11
217.329239
 21
-194.089020
  0
LINE
  8
0
 10
180.829269
 20
-164.089020
 11
217.329239
 21
-164.089020
  0
LINE
  8
0
 10
180.829285
 20
-137.089005
 11
180.829285
 21
-221.089005
  0
LINE
  8
0
 10
211.829224
 20
-137.089005
 11
211.829224
 21
-221.089005
  0
LINE
  8
0
 10
187.383911
 20
-169.589035
 11
187.383911
 21
-188.589020
  0
LINE
  8
0
 10
205.274597
 20
-169.589035
 11
205.274597
 21
-188.589020
  0
LINE
  8
0
 10
187.383896
 20
-169.589020
 11
205.274612
 21
-169.589020
  0
LINE
  8
0
 10
187.383896
 20
-188.589020
 11
205.274612
 21
-188.589020
  0
LINE
  8
0
 10
180.829208
 20
-164.089096
 11
187.383850
 21
-169.589096
  0
LINE
  8
0
 10
180.829315
 20
-194.089020
 11
187.383942
 21
-188.589035
  0
LINE
  8
0
 10
205.274567
 20
-188.589035
 11
211.829224
 21
-194.089035
  0
LINE
  8
0
 10
205.274612
 20
-169.589020
 11
211.829285
 21
-164.088989
  0
LINE
  8
0
 10
183.829239
 20
-224.089020
 11
208.829239
 21
-224.089020
  0
LINE
  8
0
 10
183.829239
 20
-134.089020
 11
208.829239
 21
-134.089020
  0
LINE
  8
0
 10
180.829239
 20
-137.089035
 11
183.829269
 21
-134.089005
  0
LINE
  8
0
 10
208.829285
 20
-134.089005
 11
211.829285
 21
-137.089005
  0
LINE
  8
0
 10
180.829132
 20
-221.089111
 11
183.829132
 21
-224.089111
  0
LINE
  8
0
 10
208.829254
 20
-224.089111
 11
211.829285
 21
-221.089081
  0
LINE
  8
0
 10
181.829224
 20
-137.503220
 11
181.829224
 21
-164.089020
  0
LINE
  8
0
 10
210.829285
 20
-137.503220
 11
210.829285
 21
-164.089020
  0
LINE
  8
0
 10
208.415100
 20
-223.089050
 11
210.829300
 21
-220.674866
  0
LINE
  8
0
 10
184.243454
 20
-223.089020
 11
208.415054
 21
-223.089020
  0
LINE
  8
0
 10
181.829132
 20
-220.674942
 11
184.243347
 21
-223.089157
  0
LINE
  8
0
 10
181.829300
 20
-137.503235
 11
184.243500
 21
-135.089050
  0
LINE
  8
0
 10
184.243454
 20
-135.089020
 11
208.415054
 21
-135.089020
  0
LINE
  8
0
 10
208.415070
 20
-135.088974
 11
210.829285
 21
-137.503189
  0
LINE
  8
0
 10
181.829224
 20
-194.089020
 11
181.829224
 21
-220.674789
  0
LINE
  8
0
 10
210.829285
 20
-194.089020
 11
210.829285
 21
-220.674789
  0
LINE
  8
0
 10
181.829239
 20
-156.089020
 11
210.829269
 21
-156.089020
  0
LINE
  8
0
 10
181.829239
 20
-202.089020
 11
210.829269
 21
-202.089020
  0
LINE
  8
0
 10
183.829239
 20
-144.089020
 11
208.829239
 21
-144.089020
  0
LINE
  8
0
 10
183.829239
 20
-214.089020
 11
208.829239
 21
-214.089020
  0
LINE
  8
0
 10
194.329239
 20
-209.589020
 11
198.329269
 21
-209.589020
  0
LINE
  8
0
 10
194.329239
 20
-218.589020
 11
198.329269
 21
-218.589020
  0
LINE
  8
0
 10
194.329239
 20
-139.589020
 11
198.329269
 21
-139.589020
  0
LINE
  8
0
 10
194.329239
 20
-148.589020
 11
198.329269
 21
-148.589020
  0
LINE
  8
0
 10
196.329285
 20
-130.547150
 11
196.329285
 21
-229.880478
  0
LINE
  8
0
 10
181.829208
 20
-156.089020
 11
180.829163
 21
-156.555359
  0
LINE
  8
0
 10
210.829300
 20
-156.089035
 11
211.829285
 21
-156.555344
  0
LINE
  8
0
 10
181.829239
 20
-202.089020
 11
180.829239
 21
-201.622726
  0
LINE
  8
0
 10
210.829239
 20
-202.088989
 11
211.829224
 21
-201.622696
  0
LINE
  8
0
 10
193.829285
 20
-177.645645
 11
193.829285
 21
-180.532379
  0
LINE
  8
0
 10
198.829285
 20
-177.645630
 11
198.829285
 21
-180.532379
  0
LINE
  8
0
 10
193.829315
 20
-177.645676
 11
196.329285
 21
-176.202316
  0
LINE
  8
0
 10
196.329254
 20
-181.975754
 11
198.829254
 21
-180.532379
  0
LINE
  8
0
 10
193.829254
 20
-180.532394
 11
196.329285
 21
-181.975784
  0
LINE
  8
0
 10
196.329239
 20
-176.202332
 11
198.829269
 21
-177.645721
  0
LINE
  8
0
 10
218.329285
 20
-165.089020
 11
218.329285
 21
-193.089005
  0
LINE
  8
0
 10
217.329239
 20
-164.088959
 11
218.329269
 21
-165.088989
  0
LINE
  8
0
 10
217.329224
 20
-194.089050
 11
218.329224
 21
-193.089035
  0
LINE
  8
0
 10
217.329224
 20
-194.089020
 11
217.329224
 21
-164.089020
  0
LINE
  8
0
 10
218.329269
 20
-193.089020
 11
211.829239
 21
-193.089020
  0
LINE
  8
0
 10
218.329269
 20
-165.089020
 11
211.829239
 21
-165.089020
  0
CIRCLE
  8
0
 10
196.329285
 20
-179.089020
 40
5.500000
  0
ARC
  8
0
 10
194.329224
 20
-214.089020
 40
4.500000
 50
90.000000
 51
270.000000
  0
ARC
  8
0
 10
198.329285
 20
-214.089020
 40
4.500000
 50
270.000000
 51
90.000000
  0
ARC
  8
0
 10
194.329224
 20
-144.089020
 40
4.500000
 50
90.000000
 51
270.000000
  0
ARC
  8
0
 10
198.329285
 20
-144.089020
 40
4.500000
 50
270.000000
 51
90.000000
  0
CIRCLE
  8
0
 10
196.329285
 20
-179.089020
 40
5.000000
  0
CIRCLE
  8
0
 10
196.329285
 20
-179.089020
 40
2.886752
  0
POINT
  8
0
 10
314.329285
 20
-179.089020
  0
POINT
  8
0
 10
359.329224
 20
-179.089020
  0
LINE
  8
0
 10
294.329285
 20
-164.089020
 11
294.329285
 21
-194.089020
  0
LINE
  8
0
 10
292.329285
 20
-164.089020
 11
341.795227
 21
-164.089020
  0
LINE
  8
0
 10
292.329285
 20
-194.089020
 11
341.795227
 21
-194.089020
  0
LINE
  8
0
 10
292.329285
 20
-164.089020
 11
292.329285
 21
-194.089020
  0
LINE
  8
0
 10
286.829285
 20
-169.589035
 11
286.829285
 21
-188.589020
  0
LINE
  8
0
 10
286.829285
 20
-169.589050
 11
292.329285
 21
-164.089050
  0
LINE
  8
0
 10
286.829285
 20
-188.589035
 11
292.329254
 21
-194.089005
  0
LINE
  8
0
 10
352.329285
 20
-134.089020
 11
359.329224
 21
-134.089020
  0
LINE
  8
0
 10
352.329285
 20
-224.089020
 11
359.329224
 21
-224.089020
  0
LINE
  8
0
 10
281.287720
 20
-179.089020
 11
364.356812
 21
-179.089020
  0
LINE
  8
0
 10
359.329224
 20
-134.089020
 11
359.329224
 21
-224.089005
  0
LINE
  8
0
 10
351.329285
 20
-135.089020
 11
351.329285
 21
-156.089020
  0
LINE
  8
0
 10
351.329285
 20
-202.089005
 11
351.329285
 21
-223.089005
  0
LINE
  8
0
 10
351.329315
 20
-223.089020
 11
352.329315
 21
-224.089020
  0
LINE
  8
0
 10
351.329285
 20
-135.089005
 11
352.329285
 21
-134.089005
  0
LINE
  8
0
 10
352.329285
 20
-137.089020
 11
359.329224
 21
-137.089020
  0
LINE
  8
0
 10
352.329285
 20
-221.089020
 11
359.329224
 21
-221.089020
  0
LINE
  8
0
 10
341.795258
 20
-194.089035
 11
351.329285
 21
-202.089035
  0
LINE
  8
0
 10
341.795166
 20
-164.088989
 11
351.329224
 21
-156.088974
  0
LINE
  8
0
 10
352.329285
 20
-134.089020
 11
352.329285
 21
-156.555328
  0
LINE
  8
0
 10
342.159149
 20
-165.088959
 11
352.329193
 21
-156.555267
  0
LINE
  8
0
 10
334.329285
 20
-165.089020
 11
342.159241
 21
-165.089020
  0
LINE
  8
0
 10
334.329285
 20
-193.089020
 11
342.159241
 21
-193.089020
  0
LINE
  8
0
 10
342.159210
 20
-193.088989
 11
352.329285
 21
-201.622696
  0
LINE
  8
0
 10
352.329285
 20
-201.622696
 11
352.329285
 21
-224.089005
  0
LINE
  8
0
 10
334.329285
 20
-164.089020
 11
334.329285
 21
-194.089020
  0
LINE
  8
0
 10
342.159393
 20
-193.089020
 11
341.795410
 21
-194.089050
  0
LINE
  8
0
 10
352.329224
 20
-201.622711
 11
351.329254
 21
-202.089020
  0
LINE
  8
0
 10
342.159332
 20
-165.088943
 11
341.795380
 21
-164.088943
  0
LINE
  8
0
 10
352.329315
 20
-156.555328
 11
351.329315
 21
-156.089020
  0
LINE
  8
0
 10
352.329254
 20
-137.088974
 11
351.329254
 21
-137.503189
  0
LINE
  8
0
 10
352.329254
 20
-221.089005
 11
351.329285
 21
-220.674789
  0
LINE
  8
0
 10
314.329285
 20
-160.543106
 11
314.329285
 21
-197.543091
  0
LINE
  8
0
 10
285.329285
 20
-174.689011
 11
285.329285
 21
-183.489029
  0
LINE
  8
0
 10
285.929260
 20
-184.089020
 11
286.829285
 21
-184.089020
  0
LINE
  8
0
 10
285.929260
 20
-174.089020
 11
286.829285
 21
-174.089020
  0
LINE
  8
0
 10
285.329254
 20
-183.489029
 11
285.929260
 21
-184.089020
  0
LINE
  8
0
 10
285.329285
 20
-174.689026
 11
285.929291
 21
-174.089020
  0
LINE
  8
0
 10
285.929260
 20
-174.089020
 11
285.929260
 21
-184.089020
  0
LINE
  8
0
 10
349.162598
 20
-144.089020
 11
362.829285
 21
-144.089020
  0
LINE
  8
0
 10
348.829285
 20
-214.089020
 11
363.162598
 21
-214.089020
  0
LINE
  8
0
 10
294.329285
 20
-165.089005
 11
295.329254
 21
-164.089020
  0
LINE
  8
0
 10
294.329285
 20
-193.088974
 11
295.329285
 21
-194.088974
  0
LINE
  8
0
 10
333.329315
 20
-194.089035
 11
334.329285
 21
-193.089066
  0
LINE
  8
0
 10
333.329285
 20
-164.089020
 11
334.329285
 21
-165.089020
  0
LINE
  8
0
 10
295.329285
 20
-164.089020
 11
295.329285
 21
-194.089020
  0
LINE
  8
0
 10
333.329285
 20
-194.089020
 11
333.329285
 21
-164.089020
  0
LINE
  8
0
 10
294.329285
 20
-165.089020
 11
334.329285
 21
-165.089020
  0
LINE
  8
0
 10
294.329285
 20
-193.089020
 11
334.329285
 21
-193.089020
  0
CIRCLE
  8
0
 10
314.329285
 20
-179.089020
 40
7.475000
  0
CIRCLE
  8
0
 10
314.329285
 20
-179.089020
 40
8.331000
  0
POINT
  8
0
 10
190.329285
 20
-79.089027
  0
POINT
  8
0
 10
218.329285
 20
-79.089027
  0
LINE
  8
0
 10
196.329285
 20
-31.543106
 11
196.329285
 21
-114.547150
  0
LINE
  8
0
 10
180.829285
 20
-34.089020
 11
180.829285
 21
-59.089020
  0
LINE
  8
0
 10
211.829224
 20
-34.089020
 11
211.829224
 21
-59.089020
  0
LINE
  8
0
 10
180.829269
 20
-99.089027
 11
217.329239
 21
-99.089027
  0
LINE
  8
0
 10
180.829269
 20
-101.089027
 11
211.829239
 21
-101.089027
  0
LINE
  8
0
 10
180.829269
 20
-101.088974
 11
187.383926
 21
-106.588982
  0
LINE
  8
0
 10
205.274597
 20
-106.589020
 11
211.829239
 21
-101.089012
  0
LINE
  8
0
 10
187.383896
 20
-106.589027
 11
205.274612
 21
-106.589027
  0
LINE
  8
0
 10
180.829285
 20
-34.089020
 11
211.829254
 21
-34.089020
  0
LINE
  8
0
 10
180.829269
 20
-59.089027
 11
190.329269
 21
-59.089027
  0
LINE
  8
0
 10
181.829239
 20
-42.089020
 11
210.829269
 21
-42.089020
  0
LINE
  8
0
 10
180.829269
 20
-41.089020
 11
211.829239
 21
-41.089020
  0
LINE
  8
0
 10
181.829224
 20
-42.089020
 11
181.829224
 21
-59.089020
  0
LINE
  8
0
 10
210.829285
 20
-42.089020
 11
210.829285
 21
-59.089020
  0
LINE
  8
0
 10
202.329224
 20
-59.089020
 11
202.329224
 21
-99.089020
  0
LINE
  8
0
 10
190.329285
 20
-59.089020
 11
190.329285
 21
-99.089020
  0
LINE
  8
0
 10
202.329239
 20
-59.089027
 11
217.329239
 21
-59.089027
  0
LINE
  8
0
 10
208.829285
 20
-34.089020
 11
208.829285
 21
-41.089020
  0
LINE
  8
0
 10
183.829285
 20
-34.089020
 11
183.829285
 21
-41.089020
  0
LINE
  8
0
 10
181.829254
 20
-42.089043
 11
180.829254
 21
-41.089043
  0
LINE
  8
0
 10
210.829239
 20
-42.089039
 11
211.829239
 21
-41.089035
  0
LINE
  8
0
 10
183.829224
 20
-41.089043
 11
184.243439
 21
-42.089031
  0
LINE
  8
0
 10
208.829239
 20
-41.089050
 11
208.415024
 21
-42.089058
  0
LINE
  8
0
 10
181.829239
 20
-51.623024
 11
210.829269
 21
-51.623024
  0
LINE
  8
0
 10
180.829224
 20
-51.259037
 11
181.829224
 21
-51.623032
  0
LINE
  8
0
 10
211.829239
 20
-51.259041
 11
210.829239
 21
-51.623039
  0
LINE
  8
0
 10
180.829285
 20
-99.089020
 11
180.829285
 21
-101.089020
  0
LINE
  8
0
 10
211.829224
 20
-99.089020
 11
211.829224
 21
-101.089020
  0
LINE
  8
0
 10
185.269363
 20
-79.089027
 11
223.916519
 21
-79.089027
  0
LINE
  8
0
 10
191.929276
 20
-108.089027
 11
200.729233
 21
-108.089027
  0
LINE
  8
0
 10
201.329285
 20
-106.589020
 11
201.329285
 21
-107.489029
  0
LINE
  8
0
 10
191.329285
 20
-106.589020
 11
191.329285
 21
-107.489029
  0
LINE
  8
0
 10
191.329315
 20
-107.488991
 11
191.929321
 21
-108.088989
  0
LINE
  8
0
 10
200.729218
 20
-108.089027
 11
201.329224
 21
-107.489021
  0
LINE
  8
0
 10
191.329239
 20
-107.489021
 11
201.329239
 21
-107.489021
  0
LINE
  8
0
 10
218.329285
 20
-60.089020
 11
218.329285
 21
-98.089020
  0
LINE
  8
0
 10
217.329239
 20
-99.089035
 11
218.329254
 21
-98.089012
  0
LINE
  8
0
 10
217.329224
 20
-59.089005
 11
218.329224
 21
-60.089005
  0
LINE
  8
0
 10
202.329315
 20
-98.089005
 11
203.329315
 21
-99.088989
  0
LINE
  8
0
 10
202.329239
 20
-60.089027
 11
203.329224
 21
-59.089050
  0
LINE
  8
0
 10
202.329239
 20
-98.089027
 11
218.329269
 21
-98.089027
  0
LINE
  8
0
 10
218.329269
 20
-60.089027
 11
202.329239
 21
-60.089027
  0
LINE
  8
0
 10
217.329224
 20
-99.089020
 11
217.329224
 21
-59.089020
  0
LINE
  8
0
 10
203.329285
 20
-99.089035
 11
203.329285
 21
-59.089020
  0
ENDSEC
  0
EOF
