  0
SECTION
  2
HEADER
  9
$ACADVER
  1
AC1003
  9
$EXTMIN
 10
-3.99250000E+02
 20
-2.76750000E+02
  9
$EXTMAX
 10
3.99799805E+02
 20
2.76250000E+02
  9
$LIMMIN
 10
-3.99251000E+02
 20
-2.76751000E+02
  9
$LIMMAX
 10
3.99800805E+02
 20
2.76251000E+02
  9
$SNAPUNIT
 10
1
 20
1
  9
$SNAPBASE
 10
0
 20
0
  9
$GRIDMODE
 70
0
  9
$GRIDUNIT
 10
0
 20
0
  9
$LTSCALE
 40
1.33174967E+01
  9
$TEXTSIZE
 40
3.2
  9
$DIMTAD
 70
0
  9
$LUNITS
 70
2
  9
$LUPREC
 70
4
  9
$FILLETRAD
 40
0
  9
$AUNITS
 70
0
  9
$AUPREC
 70
0
  0
ENDSEC
  0
SECTION
  2
TABLES
  0
TABLE
  2
LTYPE
 70
2
  0
LTYPE
  2
CONTINUOUS
 70
64
  3
Solid-Line
 72
65
 73
0
 40
0
  0
LTYPE
  2
DASHED
 70
64
  3
DASHED
 72
65
 73
2
 40
.75
 49
.5
 49
-.25
  0
LTYPE
  2
HIDDEN
 70
64
  3
HIDDEN
 72
65
 73
2
 40
.375
 49
.25
 49
-.125
  0
LTYPE
  2
CENTER
 70
64
  3
CENTER
 72
65
 73
4
 40
2
 49
1.25
 49
-.25
 49
.25
 49
-.25
  0
LTYPE
  2
PHANTOM
 70
64
  3
PHANTOM
 72
65
 73
6
 40
2.5
 49
1.25
 49
-.25
 49
.25
 49
-.25
 49
.25
 49
-.25
  0
ENDTAB
  0
TABLE
  2
LAYER
 70
1
  0
LAYER
  2
0
 70
0
 62
3
  6
CONTINUOUS
 0
ENDTAB
  0
TABLE
  2
STYLE
 70
2
  0
STYLE
  2
MONOTXT
 70
0
 40
0
 41
1
 50
0
 71
0
 42
.2
  3
monotxt
  0
STYLE
  2
BIGFONT
 70
0
 40
0
 41
1
 50
0
 71
0
 42
.2
  3
txt
  4
bigfont
  0
ENDTAB
  0
ENDSEC
  0
SECTION
  2
ENTITIES
  0
LINE
  8
0
 62
7
 10
-3.47080307E+02
 20
-1.15250000E+02
 11
-3.46460307E+02
 21
-1.13750000E+02
  0
LINE
  8
0
 62
7
 10
-3.49580307E+02
 20
-1.10630000E+02
 11
-3.51080307E+02
 21
-1.11250000E+02
  0
LINE
  8
0
 62
7
 10
-3.49580307E+02
 20
-1.10630000E+02
 11
-3.46460307E+02
 21
-1.13750000E+02
  0
LINE
  8
0
 62
7
 10
-3.51080307E+02
 20
-1.11250000E+02
 11
-3.47080307E+02
 21
-1.15250000E+02
  0
LINE
  8
0
 62
7
 10
-3.17080307E+02
 20
-1.15250000E+02
 11
-3.47080307E+02
 21
-1.15250000E+02
  0
LINE
  8
0
 62
7
 10
-3.17700307E+02
 20
-1.13750000E+02
 11
-3.46460307E+02
 21
-1.13750000E+02
  0
LINE
  8
0
 62
7
 10
-3.49580307E+02
 20
-1.10630000E+02
 11
-3.49580307E+02
 21
-8.32500000E+01
  0
LINE
  8
0
 62
7
 10
-3.51080307E+02
 20
-1.11250000E+02
 11
-3.51080307E+02
 21
-9.25000000E+00
  0
LINE
  8
0
  6
CENTER
 62
2
 10
-3.57070307E+02
 20
-6.02500000E+01
 11
-3.07070307E+02
 21
-6.02500000E+01
  0
LINE
  8
0
 62
7
 10
-3.13080307E+02
 20
-1.11250000E+02
 11
-3.17080307E+02
 21
-1.15250000E+02
  0
LINE
  8
0
 62
7
 10
-3.14580307E+02
 20
-1.10630000E+02
 11
-3.17700307E+02
 21
-1.13750000E+02
  0
LINE
  8
0
 62
7
 10
-3.17080307E+02
 20
-1.15250000E+02
 11
-3.17700307E+02
 21
-1.13750000E+02
  0
LINE
  8
0
 62
7
 10
-3.14580307E+02
 20
-1.10630000E+02
 11
-3.13080307E+02
 21
-1.11250000E+02
  0
LINE
  8
0
 62
7
 10
-3.30070307E+02
 20
-1.00750000E+02
 11
-3.34070307E+02
 21
-1.00750000E+02
  0
LINE
  8
0
 62
7
 10
-3.14580307E+02
 20
-1.10630000E+02
 11
-3.14580307E+02
 21
-8.32500000E+01
  0
LINE
  8
0
 62
7
 10
-3.13080307E+02
 20
-1.11250000E+02
 11
-3.13080307E+02
 21
-9.25000000E+00
  0
LINE
  8
0
 62
7
 10
-3.30070307E+02
 20
-1.09750000E+02
 11
-3.34070307E+02
 21
-1.09750000E+02
  0
ARC
  8
0
 62
7
 10
-3.34070307E+02
 20
-1.05250000E+02
 40
4.50000199E+00
 50
9.00000002E+01
 51
2.70000000E+02
  0
LINE
  8
0
  6
CENTER
 62
2
 10
-3.34070307E+02
 20
-1.11750000E+02
 11
-3.34070307E+02
 21
-9.87500000E+01
  0
LINE
  8
0
  6
CENTER
 62
2
 10
-3.30070307E+02
 20
-1.11750000E+02
 11
-3.30070307E+02
 21
-9.87500000E+01
  0
ARC
  8
0
 62
7
 10
-3.30070307E+02
 20
-1.05250000E+02
 40
4.50000199E+00
 50
2.70000000E+02
 51
9.00000002E+01
  0
LINE
  8
0
 62
7
 10
-3.47580307E+02
 20
-9.32500000E+01
 11
-3.16580307E+02
 21
-9.32500000E+01
  0
LINE
  8
0
  6
CENTER
 62
2
 10
-3.21570307E+02
 20
-1.05250000E+02
 11
-3.42580307E+02
 21
-1.05250000E+02
  0
LINE
  8
0
 62
7
 10
-3.22600307E+02
 20
-7.77500000E+01
 11
-3.13080307E+02
 21
-8.32500000E+01
  0
LINE
  8
0
 62
7
 10
-3.41550307E+02
 20
-7.77500000E+01
 11
-3.51080307E+02
 21
-8.32500000E+01
  0
LINE
  8
0
 62
7
 10
-3.41550307E+02
 20
-4.27500000E+01
 11
-3.41550307E+02
 21
-7.77500000E+01
  0
LINE
  8
0
 62
7
 10
-3.41550307E+02
 20
-4.27500000E+01
 11
-3.51080307E+02
 21
-3.72500000E+01
  0
LINE
  8
0
 62
7
 10
-3.22600307E+02
 20
-4.27500000E+01
 11
-3.13080307E+02
 21
-3.72500000E+01
  0
LINE
  8
0
 62
7
 10
-3.22600307E+02
 20
-4.27500000E+01
 11
-3.22600307E+02
 21
-7.77500000E+01
  0
CIRCLE
  8
0
 62
7
 10
-3.32074540E+02
 20
-7.17471777E+01
 40
5.50000000E+00
  0
CIRCLE
  8
0
 62
7
 10
-3.32074540E+02
 20
-4.87471777E+01
 40
5.50000000E+00
  0
LINE
  8
0
 62
7
 10
-3.13080307E+02
 20
-3.72500000E+01
 11
-3.51080307E+02
 21
-3.72500000E+01
  0
LINE
  8
0
  6
CENTER
 62
2
 10
-3.23570307E+02
 20
-4.87500000E+01
 11
-3.40570307E+02
 21
-4.87500000E+01
  0
LINE
  8
0
 62
7
 10
-3.22600307E+02
 20
-4.27500000E+01
 11
-3.41550307E+02
 21
-4.27500000E+01
  0
LINE
  8
0
 62
7
 10
-3.22600307E+02
 20
-7.77500000E+01
 11
-3.41550307E+02
 21
-7.77500000E+01
  0
LINE
  8
0
 62
7
 10
-3.13080307E+02
 20
-8.32500000E+01
 11
-3.51080307E+02
 21
-8.32500000E+01
  0
LINE
  8
0
  6
CENTER
 62
2
 10
-3.23570307E+02
 20
-7.17500000E+01
 11
-3.40570307E+02
 21
-7.17500000E+01
  0
LINE
  8
0
 62
7
 10
-3.17080307E+02
 20
-5.25000000E+00
 11
-3.47080307E+02
 21
-5.25000000E+00
  0
LINE
  8
0
 62
7
 10
-3.13080307E+02
 20
-9.25000000E+00
 11
-3.17080307E+02
 21
-5.25000000E+00
  0
LINE
  8
0
 62
7
 10
-3.51080307E+02
 20
-9.25000000E+00
 11
-3.47080307E+02
 21
-5.25000000E+00
  0
LINE
  8
0
 62
7
 10
-3.17700307E+02
 20
-6.75000000E+00
 11
-3.46460307E+02
 21
-6.75000000E+00
  0
LINE
  8
0
 62
7
 10
-3.49580307E+02
 20
-9.87000000E+00
 11
-3.46460307E+02
 21
-6.75000000E+00
  0
LINE
  8
0
 62
7
 10
-3.14580307E+02
 20
-9.87000000E+00
 11
-3.17700307E+02
 21
-6.75000000E+00
  0
LINE
  8
0
  6
CENTER
 62
2
 10
-3.21580307E+02
 20
-1.52500000E+01
 11
-3.42590307E+02
 21
-1.52500000E+01
  0
LINE
  8
0
 62
7
 10
-3.30080307E+02
 20
-1.07500000E+01
 11
-3.34080307E+02
 21
-1.07500000E+01
  0
LINE
  8
0
 62
7
 10
-3.30080307E+02
 20
-1.97500000E+01
 11
-3.34080307E+02
 21
-1.97500000E+01
  0
LINE
  8
0
  6
CENTER
 62
2
 10
-3.30080307E+02
 20
-8.75000000E+00
 11
-3.30080307E+02
 21
-2.17500000E+01
  0
LINE
  8
0
  6
CENTER
 62
2
 10
-3.34080307E+02
 20
-8.75000000E+00
 11
-3.34080307E+02
 21
-2.17500000E+01
  0
LINE
  8
0
 62
7
 10
-3.47580307E+02
 20
-2.72500000E+01
 11
-3.16580307E+02
 21
-2.72500000E+01
  0
LINE
  8
0
 62
7
 10
-3.49580307E+02
 20
-9.87000000E+00
 11
-3.51080307E+02
 21
-9.25000000E+00
  0
LINE
  8
0
 62
7
 10
-3.14580307E+02
 20
-9.87000000E+00
 11
-3.13080307E+02
 21
-9.25000000E+00
  0
LINE
  8
0
 62
7
 10
-3.17080307E+02
 20
-5.25000000E+00
 11
-3.17700307E+02
 21
-6.75000000E+00
  0
LINE
  8
0
 62
7
 10
-3.47080307E+02
 20
-5.25000000E+00
 11
-3.46460307E+02
 21
-6.75000000E+00
  0
ARC
  8
0
 62
7
 10
-3.30080307E+02
 20
-1.52500000E+01
 40
4.50000199E+00
 50
2.70000000E+02
 51
9.00000002E+01
  0
ARC
  8
0
 62
7
 10
-3.34080307E+02
 20
-1.52500000E+01
 40
4.50000199E+00
 50
9.00000002E+01
 51
2.70000000E+02
  0
LINE
  8
0
 62
7
 10
-3.49580307E+02
 20
-9.87000000E+00
 11
-3.49580307E+02
 21
-3.72500000E+01
  0
LINE
  8
0
 62
7
 10
-3.14580307E+02
 20
-9.87000000E+00
 11
-3.14580307E+02
 21
-3.72500000E+01
  0
LINE
  8
0
  6
CENTER
 62
2
 10
-3.32080307E+02
 20
-2.50000000E-01
 11
-3.32080307E+02
 21
-1.20250000E+02
  0
CIRCLE
  8
0
 62
7
 10
-3.32074540E+02
 20
-7.17471775E+01
 40
2.89829731E+00
  0
CIRCLE
  8
0
 62
7
 10
-3.32074540E+02
 20
-7.17471775E+01
 40
3.96076870E+00
  0
CIRCLE
  8
0
 62
7
 10
-3.32074540E+02
 20
-7.17471777E+01
 40
5.00000000E+00
  0
LINE
  8
0
 62
7
 10
-3.34584540E+02
 20
-7.31871777E+01
 11
-3.32074540E+02
 21
-7.46371777E+01
  0
LINE
  8
0
 62
7
 10
-3.32074540E+02
 20
-6.88571777E+01
 11
-3.29564540E+02
 21
-7.03071777E+01
  0
LINE
  8
0
 62
7
 10
-3.32074540E+02
 20
-7.46371777E+01
 11
-3.29564540E+02
 21
-7.31871777E+01
  0
LINE
  8
0
 62
7
 10
-3.34584540E+02
 20
-7.03071777E+01
 11
-3.32074540E+02
 21
-6.88571777E+01
  0
LINE
  8
0
 62
7
 10
-3.29564540E+02
 20
-7.03071777E+01
 11
-3.29564540E+02
 21
-7.31871777E+01
  0
LINE
  8
0
 62
7
 10
-3.34584540E+02
 20
-7.03071777E+01
 11
-3.34584540E+02
 21
-7.31871777E+01
  0
CIRCLE
  8
0
 62
7
 10
-3.32074540E+02
 20
-4.87471775E+01
 40
2.89829731E+00
  0
CIRCLE
  8
0
 62
7
 10
-3.32074540E+02
 20
-4.87471775E+01
 40
3.96076870E+00
  0
CIRCLE
  8
0
 62
7
 10
-3.32074540E+02
 20
-4.87471777E+01
 40
5.00000000E+00
  0
LINE
  8
0
 62
7
 10
-3.34584540E+02
 20
-5.01871777E+01
 11
-3.32074540E+02
 21
-5.16371777E+01
  0
LINE
  8
0
 62
7
 10
-3.32074540E+02
 20
-4.58571777E+01
 11
-3.29564540E+02
 21
-4.73071777E+01
  0
LINE
  8
0
 62
7
 10
-3.32074540E+02
 20
-5.16371777E+01
 11
-3.29564540E+02
 21
-5.01871777E+01
  0
LINE
  8
0
 62
7
 10
-3.34584540E+02
 20
-4.73071777E+01
 11
-3.32074540E+02
 21
-4.58571777E+01
  0
LINE
  8
0
 62
7
 10
-3.29564540E+02
 20
-4.73071777E+01
 11
-3.29564540E+02
 21
-5.01871777E+01
  0
LINE
  8
0
 62
7
 10
-3.34584540E+02
 20
-4.73071777E+01
 11
-3.34584540E+02
 21
-5.01871777E+01
  0
LINE
  8
0
 62
7
 10
-2.68990307E+02
 20
-7.67500000E+01
 11
-2.68080307E+02
 21
-7.67500000E+01
  0
LINE
  8
0
 62
7
 10
-2.69590307E+02
 20
-7.61500000E+01
 11
-2.68990307E+02
 21
-7.67500000E+01
  0
LINE
  8
0
 62
7
 10
-2.68990307E+02
 20
-6.67500000E+01
 11
-2.68080307E+02
 21
-6.67500000E+01
  0
LINE
  8
0
 62
7
 10
-2.69590307E+02
 20
-6.73500000E+01
 11
-2.68990307E+02
 21
-6.67500000E+01
  0
LINE
  8
0
  6
CENTER
 62
2
 10
-2.70929730E+02
 20
-7.17500000E+01
 11
-2.65113429E+02
 21
-7.17500000E+01
  0
LINE
  8
0
 62
7
 10
-2.69590307E+02
 20
-6.73500000E+01
 11
-2.69590307E+02
 21
-7.61500000E+01
  0
LINE
  8
0
 62
7
 10
-2.68990307E+02
 20
-6.67500000E+01
 11
-2.68990307E+02
 21
-7.67500000E+01
  0
LINE
  8
0
 62
7
 10
-2.68990307E+02
 20
-5.37500000E+01
 11
-2.68080307E+02
 21
-5.37500000E+01
  0
LINE
  8
0
 62
7
 10
-2.69590307E+02
 20
-4.43500000E+01
 11
-2.68990307E+02
 21
-4.37500000E+01
  0
LINE
  8
0
 62
7
 10
-2.69590307E+02
 20
-4.43500000E+01
 11
-2.69590307E+02
 21
-5.31500000E+01
  0
LINE
  8
0
 62
7
 10
-2.68990307E+02
 20
-4.37500000E+01
 11
-2.68080307E+02
 21
-4.37500000E+01
  0
LINE
  8
0
  6
CENTER
 62
2
 10
-2.70929730E+02
 20
-4.87500000E+01
 11
-2.65113429E+02
 21
-4.87500000E+01
  0
LINE
  8
0
 62
7
 10
-2.68990307E+02
 20
-4.37500000E+01
 11
-2.68990307E+02
 21
-5.37500000E+01
  0
LINE
  8
0
 62
7
 10
-2.69590307E+02
 20
-5.31500000E+01
 11
-2.68990307E+02
 21
-5.37500000E+01
  0
LINE
  8
0
 62
7
 10
-1.64090307E+02
 20
-1.15250000E+02
 11
-1.58590307E+02
 21
-1.15250000E+02
  0
LINE
  8
0
 62
7
 10
-1.65590307E+02
 20
-1.13750000E+02
 11
-1.64090307E+02
 21
-1.15250000E+02
  0
LINE
  8
0
 62
7
 10
-1.64090307E+02
 20
-1.11250000E+02
 11
-1.58590307E+02
 21
-1.11250000E+02
  0
LINE
  8
0
 62
7
 10
-1.65590307E+02
 20
-1.10630000E+02
 11
-1.64090307E+02
 21
-1.11250000E+02
  0
LINE
  8
0
 62
7
 10
-1.64090307E+02
 20
-5.25000000E+00
 11
-1.58590307E+02
 21
-5.25000000E+00
  0
LINE
  8
0
 62
7
 10
-1.64090307E+02
 20
-5.25000000E+00
 11
-1.65590307E+02
 21
-6.75000000E+00
  0
LINE
  8
0
 62
7
 10
-1.65590307E+02
 20
-9.88000000E+00
 11
-1.64090307E+02
 21
-9.25000000E+00
  0
LINE
  8
0
 62
7
 10
-1.64090307E+02
 20
-9.25000000E+00
 11
-1.58590307E+02
 21
-9.25000000E+00
  0
LINE
  8
0
  6
CENTER
 62
2
 10
-2.73080307E+02
 20
-6.02500000E+01
 11
-1.53590307E+02
 21
-6.02500000E+01
  0
LINE
  8
0
 62
7
 10
-2.68080307E+02
 20
-4.27500000E+01
 11
-2.68080307E+02
 21
-7.77500000E+01
  0
LINE
  8
0
 62
7
 10
-2.56080307E+02
 20
-4.57500000E+01
 11
-2.56080307E+02
 21
-7.47500000E+01
  0
LINE
  8
0
 62
7
 10
-2.62580307E+02
 20
-3.72500000E+01
 11
-1.77660307E+02
 21
-3.72500000E+01
  0
LINE
  8
0
 62
7
 10
-2.62580307E+02
 20
-8.32500000E+01
 11
-1.77660307E+02
 21
-8.32500000E+01
  0
LINE
  8
0
 62
7
 10
-2.60580307E+02
 20
-3.72500000E+01
 11
-2.60580307E+02
 21
-8.32500000E+01
  0
LINE
  8
0
 62
7
 10
-2.62580307E+02
 20
-3.72500000E+01
 11
-2.62580307E+02
 21
-8.32500000E+01
  0
LINE
  8
0
 62
7
 10
-2.62580307E+02
 20
-8.32500000E+01
 11
-2.68080307E+02
 21
-7.77500000E+01
  0
LINE
  8
0
 62
7
 10
-2.62580307E+02
 20
-3.72500000E+01
 11
-2.68080307E+02
 21
-4.27500000E+01
  0
LINE
  8
0
 62
7
 10
-2.60580307E+02
 20
-7.47500000E+01
 11
-2.56080307E+02
 21
-7.47500000E+01
  0
LINE
  8
0
 62
7
 10
-2.60580307E+02
 20
-4.57500000E+01
 11
-2.56080307E+02
 21
-4.57500000E+01
  0
LINE
  8
0
 62
7
 10
-2.10590307E+02
 20
-3.72500000E+01
 11
-2.10590307E+02
 21
-8.32500000E+01
  0
LINE
  8
0
 62
7
 10
-1.94590307E+02
 20
-3.72500000E+01
 11
-1.94590307E+02
 21
-8.32500000E+01
  0
LINE
  8
0
 62
7
 10
-1.67050307E+02
 20
-2.87200000E+01
 11
-1.74130307E+02
 21
-3.57900000E+01
  0
LINE
  8
0
 62
7
 10
-1.67050307E+02
 20
-9.17900000E+01
 11
-1.74130307E+02
 21
-8.47200000E+01
  0
LINE
  8
0
 62
7
 10
-2.10590307E+02
 20
-8.17500000E+01
 11
-1.94590307E+02
 21
-8.17500000E+01
  0
LINE
  8
0
 62
7
 10
-2.10590307E+02
 20
-3.87500000E+01
 11
-1.94590307E+02
 21
-3.87500000E+01
  0
LINE
  8
0
 62
7
 10
-1.65990307E+02
 20
-2.97800000E+01
 11
-1.73070307E+02
 21
-3.68500000E+01
  0
LINE
  8
0
 62
7
 10
-1.65990307E+02
 20
-9.07300000E+01
 11
-1.73070307E+02
 21
-8.36600000E+01
  0
LINE
  8
0
  6
CENTER
 62
2
 10
-2.35590307E+02
 20
-4.22500000E+01
 11
-2.35590307E+02
 21
-7.82500000E+01
  0
LINE
  8
0
  6
CENTER
 62
2
 10
-2.00590307E+02
 20
-5.27500000E+01
 11
-2.00590307E+02
 21
-6.77500000E+01
  0
LINE
  8
0
 62
7
 10
-2.15090307E+02
 20
-4.57500000E+01
 11
-2.15090307E+02
 21
-7.47500000E+01
  0
LINE
  8
0
 62
7
 10
-2.15090307E+02
 20
-7.47500000E+01
 11
-2.10590307E+02
 21
-7.47500000E+01
  0
LINE
  8
0
 62
7
 10
-2.15090307E+02
 20
-4.57500000E+01
 11
-2.10590307E+02
 21
-4.57500000E+01
  0
LINE
  8
0
 62
7
 10
-2.02590307E+02
 20
-5.91000000E+01
 11
-2.02590307E+02
 21
-6.14100000E+01
  0
LINE
  8
0
 62
7
 10
-1.98590307E+02
 20
-5.91000000E+01
 11
-1.98590307E+02
 21
-6.14100000E+01
  0
LINE
  8
0
 62
7
 10
-2.02590307E+02
 20
-5.91000000E+01
 11
-2.00590307E+02
 21
-5.79500000E+01
  0
LINE
  8
0
 62
7
 10
-2.00590307E+02
 20
-6.25600000E+01
 11
-1.98590307E+02
 21
-6.14100000E+01
  0
LINE
  8
0
 62
7
 10
-2.00590307E+02
 20
-5.79500000E+01
 11
-1.98590307E+02
 21
-5.91000000E+01
  0
LINE
  8
0
 62
7
 10
-2.02590307E+02
 20
-6.14100000E+01
 11
-2.00590307E+02
 21
-6.25600000E+01
  0
LINE
  8
0
 62
7
 10
-1.90590307E+02
 20
-3.72500000E+01
 11
-1.90590307E+02
 21
-8.32500000E+01
  0
LINE
  8
0
 62
7
 10
-1.86590307E+02
 20
-3.72500000E+01
 11
-1.86590307E+02
 21
-8.32500000E+01
  0
LINE
  8
0
 62
7
 10
-1.86590307E+02
 20
-8.17500000E+01
 11
-1.77660307E+02
 21
-8.17500000E+01
  0
LINE
  8
0
 62
7
 10
-1.86590307E+02
 20
-3.87500000E+01
 11
-1.77660307E+02
 21
-3.87500000E+01
  0
ARC
  8
0
 62
7
 10
-1.77657712E+02
 20
-3.22588407E+01
 40
4.99115995E+00
 50
2.69970220E+02
 51
3.14969533E+02
  0
ARC
  8
0
 62
7
 10
-1.70587154E+02
 20
-2.51902269E+01
 40
4.99685768E+00
 50
3.15057356E+02
 51
1.17264888E-01
  0
ARC
  8
0
 62
7
 10
-1.77672335E+02
 20
-8.82522854E+01
 40
5.00229989E+00
 50
4.49210920E+01
 51
8.98622302E+01
  0
ARC
  8
0
 62
7
 10
-1.70589701E+02
 20
-9.53208235E+01
 40
4.99940239E+00
 50
3.59894833E+02
 51
4.49305465E+01
  0
ARC
  8
0
 62
7
 10
-1.77673460E+02
 20
-8.82518189E+01
 40
6.50183216E+00
 50
4.49293723E+01
 51
8.98840891E+01
  0
ARC
  8
0
 62
7
 10
-1.70589237E+02
 20
-9.53219496E+01
 40
6.49893549E+00
 50
3.59929026E+02
 51
4.49564809E+01
  0
ARC
  8
0
 62
7
 10
-1.77658840E+02
 20
-3.22593073E+01
 40
6.49069289E+00
 50
2.69987049E+02
 51
3.14986519E+02
  0
ARC
  8
0
 62
7
 10
-1.70586690E+02
 20
-2.51891024E+01
 40
6.49639015E+00
 50
3.15034214E+02
 51
8.02794429E-02
  0
CIRCLE
  8
0
 62
7
 10
-2.35586043E+02
 20
-6.02585950E+01
 40
1.35000000E+01
  0
CIRCLE
  8
0
 62
7
 10
-2.00586043E+02
 20
-6.02585950E+01
 40
4.75000000E+00
  0
CIRCLE
  8
0
 62
7
 10
-2.00586043E+02
 20
-6.02585950E+01
 40
4.25000000E+00
  0
CIRCLE
  8
0
 62
7
 10
-2.00586043E+02
 20
-6.02585950E+01
 40
3.73038483E+00
  0
CIRCLE
  8
0
 62
7
 10
-2.00586043E+02
 20
-6.02585950E+01
 40
2.30940056E+00
  0
LINE
  8
0
 62
7
 10
-1.64090307E+02
 20
-9.53300000E+01
 11
-1.64090307E+02
 21
-1.15250000E+02
  0
LINE
  8
0
 62
7
 10
-1.65590307E+02
 20
-9.53300000E+01
 11
-1.65590307E+02
 21
-1.13750000E+02
  0
LINE
  8
0
 62
7
 10
-1.64090307E+02
 20
-5.25000000E+00
 11
-1.64090307E+02
 21
-2.51800000E+01
  0
LINE
  8
0
 62
7
 10
-1.65590307E+02
 20
-6.75000000E+00
 11
-1.65590307E+02
 21
-2.51800000E+01
  0
LINE
  8
0
 62
7
 10
-1.58590307E+02
 20
-5.25000000E+00
 11
-1.58590307E+02
 21
-1.15250000E+02
  0
LINE
  8
0
  6
CENTER
 62
2
 10
-1.68725707E+02
 20
-1.52500000E+01
 11
-1.53590307E+02
 21
-1.52500000E+01
  0
LINE
  8
0
  6
CENTER
 62
2
 10
-1.68725707E+02
 20
-1.05250000E+02
 11
-1.53590307E+02
 21
-1.05250000E+02
  0
LINE
  8
0
 62
7
 10
-3.27680307E+02
 20
3.47500000E+01
 11
-3.27080307E+02
 21
3.53500000E+01
  0
LINE
  8
0
 62
7
 10
-3.27080307E+02
 20
3.53500000E+01
 11
-3.27080307E+02
 21
3.62600000E+01
  0
LINE
  8
0
 62
7
 10
-3.37080307E+02
 20
3.53500000E+01
 11
-3.37080307E+02
 21
3.62600000E+01
  0
LINE
  8
0
 62
7
 10
-3.36480307E+02
 20
3.47500000E+01
 11
-3.37080307E+02
 21
3.53500000E+01
  0
LINE
  8
0
 62
7
 10
-3.36480307E+02
 20
3.47500000E+01
 11
-3.27680307E+02
 21
3.47500000E+01
  0
LINE
  8
0
 62
7
 10
-3.37080307E+02
 20
3.53500000E+01
 11
-3.27080307E+02
 21
3.53500000E+01
  0
LINE
  8
0
 62
7
 10
-3.51080307E+02
 20
1.09760000E+02
 11
-3.51080307E+02
 21
9.37600000E+01
  0
LINE
  8
0
 62
7
 10
-3.50686608E+02
 20
8.92600000E+01
 11
-3.46627435E+02
 21
8.92600000E+01
  0
LINE
  8
0
 62
7
 10
-3.46580307E+02
 20
9.19600000E+01
 11
-3.46627435E+02
 21
8.92600000E+01
  0
LINE
  8
0
 62
7
 10
-3.51080307E+02
 20
9.37600000E+01
 11
-3.50686608E+02
 21
8.92600000E+01
  0
LINE
  8
0
 62
7
 10
-3.49580307E+02
 20
1.11260000E+02
 11
-3.49580307E+02
 21
9.37600000E+01
  0
LINE
  8
0
 62
7
 10
-3.51080307E+02
 20
1.09760000E+02
 11
-3.47080307E+02
 21
1.13760000E+02
  0
LINE
  8
0
 62
7
 10
-3.44780307E+02
 20
9.37600000E+01
 11
-3.46580307E+02
 21
9.19600000E+01
  0
LINE
  8
0
 62
7
 10
-3.51080307E+02
 20
9.37600000E+01
 11
-3.42080307E+02
 21
9.37600000E+01
  0
LINE
  8
0
 62
7
 10
-3.13080307E+02
 20
1.09760000E+02
 11
-3.13080307E+02
 21
9.37600000E+01
  0
LINE
  8
0
 62
7
 10
-3.13474006E+02
 20
8.92600000E+01
 11
-3.17533178E+02
 21
8.92600000E+01
  0
LINE
  8
0
 62
7
 10
-3.17580307E+02
 20
9.19600000E+01
 11
-3.17533178E+02
 21
8.92600000E+01
  0
LINE
  8
0
 62
7
 10
-3.13080307E+02
 20
9.37600000E+01
 11
-3.13474006E+02
 21
8.92600000E+01
  0
LINE
  8
0
 62
7
 10
-3.14580307E+02
 20
1.11260000E+02
 11
-3.14580307E+02
 21
9.37600000E+01
  0
LINE
  8
0
 62
7
 10
-3.13080307E+02
 20
1.09760000E+02
 11
-3.17080307E+02
 21
1.13760000E+02
  0
LINE
  8
0
 62
7
 10
-3.19380307E+02
 20
9.37600000E+01
 11
-3.17580307E+02
 21
9.19600000E+01
  0
LINE
  8
0
 62
7
 10
-3.13080307E+02
 20
9.37600000E+01
 11
-3.22080307E+02
 21
9.37600000E+01
  0
LINE
  8
0
 62
7
 10
-3.42080307E+02
 20
1.13760000E+02
 11
-3.42080307E+02
 21
9.37600000E+01
  0
LINE
  8
0
 62
7
 10
-3.46280307E+02
 20
4.82600000E+01
 11
-3.50686608E+02
 21
4.82600000E+01
  0
LINE
  8
0
 62
7
 10
-3.19680307E+02
 20
4.37600000E+01
 11
-3.17880307E+02
 21
4.55600000E+01
  0
LINE
  8
0
 62
7
 10
-3.44480307E+02
 20
4.37600000E+01
 11
-3.46280307E+02
 21
4.55600000E+01
  0
LINE
  8
0
 62
7
 10
-3.17880307E+02
 20
4.55600000E+01
 11
-3.17880307E+02
 21
4.82600000E+01
  0
LINE
  8
0
 62
7
 10
-3.46280307E+02
 20
4.55600000E+01
 11
-3.46280307E+02
 21
4.82600000E+01
  0
LINE
  8
0
 62
7
 10
-3.51080307E+02
 20
4.17600000E+01
 11
-3.41554027E+02
 21
3.62600000E+01
  0
LINE
  8
0
 62
7
 10
-3.22606586E+02
 20
3.62600000E+01
 11
-3.41554027E+02
 21
3.62600000E+01
  0
LINE
  8
0
 62
7
 10
-3.13080307E+02
 20
4.17600000E+01
 11
-3.22606586E+02
 21
3.62600000E+01
  0
LINE
  8
0
 62
7
 10
-3.13080307E+02
 20
4.37600000E+01
 11
-3.13474006E+02
 21
4.82600000E+01
  0
LINE
  8
0
 62
7
 10
-3.51080307E+02
 20
4.37600000E+01
 11
-3.50686608E+02
 21
4.82600000E+01
  0
LINE
  8
0
 62
7
 10
-3.13080307E+02
 20
4.17600000E+01
 11
-3.13080307E+02
 21
4.37600000E+01
  0
LINE
  8
0
 62
7
 10
-3.51080307E+02
 20
4.17600000E+01
 11
-3.51080307E+02
 21
4.37600000E+01
  0
LINE
  8
0
 62
7
 10
-3.13474006E+02
 20
4.82600000E+01
 11
-3.17880307E+02
 21
4.82600000E+01
  0
LINE
  8
0
 62
7
 10
-3.13080307E+02
 20
4.17600000E+01
 11
-3.51080307E+02
 21
4.17600000E+01
  0
LINE
  8
0
 62
7
 10
-3.13080307E+02
 20
4.37600000E+01
 11
-3.51080307E+02
 21
4.37600000E+01
  0
LINE
  8
0
 62
7
 10
-3.13080307E+02
 20
1.17760000E+02
 11
-3.17080307E+02
 21
1.13760000E+02
  0
LINE
  8
0
 62
7
 10
-3.47080307E+02
 20
1.13760000E+02
 11
-3.51080307E+02
 21
1.17760000E+02
  0
LINE
  8
0
 62
7
 10
-3.14580307E+02
 20
1.38760000E+02
 11
-3.13080307E+02
 21
1.40260000E+02
  0
LINE
  8
0
 62
7
 10
-3.49580307E+02
 20
1.38760000E+02
 11
-3.51080307E+02
 21
1.40260000E+02
  0
LINE
  8
0
 62
7
 10
-3.46460307E+02
 20
1.38760000E+02
 11
-3.47080307E+02
 21
1.40260000E+02
  0
LINE
  8
0
 62
7
 10
-3.17700307E+02
 20
1.38760000E+02
 11
-3.17080307E+02
 21
1.40260000E+02
  0
LINE
  8
0
 62
7
 10
-3.47080307E+02
 20
1.40260000E+02
 11
-3.47080307E+02
 21
1.45760000E+02
  0
LINE
  8
0
 62
7
 10
-3.14580307E+02
 20
1.16260000E+02
 11
-3.14580307E+02
 21
1.38760000E+02
  0
LINE
  8
0
 62
7
 10
-3.49580307E+02
 20
1.16260000E+02
 11
-3.49580307E+02
 21
1.38760000E+02
  0
LINE
  8
0
 62
7
 10
-3.17080307E+02
 20
1.45760000E+02
 11
-3.17080307E+02
 21
1.40260000E+02
  0
LINE
  8
0
 62
7
 10
-3.42080307E+02
 20
1.13760000E+02
 11
-3.47080307E+02
 21
1.13760000E+02
  0
LINE
  8
0
 62
7
 10
-3.22080307E+02
 20
1.13760000E+02
 11
-3.17080307E+02
 21
1.13760000E+02
  0
LINE
  8
0
 62
7
 10
-3.26080307E+02
 20
9.37600000E+01
 11
-3.22080307E+02
 21
9.37600000E+01
  0
LINE
  8
0
 62
7
 10
-3.38080307E+02
 20
9.37600000E+01
 11
-3.42080307E+02
 21
9.37600000E+01
  0
LINE
  8
0
 62
7
 10
-3.13080307E+02
 20
1.40260000E+02
 11
-3.51080307E+02
 21
1.40260000E+02
  0
LINE
  8
0
 62
7
 10
-3.14580307E+02
 20
1.38760000E+02
 11
-3.49580307E+02
 21
1.38760000E+02
  0
LINE
  8
0
 62
7
 10
-3.13080307E+02
 20
1.45760000E+02
 11
-3.51080307E+02
 21
1.45760000E+02
  0
LINE
  8
0
 62
7
 10
-3.26080307E+02
 20
4.37600000E+01
 11
-3.26080307E+02
 21
9.37600000E+01
  0
LINE
  8
0
 62
7
 10
-3.38080307E+02
 20
4.37600000E+01
 11
-3.38080307E+02
 21
9.37600000E+01
  0
LINE
  8
0
 62
7
 10
-3.22080307E+02
 20
9.37600000E+01
 11
-3.22080307E+02
 21
1.13760000E+02
  0
LINE
  8
0
 62
7
 10
-3.13080307E+02
 20
1.17760000E+02
 11
-3.13080307E+02
 21
1.45760000E+02
  0
LINE
  8
0
 62
7
 10
-3.51080307E+02
 20
1.17760000E+02
 11
-3.51080307E+02
 21
1.45760000E+02
  0
LINE
  8
0
  6
CENTER
 62
2
 10
-3.32080307E+02
 20
3.12700000E+01
 11
-3.32080307E+02
 21
1.50760000E+02
  0
LINE
  8
0
  6
CENTER
 62
2
 10
-3.50080307E+02
 20
6.87600000E+01
 11
-3.14080307E+02
 21
6.87600000E+01
  0
LINE
  8
0
 62
7
 10
-8.80451836E+01
 20
-1.15250000E+02
 11
-8.74251836E+01
 21
-1.13750000E+02
  0
LINE
  8
0
 62
7
 10
-9.05451836E+01
 20
-1.10630000E+02
 11
-9.20451836E+01
 21
-1.11250000E+02
  0
LINE
  8
0
 62
7
 10
-9.05451836E+01
 20
-1.10630000E+02
 11
-8.74251836E+01
 21
-1.13750000E+02
  0
LINE
  8
0
 62
7
 10
-9.20451836E+01
 20
-1.11250000E+02
 11
-8.80451836E+01
 21
-1.15250000E+02
  0
LINE
  8
0
 62
7
 10
-5.80451836E+01
 20
-1.15250000E+02
 11
-8.80451836E+01
 21
-1.15250000E+02
  0
LINE
  8
0
 62
7
 10
-5.86651836E+01
 20
-1.13750000E+02
 11
-8.74251836E+01
 21
-1.13750000E+02
  0
LINE
  8
0
 62
7
 10
-9.05451836E+01
 20
-1.10630000E+02
 11
-9.05451836E+01
 21
-8.32500000E+01
  0
LINE
  8
0
 62
7
 10
-9.20451836E+01
 20
-1.11250000E+02
 11
-9.20451836E+01
 21
-9.25000000E+00
  0
LINE
  8
0
  6
CENTER
 62
2
 10
-9.80351836E+01
 20
-6.02500000E+01
 11
-1.40451836E+01
 21
-6.02500000E+01
  0
LINE
  8
0
 62
7
 10
-5.40451836E+01
 20
-1.11250000E+02
 11
-5.80451836E+01
 21
-1.15250000E+02
  0
LINE
  8
0
 62
7
 10
-5.55451836E+01
 20
-1.10630000E+02
 11
-5.86651836E+01
 21
-1.13750000E+02
  0
LINE
  8
0
 62
7
 10
-5.80451836E+01
 20
-1.15250000E+02
 11
-5.86651836E+01
 21
-1.13750000E+02
  0
LINE
  8
0
 62
7
 10
-5.55451836E+01
 20
-1.10630000E+02
 11
-5.40451836E+01
 21
-1.11250000E+02
  0
LINE
  8
0
 62
7
 10
-7.10351836E+01
 20
-1.00750000E+02
 11
-7.50351836E+01
 21
-1.00750000E+02
  0
LINE
  8
0
 62
7
 10
-5.55451836E+01
 20
-1.10630000E+02
 11
-5.55451836E+01
 21
-8.52500000E+01
  0
LINE
  8
0
 62
7
 10
-5.40451836E+01
 20
-1.11250000E+02
 11
-5.40451836E+01
 21
-8.52500000E+01
  0
LINE
  8
0
 62
7
 10
-7.10351836E+01
 20
-1.09750000E+02
 11
-7.50351836E+01
 21
-1.09750000E+02
  0
ARC
  8
0
 62
7
 10
-7.50351836E+01
 20
-1.05250000E+02
 40
4.50000199E+00
 50
9.00000002E+01
 51
2.70000000E+02
  0
LINE
  8
0
  6
CENTER
 62
2
 10
-7.50351836E+01
 20
-1.11750000E+02
 11
-7.50351836E+01
 21
-9.87500000E+01
  0
LINE
  8
0
  6
CENTER
 62
2
 10
-7.10351836E+01
 20
-1.11750000E+02
 11
-7.10351836E+01
 21
-9.87500000E+01
  0
ARC
  8
0
 62
7
 10
-7.10351836E+01
 20
-1.05250000E+02
 40
4.50000199E+00
 50
2.70000000E+02
 51
9.00000002E+01
  0
LINE
  8
0
 62
7
 10
-8.85451836E+01
 20
-9.32500000E+01
 11
-5.75451836E+01
 21
-9.32500000E+01
  0
LINE
  8
0
  6
CENTER
 62
2
 10
-6.25351836E+01
 20
-1.05250000E+02
 11
-8.35451836E+01
 21
-1.05250000E+02
  0
LINE
  8
0
 62
7
 10
-6.35651836E+01
 20
-7.77500000E+01
 11
-5.40451836E+01
 21
-8.32500000E+01
  0
LINE
  8
0
 62
7
 10
-8.25151836E+01
 20
-7.77500000E+01
 11
-9.20451836E+01
 21
-8.32500000E+01
  0
LINE
  8
0
 62
7
 10
-8.25151836E+01
 20
-4.27500000E+01
 11
-8.25151836E+01
 21
-7.77500000E+01
  0
LINE
  8
0
 62
7
 10
-8.25151836E+01
 20
-4.27500000E+01
 11
-9.20451836E+01
 21
-3.72500000E+01
  0
LINE
  8
0
 62
7
 10
-6.35651836E+01
 20
-4.27500000E+01
 11
-5.40451836E+01
 21
-3.72500000E+01
  0
LINE
  8
0
 62
7
 10
-6.35651836E+01
 20
-4.27500000E+01
 11
-6.35651836E+01
 21
-7.77500000E+01
  0
CIRCLE
  8
0
 62
7
 10
-7.30394170E+01
 20
-7.17471777E+01
 40
5.50000000E+00
  0
CIRCLE
  8
0
 62
7
 10
-7.30394170E+01
 20
-4.87471777E+01
 40
5.50000000E+00
  0
LINE
  8
0
 62
7
 10
-5.40451836E+01
 20
-3.72500000E+01
 11
-9.20451836E+01
 21
-3.72500000E+01
  0
LINE
  8
0
  6
CENTER
 62
2
 10
-6.45351836E+01
 20
-4.87500000E+01
 11
-8.15351836E+01
 21
-4.87500000E+01
  0
LINE
  8
0
 62
7
 10
-6.35651836E+01
 20
-4.27500000E+01
 11
-8.25151836E+01
 21
-4.27500000E+01
  0
LINE
  8
0
 62
7
 10
-6.35651836E+01
 20
-7.77500000E+01
 11
-8.25151836E+01
 21
-7.77500000E+01
  0
LINE
  8
0
 62
7
 10
-5.40451836E+01
 20
-8.32500000E+01
 11
-9.20451836E+01
 21
-8.32500000E+01
  0
LINE
  8
0
  6
CENTER
 62
2
 10
-6.45351836E+01
 20
-7.17500000E+01
 11
-8.15351836E+01
 21
-7.17500000E+01
  0
LINE
  8
0
 62
7
 10
-5.80451836E+01
 20
-5.25000000E+00
 11
-8.80451836E+01
 21
-5.25000000E+00
  0
LINE
  8
0
 62
7
 10
-5.40451836E+01
 20
-9.25000000E+00
 11
-5.80451836E+01
 21
-5.25000000E+00
  0
LINE
  8
0
 62
7
 10
-9.20451836E+01
 20
-9.25000000E+00
 11
-8.80451836E+01
 21
-5.25000000E+00
  0
LINE
  8
0
 62
7
 10
-5.86651836E+01
 20
-6.75000000E+00
 11
-8.74251836E+01
 21
-6.75000000E+00
  0
LINE
  8
0
 62
7
 10
-9.05451836E+01
 20
-9.87000000E+00
 11
-8.74251836E+01
 21
-6.75000000E+00
  0
LINE
  8
0
 62
7
 10
-5.55451836E+01
 20
-9.87000000E+00
 11
-5.86651836E+01
 21
-6.75000000E+00
  0
LINE
  8
0
  6
CENTER
 62
2
 10
-6.25451836E+01
 20
-1.52500000E+01
 11
-8.35551836E+01
 21
-1.52500000E+01
  0
LINE
  8
0
 62
7
 10
-7.10451836E+01
 20
-1.07500000E+01
 11
-7.50451836E+01
 21
-1.07500000E+01
  0
LINE
  8
0
 62
7
 10
-7.10451836E+01
 20
-1.97500000E+01
 11
-7.50451836E+01
 21
-1.97500000E+01
  0
LINE
  8
0
  6
CENTER
 62
2
 10
-7.10451836E+01
 20
-8.75000000E+00
 11
-7.10451836E+01
 21
-2.17500000E+01
  0
LINE
  8
0
  6
CENTER
 62
2
 10
-7.50451836E+01
 20
-8.75000000E+00
 11
-7.50451836E+01
 21
-2.17500000E+01
  0
LINE
  8
0
 62
7
 10
-8.85451836E+01
 20
-2.72500000E+01
 11
-6.20451836E+01
 21
-2.72500000E+01
  0
LINE
  8
0
 62
7
 10
-9.05451836E+01
 20
-9.87000000E+00
 11
-9.20451836E+01
 21
-9.25000000E+00
  0
LINE
  8
0
 62
7
 10
-5.55451836E+01
 20
-9.87000000E+00
 11
-5.40451836E+01
 21
-9.25000000E+00
  0
LINE
  8
0
 62
7
 10
-5.80451836E+01
 20
-5.25000000E+00
 11
-5.86651836E+01
 21
-6.75000000E+00
  0
LINE
  8
0
 62
7
 10
-8.80451836E+01
 20
-5.25000000E+00
 11
-8.74251836E+01
 21
-6.75000000E+00
  0
ARC
  8
0
 62
7
 10
-7.10451836E+01
 20
-1.52500000E+01
 40
4.50000199E+00
 50
2.70000000E+02
 51
9.00000002E+01
  0
ARC
  8
0
 62
7
 10
-7.50451836E+01
 20
-1.52500000E+01
 40
4.50000199E+00
 50
9.00000002E+01
 51
2.70000000E+02
  0
LINE
  8
0
 62
7
 10
-9.05451836E+01
 20
-9.87000000E+00
 11
-9.05451836E+01
 21
-3.72500000E+01
  0
LINE
  8
0
 62
7
 10
-5.55451836E+01
 20
-9.87000000E+00
 11
-5.55451836E+01
 21
-2.52500000E+01
  0
LINE
  8
0
  6
CENTER
 62
2
 10
-7.30451836E+01
 20
-2.50000000E-01
 11
-7.30451836E+01
 21
-1.20250000E+02
  0
CIRCLE
  8
0
 62
7
 10
-7.30394170E+01
 20
-7.17471775E+01
 40
2.89829731E+00
  0
CIRCLE
  8
0
 62
7
 10
-7.30394170E+01
 20
-7.17471775E+01
 40
3.96076870E+00
  0
CIRCLE
  8
0
 62
7
 10
-7.30394170E+01
 20
-7.17471777E+01
 40
5.00000000E+00
  0
LINE
  8
0
 62
7
 10
-7.55494170E+01
 20
-7.31871777E+01
 11
-7.30394170E+01
 21
-7.46371777E+01
  0
LINE
  8
0
 62
7
 10
-7.30394170E+01
 20
-6.88571777E+01
 11
-7.05294170E+01
 21
-7.03071777E+01
  0
LINE
  8
0
 62
7
 10
-7.30394170E+01
 20
-7.46371777E+01
 11
-7.05294170E+01
 21
-7.31871777E+01
  0
LINE
  8
0
 62
7
 10
-7.55494170E+01
 20
-7.03071777E+01
 11
-7.30394170E+01
 21
-6.88571777E+01
  0
LINE
  8
0
 62
7
 10
-7.05294170E+01
 20
-7.03071777E+01
 11
-7.05294170E+01
 21
-7.31871777E+01
  0
LINE
  8
0
 62
7
 10
-7.55494170E+01
 20
-7.03071777E+01
 11
-7.55494170E+01
 21
-7.31871777E+01
  0
CIRCLE
  8
0
 62
7
 10
-7.30394170E+01
 20
-4.87471775E+01
 40
2.89829731E+00
  0
CIRCLE
  8
0
 62
7
 10
-7.30394170E+01
 20
-4.87471775E+01
 40
3.96076870E+00
  0
CIRCLE
  8
0
 62
7
 10
-7.30394170E+01
 20
-4.87471777E+01
 40
5.00000000E+00
  0
LINE
  8
0
 62
7
 10
-7.55494170E+01
 20
-5.01871777E+01
 11
-7.30394170E+01
 21
-5.16371777E+01
  0
LINE
  8
0
 62
7
 10
-7.30394170E+01
 20
-4.58571777E+01
 11
-7.05294170E+01
 21
-4.73071777E+01
  0
LINE
  8
0
 62
7
 10
-7.30394170E+01
 20
-5.16371777E+01
 11
-7.05294170E+01
 21
-5.01871777E+01
  0
LINE
  8
0
 62
7
 10
-7.55494170E+01
 20
-4.73071777E+01
 11
-7.30394170E+01
 21
-4.58571777E+01
  0
LINE
  8
0
 62
7
 10
-7.05294170E+01
 20
-4.73071777E+01
 11
-7.05294170E+01
 21
-5.01871777E+01
  0
LINE
  8
0
 62
7
 10
-7.55494170E+01
 20
-4.73071777E+01
 11
-7.55494170E+01
 21
-5.01871777E+01
  0
LINE
  8
0
 62
7
 10
-6.20451836E+01
 20
-2.62500000E+01
 11
-6.20451836E+01
 21
-3.42500000E+01
  0
LINE
  8
0
 62
7
 10
-3.00451836E+01
 20
-2.62500000E+01
 11
-3.00451836E+01
 21
-3.42500000E+01
  0
LINE
  8
0
 62
7
 10
-3.10451836E+01
 20
-2.52500000E+01
 11
-6.10451836E+01
 21
-2.52500000E+01
  0
LINE
  8
0
 62
7
 10
-3.10451836E+01
 20
-2.52500000E+01
 11
-3.00451836E+01
 21
-2.62500000E+01
  0
LINE
  8
0
 62
7
 10
-6.10451836E+01
 20
-2.52500000E+01
 11
-6.20451836E+01
 21
-2.62500000E+01
  0
LINE
  8
0
 62
7
 10
-3.00451836E+01
 20
-2.62500000E+01
 11
-6.20451836E+01
 21
-2.62500000E+01
  0
LINE
  8
0
 62
7
 10
-1.80451836E+01
 20
-8.52500000E+01
 11
-6.60451836E+01
 21
-8.52500000E+01
  0
LINE
  8
0
 62
7
 10
-1.80451836E+01
 20
-3.52500000E+01
 11
-6.60451836E+01
 21
-3.52500000E+01
  0
LINE
  8
0
  6
CENTER
 62
2
 10
-4.60451836E+01
 20
-2.22500000E+01
 11
-4.60451836E+01
 21
-3.82500000E+01
  0
LINE
  8
0
 62
7
 10
-1.70451836E+01
 20
-3.62500000E+01
 11
-1.70451836E+01
 21
-8.42500000E+01
  0
LINE
  8
0
 62
7
 10
-1.70451836E+01
 20
-8.42500000E+01
 11
-1.80451836E+01
 21
-8.52500000E+01
  0
LINE
  8
0
 62
7
 10
-6.60451836E+01
 20
-8.52500000E+01
 11
-6.70451836E+01
 21
-8.42500000E+01
  0
LINE
  8
0
 62
7
 10
-6.60451836E+01
 20
-3.52500000E+01
 11
-6.70451836E+01
 21
-3.62500000E+01
  0
LINE
  8
0
 62
7
 10
-1.80451836E+01
 20
-3.52500000E+01
 11
-1.70451836E+01
 21
-3.62500000E+01
  0
LINE
  8
0
 62
7
 10
-1.70451836E+01
 20
-3.62500000E+01
 11
-6.70451836E+01
 21
-3.62500000E+01
  0
LINE
  8
0
 62
7
 10
-1.70451836E+01
 20
-8.42500000E+01
 11
-6.70451836E+01
 21
-8.42500000E+01
  0
LINE
  8
0
 62
7
 10
-1.80451836E+01
 20
-3.52500000E+01
 11
-1.80451836E+01
 21
-8.52500000E+01
  0
LINE
  8
0
 62
7
 10
-6.60451836E+01
 20
-3.52500000E+01
 11
-6.60451836E+01
 21
-3.62500000E+01
  0
LINE
  8
0
 62
7
 10
-2.43451836E+01
 20
-4.52500000E+01
 11
-5.40451836E+01
 21
-4.52500000E+01
  0
LINE
  8
0
 62
7
 10
-2.43451836E+01
 20
-7.52500000E+01
 11
-5.40451836E+01
 21
-7.52500000E+01
  0
LINE
  8
0
 62
7
 10
-2.40451836E+01
 20
-4.55500000E+01
 11
-2.40451836E+01
 21
-7.49500000E+01
  0
ARC
  8
0
 62
7
 10
-2.43451868E+01
 20
-4.55500031E+01
 40
3.00003147E-01
 50
6.01053124E-04
 51
9.00000002E+01
  0
ARC
  8
0
 62
7
 10
-2.43451882E+01
 20
-7.49499954E+01
 40
3.00004578E-01
 50
2.70000000E+02
 51
3.59999126E+02
  0
ARC
  8
0
 62
7
 10
-2.90451851E+01
 20
-3.42500015E+01
 40
9.99998474E-01
 50
1.79999913E+02
 51
2.70000000E+02
  0
ARC
  8
0
 62
7
 10
-6.30451851E+01
 20
-3.42499985E+01
 40
1.00000153E+00
 50
2.70000000E+02
 51
3.59999912E+02
  0
LINE
  8
0
 62
7
 10
-6.60451836E+01
 20
-8.32500000E+01
 11
-6.60451836E+01
 21
-8.52500000E+01
  0
LINE
  8
0
 62
7
 10
-6.70451836E+01
 20
-3.62500000E+01
 11
-6.70451836E+01
 21
-3.72500000E+01
  0
LINE
  8
0
 62
7
 10
-6.70451836E+01
 20
-8.42500000E+01
 11
-6.70451836E+01
 21
-8.32500000E+01
  0
LINE
  8
0
 62
7
 10
-5.40451836E+01
 20
-2.52500000E+01
 11
-5.40451836E+01
 21
-9.25000000E+00
  0
LINE
  8
0
 62
7
 10
-5.40451836E+01
 20
-8.32500000E+01
 11
-5.40451836E+01
 21
-3.72500000E+01
  0
LINE
  8
0
 62
7
 10
6.87490234E+00
 20
-7.67500000E+01
 11
7.78490234E+00
 21
-7.67500000E+01
  0
LINE
  8
0
 62
7
 10
6.27490234E+00
 20
-7.61500000E+01
 11
6.87490234E+00
 21
-7.67500000E+01
  0
LINE
  8
0
 62
7
 10
6.87490234E+00
 20
-6.67500000E+01
 11
7.78490234E+00
 21
-6.67500000E+01
  0
LINE
  8
0
 62
7
 10
6.27490234E+00
 20
-6.73500000E+01
 11
6.87490234E+00
 21
-6.67500000E+01
  0
LINE
  8
0
  6
CENTER
 62
2
 10
4.93547938E+00
 20
-7.17500000E+01
 11
1.07517794E+01
 21
-7.17500000E+01
  0
LINE
  8
0
 62
7
 10
6.27490234E+00
 20
-6.73500000E+01
 11
6.27490234E+00
 21
-7.61500000E+01
  0
LINE
  8
0
 62
7
 10
6.87490234E+00
 20
-6.67500000E+01
 11
6.87490234E+00
 21
-7.67500000E+01
  0
LINE
  8
0
 62
7
 10
6.87490234E+00
 20
-5.37500000E+01
 11
7.78490234E+00
 21
-5.37500000E+01
  0
LINE
  8
0
 62
7
 10
6.27490234E+00
 20
-4.43500000E+01
 11
6.87490234E+00
 21
-4.37500000E+01
  0
LINE
  8
0
 62
7
 10
6.27490234E+00
 20
-4.43500000E+01
 11
6.27490234E+00
 21
-5.31500000E+01
  0
LINE
  8
0
 62
7
 10
6.87490234E+00
 20
-4.37500000E+01
 11
7.78490234E+00
 21
-4.37500000E+01
  0
LINE
  8
0
  6
CENTER
 62
2
 10
4.93547938E+00
 20
-4.87500000E+01
 11
1.07517794E+01
 21
-4.87500000E+01
  0
LINE
  8
0
 62
7
 10
6.87490234E+00
 20
-4.37500000E+01
 11
6.87490234E+00
 21
-5.37500000E+01
  0
LINE
  8
0
 62
7
 10
6.27490234E+00
 20
-5.31500000E+01
 11
6.87490234E+00
 21
-5.37500000E+01
  0
LINE
  8
0
 62
7
 10
1.11774902E+02
 20
-1.15250000E+02
 11
1.17274902E+02
 21
-1.15250000E+02
  0
LINE
  8
0
 62
7
 10
1.10274902E+02
 20
-1.13750000E+02
 11
1.11774902E+02
 21
-1.15250000E+02
  0
LINE
  8
0
 62
7
 10
1.11774902E+02
 20
-1.11250000E+02
 11
1.17274902E+02
 21
-1.11250000E+02
  0
LINE
  8
0
 62
7
 10
1.10274902E+02
 20
-1.10630000E+02
 11
1.11774902E+02
 21
-1.11250000E+02
  0
LINE
  8
0
 62
7
 10
1.11774902E+02
 20
-5.25000000E+00
 11
1.17274902E+02
 21
-5.25000000E+00
  0
LINE
  8
0
 62
7
 10
1.11774902E+02
 20
-5.25000000E+00
 11
1.10274902E+02
 21
-6.75000000E+00
  0
LINE
  8
0
 62
7
 10
1.10274902E+02
 20
-9.88000000E+00
 11
1.11774902E+02
 21
-9.25000000E+00
  0
LINE
  8
0
 62
7
 10
1.11774902E+02
 20
-9.25000000E+00
 11
1.17274902E+02
 21
-9.25000000E+00
  0
LINE
  8
0
  6
CENTER
 62
2
 10
2.78490234E+00
 20
-6.02500000E+01
 11
1.22274902E+02
 21
-6.02500000E+01
  0
LINE
  8
0
 62
7
 10
7.78490234E+00
 20
-4.27500000E+01
 11
7.78490234E+00
 21
-7.77500000E+01
  0
LINE
  8
0
 62
7
 10
1.32849023E+01
 20
-3.72500000E+01
 11
1.52849023E+01
 21
-3.72500000E+01
  0
LINE
  8
0
 62
7
 10
1.32849023E+01
 20
-8.32500000E+01
 11
1.52849023E+01
 21
-8.32500000E+01
  0
LINE
  8
0
 62
7
 10
1.52849023E+01
 20
-3.62500000E+01
 11
1.52849023E+01
 21
-8.42500000E+01
  0
LINE
  8
0
 62
7
 10
1.32849023E+01
 20
-3.72500000E+01
 11
1.32849023E+01
 21
-8.32500000E+01
  0
LINE
  8
0
 62
7
 10
1.32849023E+01
 20
-8.32500000E+01
 11
7.78490234E+00
 21
-7.77500000E+01
  0
LINE
  8
0
 62
7
 10
1.32849023E+01
 20
-3.72500000E+01
 11
7.78490234E+00
 21
-4.27500000E+01
  0
LINE
  8
0
 62
7
 10
6.52749023E+01
 20
-3.62500000E+01
 11
6.52749023E+01
 21
-8.42500000E+01
  0
LINE
  8
0
 62
7
 10
8.12749023E+01
 20
-3.72500000E+01
 11
8.12749023E+01
 21
-8.32500000E+01
  0
LINE
  8
0
 62
7
 10
1.08814902E+02
 20
-2.87200000E+01
 11
1.01734902E+02
 21
-3.57900000E+01
  0
LINE
  8
0
 62
7
 10
1.08814902E+02
 20
-9.17900000E+01
 11
1.01734902E+02
 21
-8.47200000E+01
  0
LINE
  8
0
 62
7
 10
6.52749023E+01
 20
-8.17500000E+01
 11
8.12749023E+01
 21
-8.17500000E+01
  0
LINE
  8
0
 62
7
 10
6.52749023E+01
 20
-3.87500000E+01
 11
8.12749023E+01
 21
-3.87500000E+01
  0
LINE
  8
0
 62
7
 10
1.09874902E+02
 20
-2.97800000E+01
 11
1.02794902E+02
 21
-3.68500000E+01
  0
LINE
  8
0
 62
7
 10
1.09874902E+02
 20
-9.07300000E+01
 11
1.02794902E+02
 21
-8.36600000E+01
  0
LINE
  8
0
  6
CENTER
 62
2
 10
7.52749023E+01
 20
-5.27500000E+01
 11
7.52749023E+01
 21
-6.77500000E+01
  0
LINE
  8
0
 62
7
 10
7.32749023E+01
 20
-5.91000000E+01
 11
7.32749023E+01
 21
-6.14100000E+01
  0
LINE
  8
0
 62
7
 10
7.72749023E+01
 20
-5.91000000E+01
 11
7.72749023E+01
 21
-6.14100000E+01
  0
LINE
  8
0
 62
7
 10
7.32749023E+01
 20
-5.91000000E+01
 11
7.52749023E+01
 21
-5.79500000E+01
  0
LINE
  8
0
 62
7
 10
7.52749023E+01
 20
-6.25600000E+01
 11
7.72749023E+01
 21
-6.14100000E+01
  0
LINE
  8
0
 62
7
 10
7.52749023E+01
 20
-5.79500000E+01
 11
7.72749023E+01
 21
-5.91000000E+01
  0
LINE
  8
0
 62
7
 10
7.32749023E+01
 20
-6.14100000E+01
 11
7.52749023E+01
 21
-6.25600000E+01
  0
LINE
  8
0
 62
7
 10
8.52749023E+01
 20
-3.72500000E+01
 11
8.52749023E+01
 21
-8.32500000E+01
  0
LINE
  8
0
 62
7
 10
8.92749023E+01
 20
-3.72500000E+01
 11
8.92749023E+01
 21
-8.32500000E+01
  0
LINE
  8
0
 62
7
 10
8.92749023E+01
 20
-8.17500000E+01
 11
9.82049023E+01
 21
-8.17500000E+01
  0
LINE
  8
0
 62
7
 10
8.92749023E+01
 20
-3.87500000E+01
 11
9.82049023E+01
 21
-3.87500000E+01
  0
ARC
  8
0
 62
7
 10
9.82074965E+01
 20
-3.22588407E+01
 40
4.99115995E+00
 50
2.69970220E+02
 51
3.14969533E+02
  0
ARC
  8
0
 62
7
 10
1.05278055E+02
 20
-2.51902269E+01
 40
4.99685768E+00
 50
3.15057356E+02
 51
1.17264888E-01
  0
ARC
  8
0
 62
7
 10
9.81928741E+01
 20
-8.82522854E+01
 40
5.00229989E+00
 50
4.49210920E+01
 51
8.98622302E+01
  0
ARC
  8
0
 62
7
 10
1.05275508E+02
 20
-9.53208235E+01
 40
4.99940239E+00
 50
3.59894833E+02
 51
4.49305465E+01
  0
ARC
  8
0
 62
7
 10
9.81917490E+01
 20
-8.82518189E+01
 40
6.50183216E+00
 50
4.49293723E+01
 51
8.98840891E+01
  0
ARC
  8
0
 62
7
 10
1.05275972E+02
 20
-9.53219496E+01
 40
6.49893549E+00
 50
3.59929026E+02
 51
4.49564809E+01
  0
ARC
  8
0
 62
7
 10
9.82063694E+01
 20
-3.22593073E+01
 40
6.49069289E+00
 50
2.69987049E+02
 51
3.14986519E+02
  0
ARC
  8
0
 62
7
 10
1.05278519E+02
 20
-2.51891024E+01
 40
6.49639015E+00
 50
3.15034214E+02
 51
8.02794429E-02
  0
CIRCLE
  8
0
 62
7
 10
7.52791663E+01
 20
-6.02585950E+01
 40
4.75000000E+00
  0
CIRCLE
  8
0
 62
7
 10
7.52791663E+01
 20
-6.02585950E+01
 40
4.25000000E+00
  0
CIRCLE
  8
0
 62
7
 10
7.52791663E+01
 20
-6.02585950E+01
 40
3.73038483E+00
  0
CIRCLE
  8
0
 62
7
 10
7.52791663E+01
 20
-6.02585950E+01
 40
2.30940056E+00
  0
LINE
  8
0
 62
7
 10
1.11774902E+02
 20
-9.53300000E+01
 11
1.11774902E+02
 21
-1.15250000E+02
  0
LINE
  8
0
 62
7
 10
1.10274902E+02
 20
-9.53300000E+01
 11
1.10274902E+02
 21
-1.13750000E+02
  0
LINE
  8
0
 62
7
 10
1.11774902E+02
 20
-5.25000000E+00
 11
1.11774902E+02
 21
-2.51800000E+01
  0
LINE
  8
0
 62
7
 10
1.10274902E+02
 20
-6.75000000E+00
 11
1.10274902E+02
 21
-2.51800000E+01
  0
LINE
  8
0
 62
7
 10
1.17274902E+02
 20
-5.25000000E+00
 11
1.17274902E+02
 21
-1.15250000E+02
  0
LINE
  8
0
  6
CENTER
 62
2
 10
4.02749023E+01
 20
-2.02500000E+01
 11
4.02749023E+01
 21
-9.02500000E+01
  0
LINE
  8
0
 62
7
 10
1.62749023E+01
 20
-8.52500000E+01
 11
6.42749023E+01
 21
-8.52500000E+01
  0
LINE
  8
0
 62
7
 10
1.62749023E+01
 20
-3.52500000E+01
 11
6.42749023E+01
 21
-3.52500000E+01
  0
LINE
  8
0
 62
7
 10
1.52749023E+01
 20
-8.42500000E+01
 11
1.62749023E+01
 21
-8.52500000E+01
  0
LINE
  8
0
 62
7
 10
6.52749023E+01
 20
-8.42500000E+01
 11
6.42749023E+01
 21
-8.52500000E+01
  0
LINE
  8
0
 62
7
 10
6.42749023E+01
 20
-3.52500000E+01
 11
6.52749023E+01
 21
-3.62500000E+01
  0
LINE
  8
0
 62
7
 10
1.62749023E+01
 20
-3.52500000E+01
 11
1.52749023E+01
 21
-3.62500000E+01
  0
LINE
  8
0
 62
7
 10
1.52749023E+01
 20
-3.62500000E+01
 11
6.52749023E+01
 21
-3.62500000E+01
  0
LINE
  8
0
 62
7
 10
1.52749023E+01
 20
-8.42500000E+01
 11
6.52749023E+01
 21
-8.42500000E+01
  0
LINE
  8
0
 62
7
 10
1.62749023E+01
 20
-3.52500000E+01
 11
1.62749023E+01
 21
-8.52500000E+01
  0
LINE
  8
0
 62
7
 10
6.42749023E+01
 20
-3.52500000E+01
 11
6.42749023E+01
 21
-8.52500000E+01
  0
LINE
  8
0
 62
7
 10
2.42749023E+01
 20
-2.62500000E+01
 11
2.42749023E+01
 21
-3.42500000E+01
  0
LINE
  8
0
 62
7
 10
2.52749023E+01
 20
-2.52500000E+01
 11
5.52749023E+01
 21
-2.52500000E+01
  0
LINE
  8
0
 62
7
 10
2.42749023E+01
 20
-2.62500000E+01
 11
5.62749023E+01
 21
-2.62500000E+01
  0
LINE
  8
0
 62
7
 10
2.52749023E+01
 20
-2.52500000E+01
 11
2.42749023E+01
 21
-2.62500000E+01
  0
LINE
  8
0
 62
7
 10
5.52749023E+01
 20
-2.52500000E+01
 11
5.62749023E+01
 21
-2.62500000E+01
  0
LINE
  8
0
 62
7
 10
5.62749023E+01
 20
-2.62500000E+01
 11
5.62749023E+01
 21
-3.42500000E+01
  0
CIRCLE
  8
0
 62
7
 10
4.02749023E+01
 20
-6.02500000E+01
 40
2.10000000E+01
  0
ARC
  8
0
 62
7
 10
2.32749023E+01
 20
-3.42500000E+01
 40
1.00000000E+00
 50
2.70000000E+02
 51
0.00000000E+00
  0
ARC
  8
0
 62
7
 10
5.72749023E+01
 20
-3.42500000E+01
 40
1.00000000E+00
 50
1.80000000E+02
 51
2.70000000E+02
  0
CIRCLE
  8
0
 62
7
 10
4.02749023E+01
 20
-6.02500000E+01
 40
1.50500002E+01
  0
CIRCLE
  8
0
 62
2
 10
4.02749023E+01
 20
-6.02500000E+01
 40
1.66244965E+01
  0
LINE
  8
0
 62
7
 10
6.52749023E+01
 20
-3.72500000E+01
 11
9.82049023E+01
 21
-3.72500000E+01
  0
LINE
  8
0
 62
7
 10
6.52749023E+01
 20
-8.32500000E+01
 11
9.82049023E+01
 21
-8.32500000E+01
  0
LINE
  8
0
  6
CENTER
 62
2
 10
1.05727806E+02
 20
-1.52500000E+01
 11
1.22274902E+02
 21
-1.52500000E+01
  0
LINE
  8
0
  6
CENTER
 62
2
 10
1.05727806E+02
 20
-1.05250000E+02
 11
1.22274902E+02
 21
-1.05250000E+02
  0
LINE
  8
0
 62
7
 10
-6.86451836E+01
 20
3.47500000E+01
 11
-6.80451836E+01
 21
3.53500000E+01
  0
LINE
  8
0
 62
7
 10
-6.80451836E+01
 20
3.53500000E+01
 11
-6.80451836E+01
 21
3.62600000E+01
  0
LINE
  8
0
 62
7
 10
-7.80451836E+01
 20
3.53500000E+01
 11
-7.80451836E+01
 21
3.62600000E+01
  0
LINE
  8
0
 62
7
 10
-7.74451836E+01
 20
3.47500000E+01
 11
-7.80451836E+01
 21
3.53500000E+01
  0
LINE
  8
0
 62
7
 10
-7.74451836E+01
 20
3.47500000E+01
 11
-6.86451836E+01
 21
3.47500000E+01
  0
LINE
  8
0
 62
7
 10
-7.80451836E+01
 20
3.53500000E+01
 11
-6.80451836E+01
 21
3.53500000E+01
  0
LINE
  8
0
 62
7
 10
-9.20451836E+01
 20
1.09760000E+02
 11
-9.20451836E+01
 21
9.37600000E+01
  0
LINE
  8
0
 62
7
 10
-9.16514846E+01
 20
8.92600000E+01
 11
-8.75923123E+01
 21
8.92600000E+01
  0
LINE
  8
0
 62
7
 10
-8.75451836E+01
 20
9.19600000E+01
 11
-8.75923123E+01
 21
8.92600000E+01
  0
LINE
  8
0
 62
7
 10
-9.20451836E+01
 20
9.37600000E+01
 11
-9.16514846E+01
 21
8.92600000E+01
  0
LINE
  8
0
 62
7
 10
-9.05451836E+01
 20
1.11260000E+02
 11
-9.05451836E+01
 21
9.37600000E+01
  0
LINE
  8
0
 62
7
 10
-9.20451836E+01
 20
1.09760000E+02
 11
-8.80451836E+01
 21
1.13760000E+02
  0
LINE
  8
0
 62
7
 10
-8.57451836E+01
 20
9.37600000E+01
 11
-8.75451836E+01
 21
9.19600000E+01
  0
LINE
  8
0
 62
7
 10
-9.20451836E+01
 20
9.37600000E+01
 11
-8.30451836E+01
 21
9.37600000E+01
  0
LINE
  8
0
 62
7
 10
-5.40451836E+01
 20
1.09760000E+02
 11
-5.40451836E+01
 21
9.37600000E+01
  0
LINE
  8
0
 62
7
 10
-5.55451836E+01
 20
1.11260000E+02
 11
-5.55451836E+01
 21
9.37600000E+01
  0
LINE
  8
0
 62
7
 10
-5.40451836E+01
 20
1.09760000E+02
 11
-5.80451836E+01
 21
1.13760000E+02
  0
LINE
  8
0
 62
7
 10
-8.30451836E+01
 20
1.13760000E+02
 11
-8.30451836E+01
 21
9.37600000E+01
  0
LINE
  8
0
 62
7
 10
-8.72451836E+01
 20
4.82600000E+01
 11
-9.16514846E+01
 21
4.82600000E+01
  0
LINE
  8
0
 62
7
 10
-8.54451836E+01
 20
4.37600000E+01
 11
-8.72451836E+01
 21
4.55600000E+01
  0
LINE
  8
0
 62
7
 10
-8.72451836E+01
 20
4.55600000E+01
 11
-8.72451836E+01
 21
4.82600000E+01
  0
LINE
  8
0
 62
7
 10
-9.20451836E+01
 20
4.17600000E+01
 11
-8.25189042E+01
 21
3.62600000E+01
  0
LINE
  8
0
 62
7
 10
-6.35714631E+01
 20
3.62600000E+01
 11
-8.25189042E+01
 21
3.62600000E+01
  0
LINE
  8
0
 62
7
 10
-5.40451836E+01
 20
4.17600000E+01
 11
-6.35714631E+01
 21
3.62600000E+01
  0
LINE
  8
0
 62
7
 10
-9.20451836E+01
 20
4.37600000E+01
 11
-9.16514846E+01
 21
4.82600000E+01
  0
LINE
  8
0
 62
7
 10
-5.40451836E+01
 20
4.17600000E+01
 11
-5.40451836E+01
 21
4.37600000E+01
  0
LINE
  8
0
 62
7
 10
-9.20451836E+01
 20
4.17600000E+01
 11
-9.20451836E+01
 21
4.37600000E+01
  0
LINE
  8
0
 62
7
 10
-5.40451836E+01
 20
4.17600000E+01
 11
-9.20451836E+01
 21
4.17600000E+01
  0
LINE
  8
0
 62
7
 10
-5.40451836E+01
 20
1.17760000E+02
 11
-5.80451836E+01
 21
1.13760000E+02
  0
LINE
  8
0
 62
7
 10
-8.80451836E+01
 20
1.13760000E+02
 11
-9.20451836E+01
 21
1.17760000E+02
  0
LINE
  8
0
 62
7
 10
-5.55451836E+01
 20
1.38760000E+02
 11
-5.40451836E+01
 21
1.40260000E+02
  0
LINE
  8
0
 62
7
 10
-9.05451836E+01
 20
1.38760000E+02
 11
-9.20451836E+01
 21
1.40260000E+02
  0
LINE
  8
0
 62
7
 10
-8.74251836E+01
 20
1.38760000E+02
 11
-8.80451836E+01
 21
1.40260000E+02
  0
LINE
  8
0
 62
7
 10
-5.86651836E+01
 20
1.38760000E+02
 11
-5.80451836E+01
 21
1.40260000E+02
  0
LINE
  8
0
 62
7
 10
-8.80451836E+01
 20
1.40260000E+02
 11
-8.80451836E+01
 21
1.45760000E+02
  0
LINE
  8
0
 62
7
 10
-5.55451836E+01
 20
1.16260000E+02
 11
-5.55451836E+01
 21
1.38760000E+02
  0
LINE
  8
0
 62
7
 10
-9.05451836E+01
 20
1.16260000E+02
 11
-9.05451836E+01
 21
1.38760000E+02
  0
LINE
  8
0
 62
7
 10
-5.80451836E+01
 20
1.45760000E+02
 11
-5.80451836E+01
 21
1.40260000E+02
  0
LINE
  8
0
 62
7
 10
-8.30451836E+01
 20
1.13760000E+02
 11
-8.80451836E+01
 21
1.13760000E+02
  0
LINE
  8
0
 62
7
 10
-6.30451836E+01
 20
1.13760000E+02
 11
-5.80451836E+01
 21
1.13760000E+02
  0
LINE
  8
0
 62
7
 10
-6.70451836E+01
 20
9.37600000E+01
 11
-1.80451836E+01
 21
9.37600000E+01
  0
LINE
  8
0
 62
7
 10
-7.90451836E+01
 20
9.37600000E+01
 11
-8.30451836E+01
 21
9.37600000E+01
  0
LINE
  8
0
 62
7
 10
-5.40451836E+01
 20
1.40260000E+02
 11
-9.20451836E+01
 21
1.40260000E+02
  0
LINE
  8
0
 62
7
 10
-5.55451836E+01
 20
1.38760000E+02
 11
-9.05451836E+01
 21
1.38760000E+02
  0
LINE
  8
0
 62
7
 10
-5.40451836E+01
 20
1.45760000E+02
 11
-9.20451836E+01
 21
1.45760000E+02
  0
LINE
  8
0
 62
7
 10
-7.90451836E+01
 20
4.37600000E+01
 11
-7.90451836E+01
 21
9.37600000E+01
  0
LINE
  8
0
 62
7
 10
-6.30451836E+01
 20
9.37600000E+01
 11
-6.30451836E+01
 21
1.13760000E+02
  0
LINE
  8
0
 62
7
 10
-5.40451836E+01
 20
1.17760000E+02
 11
-5.40451836E+01
 21
1.45760000E+02
  0
LINE
  8
0
 62
7
 10
-9.20451836E+01
 20
1.17760000E+02
 11
-9.20451836E+01
 21
1.45760000E+02
  0
LINE
  8
0
  6
CENTER
 62
2
 10
-7.30451836E+01
 20
3.12700000E+01
 11
-7.30451836E+01
 21
1.50760000E+02
  0
CIRCLE
  8
0
 62
7
 10
-4.60451836E+01
 20
6.87600000E+01
 40
9.31550026E+00
  0
CIRCLE
  8
0
 62
2
 10
-4.60451836E+01
 20
6.87600000E+01
 40
1.04775000E+01
  0
LINE
  8
0
  6
CENTER
 62
2
 10
-4.60451836E+01
 20
4.82751305E+01
 11
-4.60451836E+01
 21
8.92192931E+01
  0
CIRCLE
  8
0
 62
7
 10
-4.60451836E+01
 20
6.87600000E+01
 40
1.60000000E+01
  0
CIRCLE
  8
0
 62
7
 10
-4.60451836E+01
 20
6.87600000E+01
 40
1.50000000E+01
  0
LINE
  8
0
 62
7
 10
-1.70451836E+01
 20
4.47600000E+01
 11
-1.70451836E+01
 21
9.27600000E+01
  0
LINE
  8
0
 62
7
 10
-1.80451836E+01
 20
4.37600000E+01
 11
-1.70451836E+01
 21
4.47600000E+01
  0
LINE
  8
0
 62
7
 10
-9.20451836E+01
 20
4.37600000E+01
 11
-1.80451836E+01
 21
4.37600000E+01
  0
LINE
  8
0
 62
7
 10
-6.70451836E+01
 20
4.47600000E+01
 11
-6.60451836E+01
 21
4.37600000E+01
  0
LINE
  8
0
 62
7
 10
-6.70451836E+01
 20
4.37600000E+01
 11
-6.70451836E+01
 21
9.37600000E+01
  0
LINE
  8
0
  6
CENTER
 62
2
 10
-4.20451836E+01
 20
4.07600000E+01
 11
-4.20451836E+01
 21
9.67600000E+01
  0
LINE
  8
0
 62
7
 10
-6.70451836E+01
 20
9.27600000E+01
 11
-6.60451836E+01
 21
9.37600000E+01
  0
LINE
  8
0
 62
7
 10
-1.80451836E+01
 20
9.37600000E+01
 11
-1.70451836E+01
 21
9.27600000E+01
  0
LINE
  8
0
  6
CENTER
 62
2
 10
-9.20451836E+01
 20
6.87600000E+01
 11
-1.40451836E+01
 21
6.87600000E+01
  0
LINE
  8
0
  6
CENTER
 62
2
 10
1.73478466E+02
 20
-6.02500000E+01
 11
2.29535154E+02
 21
-6.02500000E+01
  0
LINE
  8
0
 62
7
 10
2.15965885E+02
 20
-8.32500000E+01
 11
2.23965885E+02
 21
-8.32500000E+01
  0
LINE
  8
0
 62
7
 10
2.15965885E+02
 20
-3.72500000E+01
 11
2.23965885E+02
 21
-3.72500000E+01
  0
LINE
  8
0
 62
7
 10
2.24965885E+02
 20
-3.82500000E+01
 11
2.24965885E+02
 21
-8.22500000E+01
  0
LINE
  8
0
 62
7
 10
2.23965885E+02
 20
-8.32500000E+01
 11
2.24965885E+02
 21
-8.22500000E+01
  0
LINE
  8
0
 62
7
 10
2.24965885E+02
 20
-3.82500000E+01
 11
2.23965885E+02
 21
-3.72500000E+01
  0
LINE
  8
0
 62
7
 10
2.15965885E+02
 20
-8.22500000E+01
 11
2.24965885E+02
 21
-8.22500000E+01
  0
LINE
  8
0
 62
7
 10
2.17965885E+02
 20
-4.77500000E+01
 11
2.17965885E+02
 21
-7.27500000E+01
  0
ARC
  8
0
 62
7
 10
2.15465885E+02
 20
-4.77500000E+01
 40
2.50000000E+00
 50
0.00000000E+00
 51
7.84630412E+01
  0
ARC
  8
0
 62
7
 10
2.15465885E+02
 20
-7.27500000E+01
 40
2.50000000E+00
 50
2.81536959E+02
 51
0.00000000E+00
  0
LINE
  8
0
 62
7
 10
2.23965885E+02
 20
-3.72500000E+01
 11
2.23965885E+02
 21
-8.32500000E+01
  0
LINE
  8
0
 62
7
 10
2.15965885E+02
 20
-3.82500000E+01
 11
2.24965885E+02
 21
-3.82500000E+01
  0
LINE
  8
0
 62
7
 10
1.94461651E+02
 20
-4.73071777E+01
 11
1.94461651E+02
 21
-5.01871777E+01
  0
LINE
  8
0
 62
7
 10
1.99481651E+02
 20
-4.73071777E+01
 11
1.99481651E+02
 21
-5.01871777E+01
  0
LINE
  8
0
 62
7
 10
1.94461651E+02
 20
-4.73071777E+01
 11
1.96971651E+02
 21
-4.58571777E+01
  0
LINE
  8
0
 62
7
 10
1.96971651E+02
 20
-5.16371777E+01
 11
1.99481651E+02
 21
-5.01871777E+01
  0
LINE
  8
0
 62
7
 10
1.96971651E+02
 20
-4.58571777E+01
 11
1.99481651E+02
 21
-4.73071777E+01
  0
LINE
  8
0
 62
7
 10
1.94461651E+02
 20
-5.01871777E+01
 11
1.96971651E+02
 21
-5.16371777E+01
  0
CIRCLE
  8
0
 62
7
 10
1.96971651E+02
 20
-4.87471777E+01
 40
5.00000000E+00
  0
CIRCLE
  8
0
 62
7
 10
1.96971651E+02
 20
-4.87471775E+01
 40
3.96076870E+00
  0
CIRCLE
  8
0
 62
7
 10
1.96971651E+02
 20
-4.87471775E+01
 40
2.89829731E+00
  0
LINE
  8
0
 62
7
 10
1.94461651E+02
 20
-7.03071777E+01
 11
1.94461651E+02
 21
-7.31871777E+01
  0
LINE
  8
0
 62
7
 10
1.99481651E+02
 20
-7.03071777E+01
 11
1.99481651E+02
 21
-7.31871777E+01
  0
LINE
  8
0
 62
7
 10
1.94461651E+02
 20
-7.03071777E+01
 11
1.96971651E+02
 21
-6.88571777E+01
  0
LINE
  8
0
 62
7
 10
1.96971651E+02
 20
-7.46371777E+01
 11
1.99481651E+02
 21
-7.31871777E+01
  0
LINE
  8
0
 62
7
 10
1.96971651E+02
 20
-6.88571777E+01
 11
1.99481651E+02
 21
-7.03071777E+01
  0
LINE
  8
0
 62
7
 10
1.94461651E+02
 20
-7.31871777E+01
 11
1.96971651E+02
 21
-7.46371777E+01
  0
CIRCLE
  8
0
 62
7
 10
1.96971651E+02
 20
-7.17471777E+01
 40
5.00000000E+00
  0
CIRCLE
  8
0
 62
7
 10
1.96971651E+02
 20
-7.17471775E+01
 40
3.96076870E+00
  0
CIRCLE
  8
0
 62
7
 10
1.96971651E+02
 20
-7.17471775E+01
 40
2.89829731E+00
  0
LINE
  8
0
  6
CENTER
 62
2
 10
1.96965885E+02
 20
-2.50000000E-01
 11
1.96965885E+02
 21
-1.20250000E+02
  0
LINE
  8
0
 62
7
 10
2.14465885E+02
 20
-9.87000000E+00
 11
2.14465885E+02
 21
-3.72500000E+01
  0
LINE
  8
0
 62
7
 10
1.79465885E+02
 20
-9.87000000E+00
 11
1.79465885E+02
 21
-3.72500000E+01
  0
ARC
  8
0
 62
7
 10
1.94965885E+02
 20
-1.52500000E+01
 40
4.50000199E+00
 50
9.00000002E+01
 51
2.70000000E+02
  0
ARC
  8
0
 62
7
 10
1.98965885E+02
 20
-1.52500000E+01
 40
4.50000199E+00
 50
2.70000000E+02
 51
9.00000002E+01
  0
LINE
  8
0
 62
7
 10
1.81965885E+02
 20
-5.25000000E+00
 11
1.82585885E+02
 21
-6.75000000E+00
  0
LINE
  8
0
 62
7
 10
2.11965885E+02
 20
-5.25000000E+00
 11
2.11345885E+02
 21
-6.75000000E+00
  0
LINE
  8
0
 62
7
 10
2.14465885E+02
 20
-9.87000000E+00
 11
2.15965885E+02
 21
-9.25000000E+00
  0
LINE
  8
0
 62
7
 10
1.79465885E+02
 20
-9.87000000E+00
 11
1.77965885E+02
 21
-9.25000000E+00
  0
LINE
  8
0
 62
7
 10
1.81465885E+02
 20
-2.72500000E+01
 11
2.12465885E+02
 21
-2.72500000E+01
  0
LINE
  8
0
  6
CENTER
 62
2
 10
1.94965885E+02
 20
-8.75000000E+00
 11
1.94965885E+02
 21
-2.17500000E+01
  0
LINE
  8
0
  6
CENTER
 62
2
 10
1.98965885E+02
 20
-8.75000000E+00
 11
1.98965885E+02
 21
-2.17500000E+01
  0
LINE
  8
0
 62
7
 10
1.98965885E+02
 20
-1.97500000E+01
 11
1.94965885E+02
 21
-1.97500000E+01
  0
LINE
  8
0
 62
7
 10
1.98965885E+02
 20
-1.07500000E+01
 11
1.94965885E+02
 21
-1.07500000E+01
  0
LINE
  8
0
  6
CENTER
 62
2
 10
2.07465885E+02
 20
-1.52500000E+01
 11
1.86455885E+02
 21
-1.52500000E+01
  0
LINE
  8
0
 62
7
 10
2.14465885E+02
 20
-9.87000000E+00
 11
2.11345885E+02
 21
-6.75000000E+00
  0
LINE
  8
0
 62
7
 10
1.79465885E+02
 20
-9.87000000E+00
 11
1.82585885E+02
 21
-6.75000000E+00
  0
LINE
  8
0
 62
7
 10
2.11345885E+02
 20
-6.75000000E+00
 11
1.82585885E+02
 21
-6.75000000E+00
  0
LINE
  8
0
 62
7
 10
1.77965885E+02
 20
-9.25000000E+00
 11
1.81965885E+02
 21
-5.25000000E+00
  0
LINE
  8
0
 62
7
 10
2.15965885E+02
 20
-9.25000000E+00
 11
2.11965885E+02
 21
-5.25000000E+00
  0
LINE
  8
0
 62
7
 10
2.11965885E+02
 20
-5.25000000E+00
 11
1.81965885E+02
 21
-5.25000000E+00
  0
LINE
  8
0
  6
CENTER
 62
2
 10
2.05475885E+02
 20
-7.17500000E+01
 11
1.88475885E+02
 21
-7.17500000E+01
  0
LINE
  8
0
 62
7
 10
2.15965885E+02
 20
-8.32500000E+01
 11
1.77965885E+02
 21
-8.32500000E+01
  0
LINE
  8
0
 62
7
 10
2.06445885E+02
 20
-7.77500000E+01
 11
1.87495885E+02
 21
-7.77500000E+01
  0
LINE
  8
0
 62
7
 10
2.06445885E+02
 20
-4.27500000E+01
 11
1.87495885E+02
 21
-4.27500000E+01
  0
LINE
  8
0
  6
CENTER
 62
2
 10
2.05475885E+02
 20
-4.87500000E+01
 11
1.88475885E+02
 21
-4.87500000E+01
  0
LINE
  8
0
 62
7
 10
2.15965885E+02
 20
-3.72500000E+01
 11
1.77965885E+02
 21
-3.72500000E+01
  0
CIRCLE
  8
0
 62
7
 10
1.96971651E+02
 20
-4.87471777E+01
 40
5.50000000E+00
  0
CIRCLE
  8
0
 62
7
 10
1.96971651E+02
 20
-7.17471777E+01
 40
5.50000000E+00
  0
LINE
  8
0
 62
7
 10
2.06445885E+02
 20
-4.27500000E+01
 11
2.06445885E+02
 21
-7.77500000E+01
  0
LINE
  8
0
 62
7
 10
2.06445885E+02
 20
-4.27500000E+01
 11
2.15965885E+02
 21
-3.72500000E+01
  0
LINE
  8
0
 62
7
 10
1.87495885E+02
 20
-4.27500000E+01
 11
1.77965885E+02
 21
-3.72500000E+01
  0
LINE
  8
0
 62
7
 10
1.87495885E+02
 20
-4.27500000E+01
 11
1.87495885E+02
 21
-7.77500000E+01
  0
LINE
  8
0
 62
7
 10
1.87495885E+02
 20
-7.77500000E+01
 11
1.77965885E+02
 21
-8.32500000E+01
  0
LINE
  8
0
 62
7
 10
2.06445885E+02
 20
-7.77500000E+01
 11
2.15965885E+02
 21
-8.32500000E+01
  0
LINE
  8
0
  6
CENTER
 62
2
 10
2.07475885E+02
 20
-1.05250000E+02
 11
1.86465885E+02
 21
-1.05250000E+02
  0
LINE
  8
0
 62
7
 10
1.81465885E+02
 20
-9.32500000E+01
 11
2.12465885E+02
 21
-9.32500000E+01
  0
ARC
  8
0
 62
7
 10
1.98975885E+02
 20
-1.05250000E+02
 40
4.50000199E+00
 50
2.70000000E+02
 51
9.00000002E+01
  0
LINE
  8
0
  6
CENTER
 62
2
 10
1.98975885E+02
 20
-1.11750000E+02
 11
1.98975885E+02
 21
-9.87500000E+01
  0
LINE
  8
0
  6
CENTER
 62
2
 10
1.94975885E+02
 20
-1.11750000E+02
 11
1.94975885E+02
 21
-9.87500000E+01
  0
ARC
  8
0
 62
7
 10
1.94975885E+02
 20
-1.05250000E+02
 40
4.50000199E+00
 50
9.00000002E+01
 51
2.70000000E+02
  0
LINE
  8
0
 62
7
 10
1.98975885E+02
 20
-1.09750000E+02
 11
1.94975885E+02
 21
-1.09750000E+02
  0
LINE
  8
0
 62
7
 10
2.15965885E+02
 20
-1.11250000E+02
 11
2.15965885E+02
 21
-9.25000000E+00
  0
LINE
  8
0
 62
7
 10
2.14465885E+02
 20
-1.10630000E+02
 11
2.14465885E+02
 21
-8.32500000E+01
  0
LINE
  8
0
 62
7
 10
1.98975885E+02
 20
-1.00750000E+02
 11
1.94975885E+02
 21
-1.00750000E+02
  0
LINE
  8
0
 62
7
 10
2.14465885E+02
 20
-1.10630000E+02
 11
2.15965885E+02
 21
-1.11250000E+02
  0
LINE
  8
0
 62
7
 10
2.11965885E+02
 20
-1.15250000E+02
 11
2.11345885E+02
 21
-1.13750000E+02
  0
LINE
  8
0
 62
7
 10
2.14465885E+02
 20
-1.10630000E+02
 11
2.11345885E+02
 21
-1.13750000E+02
  0
LINE
  8
0
 62
7
 10
2.15965885E+02
 20
-1.11250000E+02
 11
2.11965885E+02
 21
-1.15250000E+02
  0
LINE
  8
0
 62
7
 10
1.77965885E+02
 20
-1.11250000E+02
 11
1.77965885E+02
 21
-9.25000000E+00
  0
LINE
  8
0
 62
7
 10
1.79465885E+02
 20
-1.10630000E+02
 11
1.79465885E+02
 21
-8.32500000E+01
  0
LINE
  8
0
 62
7
 10
2.11345885E+02
 20
-1.13750000E+02
 11
1.82585885E+02
 21
-1.13750000E+02
  0
LINE
  8
0
 62
7
 10
2.11965885E+02
 20
-1.15250000E+02
 11
1.81965885E+02
 21
-1.15250000E+02
  0
LINE
  8
0
 62
7
 10
1.77965885E+02
 20
-1.11250000E+02
 11
1.81965885E+02
 21
-1.15250000E+02
  0
LINE
  8
0
 62
7
 10
1.79465885E+02
 20
-1.10630000E+02
 11
1.82585885E+02
 21
-1.13750000E+02
  0
LINE
  8
0
 62
7
 10
1.79465885E+02
 20
-1.10630000E+02
 11
1.77965885E+02
 21
-1.11250000E+02
  0
LINE
  8
0
 62
7
 10
1.81965885E+02
 20
-1.15250000E+02
 11
1.82585885E+02
 21
-1.13750000E+02
  0
LINE
  8
0
  6
CENTER
 62
2
 10
2.77955885E+02
 20
-6.02500000E+01
 11
3.94633367E+02
 21
-6.02500000E+01
  0
LINE
  8
0
  6
CENTER
 62
2
 10
3.12455885E+02
 20
-8.77663021E+01
 11
3.12455885E+02
 21
-3.31815213E+01
  0
LINE
  8
0
 62
7
 10
2.88455885E+02
 20
-3.72500000E+01
 11
2.87455885E+02
 21
-3.82500000E+01
  0
LINE
  8
0
 62
7
 10
2.88455885E+02
 20
-8.32500000E+01
 11
2.87455885E+02
 21
-8.22500000E+01
  0
LINE
  8
0
 62
7
 10
3.36455885E+02
 20
-3.72500000E+01
 11
3.37455885E+02
 21
-3.82500000E+01
  0
LINE
  8
0
 62
7
 10
3.36455885E+02
 20
-8.32500000E+01
 11
3.37455885E+02
 21
-8.22500000E+01
  0
LINE
  8
0
 62
7
 10
2.87455885E+02
 20
-3.82500000E+01
 11
3.37455885E+02
 21
-3.82500000E+01
  0
LINE
  8
0
 62
7
 10
3.37455885E+02
 20
-8.22500000E+01
 11
2.87455885E+02
 21
-8.22500000E+01
  0
LINE
  8
0
 62
7
 10
3.36455885E+02
 20
-3.72500000E+01
 11
3.36455885E+02
 21
-8.32500000E+01
  0
LINE
  8
0
 62
7
 10
2.88455885E+02
 20
-3.72500000E+01
 11
2.88455885E+02
 21
-8.32500000E+01
  0
CIRCLE
  8
0
 62
2
 10
3.12455885E+02
 20
-6.02500000E+01
 40
1.32205000E+01
  0
CIRCLE
  8
0
 62
7
 10
3.12455885E+02
 20
-6.02500000E+01
 40
1.20585003E+01
  0
LINE
  8
0
 62
7
 10
3.37455885E+02
 20
-3.72500000E+01
 11
3.37455885E+02
 21
-8.32500000E+01
  0
LINE
  8
0
 62
7
 10
3.89455885E+02
 20
-5.25000000E+00
 11
3.89455885E+02
 21
-1.15250000E+02
  0
LINE
  8
0
 62
7
 10
3.82455885E+02
 20
-6.75000000E+00
 11
3.82455885E+02
 21
-2.51800000E+01
  0
LINE
  8
0
 62
7
 10
3.83955885E+02
 20
-5.25000000E+00
 11
3.83955885E+02
 21
-2.51800000E+01
  0
LINE
  8
0
 62
7
 10
3.82455885E+02
 20
-9.53300000E+01
 11
3.82455885E+02
 21
-1.13750000E+02
  0
LINE
  8
0
 62
7
 10
3.83955885E+02
 20
-9.53300000E+01
 11
3.83955885E+02
 21
-1.15250000E+02
  0
CIRCLE
  8
0
 62
7
 10
3.47460149E+02
 20
-6.02585950E+01
 40
2.30940056E+00
  0
CIRCLE
  8
0
 62
7
 10
3.47460149E+02
 20
-6.02585950E+01
 40
3.73038483E+00
  0
CIRCLE
  8
0
 62
7
 10
3.47460149E+02
 20
-6.02585950E+01
 40
4.25000000E+00
  0
CIRCLE
  8
0
 62
7
 10
3.47460149E+02
 20
-6.02585950E+01
 40
4.75000000E+00
  0
ARC
  8
0
 62
7
 10
3.77459501E+02
 20
-2.51891024E+01
 40
6.49639015E+00
 50
3.15034214E+02
 51
8.02794429E-02
  0
ARC
  8
0
 62
7
 10
3.70387352E+02
 20
-3.22593073E+01
 40
6.49069289E+00
 50
2.69987049E+02
 51
3.14986519E+02
  0
ARC
  8
0
 62
7
 10
3.77456954E+02
 20
-9.53219496E+01
 40
6.49893549E+00
 50
3.59929026E+02
 51
4.49564809E+01
  0
ARC
  8
0
 62
7
 10
3.70372731E+02
 20
-8.82518189E+01
 40
6.50183216E+00
 50
4.49293723E+01
 51
8.98840891E+01
  0
ARC
  8
0
 62
7
 10
3.77456491E+02
 20
-9.53208235E+01
 40
4.99940239E+00
 50
3.59894833E+02
 51
4.49305465E+01
  0
ARC
  8
0
 62
7
 10
3.70373857E+02
 20
-8.82522854E+01
 40
5.00229989E+00
 50
4.49210920E+01
 51
8.98622302E+01
  0
ARC
  8
0
 62
7
 10
3.77459037E+02
 20
-2.51902269E+01
 40
4.99685768E+00
 50
3.15057356E+02
 51
1.17264888E-01
  0
ARC
  8
0
 62
7
 10
3.70388479E+02
 20
-3.22588407E+01
 40
4.99115995E+00
 50
2.69970220E+02
 51
3.14969533E+02
  0
LINE
  8
0
 62
7
 10
3.61455885E+02
 20
-3.87500000E+01
 11
3.70385885E+02
 21
-3.87500000E+01
  0
LINE
  8
0
 62
7
 10
3.61455885E+02
 20
-8.17500000E+01
 11
3.70385885E+02
 21
-8.17500000E+01
  0
LINE
  8
0
 62
7
 10
3.61455885E+02
 20
-3.72500000E+01
 11
3.61455885E+02
 21
-8.32500000E+01
  0
LINE
  8
0
 62
7
 10
3.57455885E+02
 20
-3.72500000E+01
 11
3.57455885E+02
 21
-8.32500000E+01
  0
LINE
  8
0
 62
7
 10
3.45455885E+02
 20
-6.14100000E+01
 11
3.47455885E+02
 21
-6.25600000E+01
  0
LINE
  8
0
 62
7
 10
3.47455885E+02
 20
-5.79500000E+01
 11
3.49455885E+02
 21
-5.91000000E+01
  0
LINE
  8
0
 62
7
 10
3.47455885E+02
 20
-6.25600000E+01
 11
3.49455885E+02
 21
-6.14100000E+01
  0
LINE
  8
0
 62
7
 10
3.45455885E+02
 20
-5.91000000E+01
 11
3.47455885E+02
 21
-5.79500000E+01
  0
LINE
  8
0
 62
7
 10
3.49455885E+02
 20
-5.91000000E+01
 11
3.49455885E+02
 21
-6.14100000E+01
  0
LINE
  8
0
 62
7
 10
3.45455885E+02
 20
-5.91000000E+01
 11
3.45455885E+02
 21
-6.14100000E+01
  0
LINE
  8
0
  6
CENTER
 62
2
 10
3.47455885E+02
 20
-5.27500000E+01
 11
3.47455885E+02
 21
-6.77500000E+01
  0
LINE
  8
0
 62
7
 10
3.82055885E+02
 20
-9.07300000E+01
 11
3.74975885E+02
 21
-8.36600000E+01
  0
LINE
  8
0
 62
7
 10
3.82055885E+02
 20
-2.97800000E+01
 11
3.74975885E+02
 21
-3.68500000E+01
  0
LINE
  8
0
 62
7
 10
3.37455885E+02
 20
-3.87500000E+01
 11
3.53455885E+02
 21
-3.87500000E+01
  0
LINE
  8
0
 62
7
 10
3.37455885E+02
 20
-8.17500000E+01
 11
3.53455885E+02
 21
-8.17500000E+01
  0
LINE
  8
0
 62
7
 10
3.80995885E+02
 20
-9.17900000E+01
 11
3.73915885E+02
 21
-8.47200000E+01
  0
LINE
  8
0
 62
7
 10
3.80995885E+02
 20
-2.87200000E+01
 11
3.73915885E+02
 21
-3.57900000E+01
  0
LINE
  8
0
 62
7
 10
3.53455885E+02
 20
-3.72500000E+01
 11
3.53455885E+02
 21
-8.32500000E+01
  0
LINE
  8
0
 62
7
 10
2.85465885E+02
 20
-3.72500000E+01
 11
2.79965885E+02
 21
-4.27500000E+01
  0
LINE
  8
0
 62
7
 10
2.85465885E+02
 20
-8.32500000E+01
 11
2.79965885E+02
 21
-7.77500000E+01
  0
LINE
  8
0
 62
7
 10
2.85465885E+02
 20
-3.72500000E+01
 11
2.85465885E+02
 21
-8.32500000E+01
  0
LINE
  8
0
 62
7
 10
2.87465885E+02
 20
-3.72500000E+01
 11
2.87465885E+02
 21
-8.32500000E+01
  0
LINE
  8
0
 62
7
 10
2.85465885E+02
 20
-8.32500000E+01
 11
3.70385885E+02
 21
-8.32500000E+01
  0
LINE
  8
0
 62
7
 10
2.85465885E+02
 20
-3.72500000E+01
 11
3.70385885E+02
 21
-3.72500000E+01
  0
LINE
  8
0
 62
7
 10
2.79965885E+02
 20
-4.27500000E+01
 11
2.79965885E+02
 21
-7.77500000E+01
  0
LINE
  8
0
 62
7
 10
3.83955885E+02
 20
-9.25000000E+00
 11
3.89455885E+02
 21
-9.25000000E+00
  0
LINE
  8
0
 62
7
 10
3.82455885E+02
 20
-9.88000000E+00
 11
3.83955885E+02
 21
-9.25000000E+00
  0
LINE
  8
0
 62
7
 10
3.83955885E+02
 20
-5.25000000E+00
 11
3.82455885E+02
 21
-6.75000000E+00
  0
LINE
  8
0
 62
7
 10
3.83955885E+02
 20
-5.25000000E+00
 11
3.89455885E+02
 21
-5.25000000E+00
  0
LINE
  8
0
 62
7
 10
3.82455885E+02
 20
-1.10630000E+02
 11
3.83955885E+02
 21
-1.11250000E+02
  0
LINE
  8
0
 62
7
 10
3.83955885E+02
 20
-1.11250000E+02
 11
3.89455885E+02
 21
-1.11250000E+02
  0
LINE
  8
0
 62
7
 10
3.82455885E+02
 20
-1.13750000E+02
 11
3.83955885E+02
 21
-1.15250000E+02
  0
LINE
  8
0
 62
7
 10
3.83955885E+02
 20
-1.15250000E+02
 11
3.89455885E+02
 21
-1.15250000E+02
  0
LINE
  8
0
 62
7
 10
2.78455885E+02
 20
-5.31500000E+01
 11
2.79055885E+02
 21
-5.37500000E+01
  0
LINE
  8
0
 62
7
 10
2.79055885E+02
 20
-4.37500000E+01
 11
2.79055885E+02
 21
-5.37500000E+01
  0
LINE
  8
0
  6
CENTER
 62
2
 10
2.77116462E+02
 20
-4.87500000E+01
 11
2.82932762E+02
 21
-4.87500000E+01
  0
LINE
  8
0
 62
7
 10
2.79055885E+02
 20
-4.37500000E+01
 11
2.79965885E+02
 21
-4.37500000E+01
  0
LINE
  8
0
 62
7
 10
2.78455885E+02
 20
-4.43500000E+01
 11
2.78455885E+02
 21
-5.31500000E+01
  0
LINE
  8
0
 62
7
 10
2.78455885E+02
 20
-4.43500000E+01
 11
2.79055885E+02
 21
-4.37500000E+01
  0
LINE
  8
0
 62
7
 10
2.79055885E+02
 20
-5.37500000E+01
 11
2.79965885E+02
 21
-5.37500000E+01
  0
LINE
  8
0
 62
7
 10
2.79055885E+02
 20
-6.67500000E+01
 11
2.79055885E+02
 21
-7.67500000E+01
  0
LINE
  8
0
 62
7
 10
2.78455885E+02
 20
-6.73500000E+01
 11
2.78455885E+02
 21
-7.61500000E+01
  0
LINE
  8
0
  6
CENTER
 62
2
 10
2.77116462E+02
 20
-7.17500000E+01
 11
2.82932762E+02
 21
-7.17500000E+01
  0
LINE
  8
0
 62
7
 10
2.78455885E+02
 20
-6.73500000E+01
 11
2.79055885E+02
 21
-6.67500000E+01
  0
LINE
  8
0
 62
7
 10
2.79055885E+02
 20
-6.67500000E+01
 11
2.79965885E+02
 21
-6.67500000E+01
  0
LINE
  8
0
 62
7
 10
2.78455885E+02
 20
-7.61500000E+01
 11
2.79055885E+02
 21
-7.67500000E+01
  0
LINE
  8
0
 62
7
 10
2.79055885E+02
 20
-7.67500000E+01
 11
2.79965885E+02
 21
-7.67500000E+01
  0
LINE
  8
0
  6
CENTER
 62
2
 10
3.75857270E+02
 20
-1.52500000E+01
 11
3.94633367E+02
 21
-1.52500000E+01
  0
LINE
  8
0
  6
CENTER
 62
2
 10
3.75857270E+02
 20
-1.05250000E+02
 11
3.94633367E+02
 21
-1.05250000E+02
  0
LINE
  8
0
 62
7
 10
1.77965885E+02
 20
4.37600000E+01
 11
2.23965885E+02
 21
4.37600000E+01
  0
LINE
  8
0
  6
CENTER
 62
2
 10
1.77965885E+02
 20
6.87600000E+01
 11
2.36112752E+02
 21
6.87600000E+01
  0
LINE
  8
0
 62
7
 10
2.24965885E+02
 20
4.47600000E+01
 11
2.24965885E+02
 21
9.27600000E+01
  0
LINE
  8
0
 62
7
 10
2.23965885E+02
 20
4.37600000E+01
 11
2.24965885E+02
 21
4.47600000E+01
  0
LINE
  8
0
 62
7
 10
2.24965885E+02
 20
9.27600000E+01
 11
2.23965885E+02
 21
9.37600000E+01
  0
LINE
  8
0
 62
7
 10
2.02965885E+02
 20
4.47600000E+01
 11
2.03965885E+02
 21
4.37600000E+01
  0
LINE
  8
0
 62
7
 10
2.02965885E+02
 20
9.27600000E+01
 11
2.03965885E+02
 21
9.37600000E+01
  0
LINE
  8
0
 62
7
 10
2.03965885E+02
 20
4.37600000E+01
 11
2.03965885E+02
 21
9.37600000E+01
  0
LINE
  8
0
 62
7
 10
2.23965885E+02
 20
4.37600000E+01
 11
2.23965885E+02
 21
9.37600000E+01
  0
LINE
  8
0
 62
7
 10
2.02965885E+02
 20
9.27600000E+01
 11
2.24965885E+02
 21
9.27600000E+01
  0
LINE
  8
0
 62
7
 10
2.02965885E+02
 20
4.47600000E+01
 11
2.24965885E+02
 21
4.47600000E+01
  0
LINE
  8
0
  6
CENTER
 62
2
 10
1.96965885E+02
 20
3.12700000E+01
 11
1.96965885E+02
 21
1.50760000E+02
  0
LINE
  8
0
 62
7
 10
1.77965885E+02
 20
1.17760000E+02
 11
1.77965885E+02
 21
1.45760000E+02
  0
LINE
  8
0
 62
7
 10
2.15965885E+02
 20
1.17760000E+02
 11
2.15965885E+02
 21
1.45760000E+02
  0
LINE
  8
0
 62
7
 10
2.06965885E+02
 20
9.37600000E+01
 11
2.06965885E+02
 21
1.13760000E+02
  0
LINE
  8
0
 62
7
 10
1.90965885E+02
 20
4.37600000E+01
 11
1.90965885E+02
 21
9.37600000E+01
  0
LINE
  8
0
 62
7
 10
2.02965885E+02
 20
4.37600000E+01
 11
2.02965885E+02
 21
9.37600000E+01
  0
LINE
  8
0
 62
7
 10
2.15965885E+02
 20
1.45760000E+02
 11
1.77965885E+02
 21
1.45760000E+02
  0
LINE
  8
0
 62
7
 10
2.14465885E+02
 20
1.38760000E+02
 11
1.79465885E+02
 21
1.38760000E+02
  0
LINE
  8
0
 62
7
 10
2.15965885E+02
 20
1.40260000E+02
 11
1.77965885E+02
 21
1.40260000E+02
  0
LINE
  8
0
 62
7
 10
1.90965885E+02
 20
9.37600000E+01
 11
1.86965885E+02
 21
9.37600000E+01
  0
LINE
  8
0
 62
7
 10
2.02965885E+02
 20
9.37600000E+01
 11
2.23965885E+02
 21
9.37600000E+01
  0
LINE
  8
0
 62
7
 10
2.06965885E+02
 20
1.13760000E+02
 11
2.11965885E+02
 21
1.13760000E+02
  0
LINE
  8
0
 62
7
 10
1.86965885E+02
 20
1.13760000E+02
 11
1.81965885E+02
 21
1.13760000E+02
  0
LINE
  8
0
 62
7
 10
2.11965885E+02
 20
1.45760000E+02
 11
2.11965885E+02
 21
1.40260000E+02
  0
LINE
  8
0
 62
7
 10
1.79465885E+02
 20
1.16260000E+02
 11
1.79465885E+02
 21
1.38760000E+02
  0
LINE
  8
0
 62
7
 10
2.14465885E+02
 20
1.16260000E+02
 11
2.14465885E+02
 21
1.38760000E+02
  0
LINE
  8
0
 62
7
 10
1.81965885E+02
 20
1.40260000E+02
 11
1.81965885E+02
 21
1.45760000E+02
  0
LINE
  8
0
 62
7
 10
2.11345885E+02
 20
1.38760000E+02
 11
2.11965885E+02
 21
1.40260000E+02
  0
LINE
  8
0
 62
7
 10
1.82585885E+02
 20
1.38760000E+02
 11
1.81965885E+02
 21
1.40260000E+02
  0
LINE
  8
0
 62
7
 10
1.79465885E+02
 20
1.38760000E+02
 11
1.77965885E+02
 21
1.40260000E+02
  0
LINE
  8
0
 62
7
 10
2.14465885E+02
 20
1.38760000E+02
 11
2.15965885E+02
 21
1.40260000E+02
  0
LINE
  8
0
 62
7
 10
1.81965885E+02
 20
1.13760000E+02
 11
1.77965885E+02
 21
1.17760000E+02
  0
LINE
  8
0
 62
7
 10
2.15965885E+02
 20
1.17760000E+02
 11
2.11965885E+02
 21
1.13760000E+02
  0
LINE
  8
0
 62
7
 10
2.15965885E+02
 20
4.17600000E+01
 11
1.77965885E+02
 21
4.17600000E+01
  0
LINE
  8
0
 62
7
 10
1.77965885E+02
 20
4.17600000E+01
 11
1.77965885E+02
 21
4.37600000E+01
  0
LINE
  8
0
 62
7
 10
2.15965885E+02
 20
4.17600000E+01
 11
2.15965885E+02
 21
4.37600000E+01
  0
LINE
  8
0
 62
7
 10
1.77965885E+02
 20
4.37600000E+01
 11
1.78359584E+02
 21
4.82600000E+01
  0
LINE
  8
0
 62
7
 10
2.15965885E+02
 20
4.17600000E+01
 11
2.06439605E+02
 21
3.62600000E+01
  0
LINE
  8
0
 62
7
 10
2.06439605E+02
 20
3.62600000E+01
 11
1.87492164E+02
 21
3.62600000E+01
  0
LINE
  8
0
 62
7
 10
1.77965885E+02
 20
4.17600000E+01
 11
1.87492164E+02
 21
3.62600000E+01
  0
LINE
  8
0
 62
7
 10
1.82765885E+02
 20
4.55600000E+01
 11
1.82765885E+02
 21
4.82600000E+01
  0
LINE
  8
0
 62
7
 10
1.84565885E+02
 20
4.37600000E+01
 11
1.82765885E+02
 21
4.55600000E+01
  0
LINE
  8
0
 62
7
 10
1.82765885E+02
 20
4.82600000E+01
 11
1.78359584E+02
 21
4.82600000E+01
  0
LINE
  8
0
 62
7
 10
1.86965885E+02
 20
1.13760000E+02
 11
1.86965885E+02
 21
9.37600000E+01
  0
LINE
  8
0
 62
7
 10
2.15965885E+02
 20
1.09760000E+02
 11
2.11965885E+02
 21
1.13760000E+02
  0
LINE
  8
0
 62
7
 10
2.14465885E+02
 20
1.11260000E+02
 11
2.14465885E+02
 21
9.37600000E+01
  0
LINE
  8
0
 62
7
 10
2.15965885E+02
 20
1.09760000E+02
 11
2.15965885E+02
 21
9.37600000E+01
  0
LINE
  8
0
 62
7
 10
1.77965885E+02
 20
9.37600000E+01
 11
1.86965885E+02
 21
9.37600000E+01
  0
LINE
  8
0
 62
7
 10
1.84265885E+02
 20
9.37600000E+01
 11
1.82465885E+02
 21
9.19600000E+01
  0
LINE
  8
0
 62
7
 10
1.77965885E+02
 20
1.09760000E+02
 11
1.81965885E+02
 21
1.13760000E+02
  0
LINE
  8
0
 62
7
 10
1.79465885E+02
 20
1.11260000E+02
 11
1.79465885E+02
 21
9.37600000E+01
  0
LINE
  8
0
 62
7
 10
1.77965885E+02
 20
9.37600000E+01
 11
1.78359584E+02
 21
8.92600000E+01
  0
LINE
  8
0
 62
7
 10
1.82465885E+02
 20
9.19600000E+01
 11
1.82418756E+02
 21
8.92600000E+01
  0
LINE
  8
0
 62
7
 10
1.78359584E+02
 20
8.92600000E+01
 11
1.82418756E+02
 21
8.92600000E+01
  0
LINE
  8
0
 62
7
 10
1.77965885E+02
 20
1.09760000E+02
 11
1.77965885E+02
 21
9.37600000E+01
  0
LINE
  8
0
 62
7
 10
1.91965885E+02
 20
3.53500000E+01
 11
2.01965885E+02
 21
3.53500000E+01
  0
LINE
  8
0
 62
7
 10
1.92565885E+02
 20
3.47500000E+01
 11
2.01365885E+02
 21
3.47500000E+01
  0
LINE
  8
0
 62
7
 10
1.92565885E+02
 20
3.47500000E+01
 11
1.91965885E+02
 21
3.53500000E+01
  0
LINE
  8
0
 62
7
 10
1.91965885E+02
 20
3.53500000E+01
 11
1.91965885E+02
 21
3.62600000E+01
  0
LINE
  8
0
 62
7
 10
2.01965885E+02
 20
3.53500000E+01
 11
2.01965885E+02
 21
3.62600000E+01
  0
LINE
  8
0
 62
7
 10
2.01365885E+02
 20
3.47500000E+01
 11
2.01965885E+02
 21
3.53500000E+01
  0
LINE
  8
0
 62
7
 10
-2.49250000E+02
 20
2.76250000E+02
 11
-2.49250000E+02
 21
2.56250000E+02
  0
TEXT
  8
0
 62
7
 10
-3.42250282E+02
 20
2.59100000E+02
 40
6.30000019E+00
  1
MODULE
 41
1.00000000E+00
  7
MONOTXT
  0
TEXT
  8
0
 62
7
 10
-3.95800283E+02
 20
2.67100000E+02
 40
6.30000019E+00
  1
F.R.L.LARGE FLOW SERIES
 41
1.05504587E+00
  7
MONOTXT
  0
TEXT
  8
0
 62
7
 10
1.47099307E+02
 20
2.38100000E+02
 40
6.30000019E+00
  1
MODEL:8-90DS6
 41
1.00000000E+00
  7
MONOTXT
  0
TEXT
  8
0
 62
7
 10
-1.19250627E+02
 20
2.38100000E+02
 40
6.30000019E+00
  1
MODEL:8-90DT8
 41
1.00000000E+00
  7
MONOTXT
  0
LINE
  8
0
 62
7
 10
1.33449870E+02
 20
2.76250000E+02
 11
1.33449870E+02
 21
-2.76750000E+02
  0
LINE
  8
0
 62
7
 10
-1.32900065E+02
 20
2.76250000E+02
 11
-1.32900065E+02
 21
-2.76750000E+02
  0
LINE
  8
0
 62
7
 10
2.79799927E+02
 20
-2.56750000E+02
 11
3.99799805E+02
 21
-2.56750000E+02
  0
LINE
  8
0
 62
7
 10
2.79799927E+02
 20
-2.56750000E+02
 11
2.79799927E+02
 21
-2.76750000E+02
  0
TEXT
  8
0
 62
7
 10
2.87585240E+02
 20
-2.71250000E+02
 40
9.00000000E+00
  1
KOGANEI CORP.
 41
1.04838710E+00
  7
MONOTXT
  0
TEXT
  8
0
 62
7
 10
3.15499645E+02
 20
2.63100000E+02
 40
6.30000019E+00
  1
Ver. 1.0
 41
1.08108108E+00
  7
MONOTXT
  0
LINE
  8
0
 62
7
 10
2.79799927E+02
 20
2.56250000E+02
 11
3.99799805E+02
 21
2.56250000E+02
  0
LINE
  8
0
 62
7
 10
2.79799927E+02
 20
2.76250000E+02
 11
2.79799927E+02
 21
2.56250000E+02
  0
TEXT
  8
0
 62
7
 10
-3.85600562E+02
 20
2.38100000E+02
 40
6.30000019E+00
  1
MODEL:8-90ND
 41
1.00000000E+00
  7
MONOTXT
  0
LINE
  8
0
 62
7
 10
-3.99250000E+02
 20
2.56250000E+02
 11
-2.49250000E+02
 21
2.56250000E+02
  0
LINE
  8
0
 62
7
 10
-3.99250000E+02
 20
-2.76750000E+02
 11
3.99799805E+02
 21
-2.76750000E+02
  0
LINE
  8
0
 62
7
 10
-3.99250000E+02
 20
2.76250000E+02
 11
3.99799805E+02
 21
2.76250000E+02
  0
LINE
  8
0
 62
7
 10
-3.99250000E+02
 20
2.76250000E+02
 11
-3.99250000E+02
 21
-2.76750000E+02
  0
LINE
  8
0
 62
7
 10
3.99799805E+02
 20
2.76250000E+02
 11
3.99799805E+02
 21
-2.76750000E+02
  0
ENDSEC
  0
EOF
