  0
SECTION
  2
HEADER
  0
ENDSEC
  0
SECTION
  2
TABLES
  0
TABLE
  2
LTYPE
 70
     4
  0
LTYPE
  2
CONTINUOUS
 70
    64
  3
Solid line
 72
    65
 73
     0
 40
0.000000
  0
LTYPE
  2
DASHED
 70
    64
  3
__ __ __ __ __ __ __ __ __ __ __ __ __ __ __
 72
    65
 73
     2
 40
3.500000
 49
2.000000
 49
-1.500000
  0
LTYPE
  2
CENTER
 70
    64
  3
____ _ ____ _ ____ _ ____ _ ____ _ ____ _ ____
 72
    65
 73
     4
 40
17.500000
 49
13.000000
 49
-1.500000
 49
1.500000
 49
-1.500000
  0
LTYPE
  2
PHANTOM
 70
    64
  3
_____ _ _ _____ _ _ _____ _ _ _____ _ _ ____  
 72
    65
 73
     6
 40
15.500000
 49
8.000000
 49
-1.500000
 49
1.500000
 49
-1.500000
 49
1.500000
 49
-1.500000
  0
LTYPE
  2
DASHED1
 70
    64
  3
__ __ __ __ __ __ __ __ __ __ __ __ __ __ __
 72
    65
 73
     2
 40
1.500000
 49
1.000000
 49
-0.500000
  0
LTYPE
  2
DASHED2
 70
    64
  3
__ __ __ __ __ __ __ __ __ __ __ __ __ __ __
 72
    65
 73
     2
 40
3.500000
 49
2.500000
 49
-1.000000
  0
LTYPE
  2
DASHED3
 70
    64
  3
__ __ __ __ __ __ __ __ __ __ __ __ __ __ __
 72
    65
 73
     2
 40
6.000000
 49
4.000000
 49
-2.000000
  0
LTYPE
  2
DASHED4
 70
    64
  3
__ __ __ __ __ __ __ __ __ __ __ __ __ __ __
 72
    65
 73
     2
 40
12.000000
 49
10.000000
 49
-2.000000
  0
LTYPE
  2
DASHED5
 70
    64
  3
__ __ __ __ __ __ __ __ __ __ __ __ __ __ __
 72
    65
 73
     2
 40
17.000000
 49
15.000000
 49
-2.000000
  0
LTYPE
  2
DASHED6
 70
    64
  3
__ __ __ __ __ __ __ __ __ __ __ __ __ __ __
 72
    65
 73
     2
 40
29.000000
 49
27.000000
 49
-2.000000
  0
LTYPE
  2
PHANTOM1
 70
    64
  3
_____ _ _ _____ _ _ _____ _ _ _____ _ _ ____  
 72
    65
 73
     6
 40
31.000000
 49
25.000000
 49
-1.500000
 49
1.000000
 49
-1.000000
 49
1.000000
 49
-1.500000
  0
LTYPE
  2
PHANTOM2
 70
    64
  3
_____ _ _ _____ _ _ _____ _ _ _____ _ _ ____  
 72
    65
 73
     6
 40
36.000000
 49
27.000000
 49
-1.500000
 49
2.500000
 49
-1.000000
 49
2.500000
 49
-1.500000
  0
LTYPE
  2
PHANTOM3
 70
    64
  3
_____ _ _ _____ _ _ _____ _ _ _____ _ _ ____  
 72
    65
 73
     6
 40
78.000000
 49
64.000000
 49
-2.000000
 49
4.000000
 49
-2.000000
 49
4.000000
 49
-2.000000
  0
LTYPE
  2
CENTER1
 70
    64
  3
____ _ ____ _ ____ _ ____ _ ____ _ ____ _ ____
 72
    65
 73
     4
 40
19.000000
 49
14.000000
 49
-1.000000
 49
3.000000
 49
-1.000000
  0
LTYPE
  2
CENTER2
 70
    64
  3
____ _ ____ _ ____ _ ____ _ ____ _ ____ _ ____
 72
    65
 73
     4
 40
28.500000
 49
25.000000
 49
-1.000000
 49
1.500000
 49
-1.000000
  0
LTYPE
  2
CENTER3
 70
    64
  3
____ _ ____ _ ____ _ ____ _ ____ _ ____ _ ____
 72
    65
 73
     4
 40
31.500000
 49
27.000000
 49
-1.000000
 49
2.500000
 49
-1.000000
  0
LTYPE
  2
CENTER4
 70
    64
  3
____ _ ____ _ ____ _ ____ _ ____ _ ____ _ ____
 72
    65
 73
     4
 40
50.000000
 49
45.000000
 49
-1.000000
 49
3.000000
 49
-1.000000
  0
LTYPE
  2
CENTER5
 70
    64
  3
____ _ ____ _ ____ _ ____ _ ____ _ ____ _ ____
 72
    65
 73
     4
 40
100.000000
 49
92.000000
 49
-2.000000
 49
4.000000
 49
-2.000000
  0
LTYPE
  2
SBK1
 70
    64
  3
______ _ _ _ ______ _ _ _ ______ _ _ _ _____  
 72
    65
 73
     8
 40
60.500000
 49
45.000000
 49
-2.000000
 49
2.500000
 49
-2.000000
 49
2.500000
 49
-2.000000
 49
2.500000
 49
-2.000000
  0
LTYPE
  2
SBK2
 70
    64
  3
______ _ _ _ ______ _ _ _ ______ _ _ _ _____  
 72
    65
 73
     8
 40
84.000000
 49
64.000000
 49
-2.000000
 49
4.000000
 49
-2.000000
 49
4.000000
 49
-2.000000
 49
4.000000
 49
-2.000000
  0
LTYPE
  2
STCH
 70
    64
  3
__ __ __ __ __ __ __ __ __ __ __ __ __ __ __
 72
    65
 73
     2
 40
3.000000
 49
1.000000
 49
-2.000000
  0
LTYPE
  2
MTCH
 70
    64
  3
_____ _ _ _____ _ _ _____ _ _ _____ _ _ ____  
 72
    65
 73
     6
 40
80.000000
 49
66.000000
 49
-2.000000
 49
4.000000
 49
-2.000000
 49
4.000000
 49
-2.000000
  0
ENDTAB
  0
TABLE
  2
LAYER
 70
     1
  0
LAYER
  2
0
 70
     0
 62
     7
  6
CONTINUOUS
  0
ENDTAB
  0
TABLE
  2
STYLE
 70
     1
  0
STYLE
  2
STANDARD
 70
     0
 40
0.000000
 41
1.000000
 50
0.000000
 71
     0
 42
0.200000
  3
txt
  4
BIGFONT
  0
ENDTAB
  0
TABLE
  2
VIEW
 70
     0
  0
ENDTAB
  0
ENDSEC
  0
SECTION
  2
BLOCKS
  0
ENDSEC
  0
SECTION
  2
ENTITIES
  0
LINE
  8
0
  6
CENTER
 62
     2
 10
-25.965916
 20
-60.817230
 11
15.434507
 21
-60.817230
  0
LINE
  8
0
 10
-17.946497
 20
-55.817230
 11
-17.946497
 21
-65.817230
  0
LINE
  8
0
 62
     4
 10
-17.946497
 20
-65.817230
 11
-23.946497
 21
-65.817230
  0
LINE
  8
0
 62
     4
 10
-17.946497
 20
-55.817230
 11
-23.946497
 21
-55.817230
  0
LINE
  8
0
  6
CENTER
 62
     1
 10
-19.726027
 20
-64.317230
 11
-24.469629
 21
-64.317230
  0
LINE
  8
0
  6
CENTER
 62
     1
 10
-21.946497
 20
-54.862648
 11
-21.946497
 21
-66.771812
  0
LINE
  8
0
  6
CENTER
 62
     1
 10
-19.726027
 20
-57.317230
 11
-24.469629
 21
-57.317230
  0
LINE
  8
0
 62
     4
 10
-23.946497
 20
-55.817230
 11
-23.946497
 21
-65.817230
  0
LINE
  8
0
 10
-17.946497
 20
-65.817230
 11
7.653503
 21
-65.817230
  0
LINE
  8
0
 10
-17.946497
 20
-55.817230
 11
7.653503
 21
-55.817230
  0
LINE
  8
0
 10
7.653503
 20
-55.817230
 11
7.653503
 21
-65.817230
  0
LINE
  8
0
 10
7.753504
 20
-56.117229
 11
7.753504
 21
-65.517227
  0
LINE
  8
0
 10
7.753504
 20
-64.917229
 11
7.653503
 21
-64.917229
  0
LINE
  8
0
 10
7.753504
 20
-56.717232
 11
7.653503
 21
-56.717232
  0
LINE
  8
0
 10
12.753504
 20
-56.117229
 11
7.753504
 21
-56.117229
  0
LINE
  8
0
 10
17.582270
 20
-58.957230
 11
23.183504
 21
-58.957230
  0
LINE
  8
0
 10
17.153811
 20
-57.527229
 11
23.183504
 21
-57.527229
  0
LINE
  8
0
 10
12.753504
 20
-57.527229
 11
16.123812
 21
-57.527229
  0
LINE
  8
0
 10
12.753504
 20
-58.957230
 11
16.552267
 21
-58.957230
  0
LINE
  8
0
 10
23.183504
 20
-57.917229
 11
28.183504
 21
-57.917229
  0
LINE
  8
0
 10
23.183504
 20
-58.717232
 11
28.183504
 21
-58.717232
  0
LINE
  8
0
 10
23.183504
 20
-57.527229
 11
23.183504
 21
-59.027229
  0
LINE
  8
0
 10
28.183504
 20
-57.917229
 11
28.183504
 21
-58.717232
  0
LINE
  8
0
 10
19.104334
 20
-64.037231
 11
23.183504
 21
-64.037231
  0
LINE
  8
0
 10
18.675879
 20
-62.607231
 11
23.183504
 21
-62.607231
  0
LINE
  8
0
 10
12.753504
 20
-62.607231
 11
17.645880
 21
-62.607231
  0
LINE
  8
0
 10
12.753504
 20
-64.037231
 11
18.074335
 21
-64.037231
  0
LINE
  8
0
 10
23.183504
 20
-63.717232
 11
28.183504
 21
-63.717232
  0
LINE
  8
0
 10
23.183504
 20
-62.917229
 11
28.183504
 21
-62.917229
  0
LINE
  8
0
 10
23.183504
 20
-64.037231
 11
23.183504
 21
-62.607231
  0
LINE
  8
0
 10
28.183504
 20
-63.717232
 11
28.183504
 21
-62.917229
  0
LINE
  8
0
 62
     2
 10
18.408794
 20
-65.153503
 11
15.773015
 21
-56.356415
  0
LINE
  8
0
 62
     2
 10
19.438793
 20
-65.153511
 11
16.803013
 21
-56.356419
  0
LINE
  8
0
 10
12.042177
 20
-56.117229
 11
12.042177
 21
-65.517227
  0
LINE
  8
0
 10
11.753504
 20
-56.117229
 11
11.753504
 21
-65.517227
  0
LINE
  8
0
 10
12.753504
 20
-65.517227
 11
7.753504
 21
-65.517227
  0
LINE
  8
0
 10
12.753504
 20
-56.117229
 11
12.753504
 21
-65.517227
  0
LINE
  8
0
 10
1.653503
 20
-65.817230
 11
1.653503
 21
-55.817230
  0
LINE
  8
0
 10
-2.946497
 20
-65.817230
 11
-2.946497
 21
-55.817230
  0
LINE
  8
0
 10
-6.446497
 20
-65.817230
 11
-6.446497
 21
-55.817230
  0
LINE
  8
0
 10
-17.246498
 20
-64.817230
 11
-17.246498
 21
-56.817230
  0
LINE
  8
0
 10
-15.146497
 20
-64.817230
 11
-15.146497
 21
-56.817230
  0
LINE
  8
0
 10
-16.946497
 20
-65.117233
 11
-15.446497
 21
-65.117233
  0
LINE
  8
0
 10
-15.146497
 20
-61.163898
 11
-16.246498
 21
-61.163898
  0
LINE
  8
0
 10
-15.146497
 20
-61.017231
 11
-17.246498
 21
-61.017231
  0
LINE
  8
0
 10
-15.146497
 20
-60.617229
 11
-17.246498
 21
-60.617229
  0
LINE
  8
0
 10
-15.146497
 20
-60.470562
 11
-16.246498
 21
-60.470562
  0
LINE
  8
0
 10
-15.146497
 20
-58.517231
 11
-16.246498
 21
-58.517231
  0
LINE
  8
0
 10
-15.146497
 20
-63.117229
 11
-16.246498
 21
-63.117229
  0
LINE
  8
0
 10
-16.246498
 20
-63.517231
 11
-16.246498
 21
-61.090565
  0
LINE
  8
0
 10
-16.446497
 20
-57.917229
 11
-17.246498
 21
-57.917229
  0
LINE
  8
0
 10
-16.446497
 20
-63.717232
 11
-17.246498
 21
-63.717232
  0
LINE
  8
0
 10
-16.246498
 20
-60.543896
 11
-16.246498
 21
-58.117229
  0
LINE
  8
0
 10
-16.246498
 20
-60.543896
 11
-17.246498
 21
-60.543896
  0
LINE
  8
0
 10
-16.246498
 20
-61.090565
 11
-17.246498
 21
-61.090565
  0
LINE
  8
0
 10
-16.946497
 20
-56.517231
 11
-15.446497
 21
-56.517231
  0
LINE
  8
0
 10
2.653503
 20
-55.817230
 11
2.653503
 21
-65.817230
  0
LINE
  8
0
 10
-17.946497
 20
-65.817230
 11
-17.946497
 21
-55.817230
  0
LINE
  8
0
  6
CENTER
 62
     2
 10
-19.172096
 20
-57.317230
 11
-13.938226
 21
-57.317230
  0
LINE
  8
0
  6
CENTER
 62
     2
 10
-19.172096
 20
-64.317230
 11
-13.938226
 21
-64.317230
  0
LINE
  8
0
 10
27.683504
 20
55.322773
 11
27.683504
 21
56.122772
  0
LINE
  8
0
 10
22.683504
 20
55.007774
 11
22.683504
 21
56.437775
  0
LINE
  8
0
 10
22.683504
 20
56.122772
 11
27.683504
 21
56.122772
  0
LINE
  8
0
 10
22.683504
 20
55.322773
 11
27.683504
 21
55.322773
  0
LINE
  8
0
 10
18.504835
 20
55.007774
 11
22.683504
 21
55.007774
  0
LINE
  8
0
 10
18.123503
 20
56.437775
 11
22.683504
 21
56.437775
  0
LINE
  8
0
 10
12.153502
 20
56.437775
 11
16.883505
 21
56.437775
  0
LINE
  8
0
 10
12.153502
 20
55.007774
 11
17.264837
 21
55.007774
  0
LINE
  8
0
 10
22.683504
 20
49.927773
 11
22.683504
 21
51.357773
  0
LINE
  8
0
 10
19.478170
 20
51.357773
 11
22.683504
 21
51.357773
  0
LINE
  8
0
 10
19.859503
 20
49.927773
 11
22.683504
 21
49.927773
  0
LINE
  8
0
 10
22.683504
 20
51.042774
 11
27.683504
 21
51.042774
  0
LINE
  8
0
 10
22.683504
 20
50.242775
 11
27.683504
 21
50.242775
  0
LINE
  8
0
 10
27.683504
 20
51.042774
 11
27.683504
 21
50.242775
  0
LINE
  8
0
 10
12.153502
 20
51.357773
 11
18.238169
 21
51.357773
  0
LINE
  8
0
 10
12.153502
 20
49.927773
 11
18.619505
 21
49.927773
  0
LINE
  8
0
 62
     2
 10
16.263502
 20
58.762775
 11
19.223053
 21
47.664455
  0
LINE
  8
0
 62
     2
 10
17.503504
 20
58.762775
 11
20.463055
 21
47.664459
  0
LINE
  8
0
 10
-17.046497
 20
48.182774
 11
-17.046497
 21
58.182774
  0
LINE
  8
0
 10
1.653503
 20
57.882774
 11
1.653503
 21
48.482773
  0
LINE
  8
0
 10
-16.746498
 20
58.182774
 11
-16.746498
 21
48.182774
  0
LINE
  8
0
 10
-17.946497
 20
58.182774
 11
7.153503
 21
58.182774
  0
LINE
  8
0
 10
-17.946497
 20
48.182774
 11
7.153503
 21
48.182774
  0
LINE
  8
0
 10
7.153503
 20
48.182774
 11
7.153503
 21
50.682774
  0
LINE
  8
0
 10
1.653503
 20
50.282772
 11
7.153503
 21
50.282772
  0
LINE
  8
0
 10
1.653503
 20
56.082775
 11
7.153503
 21
56.082775
  0
LINE
  8
0
 62
     2
 10
-1.346497
 20
54.682774
 11
-1.346497
 21
51.682774
  0
LINE
  8
0
 62
     2
 10
-1.346497
 20
51.682774
 11
1.653503
 21
51.682774
  0
LINE
  8
0
 62
     2
 10
-1.346497
 20
54.682774
 11
1.653503
 21
54.682774
  0
LINE
  8
0
 10
2.653503
 20
50.682774
 11
2.653503
 21
55.682774
  0
LINE
  8
0
 10
12.153502
 20
48.482773
 11
12.153502
 21
57.882774
  0
LINE
  8
0
 10
11.153502
 20
50.682774
 11
11.153502
 21
55.682774
  0
LINE
  8
0
 10
7.153503
 20
48.482773
 11
12.153502
 21
48.482773
  0
LINE
  8
0
 10
2.653503
 20
50.682774
 11
11.153502
 21
50.682774
  0
LINE
  8
0
 10
10.442179
 20
55.682774
 11
10.442179
 21
50.682774
  0
LINE
  8
0
 10
10.153502
 20
55.682774
 11
10.153502
 21
50.682774
  0
LINE
  8
0
  6
PHANTOM
 10
3.519529
 20
53.182774
 11
3.519529
 21
51.932774
  0
LINE
  8
0
 10
7.153503
 20
49.582775
 11
12.153502
 21
49.582775
  0
LINE
  8
0
  6
PHANTOM
 10
3.519529
 20
53.182774
 11
3.519529
 21
54.432774
  0
LINE
  8
0
 10
7.153503
 20
56.782772
 11
12.153502
 21
56.782772
  0
LINE
  8
0
 10
2.653503
 20
55.682774
 11
11.153502
 21
55.682774
  0
LINE
  8
0
 10
7.153503
 20
57.882774
 11
12.153502
 21
57.882774
  0
LINE
  8
0
 10
3.519529
 20
55.682774
 11
3.519529
 21
50.682774
  0
LINE
  8
0
 10
7.153503
 20
55.682774
 11
7.153503
 21
58.182774
  0
LINE
  8
0
  6
CENTER
 62
     2
 10
-25.965916
 20
53.182774
 11
15.434507
 21
53.182774
  0
LINE
  8
0
 62
     4
 10
-23.946497
 20
48.182774
 11
-23.946497
 21
58.182774
  0
LINE
  8
0
  6
CENTER
 62
     1
 10
-19.726027
 20
49.682774
 11
-24.469629
 21
49.682774
  0
LINE
  8
0
  6
CENTER
 62
     1
 10
-21.946497
 20
47.228191
 11
-21.946497
 21
59.137356
  0
LINE
  8
0
  6
CENTER
 62
     1
 10
-19.726027
 20
56.682774
 11
-24.469629
 21
56.682774
  0
LINE
  8
0
 62
     4
 10
-17.946497
 20
48.182774
 11
-23.946497
 21
48.182774
  0
LINE
  8
0
 62
     4
 10
-17.946497
 20
58.182774
 11
-23.946497
 21
58.182774
  0
LINE
  8
0
 10
-17.946497
 20
48.182774
 11
-17.946497
 21
58.182774
  0
LINE
  8
0
  6
CENTER
 62
     2
 10
-19.368866
 20
56.682774
 11
-15.087448
 21
56.682774
  0
LINE
  8
0
  6
CENTER
 62
     2
 10
-19.368866
 20
49.682774
 11
-15.087448
 21
49.682774
  0
LINE
  8
0
 10
86.053505
 20
-21.817226
 11
76.053505
 21
-21.817226
  0
LINE
  8
0
 10
85.260612
 20
-14.024334
 11
83.846397
 21
-12.610121
  0
LINE
  8
0
 10
85.260612
 20
-12.610119
 11
83.846397
 21
-14.024335
  0
LINE
  8
0
 10
76.846397
 20
-12.610121
 11
78.260612
 21
-14.024333
  0
LINE
  8
0
 10
76.846397
 20
-14.024332
 11
78.260612
 21
-12.610120
  0
LINE
  8
0
 10
82.879021
 20
-11.267226
 11
81.053505
 21
-11.267226
  0
LINE
  8
0
 10
81.053505
 20
-11.267226
 11
79.227989
 21
-11.267226
  0
LINE
  8
0
 10
82.879021
 20
-11.867227
 11
79.227989
 21
-11.867227
  0
LINE
  8
0
 10
86.053505
 20
9.882774
 11
86.053505
 21
-21.817226
  0
LINE
  8
0
  6
CENTER
 62
     2
 10
83.553505
 20
-11.567226
 11
78.553505
 21
-11.567226
  0
LINE
  8
0
 10
76.053505
 20
9.882774
 11
76.053505
 21
-21.817226
  0
LINE
  8
0
 10
76.053505
 20
-11.717226
 11
77.553505
 21
-11.717226
  0
LINE
  8
0
 10
77.553505
 20
-14.917227
 11
76.053505
 21
-14.917227
  0
LINE
  8
0
 10
86.053505
 20
-14.917227
 11
84.553505
 21
-14.917227
  0
LINE
  8
0
 10
84.553505
 20
-11.717226
 11
86.053505
 21
-11.717226
  0
LINE
  8
0
 10
86.053505
 20
-7.417227
 11
85.753502
 21
-7.417227
  0
LINE
  8
0
 10
76.053505
 20
-7.915305
 11
86.053505
 21
-7.915305
  0
LINE
  8
0
 10
78.403503
 20
-15.417227
 11
76.053505
 21
-15.417227
  0
LINE
  8
0
 10
79.653503
 20
-14.167227
 11
82.453506
 21
-14.167227
  0
LINE
  8
0
 10
83.703506
 20
-15.417228
 11
82.453506
 21
-14.167227
  0
LINE
  8
0
 10
86.053505
 20
-15.417227
 11
83.703506
 21
-15.417227
  0
LINE
  8
0
 10
79.909134
 20
-14.608044
 11
82.197876
 21
-14.608044
  0
LINE
  8
0
 10
78.659134
 20
-15.858044
 11
76.053505
 21
-15.858044
  0
LINE
  8
0
 10
86.053505
 20
-15.858044
 11
83.447876
 21
-15.858044
  0
LINE
  8
0
 10
82.197876
 20
-14.608047
 11
83.447876
 21
-15.858042
  0
LINE
  8
0
 10
86.053505
 20
-8.726409
 11
76.053505
 21
-8.726409
  0
LINE
  8
0
 10
82.197876
 20
-14.608042
 11
82.453506
 21
-14.167223
  0
LINE
  8
0
 10
79.909134
 20
-14.608047
 11
78.659134
 21
-15.858045
  0
LINE
  8
0
 10
78.403503
 20
-15.417228
 11
79.653503
 21
-14.167230
  0
LINE
  8
0
 10
79.909134
 20
-14.608044
 11
79.653503
 21
-14.167227
  0
LINE
  8
0
 10
83.703506
 20
-15.417225
 11
83.447876
 21
-15.858042
  0
LINE
  8
0
 10
78.659134
 20
-15.858047
 11
78.403503
 21
-15.417231
  0
LINE
  8
0
 62
     2
 10
79.553505
 20
5.182774
 11
79.553505
 21
10.182774
  0
LINE
  8
0
 62
     2
 10
79.553505
 20
5.182774
 11
82.553505
 21
5.182774
  0
LINE
  8
0
 62
     2
 10
82.553505
 20
5.182774
 11
82.553505
 21
10.182774
  0
LINE
  8
0
 10
86.053505
 20
-7.317226
 11
85.753502
 21
-7.317226
  0
LINE
  8
0
 10
85.753502
 20
10.182774
 11
76.353508
 21
10.182774
  0
LINE
  8
0
 10
76.353508
 20
-2.017227
 11
78.553505
 21
-2.017227
  0
LINE
  8
0
 10
78.153503
 20
-3.017227
 11
78.553505
 21
-3.017227
  0
LINE
  8
0
 10
78.153503
 20
-3.017227
 11
78.153503
 21
-2.017227
  0
LINE
  8
0
 10
83.953506
 20
-3.017227
 11
83.953506
 21
-2.017227
  0
LINE
  8
0
 10
78.153503
 20
-2.517227
 11
83.953506
 21
-2.517227
  0
LINE
  8
0
 10
83.553505
 20
-1.017227
 11
83.553505
 21
-3.517227
  0
LINE
  8
0
 10
78.553505
 20
-1.017227
 11
78.553505
 21
-3.517227
  0
LINE
  8
0
 10
84.543503
 20
-4.017225
 11
84.667503
 21
-5.905227
  0
LINE
  8
0
 10
84.143509
 20
-6.117226
 11
84.143509
 21
-6.617226
  0
LINE
  8
0
 10
83.043503
 20
-6.617226
 11
84.143509
 21
-6.617226
  0
LINE
  8
0
 10
83.043503
 20
-6.117226
 11
83.043503
 21
-6.617226
  0
LINE
  8
0
 10
82.717506
 20
-6.117226
 11
84.467506
 21
-6.117226
  0
LINE
  8
0
 10
82.517502
 20
-5.905227
 11
82.643501
 21
-4.017226
  0
LINE
  8
0
 10
82.643509
 20
-4.017227
 11
84.543503
 21
-4.017227
  0
LINE
  8
0
 10
81.453506
 20
-5.417227
 11
80.653503
 21
-5.417227
  0
LINE
  8
0
 10
81.453506
 20
-4.617226
 11
81.453506
 21
-5.417227
  0
LINE
  8
0
 10
81.453506
 20
-4.617226
 11
80.653503
 21
-4.617226
  0
LINE
  8
0
 10
80.653503
 20
-4.617226
 11
80.653503
 21
-5.417227
  0
LINE
  8
0
 10
82.003502
 20
-4.017225
 11
82.127502
 21
-5.905226
  0
LINE
  8
0
 10
81.603508
 20
-6.117226
 11
81.603508
 21
-6.617226
  0
LINE
  8
0
 10
80.503502
 20
-6.617226
 11
81.603508
 21
-6.617226
  0
LINE
  8
0
 10
80.503502
 20
-6.117226
 11
80.503502
 21
-6.617226
  0
LINE
  8
0
 10
80.177505
 20
-6.117226
 11
81.927505
 21
-6.117226
  0
LINE
  8
0
 10
79.977509
 20
-5.905227
 11
80.103508
 21
-4.017226
  0
LINE
  8
0
 10
80.103508
 20
-4.017227
 11
82.003502
 21
-4.017227
  0
LINE
  8
0
 10
77.437508
 20
-5.905226
 11
77.563507
 21
-4.017226
  0
LINE
  8
0
 10
79.463509
 20
-4.017227
 11
79.587502
 21
-5.905226
  0
LINE
  8
0
 10
84.753502
 20
-3.517227
 11
84.753502
 21
-2.517227
  0
LINE
  8
0
 10
85.753502
 20
-2.517227
 11
84.753502
 21
-2.517227
  0
LINE
  8
0
 10
77.353508
 20
-3.517227
 11
77.353508
 21
-2.517227
  0
LINE
  8
0
 10
76.353508
 20
-2.517227
 11
77.353508
 21
-2.517227
  0
LINE
  8
0
 10
79.803505
 20
-2.517227
 11
79.803505
 21
-3.517227
  0
LINE
  8
0
 10
82.303505
 20
-2.517227
 11
82.303505
 21
-3.517227
  0
LINE
  8
0
 10
77.963509
 20
-6.617226
 11
79.063507
 21
-6.617226
  0
LINE
  8
0
 10
77.637505
 20
-6.117226
 11
79.387505
 21
-6.117226
  0
LINE
  8
0
 10
77.563507
 20
-4.017227
 11
79.463509
 21
-4.017227
  0
LINE
  8
0
 10
79.063507
 20
-6.117226
 11
79.063507
 21
-6.617226
  0
LINE
  8
0
 10
77.963509
 20
-6.117226
 11
77.963509
 21
-6.617226
  0
LINE
  8
0
 10
76.353508
 20
-7.817226
 11
85.753502
 21
-7.817226
  0
LINE
  8
0
 10
85.753502
 20
-7.817226
 11
85.753502
 21
-2.517227
  0
LINE
  8
0
 10
76.353508
 20
-7.817226
 11
76.353508
 21
-2.517227
  0
LINE
  8
0
 10
77.353508
 20
-3.517227
 11
84.753502
 21
-3.517227
  0
LINE
  8
0
 10
78.553505
 20
-1.017227
 11
83.553505
 21
-1.017227
  0
LINE
  8
0
 10
78.553505
 20
-2.217226
 11
83.553505
 21
-2.217226
  0
LINE
  8
0
 10
83.553505
 20
-3.017227
 11
83.953506
 21
-3.017227
  0
LINE
  8
0
 10
83.553505
 20
-2.017227
 11
85.753502
 21
-2.017227
  0
LINE
  8
0
 10
76.353508
 20
-7.417227
 11
76.053505
 21
-7.417227
  0
LINE
  8
0
 10
76.353508
 20
-7.317226
 11
76.053505
 21
-7.317226
  0
LINE
  8
0
  6
CENTER
 62
     2
 10
81.053505
 20
-23.602232
 11
81.053505
 21
14.975353
  0
LINE
  8
0
 10
86.053505
 20
-21.817226
 11
76.053505
 21
-21.817226
  0
LINE
  8
0
 10
76.053505
 20
-21.817226
 11
86.053505
 21
-21.817226
  0
LINE
  8
0
 62
     4
 10
76.053505
 20
-21.817226
 11
76.053505
 21
-22.817226
  0
LINE
  8
0
 62
     4
 10
86.053505
 20
-21.817226
 11
86.053505
 21
-22.817226
  0
LINE
  8
0
 62
     4
 10
86.053505
 20
-22.817226
 11
76.053505
 21
-22.817226
  0
LINE
  8
0
  6
CENTER
 62
     2
 10
77.553505
 20
-23.602232
 11
77.553505
 21
-20.037008
  0
LINE
  8
0
  6
CENTER
 62
     2
 10
84.553505
 20
-23.602232
 11
84.553505
 21
-20.037008
  0
LINE
  8
0
 10
-79.946495
 20
9.682774
 11
-79.946495
 21
9.182774
  0
LINE
  8
0
 10
-85.946495
 20
9.682774
 11
-85.946495
 21
9.182774
  0
LINE
  8
0
 10
-79.946495
 20
9.182774
 11
-85.946495
 21
9.182774
  0
LINE
  8
0
 10
-79.946495
 20
9.682774
 11
-85.946495
 21
9.682774
  0
LINE
  8
0
 10
-77.946495
 20
10.182774
 11
-87.946495
 21
10.182774
  0
LINE
  8
0
 10
-87.946495
 20
-4.817226
 11
-87.946495
 21
10.182774
  0
LINE
  8
0
 10
-77.946495
 20
-4.817226
 11
-77.946495
 21
10.182774
  0
LINE
  8
0
 62
     4
 10
-87.946495
 20
-22.817226
 11
-77.946495
 21
-22.817226
  0
LINE
  8
0
  6
CENTER
 62
     1
 10
-82.946495
 20
-24.423004
 11
-82.946495
 21
-8.300899
  0
LINE
  8
0
 62
     4
 10
-87.946495
 20
-4.817226
 11
-77.946495
 21
-4.817226
  0
LINE
  8
0
  6
CENTER
 62
     1
 10
-85.431099
 20
-16.817226
 11
-80.462036
 21
-16.817226
  0
LINE
  8
0
  6
CENTER
 62
     1
 10
-85.431099
 20
-10.817226
 11
-80.462036
 21
-10.817226
  0
LINE
  8
0
 62
     4
 10
-77.946495
 20
-4.817226
 11
-77.946495
 21
-22.817226
  0
LINE
  8
0
 62
     4
 10
-87.946495
 20
-4.817226
 11
-87.946495
 21
-22.817226
  0
LINE
  8
0
  6
CENTER
 62
     2
 10
-86.446495
 20
-24.423004
 11
-86.446495
 21
-20.736895
  0
LINE
  8
0
  6
CENTER
 62
     2
 10
-79.446495
 20
-24.423004
 11
-79.446495
 21
-20.736895
  0
LINE
  8
0
 10
2.853503
 20
-2.017226
 11
3.719528
 21
-1.517226
  0
LINE
  8
0
 10
1.653503
 20
-2.017227
 11
1.653503
 21
9.882774
  0
LINE
  8
0
 10
7.153503
 20
-7.317226
 11
7.153503
 21
-2.017227
  0
LINE
  8
0
 10
7.253504
 20
-7.317226
 11
11.253504
 21
-7.317226
  0
LINE
  8
0
 10
11.253504
 20
-2.217470
 11
11.253504
 21
-1.017227
  0
LINE
  8
0
 10
7.253504
 20
-2.517227
 11
7.253504
 21
-7.317226
  0
LINE
  8
0
 10
7.153503
 20
-2.517227
 11
12.253504
 21
-2.517227
  0
LINE
  8
0
  6
PHANTOM
 10
8.053503
 20
-2.517227
 11
9.552118
 21
-2.517227
  0
LINE
  8
0
 10
11.253504
 20
-2.217470
 11
9.553502
 21
-2.517226
  0
LINE
  8
0
 10
12.253504
 20
-7.817226
 11
12.253504
 21
-2.517227
  0
LINE
  8
0
 10
7.153503
 20
-6.617226
 11
7.253504
 21
-6.617226
  0
LINE
  8
0
 10
10.542177
 20
-1.017227
 11
11.253504
 21
-1.017227
  0
LINE
  8
0
 10
10.253504
 20
-1.517227
 11
10.542179
 21
-1.017226
  0
LINE
  8
0
 10
11.542177
 20
-7.817226
 11
12.253504
 21
-7.817226
  0
LINE
  8
0
 10
11.253504
 20
-7.317225
 11
11.542179
 21
-7.817225
  0
LINE
  8
0
 10
3.719528
 20
-1.517227
 11
10.253504
 21
-1.517227
  0
LINE
  8
0
 10
7.153503
 20
-2.017227
 11
1.653503
 21
-2.017227
  0
LINE
  8
0
 10
7.153503
 20
-7.317226
 11
-4.246496
 21
-7.317226
  0
LINE
  8
0
 10
-3.346497
 20
-14.317226
 11
-3.346497
 21
-12.317226
  0
LINE
  8
0
 10
-3.846497
 20
-11.817226
 11
-3.946497
 21
-11.817226
  0
LINE
  8
0
 10
-3.846497
 20
-14.817226
 11
-3.946497
 21
-14.817226
  0
LINE
  8
0
 10
-2.946497
 20
-14.917227
 11
-3.946497
 21
-14.917227
  0
LINE
  8
0
 10
-2.946497
 20
-11.717226
 11
-3.946497
 21
-11.717226
  0
LINE
  8
0
 10
-3.946497
 20
-14.917227
 11
-3.946497
 21
-11.717226
  0
LINE
  8
0
 10
-16.746498
 20
10.182774
 11
1.353502
 21
10.182774
  0
LINE
  8
0
 10
-4.246496
 20
8.682774
 11
-4.246496
 21
-7.417227
  0
LINE
  8
0
 10
-16.746498
 20
10.182774
 11
-16.746498
 21
8.682774
  0
LINE
  8
0
 10
-2.946497
 20
-15.417227
 11
-2.946497
 21
-8.726409
  0
LINE
  8
0
 10
-4.246496
 20
-7.417227
 11
1.653503
 21
-7.417227
  0
LINE
  8
0
 10
-2.946497
 20
-8.726408
 11
1.653503
 21
-7.915304
  0
LINE
  8
0
 10
1.653503
 20
-7.915305
 11
1.653503
 21
-7.417227
  0
LINE
  8
0
 10
1.053503
 20
-7.317226
 11
1.053503
 21
-7.417227
  0
LINE
  8
0
 10
-17.046497
 20
10.182775
 11
-16.746496
 21
9.882772
  0
LINE
  8
0
 10
-4.246496
 20
8.682774
 11
-16.746498
 21
8.682774
  0
LINE
  8
0
 10
-6.446497
 20
-16.034370
 11
-2.946497
 21
-15.417226
  0
LINE
  8
0
 10
12.253504
 20
-5.732227
 11
17.264837
 21
-5.732227
  0
LINE
  8
0
 10
12.253504
 20
-4.302227
 11
16.883505
 21
-4.302227
  0
LINE
  8
0
 62
     2
 10
16.263504
 20
-1.977226
 11
17.863504
 21
-7.977225
  0
LINE
  8
0
 62
     2
 10
17.503504
 20
-1.977226
 11
19.103504
 21
-7.977225
  0
LINE
  8
0
 10
18.123503
 20
-4.302227
 11
22.683504
 21
-4.302227
  0
LINE
  8
0
 10
18.504835
 20
-5.732227
 11
22.683504
 21
-5.732227
  0
LINE
  8
0
 10
22.683504
 20
-5.417227
 11
27.683504
 21
-5.417227
  0
LINE
  8
0
 10
22.683504
 20
-4.617226
 11
27.683504
 21
-4.617226
  0
LINE
  8
0
 10
22.683504
 20
-5.732227
 11
22.683504
 21
-4.302227
  0
LINE
  8
0
 10
27.683504
 20
-5.417227
 11
27.683504
 21
-4.617226
  0
LINE
  8
0
 10
-6.446497
 20
-21.817226
 11
-6.446497
 21
-16.034370
  0
LINE
  8
0
 10
-17.946497
 20
10.182774
 11
-17.046497
 21
10.182774
  0
LINE
  8
0
 10
-17.946497
 20
-21.817226
 11
-6.446497
 21
-21.817226
  0
LINE
  8
0
 62
     4
 10
-17.946497
 20
-21.817226
 11
-17.946497
 21
-22.817226
  0
LINE
  8
0
 62
     4
 10
-17.946497
 20
-22.817226
 11
-23.946497
 21
-22.817226
  0
LINE
  8
0
 62
     4
 10
-23.946497
 20
-4.817226
 11
-23.946497
 21
-22.817226
  0
LINE
  8
0
 62
     4
 10
-17.946497
 20
-4.817226
 11
-23.946497
 21
-4.817226
  0
LINE
  8
0
 10
-14.746497
 20
-21.117226
 11
-14.746497
 21
-20.317226
  0
LINE
  8
0
 10
-7.146497
 20
-20.317226
 11
-7.146497
 21
-21.117226
  0
LINE
  8
0
 10
-7.146497
 20
-20.317226
 11
-14.746497
 21
-20.317226
  0
LINE
  8
0
 10
-17.946497
 20
10.182774
 11
-17.946497
 21
-21.817226
  0
LINE
  8
0
 10
-7.146497
 20
-21.117226
 11
-14.746497
 21
-21.117226
  0
LINE
  8
0
  6
CENTER
 62
     1
 10
-21.946497
 20
-24.423004
 11
-21.946497
 21
-21.155436
  0
LINE
  8
0
  6
CENTER
 62
     2
 10
-19.807484
 20
-13.317226
 11
-15.885481
 21
-13.317226
  0
LINE
  8
0
 10
-138.399994
 20
94.500000
 11
138.350006
 21
94.500000
  0
LINE
  8
0
 10
138.350006
 20
94.500000
 11
138.350006
 21
-94.800003
  0
LINE
  8
0
 10
-138.399994
 20
-94.800003
 11
138.350006
 21
-94.800003
  0
LINE
  8
0
 10
-138.399994
 20
94.500000
 11
-138.399994
 21
-94.800003
  0
LINE
  8
0
 10
73.350006
 20
-84.800003
 11
138.350006
 21
-84.800003
  0
LINE
  8
0
 10
-138.399994
 20
84.500000
 11
-73.399994
 21
84.500000
  0
LINE
  8
0
 10
73.350006
 20
84.500000
 11
138.350006
 21
84.500000
  0
LINE
  8
0
 10
73.350006
 20
-84.800003
 11
73.350006
 21
-94.800003
  0
LINE
  8
0
 10
73.350006
 20
94.500000
 11
73.350006
 21
84.500000
  0
LINE
  8
0
 10
-73.399994
 20
94.500000
 11
-73.399994
 21
84.500000
  0
CIRCLE
  8
0
 62
     4
 10
-21.946497
 20
-64.317230
 40
1.100000
  0
CIRCLE
  8
0
 62
     4
 10
-21.946497
 20
-57.317230
 40
1.100000
  0
ARC
  8
0
 10
-15.446497
 20
-56.817230
 40
0.300000
 50
0.000000
 51
90.000000
  0
ARC
  8
0
 10
-16.946497
 20
-56.817230
 40
0.299999
 50
90.000000
 51
180.000000
  0
ARC
  8
0
 10
-15.446497
 20
-64.817230
 40
0.300003
 50
270.000000
 51
0.000000
  0
ARC
  8
0
 10
-16.946497
 20
-64.817230
 40
0.299999
 50
180.000000
 51
270.000000
  0
ARC
  8
0
 10
-16.446497
 20
-63.517231
 40
0.200001
 50
270.000000
 51
0.000000
  0
ARC
  8
0
 10
-16.446497
 20
-58.117229
 40
0.200001
 50
0.000000
 51
90.000000
  0
ARC
  8
0
 10
1.353502
 20
48.482773
 40
0.299999
 50
270.000000
 51
0.000000
  0
ARC
  8
0
 10
1.353502
 20
57.882774
 40
0.300000
 50
0.000000
 51
90.000000
  0
CIRCLE
  8
0
 62
     4
 10
-21.946497
 20
49.682774
 40
1.100000
  0
CIRCLE
  8
0
 62
     4
 10
-21.946497
 20
56.682774
 40
1.100000
  0
CIRCLE
  8
0
 10
84.553505
 20
-13.317226
 40
1.500000
  0
CIRCLE
  8
0
 10
77.553505
 20
-13.317226
 40
1.500000
  0
ARC
  8
0
 10
81.053505
 20
-11.567226
 40
0.800003
 50
202.024246
 51
337.975769
  0
ARC
  8
0
 10
81.053505
 20
-11.567226
 40
0.800003
 50
22.024242
 51
157.975754
  0
CIRCLE
  8
0
 10
81.053505
 20
-11.567226
 40
1.850000
  0
CIRCLE
  8
0
 10
81.053505
 20
-11.567226
 40
1.900000
  0
ARC
  8
0
 10
84.553505
 20
-13.317226
 40
1.600000
 50
90.000000
 51
270.000000
  0
ARC
  8
0
 10
77.553505
 20
-13.317226
 40
1.600000
 50
270.000000
 51
90.000000
  0
CIRCLE
  8
0
 10
81.053505
 20
-11.567226
 40
2.050000
  0
ARC
  8
0
 10
85.753502
 20
9.882774
 40
0.300003
 50
0.000000
 51
90.000000
  0
ARC
  8
0
 10
76.353508
 20
9.882774
 40
0.300000
 50
90.000000
 51
180.000000
  0
ARC
  8
0
 10
76.353508
 20
-2.317226
 40
0.300000
 50
90.000000
 51
180.000000
  0
ARC
  8
0
 10
85.753502
 20
-2.317226
 40
0.300003
 50
0.000000
 51
90.000000
  0
ARC
  8
0
 10
84.468216
 20
-5.917561
 40
0.199666
 50
269.794189
 51
3.541784
  0
ARC
  8
0
 10
82.717850
 20
-5.916563
 40
0.200668
 50
176.761612
 51
269.901978
  0
ARC
  8
0
 10
81.928223
 20
-5.917561
 40
0.199666
 50
269.794189
 51
3.541784
  0
ARC
  8
0
 10
80.177849
 20
-5.916563
 40
0.200668
 50
176.761612
 51
269.901978
  0
ARC
  8
0
 10
79.388222
 20
-5.917561
 40
0.199666
 50
269.794189
 51
3.541784
  0
ARC
  8
0
 10
77.637848
 20
-5.916563
 40
0.200668
 50
176.761612
 51
269.901978
  0
CIRCLE
  8
0
 10
78.513504
 20
-5.017227
 40
0.750000
  0
CIRCLE
  8
0
 10
83.593506
 20
-5.017227
 40
0.750000
  0
CIRCLE
  8
0
 62
     4
 10
-82.946495
 20
-16.817226
 40
1.500000
  0
CIRCLE
  8
0
 62
     4
 10
-82.946495
 20
-16.817226
 40
1.200000
  0
CIRCLE
  8
0
 62
     4
 10
-82.946495
 20
-10.817226
 40
1.500000
  0
CIRCLE
  8
0
 62
     4
 10
-82.946495
 20
-10.817226
 40
1.200000
  0
ARC
  8
0
 10
-3.846497
 20
-14.317226
 40
0.500000
 50
270.000000
 51
0.000000
  0
ARC
  8
0
 10
-3.846497
 20
-12.317226
 40
0.500000
 50
0.000000
 51
90.000000
  0
ARC
  8
0
 10
1.353502
 20
9.882774
 40
0.300000
 50
0.000000
 51
90.000000
  0
TEXT
  8
0
 10
76.207352
 20
-92.850006
 40
4.500000
  1
KOGANEI CORP.
 50
0.000000
 41
1.052632
 51
0.000000
  7
STANDARD
  0
TEXT
  8
0
 10
92.842865
 20
87.620003
 40
3.200000
  1
Ver. 1.0
 50
0.000000
 41
1.052632
 51
0.000000
  7
STANDARD
  0
TEXT
  8
0
 10
-123.707138
 20
87.620003
 40
3.200000
  1
G010 SERIES
 50
0.000000
 41
1.052632
 51
0.000000
  7
STANDARD
  0
TEXT
  8
0
 10
-130.207001
 20
72.620003
 40
3.200000
  1
MODEL:G010E1-21-PL
 50
0.000000
 41
1.052632
 51
0.000000
  7
STANDARD
  0
ENDSEC
  0
EOF
