  0
SECTION
  2
HEADER
  0
ENDSEC
  0
SECTION
  2
TABLES
  0
TABLE
  2
LTYPE
 70
     4
  0
LTYPE
  2
CONTINUOUS
 70
    64
  3
Solid line
 72
    65
 73
     0
 40
0.000000
  0
LTYPE
  2
DASHED
 70
    64
  3
__ __ __ __ __ __ __ __ __ __ __ __ __ __ __
 72
    65
 73
     2
 40
3.500000
 49
2.000000
 49
-1.500000
  0
LTYPE
  2
CENTER
 70
    64
  3
____ _ ____ _ ____ _ ____ _ ____ _ ____ _ ____
 72
    65
 73
     4
 40
17.500000
 49
13.000000
 49
-1.500000
 49
1.500000
 49
-1.500000
  0
LTYPE
  2
PHANTOM
 70
    64
  3
_____ _ _ _____ _ _ _____ _ _ _____ _ _ ____  
 72
    65
 73
     6
 40
15.500000
 49
8.000000
 49
-1.500000
 49
1.500000
 49
-1.500000
 49
1.500000
 49
-1.500000
  0
LTYPE
  2
DASHED1
 70
    64
  3
__ __ __ __ __ __ __ __ __ __ __ __ __ __ __
 72
    65
 73
     2
 40
1.500000
 49
1.000000
 49
-0.500000
  0
LTYPE
  2
DASHED2
 70
    64
  3
__ __ __ __ __ __ __ __ __ __ __ __ __ __ __
 72
    65
 73
     2
 40
3.500000
 49
2.500000
 49
-1.000000
  0
LTYPE
  2
DASHED3
 70
    64
  3
__ __ __ __ __ __ __ __ __ __ __ __ __ __ __
 72
    65
 73
     2
 40
6.000000
 49
4.000000
 49
-2.000000
  0
LTYPE
  2
DASHED4
 70
    64
  3
__ __ __ __ __ __ __ __ __ __ __ __ __ __ __
 72
    65
 73
     2
 40
12.000000
 49
10.000000
 49
-2.000000
  0
LTYPE
  2
DASHED5
 70
    64
  3
__ __ __ __ __ __ __ __ __ __ __ __ __ __ __
 72
    65
 73
     2
 40
17.000000
 49
15.000000
 49
-2.000000
  0
LTYPE
  2
DASHED6
 70
    64
  3
__ __ __ __ __ __ __ __ __ __ __ __ __ __ __
 72
    65
 73
     2
 40
29.000000
 49
27.000000
 49
-2.000000
  0
LTYPE
  2
PHANTOM1
 70
    64
  3
_____ _ _ _____ _ _ _____ _ _ _____ _ _ ____  
 72
    65
 73
     6
 40
31.000000
 49
25.000000
 49
-1.500000
 49
1.000000
 49
-1.000000
 49
1.000000
 49
-1.500000
  0
LTYPE
  2
PHANTOM2
 70
    64
  3
_____ _ _ _____ _ _ _____ _ _ _____ _ _ ____  
 72
    65
 73
     6
 40
36.000000
 49
27.000000
 49
-1.500000
 49
2.500000
 49
-1.000000
 49
2.500000
 49
-1.500000
  0
LTYPE
  2
PHANTOM3
 70
    64
  3
_____ _ _ _____ _ _ _____ _ _ _____ _ _ ____  
 72
    65
 73
     6
 40
78.000000
 49
64.000000
 49
-2.000000
 49
4.000000
 49
-2.000000
 49
4.000000
 49
-2.000000
  0
LTYPE
  2
CENTER1
 70
    64
  3
____ _ ____ _ ____ _ ____ _ ____ _ ____ _ ____
 72
    65
 73
     4
 40
19.000000
 49
14.000000
 49
-1.000000
 49
3.000000
 49
-1.000000
  0
LTYPE
  2
CENTER2
 70
    64
  3
____ _ ____ _ ____ _ ____ _ ____ _ ____ _ ____
 72
    65
 73
     4
 40
28.500000
 49
25.000000
 49
-1.000000
 49
1.500000
 49
-1.000000
  0
LTYPE
  2
CENTER3
 70
    64
  3
____ _ ____ _ ____ _ ____ _ ____ _ ____ _ ____
 72
    65
 73
     4
 40
31.500000
 49
27.000000
 49
-1.000000
 49
2.500000
 49
-1.000000
  0
LTYPE
  2
CENTER4
 70
    64
  3
____ _ ____ _ ____ _ ____ _ ____ _ ____ _ ____
 72
    65
 73
     4
 40
50.000000
 49
45.000000
 49
-1.000000
 49
3.000000
 49
-1.000000
  0
LTYPE
  2
CENTER5
 70
    64
  3
____ _ ____ _ ____ _ ____ _ ____ _ ____ _ ____
 72
    65
 73
     4
 40
100.000000
 49
92.000000
 49
-2.000000
 49
4.000000
 49
-2.000000
  0
LTYPE
  2
SBK1
 70
    64
  3
______ _ _ _ ______ _ _ _ ______ _ _ _ _____  
 72
    65
 73
     8
 40
60.500000
 49
45.000000
 49
-2.000000
 49
2.500000
 49
-2.000000
 49
2.500000
 49
-2.000000
 49
2.500000
 49
-2.000000
  0
LTYPE
  2
SBK2
 70
    64
  3
______ _ _ _ ______ _ _ _ ______ _ _ _ _____  
 72
    65
 73
     8
 40
84.000000
 49
64.000000
 49
-2.000000
 49
4.000000
 49
-2.000000
 49
4.000000
 49
-2.000000
 49
4.000000
 49
-2.000000
  0
LTYPE
  2
STCH
 70
    64
  3
__ __ __ __ __ __ __ __ __ __ __ __ __ __ __
 72
    65
 73
     2
 40
3.000000
 49
1.000000
 49
-2.000000
  0
LTYPE
  2
MTCH
 70
    64
  3
_____ _ _ _____ _ _ _____ _ _ _____ _ _ ____  
 72
    65
 73
     6
 40
80.000000
 49
66.000000
 49
-2.000000
 49
4.000000
 49
-2.000000
 49
4.000000
 49
-2.000000
  0
ENDTAB
  0
TABLE
  2
LAYER
 70
     1
  0
LAYER
  2
0
 70
     0
 62
     7
  6
CONTINUOUS
  0
ENDTAB
  0
TABLE
  2
STYLE
 70
     1
  0
STYLE
  2
STANDARD
 70
     0
 40
0.000000
 41
1.000000
 50
0.000000
 71
     0
 42
0.200000
  3
txt
  4
BIGFONT
  0
ENDTAB
  0
TABLE
  2
VIEW
 70
     0
  0
ENDTAB
  0
ENDSEC
  0
SECTION
  2
BLOCKS
  0
ENDSEC
  0
SECTION
  2
ENTITIES
  0
POINT
  8
0
 10
2.653502
 20
-55.317226
  0
POINT
  8
0
 10
-21.946497
 20
-55.317226
  0
POINT
  8
0
 10
2.653451
 20
42.732773
  0
POINT
  8
0
 10
-21.946497
 20
42.682774
  0
POINT
  8
0
 10
2.653451
 20
42.732773
  0
POINT
  8
0
 10
2.653451
 20
42.732773
  0
POINT
  8
0
 10
66.053505
 20
-19.817226
  0
POINT
  8
0
 10
57.553501
 20
-19.817226
  0
POINT
  8
0
 10
-72.946495
 20
-19.817226
  0
POINT
  8
0
 10
-81.446495
 20
-19.817226
  0
POINT
  8
0
 10
1.653502
 20
-19.817226
  0
POINT
  8
0
 10
-21.946497
 20
-19.817226
  0
LINE
  8
0
  6
CENTER
 62
     2
 10
-25.965916
 20
-58.817226
 11
4.353586
 21
-58.817226
  0
LINE
  8
0
  6
CENTER
 62
     2
 10
-19.167526
 20
-62.317226
 11
-14.793394
 21
-62.317226
  0
LINE
  8
0
  6
CENTER
 62
     2
 10
-19.167526
 20
-55.317226
 11
-14.793394
 21
-55.317226
  0
LINE
  8
0
 10
-17.946497
 20
-53.817226
 11
-17.946497
 21
-63.817226
  0
LINE
  8
0
 62
     4
 10
-17.946497
 20
-63.817226
 11
-23.946497
 21
-63.817226
  0
LINE
  8
0
 62
     4
 10
-17.946497
 20
-53.817226
 11
-23.946497
 21
-53.817226
  0
LINE
  8
0
  6
CENTER
 62
     1
 10
-19.726027
 20
-62.317226
 11
-24.469629
 21
-62.317226
  0
LINE
  8
0
  6
CENTER
 62
     1
 10
-21.946497
 20
-52.862644
 11
-21.946497
 21
-64.771812
  0
LINE
  8
0
  6
CENTER
 62
     1
 10
-19.726027
 20
-55.317226
 11
-24.469629
 21
-55.317226
  0
LINE
  8
0
 62
     4
 10
-23.946497
 20
-53.817226
 11
-23.946497
 21
-63.817226
  0
LINE
  8
0
 10
18.183504
 20
-60.957226
 11
18.183504
 21
-61.757225
  0
LINE
  8
0
 10
13.183504
 20
-60.642227
 11
13.183504
 21
-62.072227
  0
LINE
  8
0
 10
13.183504
 20
-61.757225
 11
18.183504
 21
-61.757225
  0
LINE
  8
0
 10
13.183504
 20
-60.957226
 11
18.183504
 21
-60.957226
  0
LINE
  8
0
 10
9.004837
 20
-60.642227
 11
13.183504
 21
-60.642227
  0
LINE
  8
0
 10
8.623503
 20
-62.072227
 11
13.183504
 21
-62.072227
  0
LINE
  8
0
 10
2.653503
 20
-62.072227
 11
7.383503
 21
-62.072227
  0
LINE
  8
0
 10
2.653503
 20
-60.642227
 11
7.764837
 21
-60.642227
  0
LINE
  8
0
 10
13.183504
 20
-55.562225
 11
13.183504
 21
-56.992226
  0
LINE
  8
0
 10
9.978170
 20
-56.992226
 11
13.183504
 21
-56.992226
  0
LINE
  8
0
 10
10.359503
 20
-55.562225
 11
13.183504
 21
-55.562225
  0
LINE
  8
0
 10
13.183504
 20
-56.677227
 11
18.183504
 21
-56.677227
  0
LINE
  8
0
 10
13.183504
 20
-55.877228
 11
18.183504
 21
-55.877228
  0
LINE
  8
0
 10
18.183504
 20
-56.677227
 11
18.183504
 21
-55.877228
  0
LINE
  8
0
 10
2.653503
 20
-56.992226
 11
8.738171
 21
-56.992226
  0
LINE
  8
0
 10
2.653503
 20
-55.562225
 11
9.119503
 21
-55.562225
  0
LINE
  8
0
 62
     2
 10
6.763502
 20
-64.397224
 11
9.723052
 21
-53.298912
  0
LINE
  8
0
 62
     2
 10
8.003502
 20
-64.397224
 11
10.963053
 21
-53.298912
  0
LINE
  8
0
 10
-17.946497
 20
-53.817226
 11
2.653503
 21
-53.817226
  0
LINE
  8
0
 10
-17.946497
 20
-63.817226
 11
2.653503
 21
-63.817226
  0
LINE
  8
0
 10
1.653503
 20
-63.817226
 11
1.653503
 21
-53.817226
  0
LINE
  8
0
 10
-17.246498
 20
-62.817226
 11
-17.246498
 21
-54.817226
  0
LINE
  8
0
 10
-15.146497
 20
-62.817226
 11
-15.146497
 21
-54.817226
  0
LINE
  8
0
 10
-16.946497
 20
-63.117226
 11
-15.446497
 21
-63.117226
  0
LINE
  8
0
 10
-15.146497
 20
-59.163895
 11
-16.246498
 21
-59.163895
  0
LINE
  8
0
 10
-15.146497
 20
-59.017227
 11
-17.246498
 21
-59.017227
  0
LINE
  8
0
 10
-15.146497
 20
-58.617226
 11
-17.246498
 21
-58.617226
  0
LINE
  8
0
 10
-15.146497
 20
-58.470558
 11
-16.246498
 21
-58.470558
  0
LINE
  8
0
 10
-15.146497
 20
-56.517227
 11
-16.246498
 21
-56.517227
  0
LINE
  8
0
 10
-15.146497
 20
-61.117226
 11
-16.246498
 21
-61.117226
  0
LINE
  8
0
 10
-16.246498
 20
-61.517227
 11
-16.246498
 21
-59.090561
  0
LINE
  8
0
 10
-16.446497
 20
-55.917225
 11
-17.246498
 21
-55.917225
  0
LINE
  8
0
 10
-16.446497
 20
-61.717228
 11
-17.246498
 21
-61.717228
  0
LINE
  8
0
 10
-16.246498
 20
-58.543892
 11
-16.246498
 21
-56.117226
  0
LINE
  8
0
 10
-16.246498
 20
-58.543892
 11
-17.246498
 21
-58.543892
  0
LINE
  8
0
 10
-16.246498
 20
-59.090561
 11
-17.246498
 21
-59.090561
  0
LINE
  8
0
 10
-16.946497
 20
-54.517227
 11
-15.446497
 21
-54.517227
  0
LINE
  8
0
 10
-17.946497
 20
-63.817226
 11
-17.946497
 21
-53.817226
  0
LINE
  8
0
 10
2.653503
 20
-53.817226
 11
2.653503
 21
-63.817226
  0
LINE
  8
0
 10
-0.346497
 20
-63.817226
 11
-0.346497
 21
-53.817226
  0
LINE
  8
0
 10
-4.246496
 20
-63.817226
 11
-4.246496
 21
-53.817226
  0
LINE
  8
0
  6
CENTER
 62
     2
 10
-25.965944
 20
46.182743
 11
4.353559
 21
46.182983
  0
LINE
  8
0
 62
     4
 10
-23.946486
 20
41.182758
 11
-23.946564
 21
51.182758
  0
LINE
  8
0
  6
CENTER
 62
     1
 10
-19.726027
 20
42.682793
 11
-24.469629
 21
42.682755
  0
LINE
  8
0
  6
CENTER
 62
     1
 10
-21.946478
 20
40.228191
 11
-21.946571
 21
52.137356
  0
LINE
  8
0
  6
CENTER
 62
     1
 10
-19.726082
 20
49.682793
 11
-24.469685
 21
49.682755
  0
LINE
  8
0
 62
     4
 10
-17.946486
 20
41.182804
 11
-23.946486
 21
41.182758
  0
LINE
  8
0
 62
     4
 10
-17.946564
 20
51.182804
 11
-23.946564
 21
51.182758
  0
LINE
  8
0
 10
-17.946486
 20
41.182804
 11
-17.946564
 21
51.182804
  0
LINE
  8
0
 62
     2
 10
6.933466
 20
47.483002
 11
7.793440
 21
50.683010
  0
LINE
  8
0
 62
     2
 10
5.903465
 20
47.482994
 11
6.763439
 21
50.683002
  0
LINE
  8
0
 10
14.853449
 20
49.333065
 11
14.853449
 21
48.833065
  0
LINE
  8
0
 10
10.853446
 20
49.733032
 11
10.853456
 21
48.433033
  0
LINE
  8
0
 10
10.853450
 20
49.333035
 11
14.853450
 21
49.333065
  0
LINE
  8
0
 10
10.853454
 20
48.833035
 11
14.853454
 21
48.833065
  0
LINE
  8
0
 10
7.193457
 20
48.433006
 11
10.853456
 21
48.433033
  0
LINE
  8
0
 10
7.543447
 20
49.733009
 11
10.853446
 21
49.733032
  0
LINE
  8
0
 10
2.653447
 20
49.732967
 11
6.503448
 21
49.732998
  0
LINE
  8
0
 10
2.653458
 20
48.432968
 11
6.153458
 21
48.432995
  0
LINE
  8
0
 62
     2
 10
6.933512
 20
41.683002
 11
7.793486
 21
44.883011
  0
LINE
  8
0
 62
     2
 10
5.903511
 20
41.682995
 11
6.763484
 21
44.883003
  0
LINE
  8
0
 10
14.853495
 20
43.533066
 11
14.853495
 21
43.033066
  0
LINE
  8
0
 10
10.853493
 20
43.933033
 11
10.853502
 21
42.633034
  0
LINE
  8
0
 10
10.853496
 20
43.533035
 11
14.853496
 21
43.533066
  0
LINE
  8
0
 10
10.853499
 20
43.033035
 11
14.853499
 21
43.033066
  0
LINE
  8
0
 10
7.193503
 20
42.633003
 11
10.853502
 21
42.633034
  0
LINE
  8
0
 10
7.543493
 20
43.933006
 11
10.853493
 21
43.933033
  0
LINE
  8
0
 10
2.653493
 20
43.932968
 11
6.503494
 21
43.932999
  0
LINE
  8
0
 10
2.653504
 20
42.632969
 11
6.153504
 21
42.632996
  0
LINE
  8
0
 10
-17.046486
 20
41.182812
 11
-17.046564
 21
51.182812
  0
LINE
  8
0
 10
1.653513
 20
41.482960
 11
1.653438
 21
50.882961
  0
LINE
  8
0
 10
-16.746485
 20
41.182816
 11
-16.746565
 21
51.182816
  0
LINE
  8
0
 10
-17.946486
 20
41.182804
 11
1.353514
 21
41.182957
  0
LINE
  8
0
 10
-17.946564
 20
51.182804
 11
1.353435
 21
51.182957
  0
LINE
  8
0
 10
2.653513
 20
41.482967
 11
2.653438
 21
50.882969
  0
LINE
  8
0
 10
2.453436
 20
51.082966
 11
1.577044
 21
51.082966
  0
LINE
  8
0
 10
2.453514
 20
41.282967
 11
1.577122
 21
41.282967
  0
LINE
  8
0
 62
     2
 10
-1.346512
 20
44.682938
 11
1.653488
 21
44.682961
  0
LINE
  8
0
 62
     2
 10
-1.346536
 20
47.682938
 11
-1.346512
 21
44.682938
  0
LINE
  8
0
 62
     2
 10
-1.346536
 20
47.682938
 11
1.653464
 21
47.682961
  0
LINE
  8
0
  6
CENTER
 62
     2
 10
-19.167582
 20
49.682796
 11
-14.793450
 21
49.682831
  0
LINE
  8
0
  6
CENTER
 62
     2
 10
-19.167526
 20
42.682796
 11
-14.793395
 21
42.682831
  0
LINE
  8
0
  6
CENTER
 62
     2
 10
64.539810
 20
-14.917227
 11
57.405605
 21
-14.917227
  0
LINE
  8
0
 62
     4
 10
56.053501
 20
-18.817226
 11
56.053501
 21
-19.817226
  0
LINE
  8
0
 62
     4
 10
66.053497
 20
-18.817226
 11
66.053497
 21
-19.817226
  0
LINE
  8
0
 62
     4
 10
66.053497
 20
-19.817226
 11
56.053501
 21
-19.817226
  0
LINE
  8
0
 62
     2
 10
62.553501
 20
13.182774
 11
62.553501
 21
18.182774
  0
LINE
  8
0
 62
     2
 10
59.553501
 20
13.182774
 11
59.553501
 21
18.182774
  0
LINE
  8
0
 62
     2
 10
59.553501
 20
13.182774
 11
62.553501
 21
13.182774
  0
LINE
  8
0
 10
65.753502
 20
18.182774
 11
56.353500
 21
18.182774
  0
LINE
  8
0
 10
58.153500
 20
0.182774
 11
63.953503
 21
0.182774
  0
LINE
  8
0
 10
58.153500
 20
-3.817226
 11
63.953503
 21
-3.817226
  0
LINE
  8
0
 10
56.053501
 20
-4.317226
 11
66.053497
 21
-4.317226
  0
LINE
  8
0
 10
66.053497
 20
-18.817226
 11
56.053501
 21
-18.817226
  0
LINE
  8
0
 10
65.260605
 20
-11.024332
 11
63.846394
 21
-9.610121
  0
LINE
  8
0
 10
65.260605
 20
-9.610120
 11
63.846394
 21
-11.024331
  0
LINE
  8
0
 10
56.846394
 20
-9.610120
 11
58.260609
 21
-11.024333
  0
LINE
  8
0
 10
56.846394
 20
-11.024332
 11
58.260609
 21
-9.610120
  0
LINE
  8
0
 10
62.903500
 20
-8.267226
 11
59.227989
 21
-8.267226
  0
LINE
  8
0
 10
62.879013
 20
-8.867227
 11
59.227989
 21
-8.867227
  0
LINE
  8
0
 10
66.053497
 20
17.882774
 11
66.053497
 21
-18.817226
  0
LINE
  8
0
  6
CENTER
 62
     2
 10
61.053501
 20
-20.602232
 11
61.053501
 21
20.634506
  0
LINE
  8
0
  6
CENTER
 62
     2
 10
63.553501
 20
-8.567226
 11
58.553501
 21
-8.567226
  0
LINE
  8
0
 10
56.053501
 20
17.882774
 11
56.053501
 21
-18.817226
  0
LINE
  8
0
 10
56.053501
 20
-8.717226
 11
57.553501
 21
-8.717226
  0
LINE
  8
0
 10
57.553501
 20
-11.917227
 11
56.053501
 21
-11.917227
  0
LINE
  8
0
 10
66.053497
 20
-11.917227
 11
64.553497
 21
-11.917227
  0
LINE
  8
0
 10
64.553497
 20
-8.717226
 11
66.053497
 21
-8.717226
  0
LINE
  8
0
 10
66.053497
 20
-4.417227
 11
56.053501
 21
-4.417227
  0
LINE
  8
0
 10
56.053501
 20
-4.915305
 11
66.053497
 21
-4.915305
  0
LINE
  8
0
 10
58.403500
 20
-12.417227
 11
56.053501
 21
-12.417227
  0
LINE
  8
0
 10
59.653500
 20
-11.167227
 11
62.453503
 21
-11.167227
  0
LINE
  8
0
 10
63.703503
 20
-12.417228
 11
62.453503
 21
-11.167226
  0
LINE
  8
0
 10
66.053497
 20
-12.417227
 11
63.703503
 21
-12.417227
  0
LINE
  8
0
 10
59.909130
 20
-11.608044
 11
62.197872
 21
-11.608044
  0
LINE
  8
0
 10
58.659130
 20
-12.858044
 11
56.053501
 21
-12.858044
  0
LINE
  8
0
 10
66.053497
 20
-12.858044
 11
63.447872
 21
-12.858044
  0
LINE
  8
0
 10
62.197872
 20
-11.608043
 11
63.447872
 21
-12.858045
  0
LINE
  8
0
 10
66.053497
 20
-5.726409
 11
56.053501
 21
-5.726409
  0
LINE
  8
0
 10
62.197872
 20
-11.608043
 11
62.453503
 21
-11.167223
  0
LINE
  8
0
 10
59.909130
 20
-11.608043
 11
58.659126
 21
-12.858045
  0
LINE
  8
0
 10
58.403500
 20
-12.417228
 11
59.653500
 21
-11.167226
  0
LINE
  8
0
 10
59.909130
 20
-11.608044
 11
59.653500
 21
-11.167227
  0
LINE
  8
0
 10
63.703503
 20
-12.417225
 11
63.447872
 21
-12.858042
  0
LINE
  8
0
 10
58.659134
 20
-12.858046
 11
58.403500
 21
-12.417226
  0
LINE
  8
0
  6
CENTER
 62
     2
 10
57.553501
 20
-20.602232
 11
57.553501
 21
-17.413820
  0
LINE
  8
0
  6
CENTER
 62
     2
 10
64.553497
 20
-20.602232
 11
64.553497
 21
-17.413820
  0
LINE
  8
0
 10
-82.646492
 20
18.182774
 11
-73.246498
 21
18.182774
  0
LINE
  8
0
 10
-72.946495
 20
17.882774
 11
-72.946495
 21
-1.817226
  0
LINE
  8
0
 10
-72.946495
 20
13.182774
 11
-82.946495
 21
13.182774
  0
LINE
  8
0
 10
-82.946495
 20
17.882774
 11
-82.946495
 21
-1.817226
  0
LINE
  8
0
 62
     4
 10
-82.946495
 20
-19.817226
 11
-72.946495
 21
-19.817226
  0
LINE
  8
0
  6
CENTER
 62
     1
 10
-77.946495
 20
-21.423004
 11
-77.946495
 21
-5.300899
  0
LINE
  8
0
 62
     4
 10
-82.946495
 20
-1.817226
 11
-72.946495
 21
-1.817226
  0
LINE
  8
0
  6
CENTER
 62
     1
 10
-80.431099
 20
-13.817226
 11
-75.462036
 21
-13.817226
  0
LINE
  8
0
  6
CENTER
 62
     1
 10
-80.431099
 20
-7.817226
 11
-75.462036
 21
-7.817226
  0
LINE
  8
0
 62
     4
 10
-72.946495
 20
-1.817226
 11
-72.946495
 21
-19.817226
  0
LINE
  8
0
 62
     4
 10
-82.946495
 20
-1.817226
 11
-82.946495
 21
-19.817226
  0
LINE
  8
0
 10
-74.946495
 20
12.682774
 11
-80.946495
 21
12.682774
  0
LINE
  8
0
 10
-74.946495
 20
12.182774
 11
-80.946495
 21
12.182774
  0
LINE
  8
0
 10
-80.946495
 20
12.182774
 11
-80.946495
 21
12.682774
  0
LINE
  8
0
 10
-74.946495
 20
12.182774
 11
-74.946495
 21
12.682774
  0
LINE
  8
0
  6
CENTER
 62
     1
 10
-81.446495
 20
-21.423004
 11
-81.446495
 21
-18.255085
  0
LINE
  8
0
  6
CENTER
 62
     1
 10
-74.446495
 20
-21.423004
 11
-74.446495
 21
-18.255085
  0
LINE
  8
0
 10
-0.346497
 20
-11.625676
 11
-2.946496
 21
-11.167227
  0
LINE
  8
0
 10
-2.946497
 20
-12.417226
 11
-0.346497
 21
-12.858044
  0
LINE
  8
0
 10
-0.346497
 20
-11.625676
 11
-0.346497
 21
-18.817226
  0
LINE
  8
0
 10
-17.946497
 20
-18.817226
 11
-0.346497
 21
-18.817226
  0
LINE
  8
0
 62
     4
 10
-17.946497
 20
-18.817226
 11
-17.946497
 21
-19.817226
  0
LINE
  8
0
 62
     4
 10
-17.946497
 20
-19.817226
 11
-23.946497
 21
-19.817226
  0
LINE
  8
0
 62
     4
 10
-23.946497
 20
-1.817226
 11
-23.946497
 21
-19.817226
  0
LINE
  8
0
 62
     4
 10
-17.946497
 20
-1.817226
 11
-23.946497
 21
-1.817226
  0
LINE
  8
0
 10
1.353502
 20
18.182774
 11
-16.746498
 21
18.182774
  0
LINE
  8
0
 10
-16.746498
 20
18.182774
 11
-16.746498
 21
11.682774
  0
LINE
  8
0
 10
-4.246496
 20
11.682774
 11
-4.246496
 21
-4.417227
  0
LINE
  8
0
 10
-16.746498
 20
11.682774
 11
-4.246496
 21
11.682774
  0
LINE
  8
0
 10
1.653503
 20
-4.317226
 11
-4.246496
 21
-4.317226
  0
LINE
  8
0
 10
2.453503
 20
-3.817226
 11
1.653503
 21
-3.817226
  0
LINE
  8
0
 10
7.543503
 20
-1.167227
 11
10.853502
 21
-1.167227
  0
LINE
  8
0
 10
7.193502
 20
-2.467226
 11
10.853502
 21
-2.467226
  0
LINE
  8
0
 10
10.853502
 20
-2.067226
 11
14.853502
 21
-2.067226
  0
LINE
  8
0
 10
10.853502
 20
-1.567226
 11
14.853502
 21
-1.567226
  0
LINE
  8
0
 10
10.853502
 20
-1.167227
 11
10.853502
 21
-2.467226
  0
LINE
  8
0
 62
     2
 10
5.903502
 20
-3.417227
 11
6.763503
 21
-0.217226
  0
LINE
  8
0
 62
     2
 10
6.933504
 20
-3.417227
 11
7.793504
 21
-0.217226
  0
LINE
  8
0
 10
2.653503
 20
-1.167227
 11
6.503504
 21
-1.167227
  0
LINE
  8
0
 10
2.653503
 20
-2.467226
 11
6.153503
 21
-2.467226
  0
LINE
  8
0
 10
2.653503
 20
-3.617226
 11
2.653503
 21
-0.017227
  0
LINE
  8
0
 10
2.453503
 20
0.182774
 11
1.653503
 21
0.182774
  0
LINE
  8
0
 10
1.653503
 20
-4.317226
 11
1.653503
 21
17.882774
  0
LINE
  8
0
 10
-3.346497
 20
-11.317226
 11
-3.346497
 21
-9.317226
  0
LINE
  8
0
 10
-3.846497
 20
-8.817226
 11
-3.946497
 21
-8.817226
  0
LINE
  8
0
 10
-3.846497
 20
-11.817226
 11
-3.946497
 21
-11.817226
  0
LINE
  8
0
 10
-2.946497
 20
-11.917227
 11
-3.946497
 21
-11.917227
  0
LINE
  8
0
 10
-2.946497
 20
-8.717226
 11
-3.946497
 21
-8.717226
  0
LINE
  8
0
 10
-3.946497
 20
-11.917227
 11
-3.946497
 21
-8.717226
  0
LINE
  8
0
 10
-14.746497
 20
-18.117226
 11
-14.746497
 21
-17.317226
  0
LINE
  8
0
 10
-7.146497
 20
-17.317226
 11
-7.146497
 21
-18.117226
  0
LINE
  8
0
 10
-7.146497
 20
-17.317226
 11
-14.746497
 21
-17.317226
  0
LINE
  8
0
 10
-2.946497
 20
-12.417227
 11
-2.946497
 21
-5.726409
  0
LINE
  8
0
 10
-17.946497
 20
13.182774
 11
-17.946497
 21
-18.817226
  0
LINE
  8
0
 10
-17.946497
 20
13.182774
 11
-17.046497
 21
13.182774
  0
LINE
  8
0
 10
-7.146497
 20
-18.117226
 11
-14.746497
 21
-18.117226
  0
LINE
  8
0
 10
-4.246496
 20
-4.417227
 11
1.653503
 21
-4.417227
  0
LINE
  8
0
 10
-2.946497
 20
-5.726409
 11
1.653503
 21
-4.915305
  0
LINE
  8
0
 10
1.653503
 20
-4.915305
 11
1.653503
 21
-4.417227
  0
LINE
  8
0
 10
1.053503
 20
-4.317226
 11
1.053503
 21
-4.417227
  0
LINE
  8
0
 10
-17.046497
 20
13.182774
 11
-16.746496
 21
12.882773
  0
LINE
  8
0
  6
CENTER
 62
     2
 10
-10.946497
 20
-20.602232
 11
-10.946497
 21
19.771526
  0
LINE
  8
0
 10
14.853502
 20
-1.567226
 11
14.853502
 21
-2.067226
  0
LINE
  8
0
  6
CENTER
 62
     1
 10
-21.946497
 20
-21.423004
 11
-21.946497
 21
-18.155436
  0
LINE
  8
0
  6
CENTER
 62
     2
 10
-19.132343
 20
-10.317226
 11
-16.693661
 21
-10.317226
  0
LINE
  8
0
 10
-138.399994
 20
94.500000
 11
138.350006
 21
94.500000
  0
LINE
  8
0
 10
138.350006
 20
94.500000
 11
138.350006
 21
-94.800003
  0
LINE
  8
0
 10
-138.399994
 20
-94.800003
 11
138.350006
 21
-94.800003
  0
LINE
  8
0
 10
-138.399994
 20
94.500000
 11
-138.399994
 21
-94.800003
  0
LINE
  8
0
 10
73.350006
 20
-84.800003
 11
138.350006
 21
-84.800003
  0
LINE
  8
0
 10
-138.399994
 20
84.500000
 11
-73.399994
 21
84.500000
  0
LINE
  8
0
 10
73.350006
 20
84.500000
 11
138.350006
 21
84.500000
  0
LINE
  8
0
 10
73.350006
 20
-84.800003
 11
73.350006
 21
-94.800003
  0
LINE
  8
0
 10
73.350006
 20
94.500000
 11
73.350006
 21
84.500000
  0
LINE
  8
0
 10
-73.399994
 20
94.500000
 11
-73.399994
 21
84.500000
  0
CIRCLE
  8
0
 62
     4
 10
-21.946497
 20
-62.317226
 40
1.100000
  0
CIRCLE
  8
0
 62
     4
 10
-21.946497
 20
-55.317226
 40
1.100000
  0
ARC
  8
0
 10
-15.446497
 20
-54.817226
 40
0.300000
 50
0.000000
 51
90.000000
  0
ARC
  8
0
 10
-16.946497
 20
-54.817226
 40
0.299999
 50
90.000000
 51
180.000000
  0
ARC
  8
0
 10
-15.446497
 20
-62.817226
 40
0.299999
 50
270.000000
 51
0.000000
  0
ARC
  8
0
 10
-16.946497
 20
-62.817226
 40
0.299999
 50
180.000000
 51
270.000000
  0
ARC
  8
0
 10
-16.446497
 20
-61.517227
 40
0.200001
 50
270.000000
 51
0.000000
  0
ARC
  8
0
 10
-16.446497
 20
-56.117226
 40
0.200001
 50
0.000000
 51
90.000000
  0
CIRCLE
  8
0
 62
     4
 10
-21.946497
 20
42.682774
 40
1.100000
  0
CIRCLE
  8
0
 62
     4
 10
-21.946552
 20
49.682774
 40
1.100000
  0
ARC
  8
0
 10
2.454149
 20
50.883678
 40
0.199290
 50
359.796021
 51
90.205017
  0
ARC
  8
0
 10
2.454224
 20
41.482254
 40
0.199289
 50
269.795929
 51
0.205088
  0
ARC
  8
0
 10
1.353437
 20
50.882957
 40
0.300000
 50
0.000729
 51
90.000458
  0
ARC
  8
0
 10
1.353512
 20
41.482960
 40
0.299999
 50
270.000458
 51
0.000729
  0
CIRCLE
  8
0
 10
61.053501
 20
-14.917227
 40
1.500000
  0
CIRCLE
  8
0
 10
61.053501
 20
-14.917227
 40
1.250000
  0
CIRCLE
  8
0
 10
61.053501
 20
-14.917227
 40
2.750000
  0
CIRCLE
  8
0
 10
58.153500
 20
-1.817226
 40
0.875000
  0
ARC
  8
0
 10
58.153500
 20
-1.817226
 40
2.000000
 50
90.000000
 51
270.000000
  0
CIRCLE
  8
0
 10
63.953503
 20
-1.817226
 40
0.875000
  0
ARC
  8
0
 10
63.953503
 20
-1.817226
 40
2.000000
 50
270.000000
 51
90.000000
  0
ARC
  8
0
 10
56.353500
 20
17.882774
 40
0.299999
 50
90.000000
 51
180.000000
  0
ARC
  8
0
 10
65.753502
 20
17.882774
 40
0.300003
 50
0.000000
 51
90.000000
  0
CIRCLE
  8
0
 10
64.553497
 20
-10.317226
 40
1.500000
  0
CIRCLE
  8
0
 10
57.553501
 20
-10.317226
 40
1.500000
  0
ARC
  8
0
 10
61.053501
 20
-8.567226
 40
0.799999
 50
202.024338
 51
337.975647
  0
ARC
  8
0
 10
61.053501
 20
-8.567226
 40
0.799999
 50
22.024345
 51
157.975662
  0
CIRCLE
  8
0
 10
61.053501
 20
-8.567226
 40
1.850000
  0
CIRCLE
  8
0
 10
61.053501
 20
-8.567226
 40
1.900000
  0
ARC
  8
0
 10
64.553497
 20
-10.317226
 40
1.600000
 50
90.000000
 51
270.000000
  0
ARC
  8
0
 10
57.553501
 20
-10.317226
 40
1.600000
 50
270.000000
 51
90.000000
  0
CIRCLE
  8
0
 10
61.053501
 20
-8.567226
 40
2.050000
  0
ARC
  8
0
 10
-73.246498
 20
17.882774
 40
0.300003
 50
0.000000
 51
90.000000
  0
ARC
  8
0
 10
-82.646492
 20
17.882774
 40
0.299999
 50
90.000000
 51
180.000000
  0
CIRCLE
  8
0
 62
     4
 10
-77.946495
 20
-13.817226
 40
1.500000
  0
CIRCLE
  8
0
 62
     4
 10
-77.946495
 20
-13.817226
 40
1.200000
  0
CIRCLE
  8
0
 62
     4
 10
-77.946495
 20
-7.817226
 40
1.500000
  0
CIRCLE
  8
0
 62
     4
 10
-77.946495
 20
-7.817226
 40
1.200000
  0
ARC
  8
0
 10
1.353502
 20
17.882774
 40
0.300000
 50
0.000000
 51
90.000000
  0
ARC
  8
0
 10
2.454214
 20
-0.016516
 40
0.199290
 50
359.795471
 51
90.204536
  0
ARC
  8
0
 10
2.454214
 20
-3.617937
 40
0.199290
 50
269.795471
 51
0.204540
  0
ARC
  8
0
 10
-3.846497
 20
-11.317226
 40
0.500000
 50
270.000000
 51
0.000000
  0
ARC
  8
0
 10
-3.846497
 20
-9.317226
 40
0.500000
 50
0.000000
 51
90.000000
  0
TEXT
  8
0
 10
76.207352
 20
-92.850006
 40
4.500000
  1
KOGANEI CORP.
 50
0.000000
 41
1.052632
 51
0.000000
  7
STANDARD
  0
TEXT
  8
0
 10
92.842865
 20
87.620003
 40
3.200000
  1
Ver. 1.0
 50
0.000000
 41
1.052632
 51
0.000000
  7
STANDARD
  0
TEXT
  8
0
 10
-123.707138
 20
87.620003
 40
3.200000
  1
G010 SERIES
 50
0.000000
 41
1.052632
 51
0.000000
  7
STANDARD
  0
TEXT
  8
0
 10
-130.207001
 20
72.620003
 40
3.200000
  1
MODEL:G010E1-21(AC200)
 50
0.000000
 41
1.052632
 51
0.000000
  7
STANDARD
  0
ENDSEC
  0
EOF
