  0
SECTION
  2
HEADER
  0
ENDSEC
  0
SECTION
  2
TABLES
  0
TABLE
  2
LTYPE
 70
     4
  0
LTYPE
  2
CONTINUOUS
 70
    64
  3
Solid line
 72
    65
 73
     0
 40
0.000000
  0
LTYPE
  2
DASHED
 70
    64
  3
__ __ __ __ __ __ __ __ __ __ __ __ __ __ __
 72
    65
 73
     2
 40
3.500000
 49
2.000000
 49
-1.500000
  0
LTYPE
  2
CENTER
 70
    64
  3
____ _ ____ _ ____ _ ____ _ ____ _ ____ _ ____
 72
    65
 73
     4
 40
17.500000
 49
13.000000
 49
-1.500000
 49
1.500000
 49
-1.500000
  0
LTYPE
  2
PHANTOM
 70
    64
  3
_____ _ _ _____ _ _ _____ _ _ _____ _ _ ____  
 72
    65
 73
     6
 40
15.500000
 49
8.000000
 49
-1.500000
 49
1.500000
 49
-1.500000
 49
1.500000
 49
-1.500000
  0
LTYPE
  2
DASHED1
 70
    64
  3
__ __ __ __ __ __ __ __ __ __ __ __ __ __ __
 72
    65
 73
     2
 40
1.500000
 49
1.000000
 49
-0.500000
  0
LTYPE
  2
DASHED2
 70
    64
  3
__ __ __ __ __ __ __ __ __ __ __ __ __ __ __
 72
    65
 73
     2
 40
3.500000
 49
2.500000
 49
-1.000000
  0
LTYPE
  2
DASHED3
 70
    64
  3
__ __ __ __ __ __ __ __ __ __ __ __ __ __ __
 72
    65
 73
     2
 40
6.000000
 49
4.000000
 49
-2.000000
  0
LTYPE
  2
DASHED4
 70
    64
  3
__ __ __ __ __ __ __ __ __ __ __ __ __ __ __
 72
    65
 73
     2
 40
12.000000
 49
10.000000
 49
-2.000000
  0
LTYPE
  2
DASHED5
 70
    64
  3
__ __ __ __ __ __ __ __ __ __ __ __ __ __ __
 72
    65
 73
     2
 40
17.000000
 49
15.000000
 49
-2.000000
  0
LTYPE
  2
DASHED6
 70
    64
  3
__ __ __ __ __ __ __ __ __ __ __ __ __ __ __
 72
    65
 73
     2
 40
29.000000
 49
27.000000
 49
-2.000000
  0
LTYPE
  2
PHANTOM1
 70
    64
  3
_____ _ _ _____ _ _ _____ _ _ _____ _ _ ____  
 72
    65
 73
     6
 40
31.000000
 49
25.000000
 49
-1.500000
 49
1.000000
 49
-1.000000
 49
1.000000
 49
-1.500000
  0
LTYPE
  2
PHANTOM2
 70
    64
  3
_____ _ _ _____ _ _ _____ _ _ _____ _ _ ____  
 72
    65
 73
     6
 40
36.000000
 49
27.000000
 49
-1.500000
 49
2.500000
 49
-1.000000
 49
2.500000
 49
-1.500000
  0
LTYPE
  2
PHANTOM3
 70
    64
  3
_____ _ _ _____ _ _ _____ _ _ _____ _ _ ____  
 72
    65
 73
     6
 40
78.000000
 49
64.000000
 49
-2.000000
 49
4.000000
 49
-2.000000
 49
4.000000
 49
-2.000000
  0
LTYPE
  2
CENTER1
 70
    64
  3
____ _ ____ _ ____ _ ____ _ ____ _ ____ _ ____
 72
    65
 73
     4
 40
19.000000
 49
14.000000
 49
-1.000000
 49
3.000000
 49
-1.000000
  0
LTYPE
  2
CENTER2
 70
    64
  3
____ _ ____ _ ____ _ ____ _ ____ _ ____ _ ____
 72
    65
 73
     4
 40
28.500000
 49
25.000000
 49
-1.000000
 49
1.500000
 49
-1.000000
  0
LTYPE
  2
CENTER3
 70
    64
  3
____ _ ____ _ ____ _ ____ _ ____ _ ____ _ ____
 72
    65
 73
     4
 40
31.500000
 49
27.000000
 49
-1.000000
 49
2.500000
 49
-1.000000
  0
LTYPE
  2
CENTER4
 70
    64
  3
____ _ ____ _ ____ _ ____ _ ____ _ ____ _ ____
 72
    65
 73
     4
 40
50.000000
 49
45.000000
 49
-1.000000
 49
3.000000
 49
-1.000000
  0
LTYPE
  2
CENTER5
 70
    64
  3
____ _ ____ _ ____ _ ____ _ ____ _ ____ _ ____
 72
    65
 73
     4
 40
100.000000
 49
92.000000
 49
-2.000000
 49
4.000000
 49
-2.000000
  0
LTYPE
  2
SBK1
 70
    64
  3
______ _ _ _ ______ _ _ _ ______ _ _ _ _____  
 72
    65
 73
     8
 40
60.500000
 49
45.000000
 49
-2.000000
 49
2.500000
 49
-2.000000
 49
2.500000
 49
-2.000000
 49
2.500000
 49
-2.000000
  0
LTYPE
  2
SBK2
 70
    64
  3
______ _ _ _ ______ _ _ _ ______ _ _ _ _____  
 72
    65
 73
     8
 40
84.000000
 49
64.000000
 49
-2.000000
 49
4.000000
 49
-2.000000
 49
4.000000
 49
-2.000000
 49
4.000000
 49
-2.000000
  0
LTYPE
  2
STCH
 70
    64
  3
__ __ __ __ __ __ __ __ __ __ __ __ __ __ __
 72
    65
 73
     2
 40
3.000000
 49
1.000000
 49
-2.000000
  0
LTYPE
  2
MTCH
 70
    64
  3
_____ _ _ _____ _ _ _____ _ _ _____ _ _ ____  
 72
    65
 73
     6
 40
80.000000
 49
66.000000
 49
-2.000000
 49
4.000000
 49
-2.000000
 49
4.000000
 49
-2.000000
  0
ENDTAB
  0
TABLE
  2
LAYER
 70
     1
  0
LAYER
  2
0
 70
     0
 62
     7
  6
CONTINUOUS
  0
ENDTAB
  0
TABLE
  2
STYLE
 70
     1
  0
STYLE
  2
STANDARD
 70
     0
 40
0.000000
 41
1.000000
 50
0.000000
 71
     0
 42
0.200000
  3
txt
  4
BIGFONT
  0
ENDTAB
  0
TABLE
  2
VIEW
 70
     0
  0
ENDTAB
  0
ENDSEC
  0
SECTION
  2
BLOCKS
  0
ENDSEC
  0
SECTION
  2
ENTITIES
  0
LINE
  8
0
  6
CENTER
 62
     2
 10
43.386784
 20
-80.137901
 11
43.386784
 21
-75.152603
  0
LINE
  8
0
  6
CENTER
 62
     2
 10
0.911169
 20
-72.961754
 11
38.295067
 21
-72.961754
  0
LINE
  8
0
 10
9.491783
 20
-48.961754
 11
19.491783
 21
-48.961754
  0
LINE
  8
0
 10
9.491783
 20
-52.461754
 11
19.491783
 21
-52.461754
  0
LINE
  8
0
 10
19.691784
 20
-52.461754
 11
29.691784
 21
-52.461754
  0
LINE
  8
0
 10
19.691784
 20
-48.961754
 11
29.691784
 21
-48.961754
  0
LINE
  8
0
 10
-0.708217
 20
-48.961754
 11
9.291783
 21
-48.961754
  0
LINE
  8
0
 10
-0.708217
 20
-52.461754
 11
9.291783
 21
-52.461754
  0
LINE
  8
0
 62
     4
 10
29.886784
 20
-61.361755
 11
39.886784
 21
-61.361755
  0
LINE
  8
0
 62
     4
 10
29.886784
 20
-61.361755
 11
29.886784
 21
-62.961754
  0
LINE
  8
0
 62
     4
 10
39.886784
 20
-61.361755
 11
39.886784
 21
-62.961754
  0
LINE
  8
0
 62
     4
 10
30.486782
 20
-60.761753
 11
32.286781
 21
-60.761753
  0
LINE
  8
0
 62
     4
 10
37.486782
 20
-60.761753
 11
39.286781
 21
-60.761753
  0
LINE
  8
0
  6
CENTER
 62
     2
 10
34.886784
 20
-59.777489
 11
34.886784
 21
-76.064972
  0
LINE
  8
0
 62
     1
 10
29.028061
 20
-29.076460
 11
20.230968
 21
-26.712242
  0
LINE
  8
0
 62
     1
 10
29.028063
 20
-30.106464
 11
20.230968
 21
-27.742245
  0
LINE
  8
0
 62
     4
 10
27.591782
 20
-18.331753
 11
26.791782
 21
-18.331753
  0
LINE
  8
0
 62
     4
 10
27.911781
 20
-23.331753
 11
26.481785
 21
-23.331753
  0
LINE
  8
0
 62
     4
 10
26.791782
 20
-23.331753
 11
26.791782
 21
-18.331753
  0
LINE
  8
0
 62
     4
 10
27.591782
 20
-23.331753
 11
27.591782
 21
-18.331753
  0
LINE
  8
0
 62
     4
 10
27.911781
 20
-33.761753
 11
27.911781
 21
-29.806461
  0
LINE
  8
0
 62
     4
 10
26.481785
 20
-33.761753
 11
26.481785
 21
-29.422150
  0
LINE
  8
0
 62
     4
 10
26.481785
 20
-28.392151
 11
26.481785
 21
-23.331753
  0
LINE
  8
0
 62
     4
 10
27.911781
 20
-28.776463
 11
27.911781
 21
-23.331753
  0
LINE
  8
0
 62
     4
 10
21.791782
 20
-18.331753
 11
22.591782
 21
-18.331753
  0
LINE
  8
0
 62
     4
 10
21.471783
 20
-23.331753
 11
22.901783
 21
-23.331753
  0
LINE
  8
0
 62
     4
 10
22.591782
 20
-23.331753
 11
22.591782
 21
-18.331753
  0
LINE
  8
0
 62
     4
 10
21.791782
 20
-23.331753
 11
21.791782
 21
-18.331753
  0
LINE
  8
0
 62
     4
 10
22.831783
 20
-33.761753
 11
22.831783
 21
-28.441212
  0
LINE
  8
0
 62
     4
 10
21.401783
 20
-33.761753
 11
21.401783
 21
-28.056900
  0
LINE
  8
0
 62
     4
 10
21.401783
 20
-27.026901
 11
21.401783
 21
-23.331753
  0
LINE
  8
0
 62
     4
 10
22.831783
 20
-27.411213
 11
22.831783
 21
-23.331753
  0
LINE
  8
0
 62
     4
 10
19.991783
 20
-34.473080
 11
29.391781
 21
-34.473080
  0
LINE
  8
0
 62
     4
 10
19.991783
 20
-34.761753
 11
29.391781
 21
-34.761753
  0
LINE
  8
0
 62
     4
 10
20.591782
 20
-38.761753
 11
20.591782
 21
-38.861755
  0
LINE
  8
0
 10
28.791782
 20
-38.761753
 11
28.791782
 21
-38.861755
  0
LINE
  8
0
 62
     4
 10
19.991783
 20
-33.761753
 11
19.991783
 21
-38.761753
  0
LINE
  8
0
 62
     4
 10
29.391781
 20
-33.761753
 11
29.391781
 21
-38.761753
  0
LINE
  8
0
 62
     4
 10
19.991783
 20
-33.761753
 11
29.391781
 21
-33.761753
  0
LINE
  8
0
 62
     4
 10
19.991783
 20
-38.761753
 11
29.391781
 21
-38.761753
  0
LINE
  8
0
 62
     4
 10
19.691784
 20
-38.861755
 11
29.691784
 21
-38.861755
  0
LINE
  8
0
 10
-7.708217
 20
-77.961754
 11
46.886784
 21
-77.961754
  0
LINE
  8
0
 10
46.886784
 20
-77.961754
 11
46.886784
 21
-63.961754
  0
LINE
  8
0
 10
-7.708217
 20
-77.961754
 11
-7.708217
 21
-63.961754
  0
LINE
  8
0
 62
     4
 10
0.741783
 20
-38.471752
 11
0.741783
 21
-35.161755
  0
LINE
  8
0
 62
     4
 10
2.041783
 20
-38.821754
 11
2.041783
 21
-35.161755
  0
LINE
  8
0
 62
     4
 10
2.041783
 20
-35.161755
 11
0.741783
 21
-35.161755
  0
LINE
  8
0
 62
     4
 10
1.641783
 20
-31.161755
 11
1.141783
 21
-31.161755
  0
LINE
  8
0
 62
     4
 10
1.641783
 20
-35.161755
 11
1.641783
 21
-31.161755
  0
LINE
  8
0
 62
     4
 10
1.141783
 20
-35.161755
 11
1.141783
 21
-31.161755
  0
LINE
  8
0
 62
     4
 10
2.041783
 20
-43.361755
 11
2.041783
 21
-39.861755
  0
LINE
  8
0
 62
     4
 10
0.741783
 20
-43.361755
 11
0.741783
 21
-39.511753
  0
LINE
  8
0
 62
     1
 10
2.991784
 20
-40.111752
 11
-0.208216
 21
-39.251751
  0
LINE
  8
0
 62
     1
 10
2.991783
 20
-39.081757
 11
-0.208217
 21
-38.221756
  0
LINE
  8
0
 62
     4
 10
7.841784
 20
-43.361755
 11
7.841784
 21
-39.861755
  0
LINE
  8
0
 62
     4
 10
6.541783
 20
-43.361755
 11
6.541783
 21
-39.511753
  0
LINE
  8
0
 62
     1
 10
8.791783
 20
-40.111755
 11
5.591783
 21
-39.251755
  0
LINE
  8
0
 62
     1
 10
8.791782
 20
-39.081753
 11
5.591783
 21
-38.221752
  0
LINE
  8
0
 62
     4
 10
6.941783
 20
-35.161755
 11
6.941783
 21
-31.161755
  0
LINE
  8
0
 62
     4
 10
7.441783
 20
-35.161755
 11
7.441783
 21
-31.161755
  0
LINE
  8
0
 62
     4
 10
7.441783
 20
-31.161755
 11
6.941783
 21
-31.161755
  0
LINE
  8
0
 62
     4
 10
7.841784
 20
-35.161755
 11
6.541783
 21
-35.161755
  0
LINE
  8
0
 62
     4
 10
7.841784
 20
-38.821754
 11
7.841784
 21
-35.161755
  0
LINE
  8
0
 62
     4
 10
6.541783
 20
-38.471752
 11
6.541783
 21
-35.161755
  0
LINE
  8
0
 62
     4
 10
-0.708217
 20
-43.361755
 11
9.291783
 21
-43.361755
  0
LINE
  8
0
  6
CENTER
 62
     2
 10
4.291783
 20
-41.990337
 11
4.291783
 21
-76.064972
  0
LINE
  8
0
 10
4.018450
 20
-62.261753
 11
4.018450
 21
-63.261753
  0
LINE
  8
0
 10
4.565117
 20
-62.261753
 11
4.565117
 21
-63.261753
  0
LINE
  8
0
 10
4.565117
 20
-62.261753
 11
6.991783
 21
-62.261753
  0
LINE
  8
0
 10
1.391783
 20
-62.461754
 11
1.391783
 21
-63.261753
  0
LINE
  8
0
 10
7.191783
 20
-62.461754
 11
7.191783
 21
-63.261753
  0
LINE
  8
0
 10
1.591784
 20
-62.261753
 11
4.018450
 21
-62.261753
  0
LINE
  8
0
 10
1.991783
 20
-61.161755
 11
1.991783
 21
-62.261753
  0
LINE
  8
0
 10
6.591784
 20
-61.161755
 11
6.591784
 21
-62.261753
  0
LINE
  8
0
 10
-0.708217
 20
-44.361755
 11
9.291783
 21
-44.361755
  0
LINE
  8
0
 10
4.638451
 20
-61.161755
 11
4.638451
 21
-62.261753
  0
LINE
  8
0
 10
4.491783
 20
-61.161755
 11
4.491783
 21
-63.261753
  0
LINE
  8
0
 10
4.091784
 20
-61.161755
 11
4.091784
 21
-63.261753
  0
LINE
  8
0
 10
3.945116
 20
-61.161755
 11
3.945116
 21
-62.261753
  0
LINE
  8
0
 10
-0.008217
 20
-62.961754
 11
-0.008217
 21
-61.461754
  0
LINE
  8
0
 10
8.591784
 20
-62.961754
 11
8.591784
 21
-61.461754
  0
LINE
  8
0
 10
0.291783
 20
-61.161755
 11
8.291783
 21
-61.161755
  0
LINE
  8
0
 10
0.291783
 20
-63.261753
 11
8.291783
 21
-63.261753
  0
LINE
  8
0
 10
9.291783
 20
-63.961754
 11
9.291783
 21
-44.361755
  0
LINE
  8
0
 10
-0.708217
 20
-63.961754
 11
-0.708217
 21
-44.361755
  0
LINE
  8
0
 10
-7.708217
 20
-63.961754
 11
46.886784
 21
-63.961754
  0
LINE
  8
0
  6
CENTER
 62
     2
 10
14.491784
 20
-43.165585
 11
14.491784
 21
-76.064972
  0
LINE
  8
0
 10
14.218450
 20
-62.261753
 11
14.218450
 21
-63.261753
  0
LINE
  8
0
 10
14.765117
 20
-62.261753
 11
14.765117
 21
-63.261753
  0
LINE
  8
0
 10
14.765117
 20
-62.261753
 11
17.191784
 21
-62.261753
  0
LINE
  8
0
 10
11.591784
 20
-62.461754
 11
11.591784
 21
-63.261753
  0
LINE
  8
0
 10
17.391785
 20
-62.461754
 11
17.391785
 21
-63.261753
  0
LINE
  8
0
 10
11.791783
 20
-62.261753
 11
14.218450
 21
-62.261753
  0
LINE
  8
0
 10
12.191783
 20
-61.161755
 11
12.191783
 21
-62.261753
  0
LINE
  8
0
 10
16.791782
 20
-61.161755
 11
16.791782
 21
-62.261753
  0
LINE
  8
0
 10
9.491783
 20
-44.361755
 11
19.491783
 21
-44.361755
  0
LINE
  8
0
 10
14.838450
 20
-61.161755
 11
14.838450
 21
-62.261753
  0
LINE
  8
0
 10
14.691783
 20
-61.161755
 11
14.691783
 21
-63.261753
  0
LINE
  8
0
 10
14.291783
 20
-61.161755
 11
14.291783
 21
-63.261753
  0
LINE
  8
0
 10
14.145116
 20
-61.161755
 11
14.145116
 21
-62.261753
  0
LINE
  8
0
 10
10.191783
 20
-62.961754
 11
10.191783
 21
-61.461754
  0
LINE
  8
0
 10
18.791782
 20
-62.961754
 11
18.791782
 21
-61.461754
  0
LINE
  8
0
 10
10.491783
 20
-61.161755
 11
18.491783
 21
-61.161755
  0
LINE
  8
0
 10
10.491783
 20
-63.261753
 11
18.491783
 21
-63.261753
  0
LINE
  8
0
 10
19.491783
 20
-63.961754
 11
19.491783
 21
-44.361755
  0
LINE
  8
0
 10
9.491783
 20
-63.961754
 11
9.491783
 21
-44.361755
  0
LINE
  8
0
 10
19.691784
 20
-63.961754
 11
19.691784
 21
-44.361755
  0
LINE
  8
0
 10
29.691784
 20
-63.961754
 11
29.691784
 21
-44.361755
  0
LINE
  8
0
 10
20.691784
 20
-63.261753
 11
28.691784
 21
-63.261753
  0
LINE
  8
0
 10
20.691784
 20
-61.161755
 11
28.691784
 21
-61.161755
  0
LINE
  8
0
 10
28.991783
 20
-62.961754
 11
28.991783
 21
-61.461754
  0
LINE
  8
0
 10
20.391785
 20
-62.961754
 11
20.391785
 21
-61.461754
  0
LINE
  8
0
 10
24.345116
 20
-61.161755
 11
24.345116
 21
-62.261753
  0
LINE
  8
0
 10
24.491783
 20
-61.161755
 11
24.491783
 21
-63.261753
  0
LINE
  8
0
 10
24.891785
 20
-61.161755
 11
24.891785
 21
-63.261753
  0
LINE
  8
0
 10
25.038452
 20
-61.161755
 11
25.038452
 21
-62.261753
  0
LINE
  8
0
 10
19.691784
 20
-44.361755
 11
29.691784
 21
-44.361755
  0
LINE
  8
0
 10
26.991783
 20
-61.161755
 11
26.991783
 21
-62.261753
  0
LINE
  8
0
 10
22.391785
 20
-61.161755
 11
22.391785
 21
-62.261753
  0
LINE
  8
0
 10
21.991783
 20
-62.261753
 11
24.418449
 21
-62.261753
  0
LINE
  8
0
 10
27.591782
 20
-62.461754
 11
27.591782
 21
-63.261753
  0
LINE
  8
0
 10
21.791782
 20
-62.461754
 11
21.791782
 21
-63.261753
  0
LINE
  8
0
 10
24.965118
 20
-62.261753
 11
27.391785
 21
-62.261753
  0
LINE
  8
0
 10
24.965118
 20
-62.261753
 11
24.965118
 21
-63.261753
  0
LINE
  8
0
 10
24.418449
 20
-62.261753
 11
24.418449
 21
-63.261753
  0
LINE
  8
0
  6
CENTER
 62
     2
 10
24.691784
 20
-32.700516
 11
24.691784
 21
-76.064972
  0
LINE
  8
0
 10
39.886772
 20
-62.961731
 11
39.886772
 21
-63.961731
  0
LINE
  8
0
 10
39.886772
 20
-62.961731
 11
29.886772
 21
-62.961731
  0
LINE
  8
0
 10
29.886772
 20
-63.961731
 11
39.886772
 21
-63.961731
  0
LINE
  8
0
 10
29.886772
 20
-62.961731
 11
29.886772
 21
-63.961731
  0
LINE
  8
0
  6
CENTER
 62
     2
 10
-4.208217
 20
-80.137901
 11
-4.208217
 21
-75.152603
  0
LINE
  8
0
 62
     4
 10
19.691784
 20
-44.361755
 11
19.691784
 21
-38.861755
  0
LINE
  8
0
 62
     4
 10
29.691784
 20
-44.361755
 11
29.691784
 21
-38.861755
  0
LINE
  8
0
 62
     4
 10
9.291783
 20
-44.361755
 11
9.291783
 21
-43.361755
  0
LINE
  8
0
 62
     4
 10
-0.708217
 20
-44.361755
 11
-0.708217
 21
-43.361755
  0
LINE
  8
0
 62
     4
 10
-72.348213
 20
55.068245
 11
-72.348213
 21
65.068245
  0
LINE
  8
0
 62
     4
 10
-73.148216
 20
55.068245
 11
-73.148216
 21
65.068245
  0
LINE
  8
0
 10
-75.208214
 20
7.321103
 11
-71.708214
 21
7.938247
  0
LINE
  8
0
 10
-75.208214
 20
1.538246
 11
-75.208214
 21
7.321102
  0
LINE
  8
0
 10
-86.708214
 20
1.538246
 11
-75.208214
 21
1.538246
  0
LINE
  8
0
 62
     4
 10
-47.908215
 20
20.888247
 11
-47.908215
 21
19.588245
  0
LINE
  8
0
 62
     4
 10
-61.608215
 20
20.888247
 11
-61.608215
 21
21.338245
  0
LINE
  8
0
 62
     4
 10
-61.608215
 20
16.038246
 11
-61.608215
 21
19.588245
  0
LINE
  8
0
 62
     4
 10
-61.508213
 20
16.038246
 11
-57.508213
 21
16.038246
  0
LINE
  8
0
 62
     4
 10
-57.508213
 20
21.138002
 11
-57.508213
 21
22.338245
  0
LINE
  8
0
 62
     4
 10
-61.508213
 20
19.588245
 11
-61.508213
 21
16.038246
  0
LINE
  8
0
 62
     4
 10
-57.508213
 20
21.138000
 11
-58.924644
 21
20.888245
  0
LINE
  8
0
 62
     4
 10
-65.042191
 20
21.838245
 11
-58.508213
 21
21.838245
  0
LINE
  8
0
 62
     4
 10
-56.508213
 20
15.538246
 11
-56.508213
 21
19.588245
  0
LINE
  8
0
 62
     4
 10
-61.608215
 20
16.738247
 11
-61.508213
 21
16.738247
  0
LINE
  8
0
 62
     4
 10
-65.908211
 20
21.338245
 11
-65.042191
 21
21.838247
  0
LINE
  8
0
 62
     4
 10
-58.219540
 20
22.338245
 11
-57.508213
 21
22.338245
  0
LINE
  8
0
 62
     4
 10
-58.508217
 20
21.838243
 11
-58.219540
 21
22.338243
  0
LINE
  8
0
 62
     4
 10
-57.219540
 20
15.538246
 11
-56.508213
 21
15.538246
  0
LINE
  8
0
 62
     4
 10
-57.508217
 20
16.038248
 11
-57.219540
 21
15.538248
  0
LINE
  8
0
 62
     1
 10
-50.172802
 20
17.177246
 11
-50.759338
 21
19.376757
  0
LINE
  8
0
 62
     1
 10
-51.410614
 20
17.169027
 11
-51.982925
 21
19.315193
  0
LINE
  8
0
 62
     4
 10
-50.282402
 20
17.588245
 11
-46.078213
 21
17.588245
  0
LINE
  8
0
 62
     4
 10
-50.663738
 20
19.018246
 11
-46.078213
 21
19.018246
  0
LINE
  8
0
 62
     4
 10
-46.078213
 20
18.698246
 11
-41.078213
 21
18.698246
  0
LINE
  8
0
 62
     4
 10
-46.078213
 20
17.898247
 11
-41.078213
 21
17.898247
  0
LINE
  8
0
 62
     4
 10
-46.078213
 20
19.018246
 11
-46.078213
 21
17.588245
  0
LINE
  8
0
 62
     4
 10
-56.508213
 20
19.018246
 11
-51.903736
 21
19.018246
  0
LINE
  8
0
 62
     4
 10
-56.508213
 20
17.588245
 11
-51.522404
 21
17.588245
  0
LINE
  8
0
 62
     4
 10
-41.078213
 20
18.698246
 11
-41.078213
 21
17.898247
  0
LINE
  8
0
 62
     4
 10
-61.608215
 20
21.338245
 11
-66.108215
 21
21.338245
  0
LINE
  8
0
 62
     4
 10
-61.608215
 20
16.038246
 11
-67.108215
 21
16.038246
  0
LINE
  8
0
 62
     4
 10
-73.458214
 20
44.638245
 11
-73.458214
 21
49.613914
  0
LINE
  8
0
 62
     4
 10
-72.028214
 20
44.638245
 11
-72.028214
 21
49.280247
  0
LINE
  8
0
 62
     4
 10
-72.028214
 20
55.068245
 11
-73.458214
 21
55.068245
  0
LINE
  8
0
 62
     4
 10
-72.028214
 20
50.520245
 11
-72.028214
 21
55.068245
  0
LINE
  8
0
 62
     4
 10
-73.458214
 20
50.853912
 11
-73.458214
 21
55.068245
  0
LINE
  8
0
 62
     1
 10
-75.748215
 20
51.388245
 11
-69.748207
 21
49.988243
  0
LINE
  8
0
 62
     1
 10
-75.748215
 20
50.148247
 11
-69.748215
 21
48.748245
  0
LINE
  8
0
 62
     4
 10
-69.708214
 20
39.538246
 11
-75.008209
 21
39.538246
  0
LINE
  8
0
 62
     4
 10
-75.008209
 20
43.638248
 11
-75.508209
 21
43.926918
  0
LINE
  8
0
 62
     4
 10
-75.508209
 20
43.926922
 11
-75.508209
 21
44.638245
  0
LINE
  8
0
 62
     4
 10
-69.208214
 20
42.638245
 11
-68.708214
 21
42.926922
  0
LINE
  8
0
 62
     4
 10
-68.708214
 20
42.926922
 11
-68.708214
 21
43.638245
  0
LINE
  8
0
 62
     4
 10
-69.708214
 20
35.238247
 11
-69.208214
 21
36.104271
  0
LINE
  8
0
 62
     4
 10
-75.508209
 20
44.638245
 11
-70.208214
 21
44.638245
  0
LINE
  8
0
 62
     4
 10
-69.208214
 20
36.104271
 11
-69.208214
 21
42.638245
  0
LINE
  8
0
 62
     4
 10
-69.908211
 20
43.638245
 11
-70.208214
 21
41.936863
  0
LINE
  8
0
  6
PHANTOM
 62
     4
 10
-70.208214
 20
40.438248
 11
-70.208214
 21
41.936859
  0
LINE
  8
0
 62
     4
 10
-69.908218
 20
43.638245
 11
-69.708214
 21
43.638245
  0
LINE
  8
0
 62
     4
 10
-70.208214
 20
39.538246
 11
-70.208214
 21
44.638245
  0
LINE
  8
0
 62
     4
 10
-70.208214
 20
39.638245
 11
-75.008209
 21
39.638245
  0
LINE
  8
0
 62
     4
 10
-69.708214
 20
43.638245
 11
-68.708214
 21
43.638245
  0
LINE
  8
0
 62
     4
 10
-75.008209
 20
39.638245
 11
-75.008209
 21
43.638245
  0
LINE
  8
0
 62
     4
 10
-74.308212
 20
39.538246
 11
-74.308212
 21
39.638245
  0
LINE
  8
0
 62
     4
 10
-71.208214
 20
39.538246
 11
-71.208214
 21
39.638245
  0
LINE
  8
0
 62
     4
 10
-75.008209
 20
33.538246
 11
-75.008209
 21
39.538246
  0
LINE
  8
0
 62
     4
 10
-69.708214
 20
33.538246
 11
-69.708214
 21
39.538246
  0
LINE
  8
0
  6
CENTER
 62
     2
 10
-79.708214
 20
-0.246759
 11
-79.708214
 21
35.674301
  0
LINE
  8
0
 62
     4
 10
-73.008209
 20
32.038246
 11
-85.508217
 21
32.038246
  0
LINE
  8
0
 10
-85.808212
 20
33.538250
 11
-85.508217
 21
33.238247
  0
LINE
  8
0
 10
-67.708214
 20
16.038246
 11
-67.708214
 21
15.938246
  0
LINE
  8
0
 10
-67.108215
 20
15.440167
 11
-67.108215
 21
15.938246
  0
LINE
  8
0
 10
-71.708214
 20
14.629064
 11
-67.108215
 21
15.440169
  0
LINE
  8
0
 10
-73.008209
 20
15.938246
 11
-67.108215
 21
15.938246
  0
LINE
  8
0
 10
-75.908218
 20
2.238246
 11
-83.508209
 21
2.238246
  0
LINE
  8
0
 10
-86.708214
 20
33.538246
 11
-85.808212
 21
33.538246
  0
LINE
  8
0
 10
-86.708214
 20
33.538246
 11
-86.708214
 21
1.038246
  0
LINE
  8
0
 10
-71.708214
 20
7.938246
 11
-71.708214
 21
14.629064
  0
LINE
  8
0
 10
-75.908218
 20
3.038246
 11
-83.508209
 21
3.038246
  0
LINE
  8
0
 10
-75.908218
 20
3.038246
 11
-75.908218
 21
2.238246
  0
LINE
  8
0
 10
-83.508209
 20
2.238246
 11
-83.508209
 21
3.038246
  0
LINE
  8
0
 62
     4
 10
-66.308212
 20
18.238247
 11
-67.108215
 21
18.238247
  0
LINE
  8
0
 62
     4
 10
-66.108215
 20
18.438246
 11
-66.108215
 21
22.038246
  0
LINE
  8
0
 62
     4
 10
-66.308212
 20
22.238247
 11
-67.108215
 21
22.238247
  0
LINE
  8
0
 62
     4
 10
-73.008209
 20
16.038246
 11
-67.108215
 21
16.038246
  0
LINE
  8
0
 62
     4
 10
-85.508217
 20
33.538246
 11
-85.508217
 21
32.038246
  0
LINE
  8
0
 62
     4
 10
-67.108215
 20
16.038246
 11
-67.108215
 21
33.238247
  0
LINE
  8
0
 62
     4
 10
-73.008209
 20
32.038246
 11
-73.008209
 21
15.938246
  0
LINE
  8
0
 62
     4
 10
-85.508217
 20
33.538246
 11
-67.408218
 21
33.538246
  0
LINE
  8
0
 10
-72.708214
 20
8.438246
 11
-72.708214
 21
11.638247
  0
LINE
  8
0
 10
-71.708214
 20
11.638247
 11
-72.708214
 21
11.638247
  0
LINE
  8
0
 10
-71.708214
 20
8.438246
 11
-72.708214
 21
8.438246
  0
LINE
  8
0
 62
     4
 10
-66.108215
 20
19.588245
 11
-50.191883
 21
19.588245
  0
LINE
  8
0
 62
     4
 10
-66.108215
 20
20.888247
 11
-50.541256
 21
20.888247
  0
LINE
  8
0
 62
     1
 10
-50.100491
 20
19.248192
 11
-50.687027
 21
21.430647
  0
LINE
  8
0
 62
     1
 10
-49.085453
 20
19.303865
 11
-49.664291
 21
21.457680
  0
LINE
  8
0
 62
     4
 10
-43.908215
 20
20.488247
 11
-43.908215
 21
19.988247
  0
LINE
  8
0
 62
     4
 10
-47.908215
 20
20.488247
 11
-43.908215
 21
20.488247
  0
LINE
  8
0
 62
     4
 10
-47.908215
 20
19.988247
 11
-43.908215
 21
19.988247
  0
LINE
  8
0
 62
     4
 10
-49.161880
 20
19.588245
 11
-47.908215
 21
19.588245
  0
LINE
  8
0
 62
     4
 10
-49.511257
 20
20.888247
 11
-47.908215
 21
20.888247
  0
LINE
  8
0
 10
-72.608215
 20
8.538246
 11
-72.708214
 21
8.538246
  0
LINE
  8
0
 10
-72.608215
 20
11.538246
 11
-72.708214
 21
11.538246
  0
LINE
  8
0
 10
-72.108215
 20
9.038246
 11
-72.108215
 21
11.038246
  0
LINE
  8
0
 10
-100.708214
 20
21.038246
 11
-100.708214
 21
17.538246
  0
LINE
  8
0
 10
-86.708214
 20
21.038246
 11
-100.708214
 21
21.038246
  0
LINE
  8
0
 10
-86.708214
 20
1.038246
 11
-100.708214
 21
1.038246
  0
LINE
  8
0
  6
CENTER
 62
     2
 10
-96.208214
 20
16.628246
 11
-96.208214
 21
9.163246
  0
LINE
  8
0
  6
CENTER
 62
     2
 10
-91.708214
 20
9.398246
 11
-91.708214
 21
2.123246
  0
LINE
  8
0
  6
CENTER
 62
     2
 10
-92.638214
 20
12.838246
 11
-99.703568
 21
12.838246
  0
LINE
  8
0
  6
CENTER
 62
     2
 10
-88.243210
 20
5.738246
 11
-95.196732
 21
5.738246
  0
LINE
  8
0
 10
-100.708214
 20
16.538246
 11
-100.708214
 21
1.038246
  0
LINE
  8
0
 10
-100.208214
 20
17.038248
 11
-100.708214
 21
17.538248
  0
LINE
  8
0
 10
-100.208214
 20
17.038248
 11
-100.708214
 21
16.538248
  0
LINE
  8
0
 62
     4
 10
-72.348213
 20
65.068245
 11
-73.148216
 21
65.068245
  0
LINE
  8
0
  6
CENTER
 62
     2
 10
-103.185074
 20
18.038246
 11
-97.570206
 21
18.038246
  0
LINE
  8
0
 62
     4
 10
29.886784
 20
14.038246
 11
29.886784
 21
5.038246
  0
LINE
  8
0
 62
     4
 10
39.886784
 20
14.038246
 11
39.886784
 21
5.038246
  0
LINE
  8
0
 62
     4
 10
30.886784
 20
15.038246
 11
38.886784
 21
15.038246
  0
LINE
  8
0
 62
     4
 10
30.886784
 20
4.038246
 11
38.886784
 21
4.038246
  0
LINE
  8
0
 62
     4
 10
29.886784
 20
8.938246
 11
30.366783
 21
8.938246
  0
LINE
  8
0
 62
     4
 10
29.886784
 20
11.138247
 11
30.366783
 21
11.138247
  0
LINE
  8
0
 62
     4
 10
30.746784
 20
9.398246
 11
32.016785
 21
10.668246
  0
LINE
  8
0
 62
     4
 10
32.016785
 20
9.398246
 11
30.746784
 21
10.668246
  0
LINE
  8
0
 62
     4
 10
39.886784
 20
8.938246
 11
39.406784
 21
8.938246
  0
LINE
  8
0
 62
     4
 10
39.886784
 20
11.138247
 11
39.406784
 21
11.138247
  0
LINE
  8
0
 62
     4
 10
39.016781
 20
9.398250
 11
37.746780
 21
10.668249
  0
LINE
  8
0
 62
     4
 10
37.746784
 20
9.398249
 11
39.016785
 21
10.668248
  0
LINE
  8
0
  6
CENTER
 62
     2
 10
34.886784
 20
2.268246
 11
34.886784
 21
16.598246
  0
LINE
  8
0
 10
29.691784
 20
21.038246
 11
46.886784
 21
21.038246
  0
LINE
  8
0
 10
19.491783
 20
21.038246
 11
19.691784
 21
21.038246
  0
LINE
  8
0
 10
9.291783
 20
21.038246
 11
9.491783
 21
21.038246
  0
LINE
  8
0
 10
-7.708217
 20
21.038246
 11
-0.708217
 21
21.038246
  0
LINE
  8
0
 10
-7.708217
 20
1.038246
 11
46.886784
 21
1.038246
  0
LINE
  8
0
 10
-7.708217
 20
21.038246
 11
-7.708217
 21
1.038246
  0
LINE
  8
0
 10
46.886784
 20
21.038246
 11
46.886784
 21
1.038246
  0
LINE
  8
0
  6
CENTER
 62
     2
 10
-6.273217
 20
18.038246
 11
-2.108217
 21
18.038246
  0
LINE
  8
0
  6
CENTER
 62
     2
 10
-4.208217
 20
20.108246
 11
-4.208217
 21
15.963246
  0
LINE
  8
0
  6
CENTER
 62
     2
 10
43.386784
 20
20.613247
 11
43.386784
 21
15.458246
  0
LINE
  8
0
  6
CENTER
 62
     2
 10
40.786781
 20
18.038246
 11
45.986782
 21
18.038246
  0
LINE
  8
0
  6
CENTER
 62
     2
 10
4.291783
 20
-0.246759
 11
4.291783
 21
35.674301
  0
LINE
  8
0
 10
1.897413
 20
7.497429
 11
1.641784
 21
7.938246
  0
LINE
  8
0
 10
6.941783
 20
7.938246
 11
6.686153
 21
7.497428
  0
LINE
  8
0
 10
3.147413
 20
8.747429
 11
2.891783
 21
9.188246
  0
LINE
  8
0
 10
1.641783
 20
7.938247
 11
2.891783
 21
9.188247
  0
LINE
  8
0
 10
3.147413
 20
8.747429
 11
1.897413
 21
7.497428
  0
LINE
  8
0
 10
5.436154
 20
8.747427
 11
5.691783
 21
9.188246
  0
LINE
  8
0
 10
9.291783
 20
14.629064
 11
-0.708217
 21
14.629064
  0
LINE
  8
0
 10
5.436154
 20
8.747428
 11
6.686154
 21
7.497428
  0
LINE
  8
0
 10
9.291783
 20
7.497429
 11
6.686153
 21
7.497429
  0
LINE
  8
0
 10
1.897413
 20
7.497429
 11
-0.708217
 21
7.497429
  0
LINE
  8
0
 10
3.147413
 20
8.747429
 11
5.436153
 21
8.747429
  0
LINE
  8
0
 10
9.291783
 20
7.938246
 11
6.941783
 21
7.938246
  0
LINE
  8
0
 10
6.941784
 20
7.938246
 11
5.691784
 21
9.188246
  0
LINE
  8
0
 10
2.891783
 20
9.188246
 11
5.691783
 21
9.188246
  0
LINE
  8
0
 10
1.641783
 20
7.938246
 11
-0.708217
 21
7.938246
  0
LINE
  8
0
 10
-0.708217
 20
15.440167
 11
9.291783
 21
15.440167
  0
LINE
  8
0
 10
9.291783
 20
15.938246
 11
-0.708217
 21
15.938246
  0
LINE
  8
0
 10
7.791783
 20
11.638247
 11
9.291783
 21
11.638247
  0
LINE
  8
0
 10
9.291783
 20
8.438246
 11
7.791783
 21
8.438246
  0
LINE
  8
0
 10
0.791783
 20
8.438246
 11
-0.708217
 21
8.438246
  0
LINE
  8
0
 10
-0.708217
 20
11.638247
 11
0.791783
 21
11.638247
  0
LINE
  8
0
 62
     4
 10
-0.708217
 20
33.538246
 11
-0.708217
 21
16.038246
  0
LINE
  8
0
  6
CENTER
 62
     2
 10
6.791783
 20
11.788246
 11
1.791783
 21
11.788246
  0
LINE
  8
0
 62
     4
 10
9.291783
 20
33.538246
 11
9.291783
 21
16.038246
  0
LINE
  8
0
 62
     4
 10
-0.708217
 20
33.538246
 11
9.291783
 21
33.538246
  0
LINE
  8
0
 62
     4
 10
9.291783
 20
16.038246
 11
-0.708217
 21
16.038246
  0
LINE
  8
0
 62
     1
 10
5.791783
 20
28.538246
 11
5.791783
 21
33.538246
  0
LINE
  8
0
 62
     1
 10
2.791783
 20
28.538246
 11
2.791783
 21
33.538246
  0
LINE
  8
0
 62
     1
 10
2.791783
 20
28.538246
 11
5.791783
 21
28.538246
  0
LINE
  8
0
 62
     4
 10
7.191783
 20
18.238247
 11
1.391783
 21
18.238247
  0
LINE
  8
0
 62
     4
 10
7.191783
 20
22.238247
 11
1.391783
 21
22.238247
  0
LINE
  8
0
 10
6.117297
 20
11.488246
 11
2.466269
 21
11.488246
  0
LINE
  8
0
 10
6.117297
 20
12.088246
 11
2.466269
 21
12.088246
  0
LINE
  8
0
 10
0.084677
 20
9.331140
 11
1.498891
 21
10.745353
  0
LINE
  8
0
 10
0.084677
 20
10.745353
 11
1.498890
 21
9.331140
  0
LINE
  8
0
 10
8.498890
 20
10.745353
 11
7.084676
 21
9.331140
  0
LINE
  8
0
 10
8.498890
 20
9.331140
 11
7.084677
 21
10.745353
  0
LINE
  8
0
 10
9.291783
 20
1.538246
 11
-0.708217
 21
1.538246
  0
LINE
  8
0
 62
     4
 10
11.991784
 20
39.538246
 11
9.491783
 21
39.538246
  0
LINE
  8
0
 62
     4
 10
16.991783
 20
38.672218
 11
17.391785
 21
38.672218
  0
LINE
  8
0
 62
     4
 10
16.991783
 20
37.138245
 11
17.391785
 21
37.138245
  0
LINE
  8
0
 62
     4
 10
11.991784
 20
36.004272
 11
16.991783
 21
36.004272
  0
LINE
  8
0
 62
     1
 10
13.241784
 20
39.638245
 11
13.241784
 21
40.638245
  0
LINE
  8
0
 62
     1
 10
15.741784
 20
39.638245
 11
15.741784
 21
40.638245
  0
LINE
  8
0
 62
     1
 10
13.241784
 20
40.638245
 11
11.991784
 21
40.638245
  0
LINE
  8
0
 62
     1
 10
16.991783
 20
40.638245
 11
15.741784
 21
40.638245
  0
LINE
  8
0
 62
     1
 10
13.241784
 20
39.638245
 11
11.991784
 21
39.638245
  0
LINE
  8
0
 62
     1
 10
16.991783
 20
39.638245
 11
15.741784
 21
39.638245
  0
LINE
  8
0
 62
     4
 10
10.891784
 20
39.638245
 11
9.791783
 21
39.638245
  0
LINE
  8
0
 62
     4
 10
9.791783
 20
39.638245
 11
9.791783
 21
44.638245
  0
LINE
  8
0
 62
     4
 10
11.991784
 20
35.138245
 11
11.991784
 21
43.638245
  0
LINE
  8
0
 62
     4
 10
10.391784
 20
39.538246
 11
10.391784
 21
39.638245
  0
LINE
  8
0
 62
     4
 10
10.891784
 20
39.538246
 11
10.891784
 21
44.638245
  0
LINE
  8
0
 62
     4
 10
18.091782
 20
39.538246
 11
18.091782
 21
44.638245
  0
LINE
  8
0
 62
     4
 10
18.591782
 20
39.538246
 11
18.591782
 21
39.638245
  0
LINE
  8
0
 62
     4
 10
11.991784
 20
42.638245
 11
16.991783
 21
42.638245
  0
LINE
  8
0
 62
     4
 10
11.991784
 20
42.926922
 11
16.991783
 21
42.926922
  0
LINE
  8
0
 62
     4
 10
16.991783
 20
35.138245
 11
16.991783
 21
43.638245
  0
LINE
  8
0
 62
     4
 10
19.191784
 20
39.638245
 11
19.191784
 21
44.638245
  0
LINE
  8
0
 62
     4
 10
16.991783
 20
43.638245
 11
11.991784
 21
43.638245
  0
LINE
  8
0
 62
     4
 10
18.091782
 20
39.638245
 11
19.191784
 21
39.638245
  0
LINE
  8
0
 62
     4
 10
19.191784
 20
44.638245
 11
9.791783
 21
44.638245
  0
LINE
  8
0
 62
     4
 10
16.991783
 20
35.138245
 11
11.991784
 21
35.138245
  0
LINE
  8
0
 62
     4
 10
16.351784
 20
44.638245
 11
16.351784
 21
49.638245
  0
LINE
  8
0
 62
     4
 10
17.781784
 20
44.638245
 11
17.781784
 21
49.258247
  0
LINE
  8
0
 62
     4
 10
16.671783
 20
65.068245
 11
17.471783
 21
65.068245
  0
LINE
  8
0
 62
     4
 10
16.351784
 20
55.068245
 11
17.781784
 21
55.068245
  0
LINE
  8
0
 62
     4
 10
17.471783
 20
55.068245
 11
17.471783
 21
65.068245
  0
LINE
  8
0
 62
     4
 10
16.671783
 20
55.068245
 11
16.671783
 21
65.068245
  0
LINE
  8
0
 62
     4
 10
16.351784
 20
50.878246
 11
16.351784
 21
55.068245
  0
LINE
  8
0
 62
     4
 10
17.781784
 20
50.498245
 11
17.781784
 21
55.068245
  0
LINE
  8
0
 62
     1
 10
20.071783
 20
49.888245
 11
8.973470
 21
52.847797
  0
LINE
  8
0
 62
     1
 10
20.071783
 20
48.648247
 11
8.973469
 21
51.607796
  0
LINE
  8
0
 62
     4
 10
11.271783
 20
44.638245
 11
11.271783
 21
50.994911
  0
LINE
  8
0
 62
     4
 10
12.701783
 20
44.638245
 11
12.701783
 21
50.613579
  0
LINE
  8
0
 62
     4
 10
12.701783
 20
51.853580
 11
12.701783
 21
55.068245
  0
LINE
  8
0
 62
     4
 10
11.271783
 20
52.234913
 11
11.271783
 21
55.068245
  0
LINE
  8
0
 62
     4
 10
12.311784
 20
55.068245
 11
12.311784
 21
65.068245
  0
LINE
  8
0
 62
     4
 10
11.511784
 20
55.068245
 11
11.511784
 21
65.068245
  0
LINE
  8
0
 62
     4
 10
12.631783
 20
55.068245
 11
11.201783
 21
55.068245
  0
LINE
  8
0
 62
     4
 10
12.311784
 20
65.068245
 11
11.511784
 21
65.068245
  0
LINE
  8
0
 62
     4
 10
19.491783
 20
39.538246
 11
16.991783
 21
39.538246
  0
LINE
  8
0
 62
     4
 10
19.491783
 20
33.538246
 11
9.491783
 21
33.538246
  0
LINE
  8
0
 62
     4
 10
11.591784
 20
38.672218
 11
11.991784
 21
38.672218
  0
LINE
  8
0
 62
     4
 10
11.591784
 20
37.138245
 11
11.991784
 21
37.138245
  0
LINE
  8
0
 62
     4
 10
11.591784
 20
33.538246
 11
11.591784
 21
39.538246
  0
LINE
  8
0
 62
     4
 10
17.391785
 20
33.538246
 11
17.391785
 21
39.538246
  0
LINE
  8
0
 62
     4
 10
9.491783
 20
16.038246
 11
19.491783
 21
16.038246
  0
LINE
  8
0
 62
     1
 10
15.991784
 20
28.538246
 11
15.991784
 21
33.538246
  0
LINE
  8
0
 62
     1
 10
12.991784
 20
28.538246
 11
12.991784
 21
33.538246
  0
LINE
  8
0
 62
     1
 10
12.991784
 20
28.538246
 11
15.991784
 21
28.538246
  0
LINE
  8
0
  6
CENTER
 62
     2
 10
14.491784
 20
-0.246759
 11
14.491784
 21
46.956432
  0
LINE
  8
0
 10
12.097412
 20
7.497430
 11
11.841783
 21
7.938247
  0
LINE
  8
0
 10
17.141783
 20
7.938246
 11
16.886152
 21
7.497429
  0
LINE
  8
0
 10
13.347414
 20
8.747429
 11
13.091784
 21
9.188247
  0
LINE
  8
0
 10
11.841784
 20
7.938246
 11
13.091784
 21
9.188246
  0
LINE
  8
0
 10
13.347413
 20
8.747429
 11
12.097413
 21
7.497428
  0
LINE
  8
0
 10
15.636153
 20
8.747429
 11
15.891784
 21
9.188246
  0
LINE
  8
0
 10
19.491783
 20
14.629064
 11
9.491783
 21
14.629064
  0
LINE
  8
0
 10
15.636154
 20
8.747429
 11
16.886154
 21
7.497429
  0
LINE
  8
0
 10
19.491783
 20
7.497429
 11
16.886154
 21
7.497429
  0
LINE
  8
0
 10
12.097413
 20
7.497429
 11
9.491783
 21
7.497429
  0
LINE
  8
0
 10
13.347413
 20
8.747429
 11
15.636153
 21
8.747429
  0
LINE
  8
0
 10
19.491783
 20
7.938246
 11
17.141785
 21
7.938246
  0
LINE
  8
0
 10
17.141783
 20
7.938247
 11
15.891784
 21
9.188247
  0
LINE
  8
0
 10
13.091783
 20
9.188246
 11
15.891784
 21
9.188246
  0
LINE
  8
0
 10
11.841783
 20
7.938246
 11
9.491783
 21
7.938246
  0
LINE
  8
0
 10
9.491783
 20
15.440167
 11
19.491783
 21
15.440167
  0
LINE
  8
0
 10
19.491783
 20
15.938246
 11
9.491783
 21
15.938246
  0
LINE
  8
0
 10
17.991783
 20
11.638247
 11
19.491783
 21
11.638247
  0
LINE
  8
0
 10
19.491783
 20
8.438246
 11
17.991783
 21
8.438246
  0
LINE
  8
0
 10
10.991783
 20
8.438246
 11
9.491783
 21
8.438246
  0
LINE
  8
0
 10
9.491783
 20
11.638247
 11
10.991783
 21
11.638247
  0
LINE
  8
0
 62
     4
 10
9.491783
 20
39.538246
 11
9.491783
 21
16.038246
  0
LINE
  8
0
  6
CENTER
 62
     2
 10
16.991783
 20
11.788246
 11
11.991784
 21
11.788246
  0
LINE
  8
0
 62
     4
 10
19.491783
 20
39.538246
 11
19.491783
 21
16.038246
  0
LINE
  8
0
 10
16.317295
 20
11.488246
 11
12.666270
 21
11.488246
  0
LINE
  8
0
 10
16.317295
 20
12.088246
 11
12.666270
 21
12.088246
  0
LINE
  8
0
 10
10.284677
 20
9.331140
 11
11.698890
 21
10.745354
  0
LINE
  8
0
 10
10.284677
 20
10.745353
 11
11.698890
 21
9.331140
  0
LINE
  8
0
 10
18.698891
 20
10.745353
 11
17.284678
 21
9.331139
  0
LINE
  8
0
 10
18.698891
 20
9.331139
 11
17.284678
 21
10.745353
  0
LINE
  8
0
 10
19.491783
 20
1.538246
 11
9.491783
 21
1.538246
  0
LINE
  8
0
 62
     4
 10
19.991783
 20
16.038246
 11
19.691784
 21
16.038246
  0
LINE
  8
0
 10
19.991783
 20
15.938246
 11
19.691784
 21
15.938246
  0
LINE
  8
0
 62
     4
 10
27.191784
 20
21.338245
 11
29.391781
 21
21.338245
  0
LINE
  8
0
 62
     4
 10
27.191784
 20
20.338245
 11
27.591782
 21
20.338245
  0
LINE
  8
0
 62
     4
 10
22.191784
 20
21.138247
 11
27.191784
 21
21.138247
  0
LINE
  8
0
 62
     4
 10
22.191784
 20
22.338245
 11
27.191784
 21
22.338245
  0
LINE
  8
0
 62
     4
 10
20.991783
 20
19.838245
 11
28.391781
 21
19.838245
  0
LINE
  8
0
 62
     4
 10
19.991783
 20
15.538246
 11
19.991783
 21
20.838245
  0
LINE
  8
0
 62
     4
 10
29.391781
 20
15.538246
 11
29.391781
 21
20.838245
  0
LINE
  8
0
 62
     4
 10
19.991783
 20
15.538246
 11
29.391781
 21
15.538246
  0
LINE
  8
0
 62
     4
 10
21.601784
 20
17.238247
 11
21.601784
 21
16.738247
  0
LINE
  8
0
 62
     4
 10
22.701782
 20
17.238247
 11
22.701782
 21
16.738247
  0
LINE
  8
0
 62
     4
 10
21.201782
 20
19.338245
 11
23.101784
 21
19.338245
  0
LINE
  8
0
 62
     4
 10
21.275784
 20
17.238247
 11
23.025784
 21
17.238247
  0
LINE
  8
0
 62
     4
 10
21.601784
 20
16.738247
 11
22.701782
 21
16.738247
  0
LINE
  8
0
 62
     4
 10
25.941784
 20
20.838245
 11
25.941784
 21
19.838245
  0
LINE
  8
0
 62
     4
 10
23.441784
 20
20.838245
 11
23.441784
 21
19.838245
  0
LINE
  8
0
 62
     4
 10
19.991783
 20
20.838245
 11
20.991783
 21
20.838245
  0
LINE
  8
0
 62
     4
 10
20.991783
 20
19.838245
 11
20.991783
 21
20.838245
  0
LINE
  8
0
 62
     4
 10
29.391781
 20
20.838245
 11
28.391781
 21
20.838245
  0
LINE
  8
0
 62
     4
 10
28.391781
 20
19.838245
 11
28.391781
 21
20.838245
  0
LINE
  8
0
 62
     4
 10
23.101782
 20
19.338245
 11
23.225782
 21
17.450247
  0
LINE
  8
0
 62
     4
 10
21.075783
 20
17.450247
 11
21.201784
 21
19.338245
  0
LINE
  8
0
 62
     4
 10
23.741783
 20
19.338245
 11
25.641785
 21
19.338245
  0
LINE
  8
0
 62
     4
 10
23.615784
 20
17.450249
 11
23.741785
 21
19.338245
  0
LINE
  8
0
 62
     4
 10
23.815784
 20
17.238247
 11
25.565784
 21
17.238247
  0
LINE
  8
0
 62
     4
 10
24.141785
 20
17.238247
 11
24.141785
 21
16.738247
  0
LINE
  8
0
 62
     4
 10
24.141785
 20
16.738247
 11
25.241783
 21
16.738247
  0
LINE
  8
0
 62
     4
 10
25.241783
 20
17.238247
 11
25.241783
 21
16.738247
  0
LINE
  8
0
 62
     4
 10
25.641783
 20
19.338245
 11
25.765783
 21
17.450247
  0
LINE
  8
0
 62
     4
 10
24.291782
 20
18.738247
 11
24.291782
 21
17.938246
  0
LINE
  8
0
 62
     4
 10
25.091782
 20
18.738247
 11
24.291782
 21
18.738247
  0
LINE
  8
0
 62
     4
 10
25.091782
 20
18.738247
 11
25.091782
 21
17.938246
  0
LINE
  8
0
 62
     4
 10
25.091782
 20
17.938246
 11
24.291782
 21
17.938246
  0
LINE
  8
0
 62
     4
 10
26.281784
 20
19.338245
 11
28.181782
 21
19.338245
  0
LINE
  8
0
 62
     4
 10
26.155783
 20
17.450247
 11
26.281782
 21
19.338247
  0
LINE
  8
0
 62
     4
 10
26.355782
 20
17.238247
 11
28.105782
 21
17.238247
  0
LINE
  8
0
 62
     4
 10
26.681782
 20
17.238247
 11
26.681782
 21
16.738247
  0
LINE
  8
0
 62
     4
 10
26.681782
 20
16.738247
 11
27.781784
 21
16.738247
  0
LINE
  8
0
 62
     4
 10
27.781784
 20
17.238247
 11
27.781784
 21
16.738247
  0
LINE
  8
0
 62
     4
 10
28.181782
 20
19.338245
 11
28.305782
 21
17.450247
  0
LINE
  8
0
 62
     4
 10
22.191784
 20
22.338245
 11
22.191784
 21
19.838245
  0
LINE
  8
0
 62
     4
 10
27.191784
 20
22.338245
 11
27.191784
 21
19.838245
  0
LINE
  8
0
 62
     4
 10
21.791782
 20
20.838245
 11
27.591782
 21
20.838245
  0
LINE
  8
0
 62
     4
 10
27.591782
 20
20.338245
 11
27.591782
 21
21.338245
  0
LINE
  8
0
 62
     4
 10
21.791782
 20
20.338245
 11
21.791782
 21
21.338245
  0
LINE
  8
0
 62
     4
 10
21.791782
 20
20.338245
 11
22.191784
 21
20.338245
  0
LINE
  8
0
 62
     4
 10
19.991783
 20
21.338245
 11
22.191784
 21
21.338245
  0
LINE
  8
0
 62
     4
 10
29.391781
 20
33.538246
 11
19.991783
 21
33.538246
  0
LINE
  8
0
 62
     4
 10
29.691784
 20
16.038246
 11
29.391781
 21
16.038246
  0
LINE
  8
0
 62
     1
 10
26.191784
 20
28.538246
 11
26.191784
 21
33.538246
  0
LINE
  8
0
 62
     1
 10
23.191784
 20
28.538246
 11
26.191784
 21
28.538246
  0
LINE
  8
0
 62
     1
 10
23.191784
 20
28.538246
 11
23.191784
 21
33.538246
  0
LINE
  8
0
  6
CENTER
 62
     2
 10
24.691784
 20
-0.246759
 11
24.691784
 21
35.674301
  0
LINE
  8
0
 10
22.297413
 20
7.497430
 11
22.041784
 21
7.938248
  0
LINE
  8
0
 10
27.341784
 20
7.938246
 11
27.086155
 21
7.497428
  0
LINE
  8
0
 10
23.547413
 20
8.747429
 11
23.291782
 21
9.188246
  0
LINE
  8
0
 10
22.041782
 20
7.938247
 11
23.291782
 21
9.188247
  0
LINE
  8
0
 10
23.547413
 20
8.747429
 11
22.297413
 21
7.497429
  0
LINE
  8
0
 10
25.836151
 20
8.747429
 11
26.091784
 21
9.188248
  0
LINE
  8
0
 10
29.691784
 20
14.629064
 11
19.691784
 21
14.629064
  0
LINE
  8
0
 10
25.836155
 20
8.747429
 11
27.086153
 21
7.497429
  0
LINE
  8
0
 10
29.691784
 20
7.497429
 11
27.086155
 21
7.497429
  0
LINE
  8
0
 10
22.297413
 20
7.497429
 11
19.691784
 21
7.497429
  0
LINE
  8
0
 10
23.547413
 20
8.747429
 11
25.836155
 21
8.747429
  0
LINE
  8
0
 10
29.691784
 20
7.938246
 11
27.341782
 21
7.938246
  0
LINE
  8
0
 10
27.341784
 20
7.938246
 11
26.091784
 21
9.188247
  0
LINE
  8
0
 10
23.291782
 20
9.188246
 11
26.091782
 21
9.188246
  0
LINE
  8
0
 10
22.041782
 20
7.938246
 11
19.691784
 21
7.938246
  0
LINE
  8
0
 10
19.691784
 20
15.440167
 11
29.691784
 21
15.440167
  0
LINE
  8
0
 10
29.691784
 20
15.938246
 11
29.391781
 21
15.938246
  0
LINE
  8
0
 10
28.191784
 20
11.638247
 11
29.691784
 21
11.638247
  0
LINE
  8
0
 10
29.691784
 20
8.438246
 11
28.191784
 21
8.438246
  0
LINE
  8
0
 10
21.191784
 20
8.438246
 11
19.691784
 21
8.438246
  0
LINE
  8
0
 10
19.691784
 20
11.638247
 11
21.191784
 21
11.638247
  0
LINE
  8
0
 62
     4
 10
19.691784
 20
33.238247
 11
19.691784
 21
16.038246
  0
LINE
  8
0
  6
CENTER
 62
     2
 10
27.191784
 20
11.788246
 11
22.191784
 21
11.788246
  0
LINE
  8
0
 62
     4
 10
29.691784
 20
33.238247
 11
29.691784
 21
16.038246
  0
LINE
  8
0
 10
26.517296
 20
11.488246
 11
22.866268
 21
11.488246
  0
LINE
  8
0
 10
26.517296
 20
12.088246
 11
22.866268
 21
12.088246
  0
LINE
  8
0
 10
20.484676
 20
9.331139
 11
21.898890
 21
10.745353
  0
LINE
  8
0
 10
20.484676
 20
10.745353
 11
21.898890
 21
9.331139
  0
LINE
  8
0
 10
28.898890
 20
10.745354
 11
27.484674
 21
9.331138
  0
LINE
  8
0
 10
28.898890
 20
9.331139
 11
27.484676
 21
10.745353
  0
LINE
  8
0
 10
29.691784
 20
1.538246
 11
19.691784
 21
1.538246
  0
LINE
  8
0
 10
-0.708217
 20
16.038246
 11
-0.708217
 21
1.538246
  0
LINE
  8
0
 10
19.691784
 20
16.038246
 11
19.691784
 21
1.538246
  0
LINE
  8
0
 10
19.491783
 20
16.038246
 11
19.491783
 21
1.538246
  0
LINE
  8
0
 10
9.291783
 20
16.038246
 11
9.291783
 21
1.538246
  0
LINE
  8
0
 10
9.491783
 20
16.038246
 11
9.491783
 21
1.538246
  0
LINE
  8
0
 10
29.691784
 20
16.038246
 11
29.691784
 21
1.538246
  0
LINE
  8
0
  6
CENTER
 62
     2
 10
-88.589844
 20
10.038247
 11
-84.536377
 21
10.038247
  0
LINE
  8
0
 10
-133.399994
 20
-32.600002
 11
-43.799995
 21
-32.600002
  0
LINE
  8
0
 10
-133.399994
 20
-37.800003
 11
-43.799995
 21
-37.800003
  0
LINE
  8
0
 10
-133.399994
 20
-43.000004
 11
-43.799995
 21
-43.000004
  0
LINE
  8
0
 10
-133.399994
 20
-48.200005
 11
-43.799995
 21
-48.200005
  0
LINE
  8
0
 10
-133.399994
 20
-53.400002
 11
-43.799995
 21
-53.400002
  0
LINE
  8
0
 10
-133.399994
 20
-58.600002
 11
-43.799995
 21
-58.600002
  0
LINE
  8
0
 10
-133.399994
 20
-63.800003
 11
-43.799995
 21
-63.800003
  0
LINE
  8
0
 10
-133.399994
 20
-69.000000
 11
-43.799995
 21
-69.000000
  0
LINE
  8
0
 10
-133.399994
 20
-74.200005
 11
-43.799995
 21
-74.200005
  0
LINE
  8
0
 10
-133.399994
 20
-79.400002
 11
-43.799995
 21
-79.400002
  0
LINE
  8
0
 10
-133.399994
 20
-84.600006
 11
-43.799995
 21
-84.600006
  0
LINE
  8
0
 10
-133.399994
 20
-89.800003
 11
-43.799995
 21
-89.800003
  0
LINE
  8
0
 10
-133.399994
 20
-32.600002
 11
-133.399994
 21
-89.800003
  0
LINE
  8
0
 10
-114.199997
 20
-32.600002
 11
-114.199997
 21
-89.800003
  0
LINE
  8
0
 10
-101.399994
 20
-32.600002
 11
-101.399994
 21
-89.800003
  0
LINE
  8
0
 10
-88.599991
 20
-32.600002
 11
-88.599991
 21
-89.800003
  0
LINE
  8
0
 10
-69.399994
 20
-32.600002
 11
-69.399994
 21
-89.800003
  0
LINE
  8
0
 10
-56.599995
 20
-32.600002
 11
-56.599995
 21
-89.800003
  0
LINE
  8
0
 10
-43.799995
 20
-32.600002
 11
-43.799995
 21
-89.800003
  0
LINE
  8
0
 10
-81.556686
 20
-87.200005
 11
-76.443298
 21
-87.200005
  0
LINE
  8
0
 10
-65.533272
 20
-87.200005
 11
-60.419884
 21
-87.200005
  0
LINE
  8
0
 10
-52.733273
 20
-87.200005
 11
-47.619884
 21
-87.200005
  0
LINE
  8
0
 10
-138.399994
 20
94.500000
 11
138.350006
 21
94.500000
  0
LINE
  8
0
 10
138.350006
 20
94.500000
 11
138.350006
 21
-94.800003
  0
LINE
  8
0
 10
-138.399994
 20
-94.800003
 11
138.350006
 21
-94.800003
  0
LINE
  8
0
 10
-138.399994
 20
94.500000
 11
-138.399994
 21
-94.800003
  0
LINE
  8
0
 10
73.350006
 20
-84.800003
 11
138.350006
 21
-84.800003
  0
LINE
  8
0
 10
-138.399994
 20
84.500000
 11
-73.399994
 21
84.500000
  0
LINE
  8
0
 10
73.350006
 20
84.500000
 11
138.350006
 21
84.500000
  0
LINE
  8
0
 10
73.350006
 20
-84.800003
 11
73.350006
 21
-94.800003
  0
LINE
  8
0
 10
73.350006
 20
94.500000
 11
73.350006
 21
84.500000
  0
LINE
  8
0
 10
-73.399994
 20
94.500000
 11
-73.399994
 21
84.500000
  0
CIRCLE
  8
0
 10
34.891781
 20
-72.961754
 40
1.200000
  0
CIRCLE
  8
0
 62
     2
 10
34.891781
 20
-72.961754
 40
1.500000
  0
CIRCLE
  8
0
 10
24.691784
 20
-72.961754
 40
1.200000
  0
CIRCLE
  8
0
 62
     2
 10
24.691784
 20
-72.961754
 40
1.500000
  0
CIRCLE
  8
0
 10
14.491784
 20
-72.961754
 40
1.200000
  0
CIRCLE
  8
0
 62
     2
 10
14.491784
 20
-72.961754
 40
1.500000
  0
CIRCLE
  8
0
 10
4.291783
 20
-72.961754
 40
1.200000
  0
CIRCLE
  8
0
 62
     2
 10
4.291783
 20
-72.961754
 40
1.500000
  0
ARC
  8
0
 62
     4
 10
30.486767
 20
-61.361736
 40
0.599983
 50
89.998360
 51
180.001450
  0
ARC
  8
0
 62
     4
 10
32.286789
 20
-61.361748
 40
0.599991
 50
359.999268
 51
90.000725
  0
ARC
  8
0
 62
     4
 10
39.286804
 20
-61.361732
 40
0.599976
 50
359.997803
 51
90.002182
  0
ARC
  8
0
 62
     4
 10
37.486782
 20
-61.361752
 40
0.599998
 50
90.000000
 51
180.000000
  0
ARC
  8
0
 10
6.991783
 20
-62.461754
 40
0.200000
 50
0.000000
 51
90.000000
  0
ARC
  8
0
 10
1.591784
 20
-62.461754
 40
0.200001
 50
90.000000
 51
180.000000
  0
ARC
  8
0
 10
0.291783
 20
-62.961754
 40
0.300000
 50
180.000000
 51
270.000000
  0
ARC
  8
0
 10
0.291783
 20
-61.461754
 40
0.299999
 50
90.000000
 51
180.000000
  0
ARC
  8
0
 10
8.291783
 20
-61.461754
 40
0.300000
 50
0.000000
 51
90.000000
  0
ARC
  8
0
 10
8.291783
 20
-62.961754
 40
0.299999
 50
270.000000
 51
0.000000
  0
ARC
  8
0
 10
17.191784
 20
-62.461754
 40
0.200001
 50
0.000000
 51
90.000000
  0
ARC
  8
0
 10
11.791783
 20
-62.461754
 40
0.200001
 50
90.000000
 51
180.000000
  0
ARC
  8
0
 10
10.491783
 20
-62.961754
 40
0.300000
 50
180.000000
 51
270.000000
  0
ARC
  8
0
 10
10.491783
 20
-61.461754
 40
0.299999
 50
90.000000
 51
180.000000
  0
ARC
  8
0
 10
18.491783
 20
-61.461754
 40
0.299999
 50
0.000000
 51
90.000000
  0
ARC
  8
0
 10
18.491783
 20
-62.961754
 40
0.299999
 50
270.000000
 51
0.000000
  0
ARC
  8
0
 10
28.691784
 20
-62.961754
 40
0.299999
 50
270.000000
 51
0.000000
  0
ARC
  8
0
 10
28.691784
 20
-61.461754
 40
0.299999
 50
0.000000
 51
90.000000
  0
ARC
  8
0
 10
20.691784
 20
-61.461754
 40
0.299999
 50
90.000000
 51
180.000000
  0
ARC
  8
0
 10
20.691784
 20
-62.961754
 40
0.299999
 50
180.000000
 51
270.000000
  0
ARC
  8
0
 10
21.991783
 20
-62.461754
 40
0.200001
 50
90.000000
 51
180.000000
  0
ARC
  8
0
 10
27.391785
 20
-62.461754
 40
0.200001
 50
0.000000
 51
90.000000
  0
ARC
  8
0
 62
     4
 10
-66.307503
 20
18.437534
 40
0.199291
 50
269.796021
 51
0.204541
  0
ARC
  8
0
 62
     4
 10
-66.307503
 20
22.038958
 40
0.199289
 50
359.795471
 51
90.203987
  0
ARC
  8
0
 62
     4
 10
-67.408218
 20
33.238247
 40
0.300003
 50
0.000000
 51
90.000000
  0
ARC
  8
0
 10
-72.608215
 20
11.038246
 40
0.500000
 50
0.000000
 51
90.000000
  0
ARC
  8
0
 10
-72.608215
 20
9.038246
 40
0.500000
 50
270.000000
 51
0.000000
  0
CIRCLE
  8
0
 62
     2
 10
-96.210335
 20
12.838343
 40
2.500000
  0
CIRCLE
  8
0
 62
     2
 10
-91.710335
 20
5.738337
 40
2.500000
  0
CIRCLE
  8
0
 10
-96.210335
 20
12.838343
 40
2.100000
  0
CIRCLE
  8
0
 10
-91.710335
 20
5.738337
 40
2.100000
  0
ARC
  8
0
 62
     4
 10
30.886784
 20
14.038243
 40
1.000003
 50
90.000221
 51
179.999832
  0
ARC
  8
0
 62
     4
 10
30.886784
 20
5.038249
 40
1.000004
 50
180.000168
 51
269.999786
  0
ARC
  8
0
 62
     4
 10
38.886784
 20
5.038243
 40
0.999997
 50
269.999786
 51
0.000164
  0
ARC
  8
0
 62
     4
 10
38.886784
 20
14.038249
 40
0.999996
 50
359.999847
 51
90.000221
  0
CIRCLE
  8
0
 62
     4
 10
31.386772
 20
10.038246
 40
1.500000
  0
CIRCLE
  8
0
 62
     4
 10
38.386803
 20
10.038246
 40
1.500000
  0
CIRCLE
  8
0
 10
-4.211096
 20
18.038340
 40
1.600000
  0
CIRCLE
  8
0
 10
43.388905
 20
18.038340
 40
1.600000
  0
CIRCLE
  8
0
 10
4.291783
 20
11.788246
 40
2.050000
  0
ARC
  8
0
 10
0.791783
 20
10.038246
 40
1.600000
 50
270.000000
 51
90.000000
  0
ARC
  8
0
 10
7.791783
 20
10.038246
 40
1.600000
 50
90.000000
 51
270.000000
  0
CIRCLE
  8
0
 10
4.291783
 20
11.788246
 40
1.900000
  0
ARC
  8
0
 62
     4
 10
-0.408217
 20
33.238247
 40
0.299999
 50
90.000000
 51
180.000000
  0
ARC
  8
0
 62
     4
 10
8.991783
 20
33.238247
 40
0.300000
 50
0.000000
 51
90.000000
  0
CIRCLE
  8
0
 62
     4
 10
1.391783
 20
20.238247
 40
0.875000
  0
CIRCLE
  8
0
 62
     4
 10
7.191783
 20
20.238247
 40
0.875000
  0
ARC
  8
0
 62
     4
 10
7.191783
 20
20.238247
 40
2.000000
 50
270.000000
 51
90.000000
  0
ARC
  8
0
 62
     4
 10
1.391783
 20
20.238247
 40
2.000000
 50
90.000000
 51
270.000000
  0
CIRCLE
  8
0
 10
4.291783
 20
11.788246
 40
1.850000
  0
ARC
  8
0
 10
4.291783
 20
11.788246
 40
0.800000
 50
22.024321
 51
157.975677
  0
ARC
  8
0
 10
4.291783
 20
11.788246
 40
0.800000
 50
202.024323
 51
337.975677
  0
CIRCLE
  8
0
 10
0.791783
 20
10.038246
 40
1.500000
  0
CIRCLE
  8
0
 10
7.791783
 20
10.038246
 40
1.500000
  0
CIRCLE
  8
0
 10
14.491784
 20
11.788246
 40
2.050000
  0
ARC
  8
0
 10
10.991783
 20
10.038246
 40
1.600000
 50
270.000000
 51
90.000000
  0
ARC
  8
0
 10
17.991783
 20
10.038246
 40
1.600000
 50
90.000000
 51
270.000000
  0
CIRCLE
  8
0
 10
14.491784
 20
11.788246
 40
1.900000
  0
CIRCLE
  8
0
 10
14.491784
 20
11.788246
 40
1.850000
  0
ARC
  8
0
 10
14.491784
 20
11.788246
 40
0.800000
 50
22.024321
 51
157.975677
  0
ARC
  8
0
 10
14.491784
 20
11.788246
 40
0.800000
 50
202.024323
 51
337.975677
  0
CIRCLE
  8
0
 10
10.991783
 20
10.038246
 40
1.500000
  0
CIRCLE
  8
0
 10
17.991783
 20
10.038246
 40
1.500000
  0
CIRCLE
  8
0
 62
     4
 10
27.231785
 20
18.338245
 40
0.750000
  0
CIRCLE
  8
0
 62
     4
 10
22.151783
 20
18.338245
 40
0.750000
  0
ARC
  8
0
 62
     4
 10
21.276127
 20
17.438910
 40
0.200665
 50
176.761688
 51
269.901978
  0
ARC
  8
0
 62
     4
 10
23.026497
 20
17.437912
 40
0.199666
 50
269.794739
 51
3.541817
  0
ARC
  8
0
 62
     4
 10
23.816128
 20
17.438910
 40
0.200665
 50
176.761688
 51
269.901978
  0
ARC
  8
0
 62
     4
 10
25.566498
 20
17.437912
 40
0.199666
 50
269.794739
 51
3.541817
  0
ARC
  8
0
 62
     4
 10
26.356129
 20
17.438910
 40
0.200665
 50
176.761688
 51
269.901978
  0
ARC
  8
0
 62
     4
 10
28.106499
 20
17.437912
 40
0.199666
 50
269.794739
 51
3.541817
  0
ARC
  8
0
 62
     4
 10
29.391781
 20
21.038246
 40
0.299999
 50
0.000000
 51
90.000000
  0
ARC
  8
0
 62
     4
 10
19.991783
 20
21.038246
 40
0.299999
 50
90.000000
 51
180.000000
  0
ARC
  8
0
 62
     4
 10
19.991783
 20
33.238247
 40
0.299999
 50
90.000000
 51
180.000000
  0
ARC
  8
0
 62
     4
 10
29.391781
 20
33.238247
 40
0.299999
 50
0.000000
 51
90.000000
  0
CIRCLE
  8
0
 10
24.691784
 20
11.788246
 40
2.050000
  0
ARC
  8
0
 10
21.191784
 20
10.038246
 40
1.600000
 50
270.000000
 51
90.000000
  0
ARC
  8
0
 10
28.191784
 20
10.038246
 40
1.600000
 50
90.000000
 51
270.000000
  0
CIRCLE
  8
0
 10
24.691784
 20
11.788246
 40
1.900000
  0
CIRCLE
  8
0
 10
24.691784
 20
11.788246
 40
1.850000
  0
ARC
  8
0
 10
24.691784
 20
11.788246
 40
0.799999
 50
22.024345
 51
157.975662
  0
ARC
  8
0
 10
24.691784
 20
11.788246
 40
0.799999
 50
202.024338
 51
337.975647
  0
CIRCLE
  8
0
 10
21.191784
 20
10.038246
 40
1.500000
  0
CIRCLE
  8
0
 10
28.191784
 20
10.038246
 40
1.500000
  0
TEXT
  8
0
 10
-88.099991
 20
-83.879997
 40
3.200000
  1
G010M20A
 50
0.000000
 41
0.756579
 51
0.000000
  7
STANDARD
  0
TEXT
  8
0
 10
-88.099991
 20
-78.680000
 40
3.200000
  1
G010M19A
 50
0.000000
 41
0.756579
 51
0.000000
  7
STANDARD
  0
TEXT
  8
0
 10
-88.099991
 20
-73.480003
 40
3.200000
  1
G010M18A
 50
0.000000
 41
0.756579
 51
0.000000
  7
STANDARD
  0
TEXT
  8
0
 10
-88.099991
 20
-68.279999
 40
3.200000
  1
G010M17A
 50
0.000000
 41
0.756579
 51
0.000000
  7
STANDARD
  0
TEXT
  8
0
 10
-88.099991
 20
-63.080002
 40
3.200000
  1
G010M16A
 50
0.000000
 41
0.756579
 51
0.000000
  7
STANDARD
  0
TEXT
  8
0
 10
-88.099991
 20
-57.880005
 40
3.200000
  1
G010M15A
 50
0.000000
 41
0.756579
 51
0.000000
  7
STANDARD
  0
TEXT
  8
0
 10
-88.099991
 20
-52.680004
 40
3.200000
  1
G010M14A
 50
0.000000
 41
0.756579
 51
0.000000
  7
STANDARD
  0
TEXT
  8
0
 10
-88.099991
 20
-47.480003
 40
3.200000
  1
G010M13A
 50
0.000000
 41
0.756579
 51
0.000000
  7
STANDARD
  0
TEXT
  8
0
 10
-88.099991
 20
-42.280003
 40
3.200000
  1
G010M12A
 50
0.000000
 41
0.756579
 51
0.000000
  7
STANDARD
  0
TEXT
  8
0
 10
-130.750000
 20
-42.280003
 40
3.200000
  1
G010M2A
 50
0.000000
 41
0.756579
 51
0.000000
  7
STANDARD
  0
TEXT
  8
0
 10
-112.730438
 20
-31.484009
 40
3.200000
  1
DIMENSION LIST
 50
0.000000
 41
1.052632
 51
0.000000
  7
STANDARD
  0
TEXT
  8
0
 10
-130.299988
 20
-37.080006
 40
3.200000
  1
TYPE
 50
0.000000
 41
1.052632
 51
0.000000
  7
STANDARD
  0
TEXT
  8
0
 10
-109.499992
 20
-37.080006
 40
3.200000
  1
L
 50
0.000000
 41
1.052632
 51
0.000000
  7
STANDARD
  0
TEXT
  8
0
 10
-96.699989
 20
-37.080006
 40
3.200000
  1
P
 50
0.000000
 41
1.052632
 51
0.000000
  7
STANDARD
  0
TEXT
  8
0
 10
-87.099991
 20
-37.080006
 40
3.200000
  1
TYPE
 50
0.000000
 41
1.052632
 51
0.000000
  7
STANDARD
  0
TEXT
  8
0
 10
-64.699989
 20
-37.080006
 40
3.200000
  1
L
 50
0.000000
 41
1.052632
 51
0.000000
  7
STANDARD
  0
TEXT
  8
0
 10
-51.899994
 20
-37.080006
 40
3.200000
  1
P
 50
0.000000
 41
1.052632
 51
0.000000
  7
STANDARD
  0
TEXT
  8
0
 10
-55.849995
 20
-42.280003
 40
3.200000
  1
129.2
 50
0.000000
 41
0.756579
 51
0.000000
  7
STANDARD
  0
TEXT
  8
0
 10
-68.649994
 20
-42.280003
 40
3.200000
  1
136.2
 50
0.000000
 41
0.756579
 51
0.000000
  7
STANDARD
  0
TEXT
  8
0
 10
-99.499992
 20
-42.280003
 40
3.200000
  1
27.2
 50
0.000000
 41
0.756579
 51
0.000000
  7
STANDARD
  0
TEXT
  8
0
 10
-112.299995
 20
-42.280003
 40
3.200000
  1
34.2
 50
0.000000
 41
0.756579
 51
0.000000
  7
STANDARD
  0
TEXT
  8
0
 10
-55.849995
 20
-47.480003
 40
3.200000
  1
139.4
 50
0.000000
 41
0.756579
 51
0.000000
  7
STANDARD
  0
TEXT
  8
0
 10
-68.649994
 20
-47.480003
 40
3.200000
  1
146.4
 50
0.000000
 41
0.756579
 51
0.000000
  7
STANDARD
  0
TEXT
  8
0
 10
-99.499992
 20
-47.480003
 40
3.200000
  1
37.4
 50
0.000000
 41
0.756579
 51
0.000000
  7
STANDARD
  0
TEXT
  8
0
 10
-112.299995
 20
-47.480003
 40
3.200000
  1
44.4
 50
0.000000
 41
0.756579
 51
0.000000
  7
STANDARD
  0
TEXT
  8
0
 10
-130.750000
 20
-47.480003
 40
3.200000
  1
G010M3A
 50
0.000000
 41
0.756579
 51
0.000000
  7
STANDARD
  0
TEXT
  8
0
 10
-55.849995
 20
-52.680004
 40
3.200000
  1
149.6
 50
0.000000
 41
0.756579
 51
0.000000
  7
STANDARD
  0
TEXT
  8
0
 10
-68.649994
 20
-52.680004
 40
3.200000
  1
156.6
 50
0.000000
 41
0.756579
 51
0.000000
  7
STANDARD
  0
TEXT
  8
0
 10
-99.499992
 20
-52.680004
 40
3.200000
  1
47.6
 50
0.000000
 41
0.756579
 51
0.000000
  7
STANDARD
  0
TEXT
  8
0
 10
-112.299995
 20
-52.680004
 40
3.200000
  1
54.6
 50
0.000000
 41
0.756579
 51
0.000000
  7
STANDARD
  0
TEXT
  8
0
 10
-130.750000
 20
-52.680004
 40
3.200000
  1
G010M4A
 50
0.000000
 41
0.756579
 51
0.000000
  7
STANDARD
  0
TEXT
  8
0
 10
-55.849995
 20
-57.880005
 40
3.200000
  1
159.8
 50
0.000000
 41
0.756579
 51
0.000000
  7
STANDARD
  0
TEXT
  8
0
 10
-68.649994
 20
-57.880005
 40
3.200000
  1
166.8
 50
0.000000
 41
0.756579
 51
0.000000
  7
STANDARD
  0
TEXT
  8
0
 10
-99.499992
 20
-57.880005
 40
3.200000
  1
57.8
 50
0.000000
 41
0.756579
 51
0.000000
  7
STANDARD
  0
TEXT
  8
0
 10
-112.299995
 20
-57.880005
 40
3.200000
  1
64.8
 50
0.000000
 41
0.756579
 51
0.000000
  7
STANDARD
  0
TEXT
  8
0
 10
-130.750000
 20
-57.880005
 40
3.200000
  1
G010M5A
 50
0.000000
 41
0.756579
 51
0.000000
  7
STANDARD
  0
TEXT
  8
0
 10
-53.549992
 20
-63.080002
 40
3.200000
  1
170
 50
0.000000
 41
0.756579
 51
0.000000
  7
STANDARD
  0
TEXT
  8
0
 10
-66.349991
 20
-63.080002
 40
3.200000
  1
177
 50
0.000000
 41
0.756579
 51
0.000000
  7
STANDARD
  0
TEXT
  8
0
 10
-97.199989
 20
-63.080002
 40
3.200000
  1
68
 50
0.000000
 41
0.756579
 51
0.000000
  7
STANDARD
  0
TEXT
  8
0
 10
-109.999992
 20
-63.080002
 40
3.200000
  1
75
 50
0.000000
 41
0.756579
 51
0.000000
  7
STANDARD
  0
TEXT
  8
0
 10
-130.750000
 20
-63.080002
 40
3.200000
  1
G010M6A
 50
0.000000
 41
0.756579
 51
0.000000
  7
STANDARD
  0
TEXT
  8
0
 10
-55.849995
 20
-68.279999
 40
3.200000
  1
180.2
 50
0.000000
 41
0.756579
 51
0.000000
  7
STANDARD
  0
TEXT
  8
0
 10
-68.649994
 20
-68.279999
 40
3.200000
  1
187.2
 50
0.000000
 41
0.756579
 51
0.000000
  7
STANDARD
  0
TEXT
  8
0
 10
-99.499992
 20
-68.279999
 40
3.200000
  1
78.2
 50
0.000000
 41
0.756579
 51
0.000000
  7
STANDARD
  0
TEXT
  8
0
 10
-112.299995
 20
-68.279999
 40
3.200000
  1
85.2
 50
0.000000
 41
0.756579
 51
0.000000
  7
STANDARD
  0
TEXT
  8
0
 10
-130.750000
 20
-68.279999
 40
3.200000
  1
G010M7A
 50
0.000000
 41
0.756579
 51
0.000000
  7
STANDARD
  0
TEXT
  8
0
 10
-55.849995
 20
-73.480003
 40
3.200000
  1
190.4
 50
0.000000
 41
0.756579
 51
0.000000
  7
STANDARD
  0
TEXT
  8
0
 10
-68.649994
 20
-73.480003
 40
3.200000
  1
197.4
 50
0.000000
 41
0.756579
 51
0.000000
  7
STANDARD
  0
TEXT
  8
0
 10
-99.499992
 20
-73.480003
 40
3.200000
  1
88.4
 50
0.000000
 41
0.756579
 51
0.000000
  7
STANDARD
  0
TEXT
  8
0
 10
-112.299995
 20
-73.480003
 40
3.200000
  1
95.4
 50
0.000000
 41
0.756579
 51
0.000000
  7
STANDARD
  0
TEXT
  8
0
 10
-130.750000
 20
-73.480003
 40
3.200000
  1
G010M8A
 50
0.000000
 41
0.756579
 51
0.000000
  7
STANDARD
  0
TEXT
  8
0
 10
-55.849995
 20
-78.680000
 40
3.200000
  1
200.6
 50
0.000000
 41
0.756579
 51
0.000000
  7
STANDARD
  0
TEXT
  8
0
 10
-68.649994
 20
-78.680000
 40
3.200000
  1
207.6
 50
0.000000
 41
0.756579
 51
0.000000
  7
STANDARD
  0
TEXT
  8
0
 10
-99.499992
 20
-78.680000
 40
3.200000
  1
98.6
 50
0.000000
 41
0.756579
 51
0.000000
  7
STANDARD
  0
TEXT
  8
0
 10
-113.449997
 20
-78.680000
 40
3.200000
  1
105.6
 50
0.000000
 41
0.756579
 51
0.000000
  7
STANDARD
  0
TEXT
  8
0
 10
-130.750000
 20
-78.680000
 40
3.200000
  1
G010M9A
 50
0.000000
 41
0.756579
 51
0.000000
  7
STANDARD
  0
TEXT
  8
0
 10
-55.849995
 20
-83.879997
 40
3.200000
  1
210.8
 50
0.000000
 41
0.756579
 51
0.000000
  7
STANDARD
  0
TEXT
  8
0
 10
-68.649994
 20
-83.879997
 40
3.200000
  1
217.8
 50
0.000000
 41
0.756579
 51
0.000000
  7
STANDARD
  0
TEXT
  8
0
 10
-100.649994
 20
-83.879997
 40
3.200000
  1
108.8
 50
0.000000
 41
0.756579
 51
0.000000
  7
STANDARD
  0
TEXT
  8
0
 10
-113.449997
 20
-83.879997
 40
3.200000
  1
115.8
 50
0.000000
 41
0.756579
 51
0.000000
  7
STANDARD
  0
TEXT
  8
0
 10
-132.899994
 20
-83.879997
 40
3.200000
  1
G010M10A
 50
0.000000
 41
0.756579
 51
0.000000
  7
STANDARD
  0
TEXT
  8
0
 10
-98.349991
 20
-89.080002
 40
3.200000
  1
119
 50
0.000000
 41
0.756579
 51
0.000000
  7
STANDARD
  0
TEXT
  8
0
 10
-111.149994
 20
-89.080002
 40
3.200000
  1
126
 50
0.000000
 41
0.756579
 51
0.000000
  7
STANDARD
  0
TEXT
  8
0
 10
-132.899994
 20
-89.080002
 40
3.200000
  1
G010M11A
 50
0.000000
 41
0.756579
 51
0.000000
  7
STANDARD
  0
TEXT
  8
0
 10
76.207352
 20
-92.850006
 40
4.500000
  1
KOGANEI CORP.
 50
0.000000
 41
1.052632
 51
0.000000
  7
STANDARD
  0
TEXT
  8
0
 10
92.842865
 20
87.620003
 40
3.200000
  1
Ver. 1.0
 50
0.000000
 41
1.052632
 51
0.000000
  7
STANDARD
  0
TEXT
  8
0
 10
-123.707138
 20
87.620003
 40
3.200000
  1
G010 SERIES
 50
0.000000
 41
1.052632
 51
0.000000
  7
STANDARD
  0
TEXT
  8
0
 10
-130.207001
 20
72.620003
 40
3.200000
  1
MODEL:G010MA
 50
0.000000
 41
1.052632
 51
0.000000
  7
STANDARD
  0
LINE
  8
0
 62
     2
 10
34.886784
 20
-61.361752
 11
44.716431
 21
-44.336308
  0
LINE
  8
0
 62
     2
 10
44.716431
 20
-44.336308
 11
58.411221
 21
-44.336308
  0
LINE
  8
0
 62
     2
 10
34.886784
 20
-61.361752
 11
37.008102
 21
-59.240433
  0
LINE
  8
0
 62
     2
 10
34.886784
 20
-61.361752
 11
35.663242
 21
-58.463974
  0
TEXT
  8
0
 62
     2
 10
48.147221
 20
-43.336308
 40
3.200000
  1
-BP
 50
0.000000
 41
1.052632
 51
0.000000
  7
STANDARD
  0
LINE
  8
0
 62
     2
 10
29.391781
 20
-33.761753
 11
34.545372
 21
-24.835476
  0
LINE
  8
0
 62
     2
 10
34.545372
 20
-24.835476
 11
69.404427
 21
-24.835478
  0
LINE
  8
0
 62
     2
 10
29.391781
 20
-33.761753
 11
31.513102
 21
-31.640432
  0
LINE
  8
0
 62
     2
 10
29.391781
 20
-33.761753
 11
30.168240
 21
-30.863976
  0
TEXT
  8
0
 62
     2
 10
36.740425
 20
-23.835478
 40
3.200000
  1
GA010E1-PL  
 50
0.000000
 41
1.052632
 51
0.000000
  7
STANDARD
  0
LINE
  8
0
 62
     2
 10
14.491783
 20
-44.361752
 11
3.218283
 21
-24.835478
  0
LINE
  8
0
 62
     2
 10
3.218283
 20
-24.835478
 11
-32.044796
 21
-24.835478
  0
LINE
  8
0
 62
     2
 10
14.491783
 20
-44.361752
 11
13.715325
 21
-41.463974
  0
LINE
  8
0
 62
     2
 10
14.491783
 20
-44.361752
 11
12.370462
 21
-42.240433
  0
TEXT
  8
0
 62
     2
 10
-31.794796
 20
-23.835478
 40
3.200000
  1
GA010E1-PS  
 50
0.000000
 41
1.052632
 51
0.000000
  7
STANDARD
  0
LINE
  8
0
 62
     2
 10
-0.708216
 20
-43.361755
 11
-5.806964
 21
-34.530464
  0
LINE
  8
0
 62
     2
 10
-5.806964
 20
-34.530464
 11
-30.249447
 21
-34.530464
  0
LINE
  8
0
 62
     2
 10
-0.708216
 20
-43.361755
 11
-1.484673
 21
-40.463978
  0
LINE
  8
0
 62
     2
 10
-0.708216
 20
-43.361755
 11
-2.829536
 21
-41.240437
  0
TEXT
  8
0
 62
     2
 10
-29.999447
 20
-33.530464
 40
3.200000
  1
GA010E1  
 50
0.000000
 41
1.052632
 51
0.000000
  7
STANDARD
  0
TEXT
  8
0
 62
     2
 10
50.000973
 20
74.068245
 40
3.200000
  1
3.5
 50
0.000000
 41
1.052632
 51
0.000000
  7
STANDARD
  0
LINE
  8
0
 62
     2
 10
46.886784
 20
73.068245
 11
59.350971
 21
73.068245
  0
LINE
  8
0
 62
     2
 10
43.386784
 20
73.068245
 11
46.886784
 21
73.068245
  0
LINE
  8
0
 62
     2
 10
43.386784
 20
73.068245
 11
40.489006
 21
72.291786
  0
LINE
  8
0
 62
     2
 10
43.386784
 20
73.068245
 11
40.489006
 21
73.844704
  0
LINE
  8
0
 62
     2
 10
43.386784
 20
73.068245
 11
37.386784
 21
73.068245
  0
LINE
  8
0
 62
     2
 10
46.886784
 20
73.068245
 11
49.784561
 21
73.844704
  0
LINE
  8
0
 62
     2
 10
46.886784
 20
73.068245
 11
49.784561
 21
72.291786
  0
LINE
  8
0
 62
     2
 10
46.886784
 20
73.068245
 11
52.886784
 21
73.068245
  0
LINE
  8
0
 62
     2
 10
43.386784
 20
18.038248
 11
43.386784
 21
74.568245
  0
LINE
  8
0
 62
     2
 10
46.886784
 20
21.038248
 11
46.886784
 21
74.568245
  0
TEXT
  8
0
 62
     2
 10
-19.221283
 20
74.068245
 40
3.200000
  1
3.5
 50
0.000000
 41
1.052632
 51
0.000000
  7
STANDARD
  0
LINE
  8
0
 62
     2
 10
-7.708217
 20
73.068245
 11
-18.557283
 21
73.068245
  0
LINE
  8
0
 62
     2
 10
-7.708217
 20
73.068245
 11
-4.208217
 21
73.068245
  0
LINE
  8
0
 62
     2
 10
-7.708217
 20
73.068245
 11
-10.605994
 21
72.291786
  0
LINE
  8
0
 62
     2
 10
-7.708217
 20
73.068245
 11
-10.605994
 21
73.844704
  0
LINE
  8
0
 62
     2
 10
-7.708217
 20
73.068245
 11
-13.708217
 21
73.068245
  0
LINE
  8
0
 62
     2
 10
-4.208217
 20
73.068245
 11
-1.310439
 21
73.844704
  0
LINE
  8
0
 62
     2
 10
-4.208217
 20
73.068245
 11
-1.310439
 21
72.291786
  0
LINE
  8
0
 62
     2
 10
-4.208217
 20
73.068245
 11
1.791783
 21
73.068245
  0
LINE
  8
0
 62
     2
 10
-7.708217
 20
21.038248
 11
-7.708217
 21
74.568245
  0
LINE
  8
0
 62
     2
 10
-4.208217
 20
18.038248
 11
-4.208217
 21
74.568245
  0
TEXT
  8
0
 62
     2
 10
17.782284
 20
74.068245
 40
3.200000
  1
P
 50
0.000000
 41
1.052632
 51
0.000000
  7
STANDARD
  0
LINE
  8
0
 62
     2
 10
-4.208217
 20
73.068245
 11
43.386784
 21
73.068245
  0
LINE
  8
0
 62
     2
 10
-4.208217
 20
73.068245
 11
-1.310439
 21
73.844704
  0
LINE
  8
0
 62
     2
 10
-4.208217
 20
73.068245
 11
-1.310439
 21
72.291786
  0
LINE
  8
0
 62
     2
 10
43.386784
 20
73.068245
 11
40.489006
 21
72.291786
  0
LINE
  8
0
 62
     2
 10
43.386784
 20
73.068245
 11
40.489006
 21
73.844704
  0
LINE
  8
0
 62
     2
 10
-4.208217
 20
18.038248
 11
-4.208217
 21
74.568245
  0
LINE
  8
0
 62
     2
 10
43.386784
 20
18.038248
 11
43.386784
 21
74.568245
  0
TEXT
  8
0
 62
     2
 10
17.782284
 20
82.068245
 40
3.200000
  1
L
 50
0.000000
 41
1.052632
 51
0.000000
  7
STANDARD
  0
LINE
  8
0
 62
     2
 10
-7.708217
 20
81.068245
 11
46.886784
 21
81.068245
  0
LINE
  8
0
 62
     2
 10
-7.708217
 20
81.068245
 11
-4.810439
 21
81.844704
  0
LINE
  8
0
 62
     2
 10
-7.708217
 20
81.068245
 11
-4.810439
 21
80.291786
  0
LINE
  8
0
 62
     2
 10
46.886784
 20
81.068245
 11
43.989006
 21
80.291786
  0
LINE
  8
0
 62
     2
 10
46.886784
 20
81.068245
 11
43.989006
 21
81.844704
  0
LINE
  8
0
 62
     2
 10
-7.708217
 20
21.038248
 11
-7.708217
 21
82.568245
  0
LINE
  8
0
 62
     2
 10
46.886784
 20
21.038248
 11
46.886784
 21
82.568245
  0
ENDSEC
  0
EOF
