  0
SECTION
  2
HEADER
  0
ENDSEC
  0
SECTION
  2
TABLES
  0
TABLE
  2
LTYPE
 70
     4
  0
LTYPE
  2
CONTINUOUS
 70
    64
  3
Solid line
 72
    65
 73
     0
 40
0.000000
  0
LTYPE
  2
DASHED
 70
    64
  3
__ __ __ __ __ __ __ __ __ __ __ __ __ __ __
 72
    65
 73
     2
 40
3.500000
 49
2.000000
 49
-1.500000
  0
LTYPE
  2
CENTER
 70
    64
  3
____ _ ____ _ ____ _ ____ _ ____ _ ____ _ ____
 72
    65
 73
     4
 40
17.500000
 49
13.000000
 49
-1.500000
 49
1.500000
 49
-1.500000
  0
LTYPE
  2
PHANTOM
 70
    64
  3
_____ _ _ _____ _ _ _____ _ _ _____ _ _ ____  
 72
    65
 73
     6
 40
15.500000
 49
8.000000
 49
-1.500000
 49
1.500000
 49
-1.500000
 49
1.500000
 49
-1.500000
  0
LTYPE
  2
DASHED1
 70
    64
  3
__ __ __ __ __ __ __ __ __ __ __ __ __ __ __
 72
    65
 73
     2
 40
1.500000
 49
1.000000
 49
-0.500000
  0
LTYPE
  2
DASHED2
 70
    64
  3
__ __ __ __ __ __ __ __ __ __ __ __ __ __ __
 72
    65
 73
     2
 40
3.500000
 49
2.500000
 49
-1.000000
  0
LTYPE
  2
DASHED3
 70
    64
  3
__ __ __ __ __ __ __ __ __ __ __ __ __ __ __
 72
    65
 73
     2
 40
6.000000
 49
4.000000
 49
-2.000000
  0
LTYPE
  2
DASHED4
 70
    64
  3
__ __ __ __ __ __ __ __ __ __ __ __ __ __ __
 72
    65
 73
     2
 40
12.000000
 49
10.000000
 49
-2.000000
  0
LTYPE
  2
DASHED5
 70
    64
  3
__ __ __ __ __ __ __ __ __ __ __ __ __ __ __
 72
    65
 73
     2
 40
17.000000
 49
15.000000
 49
-2.000000
  0
LTYPE
  2
DASHED6
 70
    64
  3
__ __ __ __ __ __ __ __ __ __ __ __ __ __ __
 72
    65
 73
     2
 40
29.000000
 49
27.000000
 49
-2.000000
  0
LTYPE
  2
PHANTOM1
 70
    64
  3
_____ _ _ _____ _ _ _____ _ _ _____ _ _ ____  
 72
    65
 73
     6
 40
31.000000
 49
25.000000
 49
-1.500000
 49
1.000000
 49
-1.000000
 49
1.000000
 49
-1.500000
  0
LTYPE
  2
PHANTOM2
 70
    64
  3
_____ _ _ _____ _ _ _____ _ _ _____ _ _ ____  
 72
    65
 73
     6
 40
36.000000
 49
27.000000
 49
-1.500000
 49
2.500000
 49
-1.000000
 49
2.500000
 49
-1.500000
  0
LTYPE
  2
PHANTOM3
 70
    64
  3
_____ _ _ _____ _ _ _____ _ _ _____ _ _ ____  
 72
    65
 73
     6
 40
78.000000
 49
64.000000
 49
-2.000000
 49
4.000000
 49
-2.000000
 49
4.000000
 49
-2.000000
  0
LTYPE
  2
CENTER1
 70
    64
  3
____ _ ____ _ ____ _ ____ _ ____ _ ____ _ ____
 72
    65
 73
     4
 40
19.000000
 49
14.000000
 49
-1.000000
 49
3.000000
 49
-1.000000
  0
LTYPE
  2
CENTER2
 70
    64
  3
____ _ ____ _ ____ _ ____ _ ____ _ ____ _ ____
 72
    65
 73
     4
 40
28.500000
 49
25.000000
 49
-1.000000
 49
1.500000
 49
-1.000000
  0
LTYPE
  2
CENTER3
 70
    64
  3
____ _ ____ _ ____ _ ____ _ ____ _ ____ _ ____
 72
    65
 73
     4
 40
31.500000
 49
27.000000
 49
-1.000000
 49
2.500000
 49
-1.000000
  0
LTYPE
  2
CENTER4
 70
    64
  3
____ _ ____ _ ____ _ ____ _ ____ _ ____ _ ____
 72
    65
 73
     4
 40
50.000000
 49
45.000000
 49
-1.000000
 49
3.000000
 49
-1.000000
  0
LTYPE
  2
CENTER5
 70
    64
  3
____ _ ____ _ ____ _ ____ _ ____ _ ____ _ ____
 72
    65
 73
     4
 40
100.000000
 49
92.000000
 49
-2.000000
 49
4.000000
 49
-2.000000
  0
LTYPE
  2
SBK1
 70
    64
  3
______ _ _ _ ______ _ _ _ ______ _ _ _ _____  
 72
    65
 73
     8
 40
60.500000
 49
45.000000
 49
-2.000000
 49
2.500000
 49
-2.000000
 49
2.500000
 49
-2.000000
 49
2.500000
 49
-2.000000
  0
LTYPE
  2
SBK2
 70
    64
  3
______ _ _ _ ______ _ _ _ ______ _ _ _ _____  
 72
    65
 73
     8
 40
84.000000
 49
64.000000
 49
-2.000000
 49
4.000000
 49
-2.000000
 49
4.000000
 49
-2.000000
 49
4.000000
 49
-2.000000
  0
LTYPE
  2
STCH
 70
    64
  3
__ __ __ __ __ __ __ __ __ __ __ __ __ __ __
 72
    65
 73
     2
 40
3.000000
 49
1.000000
 49
-2.000000
  0
LTYPE
  2
MTCH
 70
    64
  3
_____ _ _ _____ _ _ _____ _ _ _____ _ _ ____  
 72
    65
 73
     6
 40
80.000000
 49
66.000000
 49
-2.000000
 49
4.000000
 49
-2.000000
 49
4.000000
 49
-2.000000
  0
ENDTAB
  0
TABLE
  2
LAYER
 70
     1
  0
LAYER
  2
0
 70
     0
 62
     7
  6
CONTINUOUS
  0
ENDTAB
  0
TABLE
  2
STYLE
 70
     1
  0
STYLE
  2
STANDARD
 70
     0
 40
0.000000
 41
1.000000
 50
0.000000
 71
     0
 42
0.200000
  3
txt
  4
BIGFONT
  0
ENDTAB
  0
TABLE
  2
VIEW
 70
     0
  0
ENDTAB
  0
ENDSEC
  0
SECTION
  2
BLOCKS
  0
ENDSEC
  0
SECTION
  2
ENTITIES
  0
LINE
  8
0
 62
     4
 10
23.614677
 20
-61.793121
 11
33.614677
 21
-61.793121
  0
LINE
  8
0
 62
     4
 10
23.614677
 20
-61.793121
 11
23.614677
 21
-63.393120
  0
LINE
  8
0
 62
     4
 10
33.614677
 20
-61.793121
 11
33.614677
 21
-63.393120
  0
LINE
  8
0
 62
     4
 10
24.214676
 20
-61.193119
 11
26.014675
 21
-61.193119
  0
LINE
  8
0
 62
     4
 10
31.214676
 20
-61.193119
 11
33.014675
 21
-61.193119
  0
LINE
  8
0
  6
CENTER
 62
     2
 10
28.614677
 20
-60.290588
 11
28.614677
 21
-65.664345
  0
LINE
  8
0
 62
     1
 10
22.755955
 20
-29.507826
 11
13.958862
 21
-27.143608
  0
LINE
  8
0
 62
     1
 10
22.755957
 20
-30.537830
 11
13.958863
 21
-28.173611
  0
LINE
  8
0
 62
     4
 10
21.319675
 20
-18.763119
 11
20.519676
 21
-18.763119
  0
LINE
  8
0
 62
     4
 10
21.639675
 20
-23.763119
 11
20.209679
 21
-23.763119
  0
LINE
  8
0
 62
     4
 10
20.519676
 20
-23.763119
 11
20.519676
 21
-18.763119
  0
LINE
  8
0
 62
     4
 10
21.319675
 20
-23.763119
 11
21.319675
 21
-18.763119
  0
LINE
  8
0
 62
     4
 10
21.639675
 20
-34.193119
 11
21.639675
 21
-30.237827
  0
LINE
  8
0
 62
     4
 10
20.209679
 20
-34.193119
 11
20.209679
 21
-29.853516
  0
LINE
  8
0
 62
     4
 10
20.209679
 20
-28.823517
 11
20.209679
 21
-23.763119
  0
LINE
  8
0
 62
     4
 10
21.639675
 20
-29.207829
 11
21.639675
 21
-23.763119
  0
LINE
  8
0
 62
     4
 10
15.519677
 20
-18.763119
 11
16.319675
 21
-18.763119
  0
LINE
  8
0
 62
     4
 10
15.199677
 20
-23.763119
 11
16.629677
 21
-23.763119
  0
LINE
  8
0
 62
     4
 10
16.319675
 20
-23.763119
 11
16.319675
 21
-18.763119
  0
LINE
  8
0
 62
     4
 10
15.519677
 20
-23.763119
 11
15.519677
 21
-18.763119
  0
LINE
  8
0
 62
     4
 10
16.559677
 20
-34.193119
 11
16.559677
 21
-28.872578
  0
LINE
  8
0
 62
     4
 10
15.129678
 20
-34.193119
 11
15.129678
 21
-28.488266
  0
LINE
  8
0
 62
     4
 10
15.129678
 20
-27.458267
 11
15.129678
 21
-23.763119
  0
LINE
  8
0
 62
     4
 10
16.559677
 20
-27.842579
 11
16.559677
 21
-23.763119
  0
LINE
  8
0
 62
     4
 10
13.719678
 20
-34.904446
 11
23.119675
 21
-34.904446
  0
LINE
  8
0
 62
     4
 10
13.719678
 20
-35.193119
 11
23.119675
 21
-35.193119
  0
LINE
  8
0
 62
     4
 10
14.319676
 20
-39.193119
 11
14.319676
 21
-39.293121
  0
LINE
  8
0
 62
     4
 10
22.519676
 20
-39.193119
 11
22.519676
 21
-39.293121
  0
LINE
  8
0
 62
     4
 10
13.719678
 20
-34.193119
 11
13.719678
 21
-39.193119
  0
LINE
  8
0
 62
     4
 10
23.119675
 20
-34.193119
 11
23.119675
 21
-39.193119
  0
LINE
  8
0
 62
     4
 10
13.719678
 20
-34.193119
 11
23.119675
 21
-34.193119
  0
LINE
  8
0
 62
     4
 10
13.719678
 20
-39.193119
 11
23.119675
 21
-39.193119
  0
LINE
  8
0
 62
     4
 10
13.419677
 20
-39.293121
 11
23.419678
 21
-39.293121
  0
LINE
  8
0
 10
-13.980323
 20
-78.393120
 11
40.614677
 21
-78.393120
  0
LINE
  8
0
 10
40.614677
 20
-78.393120
 11
40.614677
 21
-64.393120
  0
LINE
  8
0
 10
-13.980323
 20
-78.393120
 11
-13.980323
 21
-64.393120
  0
LINE
  8
0
 62
     4
 10
-5.530323
 20
-38.903118
 11
-5.530323
 21
-35.593121
  0
LINE
  8
0
 62
     4
 10
-4.230323
 20
-39.253120
 11
-4.230323
 21
-35.593121
  0
LINE
  8
0
 62
     4
 10
-4.230323
 20
-35.593121
 11
-5.530323
 21
-35.593121
  0
LINE
  8
0
 62
     4
 10
-4.630323
 20
-31.593121
 11
-5.130323
 21
-31.593121
  0
LINE
  8
0
 62
     4
 10
-4.630323
 20
-35.593121
 11
-4.630323
 21
-31.593121
  0
LINE
  8
0
 62
     4
 10
-5.130323
 20
-35.593121
 11
-5.130323
 21
-31.593121
  0
LINE
  8
0
 62
     4
 10
-4.230323
 20
-43.793121
 11
-4.230323
 21
-40.293121
  0
LINE
  8
0
 62
     4
 10
-5.530323
 20
-43.793121
 11
-5.530323
 21
-39.943119
  0
LINE
  8
0
 62
     1
 10
-3.280323
 20
-40.543118
 11
-6.480323
 21
-39.683117
  0
LINE
  8
0
 62
     1
 10
-3.280323
 20
-39.513123
 11
-6.480323
 21
-38.653122
  0
LINE
  8
0
 62
     4
 10
1.569677
 20
-43.793121
 11
1.569677
 21
-40.293121
  0
LINE
  8
0
 62
     4
 10
0.269677
 20
-43.793121
 11
0.269677
 21
-39.943119
  0
LINE
  8
0
 62
     1
 10
2.519677
 20
-40.543118
 11
-0.680323
 21
-39.683117
  0
LINE
  8
0
 62
     1
 10
2.519677
 20
-39.513119
 11
-0.680323
 21
-38.653118
  0
LINE
  8
0
 62
     4
 10
0.669677
 20
-35.593121
 11
0.669677
 21
-31.593121
  0
LINE
  8
0
 62
     4
 10
1.169677
 20
-35.593121
 11
1.169677
 21
-31.593121
  0
LINE
  8
0
 62
     4
 10
1.169677
 20
-31.593121
 11
0.669677
 21
-31.593121
  0
LINE
  8
0
 62
     4
 10
1.569677
 20
-35.593121
 11
0.269677
 21
-35.593121
  0
LINE
  8
0
 62
     4
 10
1.569677
 20
-39.253120
 11
1.569677
 21
-35.593121
  0
LINE
  8
0
 62
     4
 10
0.269677
 20
-38.903118
 11
0.269677
 21
-35.593121
  0
LINE
  8
0
 62
     4
 10
-6.980323
 20
-43.793121
 11
3.019677
 21
-43.793121
  0
LINE
  8
0
  6
CENTER
 62
     2
 10
-1.980323
 20
-42.421703
 11
-1.980323
 21
-65.664345
  0
LINE
  8
0
 10
-6.980323
 20
-46.793121
 11
3.019677
 21
-46.793121
  0
LINE
  8
0
 10
-2.253656
 20
-62.693119
 11
-2.253656
 21
-63.693119
  0
LINE
  8
0
 10
-1.706989
 20
-62.693119
 11
-1.706989
 21
-63.693119
  0
LINE
  8
0
 10
-1.706989
 20
-62.693119
 11
0.719677
 21
-62.693119
  0
LINE
  8
0
 10
-4.880323
 20
-62.893120
 11
-4.880323
 21
-63.693119
  0
LINE
  8
0
 10
0.919677
 20
-62.893120
 11
0.919677
 21
-63.693119
  0
LINE
  8
0
 10
-4.680323
 20
-62.693119
 11
-2.253656
 21
-62.693119
  0
LINE
  8
0
 10
-4.280323
 20
-61.593121
 11
-4.280323
 21
-62.693119
  0
LINE
  8
0
 10
0.319677
 20
-61.593121
 11
0.319677
 21
-62.693119
  0
LINE
  8
0
 10
-6.980323
 20
-44.793121
 11
3.019677
 21
-44.793121
  0
LINE
  8
0
 10
-1.633656
 20
-61.593121
 11
-1.633656
 21
-62.693119
  0
LINE
  8
0
 10
-1.780323
 20
-61.593121
 11
-1.780323
 21
-63.693119
  0
LINE
  8
0
 10
-2.180323
 20
-61.593121
 11
-2.180323
 21
-63.693119
  0
LINE
  8
0
 10
-2.326990
 20
-61.593121
 11
-2.326990
 21
-62.693119
  0
LINE
  8
0
 10
-6.280323
 20
-63.393120
 11
-6.280323
 21
-61.893120
  0
LINE
  8
0
 10
2.319677
 20
-63.393120
 11
2.319677
 21
-61.893120
  0
LINE
  8
0
 10
-5.980323
 20
-61.593121
 11
2.019677
 21
-61.593121
  0
LINE
  8
0
 10
-5.980323
 20
-63.693119
 11
2.019677
 21
-63.693119
  0
LINE
  8
0
 10
3.019677
 20
-64.393120
 11
3.019677
 21
-44.793121
  0
LINE
  8
0
 10
-6.980323
 20
-64.393120
 11
-6.980323
 21
-44.793121
  0
LINE
  8
0
 10
-13.980323
 20
-64.393120
 11
40.614677
 21
-64.393120
  0
LINE
  8
0
  6
CENTER
 62
     2
 10
8.219678
 20
-44.213001
 11
8.219678
 21
-65.664345
  0
LINE
  8
0
 10
3.219677
 20
-46.793121
 11
13.219678
 21
-46.793121
  0
LINE
  8
0
 10
7.946343
 20
-62.693119
 11
7.946343
 21
-63.693119
  0
LINE
  8
0
 10
8.493011
 20
-62.693119
 11
8.493011
 21
-63.693119
  0
LINE
  8
0
 10
8.493011
 20
-62.693119
 11
10.919677
 21
-62.693119
  0
LINE
  8
0
 10
5.319677
 20
-62.893120
 11
5.319677
 21
-63.693119
  0
LINE
  8
0
 10
11.119678
 20
-62.893120
 11
11.119678
 21
-63.693119
  0
LINE
  8
0
 10
5.519677
 20
-62.693119
 11
7.946343
 21
-62.693119
  0
LINE
  8
0
 10
5.919677
 20
-61.593121
 11
5.919677
 21
-62.693119
  0
LINE
  8
0
 10
10.519677
 20
-61.593121
 11
10.519677
 21
-62.693119
  0
LINE
  8
0
 10
3.219677
 20
-44.793121
 11
13.219678
 21
-44.793121
  0
LINE
  8
0
 10
8.566344
 20
-61.593121
 11
8.566344
 21
-62.693119
  0
LINE
  8
0
 10
8.419677
 20
-61.593121
 11
8.419677
 21
-63.693119
  0
LINE
  8
0
 10
8.019677
 20
-61.593121
 11
8.019677
 21
-63.693119
  0
LINE
  8
0
 10
7.873010
 20
-61.593121
 11
7.873010
 21
-62.693119
  0
LINE
  8
0
 10
3.919677
 20
-63.393120
 11
3.919677
 21
-61.893120
  0
LINE
  8
0
 10
12.519677
 20
-63.393120
 11
12.519677
 21
-61.893120
  0
LINE
  8
0
 10
4.219677
 20
-61.593121
 11
12.219678
 21
-61.593121
  0
LINE
  8
0
 10
4.219677
 20
-63.693119
 11
12.219678
 21
-63.693119
  0
LINE
  8
0
 10
13.219678
 20
-64.393120
 11
13.219678
 21
-44.793121
  0
LINE
  8
0
 10
3.219677
 20
-64.393120
 11
3.219677
 21
-44.793121
  0
LINE
  8
0
 10
13.419677
 20
-64.393120
 11
13.419677
 21
-44.793121
  0
LINE
  8
0
 10
23.419678
 20
-64.393120
 11
23.419678
 21
-44.793121
  0
LINE
  8
0
 10
14.419677
 20
-63.693119
 11
22.419678
 21
-63.693119
  0
LINE
  8
0
 10
14.419677
 20
-61.593121
 11
22.419678
 21
-61.593121
  0
LINE
  8
0
 10
22.719677
 20
-63.393120
 11
22.719677
 21
-61.893120
  0
LINE
  8
0
 10
14.119678
 20
-63.393120
 11
14.119678
 21
-61.893120
  0
LINE
  8
0
 10
18.073009
 20
-61.593121
 11
18.073009
 21
-62.693119
  0
LINE
  8
0
 10
18.219677
 20
-61.593121
 11
18.219677
 21
-63.693119
  0
LINE
  8
0
 10
18.619678
 20
-61.593121
 11
18.619678
 21
-63.693119
  0
LINE
  8
0
 10
18.766346
 20
-61.593121
 11
18.766346
 21
-62.693119
  0
LINE
  8
0
 10
13.419677
 20
-44.793121
 11
23.419678
 21
-44.793121
  0
LINE
  8
0
 10
20.719677
 20
-61.593121
 11
20.719677
 21
-62.693119
  0
LINE
  8
0
 10
16.119678
 20
-61.593121
 11
16.119678
 21
-62.693119
  0
LINE
  8
0
 10
15.719678
 20
-62.693119
 11
18.146343
 21
-62.693119
  0
LINE
  8
0
 10
21.319675
 20
-62.893120
 11
21.319675
 21
-63.693119
  0
LINE
  8
0
 10
15.519677
 20
-62.893120
 11
15.519677
 21
-63.693119
  0
LINE
  8
0
 10
18.693012
 20
-62.693119
 11
21.119678
 21
-62.693119
  0
LINE
  8
0
 10
18.693012
 20
-62.693119
 11
18.693012
 21
-63.693119
  0
LINE
  8
0
 10
18.146343
 20
-62.693119
 11
18.146343
 21
-63.693119
  0
LINE
  8
0
 10
13.419677
 20
-46.793121
 11
23.419678
 21
-46.793121
  0
LINE
  8
0
  6
CENTER
 62
     2
 10
18.419678
 20
-33.131882
 11
18.419678
 21
-65.664345
  0
LINE
  8
0
 10
33.614666
 20
-63.393097
 11
33.614666
 21
-64.393097
  0
LINE
  8
0
 62
     4
 10
33.614666
 20
-63.393097
 11
23.614666
 21
-63.393097
  0
LINE
  8
0
 10
23.614666
 20
-64.393097
 11
33.614666
 21
-64.393097
  0
LINE
  8
0
 10
23.614666
 20
-63.393097
 11
23.614666
 21
-64.393097
  0
LINE
  8
0
 62
     4
 10
23.419678
 20
-44.793121
 11
23.419678
 21
-39.293121
  0
LINE
  8
0
 62
     4
 10
13.419677
 20
-44.793121
 11
13.419677
 21
-39.293121
  0
LINE
  8
0
 62
     4
 10
3.019677
 20
-44.793121
 11
3.019677
 21
-43.793121
  0
LINE
  8
0
 62
     4
 10
-6.980323
 20
-44.793121
 11
-6.980323
 21
-43.793121
  0
LINE
  8
0
  6
CENTER
 62
     2
 10
-10.480323
 20
-76.320862
 11
-10.480323
 21
-80.564453
  0
LINE
  8
0
  6
CENTER
 62
     2
 10
37.114677
 20
-80.564453
 11
37.114677
 21
-76.320862
  0
LINE
  8
0
 62
     4
 10
-51.180325
 20
20.805254
 11
-51.180325
 21
19.505253
  0
LINE
  8
0
 62
     4
 10
-64.880325
 20
20.805254
 11
-64.880325
 21
21.255253
  0
LINE
  8
0
 62
     4
 10
-64.880325
 20
15.955254
 11
-64.880325
 21
19.505253
  0
LINE
  8
0
 62
     4
 10
-64.780319
 20
15.955254
 11
-60.780323
 21
15.955254
  0
LINE
  8
0
 62
     4
 10
-60.780323
 20
21.055010
 11
-60.780323
 21
22.255253
  0
LINE
  8
0
 62
     4
 10
-64.780319
 20
19.505253
 11
-64.780319
 21
15.955254
  0
LINE
  8
0
 62
     4
 10
-60.780323
 20
21.055010
 11
-62.196758
 21
20.805254
  0
LINE
  8
0
 62
     4
 10
-68.314301
 20
21.755253
 11
-61.780323
 21
21.755253
  0
LINE
  8
0
 62
     4
 10
-59.780323
 20
15.455254
 11
-59.780323
 21
19.505253
  0
LINE
  8
0
 62
     4
 10
-64.880325
 20
16.655254
 11
-64.780319
 21
16.655254
  0
LINE
  8
0
 62
     4
 10
-69.180321
 20
21.255253
 11
-68.314301
 21
21.755257
  0
LINE
  8
0
 62
     4
 10
-61.491650
 20
22.255253
 11
-60.780323
 21
22.255253
  0
LINE
  8
0
 62
     4
 10
-61.780327
 20
21.755251
 11
-61.491650
 21
22.255251
  0
LINE
  8
0
 62
     4
 10
-60.491650
 20
15.455254
 11
-59.780323
 21
15.455254
  0
LINE
  8
0
 62
     4
 10
-60.780327
 20
15.955255
 11
-60.491650
 21
15.455256
  0
LINE
  8
0
 62
     1
 10
-55.323044
 20
16.892557
 11
-54.684719
 21
19.286268
  0
LINE
  8
0
 62
     1
 10
-54.106255
 20
16.805519
 11
-53.449265
 21
19.269232
  0
LINE
  8
0
 62
     4
 10
-53.920322
 20
17.505253
 11
-49.350323
 21
17.505253
  0
LINE
  8
0
 62
     4
 10
-53.540325
 20
18.935253
 11
-49.350323
 21
18.935253
  0
LINE
  8
0
 62
     4
 10
-49.350323
 20
18.615253
 11
-44.350323
 21
18.615253
  0
LINE
  8
0
 62
     4
 10
-49.350323
 20
17.815254
 11
-44.350323
 21
17.815254
  0
LINE
  8
0
 62
     4
 10
-49.350323
 20
18.935253
 11
-49.350323
 21
17.505253
  0
LINE
  8
0
 62
     4
 10
-59.780323
 20
18.935253
 11
-54.780323
 21
18.935253
  0
LINE
  8
0
 62
     4
 10
-59.780323
 20
17.505253
 11
-55.160324
 21
17.505253
  0
LINE
  8
0
 62
     4
 10
-44.350323
 20
18.615253
 11
-44.350323
 21
17.815254
  0
LINE
  8
0
 62
     4
 10
-64.880325
 20
21.255253
 11
-69.380325
 21
21.255253
  0
LINE
  8
0
 62
     4
 10
-64.880325
 20
15.955254
 11
-70.380325
 21
15.955254
  0
LINE
  8
0
 62
     4
 10
-75.620323
 20
64.985252
 11
-76.420326
 21
64.985252
  0
LINE
  8
0
 62
     4
 10
-76.730324
 20
44.555252
 11
-76.730324
 21
50.030922
  0
LINE
  8
0
 62
     4
 10
-75.300323
 20
44.555252
 11
-75.300323
 21
49.697254
  0
LINE
  8
0
 62
     4
 10
-75.300323
 20
54.985252
 11
-76.730324
 21
54.985252
  0
LINE
  8
0
 62
     4
 10
-76.420326
 20
54.985252
 11
-76.420326
 21
64.985252
  0
LINE
  8
0
 62
     4
 10
-75.620323
 20
54.985252
 11
-75.620323
 21
64.985252
  0
LINE
  8
0
 62
     4
 10
-75.300323
 20
50.937252
 11
-75.300323
 21
54.985252
  0
LINE
  8
0
 62
     4
 10
-76.730324
 20
51.270920
 11
-76.730324
 21
54.985252
  0
LINE
  8
0
 62
     1
 10
-79.020325
 20
51.805252
 11
-73.020325
 21
50.405251
  0
LINE
  8
0
 62
     1
 10
-79.020325
 20
50.565250
 11
-73.020325
 21
49.165253
  0
LINE
  8
0
 62
     4
 10
-72.980324
 20
39.455254
 11
-78.280319
 21
39.455254
  0
LINE
  8
0
 62
     4
 10
-78.280319
 20
43.555252
 11
-78.780319
 21
43.843929
  0
LINE
  8
0
 62
     4
 10
-78.780319
 20
43.843929
 11
-78.780319
 21
44.555252
  0
LINE
  8
0
 62
     4
 10
-72.480324
 20
42.555256
 11
-71.980324
 21
42.843933
  0
LINE
  8
0
 62
     4
 10
-71.980324
 20
42.843929
 11
-71.980324
 21
43.555252
  0
LINE
  8
0
 62
     4
 10
-72.980316
 20
35.155251
 11
-72.480316
 21
36.021275
  0
LINE
  8
0
 62
     4
 10
-78.780319
 20
44.555252
 11
-73.480324
 21
44.555252
  0
LINE
  8
0
 62
     4
 10
-72.480324
 20
36.021278
 11
-72.480324
 21
42.555252
  0
LINE
  8
0
 62
     4
 10
-73.180313
 20
43.555252
 11
-73.480316
 21
41.853870
  0
LINE
  8
0
  6
PHANTOM
 62
     4
 10
-73.480324
 20
40.355255
 11
-73.480324
 21
41.853867
  0
LINE
  8
0
 62
     4
 10
-73.180328
 20
43.555252
 11
-72.980324
 21
43.555252
  0
LINE
  8
0
 62
     4
 10
-73.480324
 20
39.455254
 11
-73.480324
 21
44.555252
  0
LINE
  8
0
 62
     4
 10
-73.480324
 20
39.555252
 11
-78.280319
 21
39.555252
  0
LINE
  8
0
 62
     4
 10
-72.980324
 20
43.555252
 11
-71.980324
 21
43.555252
  0
LINE
  8
0
 62
     4
 10
-78.280319
 20
39.555252
 11
-78.280319
 21
43.555252
  0
LINE
  8
0
 62
     4
 10
-77.580322
 20
39.455254
 11
-77.580322
 21
39.555252
  0
LINE
  8
0
 62
     4
 10
-74.480324
 20
39.455254
 11
-74.480324
 21
39.555252
  0
LINE
  8
0
 62
     4
 10
-78.280319
 20
33.455254
 11
-78.280319
 21
39.455254
  0
LINE
  8
0
 62
     4
 10
-72.980324
 20
33.455254
 11
-72.980324
 21
39.455254
  0
LINE
  8
0
  6
CENTER
 62
     2
 10
-82.980324
 20
-0.329752
 11
-82.980324
 21
35.591309
  0
LINE
  8
0
 62
     4
 10
-76.280319
 20
31.955254
 11
-88.780327
 21
31.955254
  0
LINE
  8
0
 10
-89.080322
 20
33.455254
 11
-88.780334
 21
33.155258
  0
LINE
  8
0
 10
-70.980324
 20
15.955254
 11
-70.980324
 21
15.855253
  0
LINE
  8
0
 10
-70.380325
 20
15.357175
 11
-70.380325
 21
15.855253
  0
LINE
  8
0
 10
-74.980324
 20
14.546072
 11
-70.380325
 21
15.357177
  0
LINE
  8
0
 10
-76.280319
 20
15.855253
 11
-70.380325
 21
15.855253
  0
LINE
  8
0
 10
-79.180328
 20
2.155253
 11
-86.780319
 21
2.155253
  0
LINE
  8
0
 10
-89.980324
 20
33.455254
 11
-89.080322
 21
33.455254
  0
LINE
  8
0
 10
-89.980324
 20
1.455254
 11
-72.380325
 21
1.455254
  0
LINE
  8
0
 10
-89.980324
 20
33.455254
 11
-89.980324
 21
0.955254
  0
LINE
  8
0
 10
-74.980324
 20
7.855253
 11
-74.980324
 21
14.546071
  0
LINE
  8
0
 10
-79.180328
 20
2.955254
 11
-86.780319
 21
2.955254
  0
LINE
  8
0
 10
-79.180328
 20
2.955254
 11
-79.180328
 21
2.155253
  0
LINE
  8
0
 10
-86.780319
 20
2.155253
 11
-86.780319
 21
2.955254
  0
LINE
  8
0
 62
     4
 10
-69.580322
 20
18.155254
 11
-70.380325
 21
18.155254
  0
LINE
  8
0
 62
     4
 10
-69.380325
 20
18.355253
 11
-69.380325
 21
21.955254
  0
LINE
  8
0
 62
     4
 10
-69.580322
 20
22.155254
 11
-70.380325
 21
22.155254
  0
LINE
  8
0
 62
     4
 10
-76.280319
 20
15.955254
 11
-70.380325
 21
15.955254
  0
LINE
  8
0
 62
     4
 10
-88.780327
 20
33.455254
 11
-88.780327
 21
31.955254
  0
LINE
  8
0
 62
     4
 10
-70.380325
 20
15.955254
 11
-70.380325
 21
33.155254
  0
LINE
  8
0
 62
     4
 10
-76.280319
 20
31.955254
 11
-76.280319
 21
15.855253
  0
LINE
  8
0
 62
     4
 10
-88.780327
 20
33.455254
 11
-70.680328
 21
33.455254
  0
LINE
  8
0
 10
-75.980324
 20
8.355253
 11
-75.980324
 21
11.555254
  0
LINE
  8
0
 10
-74.980324
 20
11.555254
 11
-75.980324
 21
11.555254
  0
LINE
  8
0
 10
-74.980324
 20
8.355253
 11
-75.980324
 21
8.355253
  0
LINE
  8
0
 62
     4
 10
-69.380325
 20
19.505253
 11
-55.880325
 21
19.505253
  0
LINE
  8
0
 62
     4
 10
-69.380325
 20
20.805254
 11
-55.530323
 21
20.805254
  0
LINE
  8
0
 62
     1
 10
-54.929401
 20
19.191246
 11
-54.375278
 21
21.253090
  0
LINE
  8
0
 62
     1
 10
-55.953156
 20
19.214489
 11
-55.418903
 21
21.202398
  0
LINE
  8
0
 62
     4
 10
-47.180325
 20
20.405254
 11
-47.180325
 21
19.905254
  0
LINE
  8
0
 62
     4
 10
-51.180325
 20
20.405254
 11
-47.180325
 21
20.405254
  0
LINE
  8
0
 62
     4
 10
-51.180325
 20
19.905254
 11
-47.180325
 21
19.905254
  0
LINE
  8
0
 62
     4
 10
-54.840324
 20
19.505253
 11
-51.180325
 21
19.505253
  0
LINE
  8
0
 62
     4
 10
-54.490322
 20
20.805254
 11
-51.180325
 21
20.805254
  0
LINE
  8
0
 10
-75.880325
 20
8.455254
 11
-75.980324
 21
8.455254
  0
LINE
  8
0
 10
-75.880325
 20
11.455254
 11
-75.980324
 21
11.455254
  0
LINE
  8
0
 10
-75.380325
 20
8.955254
 11
-75.380325
 21
10.955254
  0
LINE
  8
0
 10
-72.380325
 20
8.646804
 11
-72.380325
 21
1.455254
  0
LINE
  8
0
 10
-72.380325
 20
8.646803
 11
-74.980324
 21
9.105254
  0
LINE
  8
0
 10
-74.980324
 20
7.855253
 11
-72.380325
 21
7.414436
  0
LINE
  8
0
 10
-103.980324
 20
20.955254
 11
-103.980324
 21
17.455254
  0
LINE
  8
0
 10
-89.980324
 20
20.955254
 11
-103.980324
 21
20.955254
  0
LINE
  8
0
 10
-89.980324
 20
0.955254
 11
-103.980324
 21
0.955254
  0
LINE
  8
0
  6
CENTER
 62
     2
 10
-99.480324
 20
16.545254
 11
-99.480324
 21
9.080254
  0
LINE
  8
0
  6
CENTER
 62
     2
 10
-94.980324
 20
9.315253
 11
-94.980324
 21
2.040254
  0
LINE
  8
0
  6
CENTER
 62
     2
 10
-95.910324
 20
12.755254
 11
-103.240059
 21
12.755254
  0
LINE
  8
0
  6
CENTER
 62
     2
 10
-91.515320
 20
5.655253
 11
-98.695328
 21
5.655253
  0
LINE
  8
0
 10
-103.980324
 20
16.455254
 11
-103.980324
 21
0.955254
  0
LINE
  8
0
 10
-103.480324
 20
16.955252
 11
-103.980324
 21
17.455252
  0
LINE
  8
0
 10
-103.480324
 20
16.955252
 11
-103.980324
 21
16.455252
  0
LINE
  8
0
  6
CENTER
 62
     2
 10
-105.459869
 20
17.955254
 11
-101.940460
 21
17.955254
  0
LINE
  8
0
 62
     4
 10
23.614677
 20
13.955254
 11
23.614677
 21
4.955254
  0
LINE
  8
0
 62
     4
 10
33.614677
 20
13.955254
 11
33.614677
 21
4.955254
  0
LINE
  8
0
 62
     4
 10
24.614677
 20
14.955254
 11
32.614677
 21
14.955254
  0
LINE
  8
0
 62
     4
 10
24.614677
 20
3.955254
 11
32.614677
 21
3.955254
  0
LINE
  8
0
 62
     4
 10
23.614677
 20
8.855253
 11
24.094677
 21
8.855253
  0
LINE
  8
0
 62
     4
 10
23.614677
 20
11.055254
 11
24.094677
 21
11.055254
  0
LINE
  8
0
 62
     4
 10
24.474678
 20
9.315253
 11
25.744678
 21
10.585255
  0
LINE
  8
0
 62
     4
 10
25.744678
 20
9.315252
 11
24.474678
 21
10.585253
  0
LINE
  8
0
 62
     4
 10
33.614677
 20
8.855253
 11
33.134678
 21
8.855253
  0
LINE
  8
0
 62
     4
 10
33.614677
 20
11.055254
 11
33.134678
 21
11.055254
  0
LINE
  8
0
 62
     4
 10
32.744675
 20
9.315254
 11
31.474676
 21
10.585255
  0
LINE
  8
0
 62
     4
 10
31.474676
 20
9.315255
 11
32.744675
 21
10.585256
  0
LINE
  8
0
 10
23.419678
 20
20.955254
 11
40.614677
 21
20.955254
  0
LINE
  8
0
 10
13.219678
 20
20.955254
 11
13.419677
 21
20.955254
  0
LINE
  8
0
 10
3.019677
 20
20.955254
 11
3.219677
 21
20.955254
  0
LINE
  8
0
 10
-13.980323
 20
20.955254
 11
-6.980323
 21
20.955254
  0
LINE
  8
0
 10
-13.980323
 20
0.955254
 11
40.614677
 21
0.955254
  0
LINE
  8
0
 10
-13.980323
 20
20.955254
 11
-13.980323
 21
0.955254
  0
LINE
  8
0
 10
40.614677
 20
20.955254
 11
40.614677
 21
0.955254
  0
LINE
  8
0
  6
CENTER
 62
     2
 10
-10.480323
 20
20.530254
 11
-10.480323
 21
15.375254
  0
LINE
  8
0
  6
CENTER
 62
     2
 10
37.114677
 20
20.530254
 11
37.114677
 21
15.375254
  0
LINE
  8
0
  6
CENTER
 62
     2
 10
34.514675
 20
17.955254
 11
39.714676
 21
17.955254
  0
LINE
  8
0
  6
CENTER
 62
     2
 10
-1.980323
 20
2.010107
 11
-1.980323
 21
34.630615
  0
LINE
  8
0
 10
-4.374693
 20
7.414436
 11
-4.630322
 21
7.855253
  0
LINE
  8
0
 10
0.669677
 20
7.855253
 11
0.414047
 21
7.414436
  0
LINE
  8
0
 10
-3.124693
 20
8.664436
 11
-3.380323
 21
9.105253
  0
LINE
  8
0
 10
-4.630323
 20
7.855254
 11
-3.380323
 21
9.105254
  0
LINE
  8
0
 10
-3.124693
 20
8.664436
 11
-4.374693
 21
7.414436
  0
LINE
  8
0
 10
-0.835953
 20
8.664435
 11
-0.580323
 21
9.105253
  0
LINE
  8
0
 10
3.019677
 20
14.546071
 11
-6.980323
 21
14.546071
  0
LINE
  8
0
 10
-0.835952
 20
8.664435
 11
0.414048
 21
7.414436
  0
LINE
  8
0
 10
3.019677
 20
7.414436
 11
0.414047
 21
7.414436
  0
LINE
  8
0
 10
-4.374693
 20
7.414436
 11
-6.980323
 21
7.414436
  0
LINE
  8
0
 10
-3.124693
 20
8.664436
 11
-0.835953
 21
8.664436
  0
LINE
  8
0
 10
3.019677
 20
7.855253
 11
0.669677
 21
7.855253
  0
LINE
  8
0
 10
0.669677
 20
7.855254
 11
-0.580323
 21
9.105253
  0
LINE
  8
0
 10
-3.380323
 20
9.105253
 11
-0.580323
 21
9.105253
  0
LINE
  8
0
 10
-4.630323
 20
7.855253
 11
-6.980323
 21
7.855253
  0
LINE
  8
0
 10
-6.980323
 20
15.357175
 11
3.019677
 21
15.357175
  0
LINE
  8
0
 10
3.019677
 20
15.855253
 11
-6.980323
 21
15.855253
  0
LINE
  8
0
 10
1.519677
 20
11.555254
 11
3.019677
 21
11.555254
  0
LINE
  8
0
 10
3.019677
 20
8.355253
 11
1.519677
 21
8.355253
  0
LINE
  8
0
 10
-5.480323
 20
8.355253
 11
-6.980323
 21
8.355253
  0
LINE
  8
0
 10
-6.980323
 20
11.555254
 11
-5.480323
 21
11.555254
  0
LINE
  8
0
 62
     4
 10
-6.980323
 20
33.455254
 11
-6.980323
 21
15.955254
  0
LINE
  8
0
  6
CENTER
 62
     2
 10
0.519677
 20
11.705254
 11
-4.480323
 21
11.705254
  0
LINE
  8
0
 62
     4
 10
3.019677
 20
33.455254
 11
3.019677
 21
15.955254
  0
LINE
  8
0
 62
     4
 10
-6.980323
 20
33.455254
 11
3.019677
 21
33.455254
  0
LINE
  8
0
 62
     4
 10
3.019677
 20
15.955254
 11
-6.980323
 21
15.955254
  0
LINE
  8
0
 62
     1
 10
-0.480323
 20
28.455254
 11
-0.480323
 21
33.455254
  0
LINE
  8
0
 62
     1
 10
-3.480323
 20
28.455254
 11
-3.480323
 21
33.455254
  0
LINE
  8
0
 62
     1
 10
-3.480323
 20
28.455254
 11
-0.480323
 21
28.455254
  0
LINE
  8
0
 62
     4
 10
0.919677
 20
18.155254
 11
-4.880323
 21
18.155254
  0
LINE
  8
0
 62
     4
 10
0.919677
 20
22.155254
 11
-4.880323
 21
22.155254
  0
LINE
  8
0
 10
-0.154809
 20
11.405253
 11
-3.805837
 21
11.405253
  0
LINE
  8
0
 10
-0.154809
 20
12.005254
 11
-3.805837
 21
12.005254
  0
LINE
  8
0
 10
-6.187429
 20
9.248147
 11
-4.773216
 21
10.662360
  0
LINE
  8
0
 10
-6.187429
 20
10.662360
 11
-4.773216
 21
9.248147
  0
LINE
  8
0
 10
2.226784
 20
10.662360
 11
0.812570
 21
9.248147
  0
LINE
  8
0
 10
2.226784
 20
9.248147
 11
0.812570
 21
10.662360
  0
LINE
  8
0
 10
3.019677
 20
1.455254
 11
-6.980323
 21
1.455254
  0
LINE
  8
0
  6
CENTER
 62
     2
 10
1.505984
 20
5.355253
 11
-5.628219
 21
5.355253
  0
LINE
  8
0
 62
     4
 10
5.719678
 20
39.455254
 11
3.219677
 21
39.455254
  0
LINE
  8
0
 62
     4
 10
10.719678
 20
38.589226
 11
11.119678
 21
38.589226
  0
LINE
  8
0
 62
     4
 10
10.719678
 20
37.055252
 11
11.119678
 21
37.055252
  0
LINE
  8
0
 62
     4
 10
5.719678
 20
35.921280
 11
10.719678
 21
35.921280
  0
LINE
  8
0
 62
     4
 10
6.969678
 20
39.555252
 11
6.969678
 21
40.555252
  0
LINE
  8
0
 62
     4
 10
9.469678
 20
39.555252
 11
9.469678
 21
40.555252
  0
LINE
  8
0
 62
     4
 10
6.969678
 20
40.555252
 11
5.719678
 21
40.555252
  0
LINE
  8
0
 62
     4
 10
10.719678
 20
40.555252
 11
9.469678
 21
40.555252
  0
LINE
  8
0
 62
     4
 10
6.969678
 20
39.555252
 11
5.719678
 21
39.555252
  0
LINE
  8
0
 62
     4
 10
10.719678
 20
39.555252
 11
9.469678
 21
39.555252
  0
LINE
  8
0
 62
     4
 10
4.619678
 20
39.555252
 11
3.519677
 21
39.555252
  0
LINE
  8
0
 62
     4
 10
3.519677
 20
39.555252
 11
3.519677
 21
44.555252
  0
LINE
  8
0
 62
     4
 10
5.719678
 20
35.055252
 11
5.719678
 21
43.555252
  0
LINE
  8
0
 62
     4
 10
4.119678
 20
39.455254
 11
4.119678
 21
39.555252
  0
LINE
  8
0
 62
     4
 10
4.619678
 20
39.455254
 11
4.619678
 21
44.555252
  0
LINE
  8
0
 62
     4
 10
11.819676
 20
39.455254
 11
11.819676
 21
44.555252
  0
LINE
  8
0
 62
     4
 10
12.319676
 20
39.455254
 11
12.319676
 21
39.555252
  0
LINE
  8
0
 62
     4
 10
5.719678
 20
42.555252
 11
10.719678
 21
42.555252
  0
LINE
  8
0
 62
     4
 10
5.719678
 20
42.843929
 11
10.719678
 21
42.843929
  0
LINE
  8
0
 62
     4
 10
10.719678
 20
35.055252
 11
10.719678
 21
43.555252
  0
LINE
  8
0
 62
     4
 10
12.919677
 20
39.555252
 11
12.919677
 21
44.555252
  0
LINE
  8
0
 62
     4
 10
10.719678
 20
43.555252
 11
5.719678
 21
43.555252
  0
LINE
  8
0
 62
     4
 10
11.819676
 20
39.555252
 11
12.919677
 21
39.555252
  0
LINE
  8
0
 62
     4
 10
12.919677
 20
44.555252
 11
3.519677
 21
44.555252
  0
LINE
  8
0
 62
     4
 10
10.719678
 20
35.055252
 11
5.719678
 21
35.055252
  0
LINE
  8
0
 62
     4
 10
10.079677
 20
44.555252
 11
10.079677
 21
49.555252
  0
LINE
  8
0
 62
     4
 10
11.509677
 20
44.555252
 11
11.509677
 21
49.175255
  0
LINE
  8
0
 62
     4
 10
10.399676
 20
64.985252
 11
11.199677
 21
64.985252
  0
LINE
  8
0
 62
     4
 10
10.079677
 20
54.985252
 11
11.509677
 21
54.985252
  0
LINE
  8
0
 62
     4
 10
11.199677
 20
54.985252
 11
11.199677
 21
64.985252
  0
LINE
  8
0
 62
     4
 10
10.399676
 20
54.985252
 11
10.399676
 21
64.985252
  0
LINE
  8
0
 62
     4
 10
10.079677
 20
50.795254
 11
10.079677
 21
54.985252
  0
LINE
  8
0
 62
     4
 10
11.509677
 20
50.415253
 11
11.509677
 21
54.985252
  0
LINE
  8
0
 62
     1
 10
13.799677
 20
49.805252
 11
2.701365
 21
52.764805
  0
LINE
  8
0
 62
     1
 10
13.799676
 20
48.565254
 11
2.701362
 21
51.524803
  0
LINE
  8
0
 62
     4
 10
4.999677
 20
44.555252
 11
4.999677
 21
50.911919
  0
LINE
  8
0
 62
     4
 10
6.429677
 20
44.555252
 11
6.429677
 21
50.530586
  0
LINE
  8
0
 62
     4
 10
6.429677
 20
51.770588
 11
6.429677
 21
54.985252
  0
LINE
  8
0
 62
     4
 10
4.999677
 20
52.151920
 11
4.999677
 21
54.985252
  0
LINE
  8
0
 62
     4
 10
6.039678
 20
54.985252
 11
6.039678
 21
64.985252
  0
LINE
  8
0
 62
     4
 10
5.239677
 20
54.985252
 11
5.239677
 21
64.985252
  0
LINE
  8
0
 62
     4
 10
6.429677
 20
54.985252
 11
4.999677
 21
54.985252
  0
LINE
  8
0
 62
     4
 10
6.039678
 20
64.985252
 11
5.239677
 21
64.985252
  0
LINE
  8
0
 62
     4
 10
13.219678
 20
39.455254
 11
10.719678
 21
39.455254
  0
LINE
  8
0
 62
     4
 10
13.219678
 20
33.455254
 11
3.219677
 21
33.455254
  0
LINE
  8
0
 62
     4
 10
5.319677
 20
38.589226
 11
5.719678
 21
38.589226
  0
LINE
  8
0
 62
     4
 10
5.319677
 20
37.055252
 11
5.719678
 21
37.055252
  0
LINE
  8
0
 62
     4
 10
5.319677
 20
33.455254
 11
5.319677
 21
39.455254
  0
LINE
  8
0
 62
     4
 10
11.119678
 20
33.455254
 11
11.119678
 21
39.455254
  0
LINE
  8
0
 62
     4
 10
3.219677
 20
15.955254
 11
13.219678
 21
15.955254
  0
LINE
  8
0
 62
     1
 10
9.719678
 20
28.455254
 11
9.719678
 21
33.455254
  0
LINE
  8
0
 62
     1
 10
6.719678
 20
28.455254
 11
6.719678
 21
33.455254
  0
LINE
  8
0
 62
     1
 10
6.719678
 20
28.455254
 11
9.719678
 21
28.455254
  0
LINE
  8
0
  6
CENTER
 62
     2
 10
8.219678
 20
2.010107
 11
8.219678
 21
34.630615
  0
LINE
  8
0
 10
5.825306
 20
7.414437
 11
5.569677
 21
7.855255
  0
LINE
  8
0
 10
10.869677
 20
7.855253
 11
10.614047
 21
7.414435
  0
LINE
  8
0
 10
7.075307
 20
8.664436
 11
6.819678
 21
9.105254
  0
LINE
  8
0
 10
5.569677
 20
7.855253
 11
6.819677
 21
9.105253
  0
LINE
  8
0
 10
7.075307
 20
8.664436
 11
5.825307
 21
7.414435
  0
LINE
  8
0
 10
9.364046
 20
8.664436
 11
9.619677
 21
9.105254
  0
LINE
  8
0
 10
13.219678
 20
14.546071
 11
3.219677
 21
14.546071
  0
LINE
  8
0
 10
9.364047
 20
8.664436
 11
10.614047
 21
7.414436
  0
LINE
  8
0
 10
13.219678
 20
7.414436
 11
10.614047
 21
7.414436
  0
LINE
  8
0
 10
5.825307
 20
7.414436
 11
3.219677
 21
7.414436
  0
LINE
  8
0
 10
7.075307
 20
8.664436
 11
9.364047
 21
8.664436
  0
LINE
  8
0
 10
13.219678
 20
7.855253
 11
10.869678
 21
7.855253
  0
LINE
  8
0
 10
10.869678
 20
7.855253
 11
9.619678
 21
9.105252
  0
LINE
  8
0
 10
6.819676
 20
9.105253
 11
9.619678
 21
9.105253
  0
LINE
  8
0
 10
5.569676
 20
7.855253
 11
3.219677
 21
7.855253
  0
LINE
  8
0
 10
3.219677
 20
15.357175
 11
13.219678
 21
15.357175
  0
LINE
  8
0
 10
13.219678
 20
15.855253
 11
3.219677
 21
15.855253
  0
LINE
  8
0
 10
11.719678
 20
11.555254
 11
13.219678
 21
11.555254
  0
LINE
  8
0
 10
13.219678
 20
8.355253
 11
11.719678
 21
8.355253
  0
LINE
  8
0
 10
4.719677
 20
8.355253
 11
3.219677
 21
8.355253
  0
LINE
  8
0
 10
3.219677
 20
11.555254
 11
4.719677
 21
11.555254
  0
LINE
  8
0
 62
     4
 10
3.219677
 20
39.455254
 11
3.219677
 21
15.955254
  0
LINE
  8
0
  6
CENTER
 62
     2
 10
10.719678
 20
11.705254
 11
5.719678
 21
11.705254
  0
LINE
  8
0
 62
     4
 10
13.219678
 20
39.455254
 11
13.219678
 21
15.955254
  0
LINE
  8
0
 10
10.045190
 20
11.405253
 11
6.394164
 21
11.405253
  0
LINE
  8
0
 10
10.045190
 20
12.005254
 11
6.394164
 21
12.005254
  0
LINE
  8
0
 10
4.012570
 20
9.248147
 11
5.426784
 21
10.662361
  0
LINE
  8
0
 10
4.012571
 20
10.662360
 11
5.426783
 21
9.248147
  0
LINE
  8
0
 10
12.426785
 20
10.662360
 11
11.012571
 21
9.248146
  0
LINE
  8
0
 10
12.426785
 20
9.248146
 11
11.012571
 21
10.662360
  0
LINE
  8
0
 10
13.219678
 20
1.455254
 11
3.219677
 21
1.455254
  0
LINE
  8
0
  6
CENTER
 62
     2
 10
11.705985
 20
5.355253
 11
4.571781
 21
5.355253
  0
LINE
  8
0
 62
     4
 10
13.719678
 20
15.955254
 11
13.419677
 21
15.955254
  0
LINE
  8
0
 10
13.719678
 20
15.855253
 11
13.419677
 21
15.855253
  0
LINE
  8
0
 62
     4
 10
20.919678
 20
21.255253
 11
23.119675
 21
21.255253
  0
LINE
  8
0
 62
     4
 10
20.919678
 20
20.255253
 11
21.319675
 21
20.255253
  0
LINE
  8
0
 62
     4
 10
15.919677
 20
21.055254
 11
20.919678
 21
21.055254
  0
LINE
  8
0
 62
     4
 10
15.919677
 20
22.255253
 11
20.919678
 21
22.255253
  0
LINE
  8
0
 62
     4
 10
14.719678
 20
19.755253
 11
22.119675
 21
19.755253
  0
LINE
  8
0
 62
     4
 10
13.719678
 20
15.455254
 11
13.719678
 21
20.755253
  0
LINE
  8
0
 62
     4
 10
23.119675
 20
15.455254
 11
23.119675
 21
20.755253
  0
LINE
  8
0
 62
     4
 10
13.719678
 20
15.455254
 11
23.119675
 21
15.455254
  0
LINE
  8
0
 62
     4
 10
15.329677
 20
17.155254
 11
15.329677
 21
16.655254
  0
LINE
  8
0
 62
     4
 10
16.429676
 20
17.155254
 11
16.429676
 21
16.655254
  0
LINE
  8
0
 62
     4
 10
14.929677
 20
19.255253
 11
16.829678
 21
19.255253
  0
LINE
  8
0
 62
     4
 10
15.003676
 20
17.155254
 11
16.753677
 21
17.155254
  0
LINE
  8
0
 62
     4
 10
15.329677
 20
16.655254
 11
16.429676
 21
16.655254
  0
LINE
  8
0
 62
     4
 10
19.669678
 20
20.755253
 11
19.669678
 21
19.755253
  0
LINE
  8
0
 62
     4
 10
17.169678
 20
20.755253
 11
17.169678
 21
19.755253
  0
LINE
  8
0
 62
     4
 10
13.719678
 20
20.755253
 11
14.719678
 21
20.755253
  0
LINE
  8
0
 62
     4
 10
14.719678
 20
19.755253
 11
14.719678
 21
20.755253
  0
LINE
  8
0
 62
     4
 10
23.119675
 20
20.755253
 11
22.119675
 21
20.755253
  0
LINE
  8
0
 62
     4
 10
22.119675
 20
19.755253
 11
22.119675
 21
20.755253
  0
LINE
  8
0
 62
     4
 10
16.829676
 20
19.255251
 11
16.953676
 21
17.367254
  0
LINE
  8
0
 62
     4
 10
14.803678
 20
17.367254
 11
14.929678
 21
19.255253
  0
LINE
  8
0
 62
     4
 10
17.469677
 20
19.255253
 11
19.369678
 21
19.255253
  0
LINE
  8
0
 62
     4
 10
17.343678
 20
17.367254
 11
17.469679
 21
19.255253
  0
LINE
  8
0
 62
     4
 10
17.543678
 20
17.155254
 11
19.293678
 21
17.155254
  0
LINE
  8
0
 62
     4
 10
17.869678
 20
17.155254
 11
17.869678
 21
16.655254
  0
LINE
  8
0
 62
     4
 10
17.869678
 20
16.655254
 11
18.969677
 21
16.655254
  0
LINE
  8
0
 62
     4
 10
18.969677
 20
17.155254
 11
18.969677
 21
16.655254
  0
LINE
  8
0
 62
     4
 10
19.369677
 20
19.255253
 11
19.493677
 21
17.367254
  0
LINE
  8
0
 62
     4
 10
18.019676
 20
18.655254
 11
18.019676
 21
17.855253
  0
LINE
  8
0
 62
     4
 10
18.819675
 20
18.655254
 11
18.019676
 21
18.655254
  0
LINE
  8
0
 62
     4
 10
18.819675
 20
18.655254
 11
18.819675
 21
17.855253
  0
LINE
  8
0
 62
     4
 10
18.819675
 20
17.855253
 11
18.019676
 21
17.855253
  0
LINE
  8
0
 62
     4
 10
20.009678
 20
19.255253
 11
21.909676
 21
19.255253
  0
LINE
  8
0
 62
     4
 10
19.883677
 20
17.367254
 11
20.009676
 21
19.255255
  0
LINE
  8
0
 62
     4
 10
20.083675
 20
17.155254
 11
21.833675
 21
17.155254
  0
LINE
  8
0
 62
     4
 10
20.409676
 20
17.155254
 11
20.409676
 21
16.655254
  0
LINE
  8
0
 62
     4
 10
20.409676
 20
16.655254
 11
21.509678
 21
16.655254
  0
LINE
  8
0
 62
     4
 10
21.509678
 20
17.155254
 11
21.509678
 21
16.655254
  0
LINE
  8
0
 62
     4
 10
21.909676
 20
19.255253
 11
22.033676
 21
17.367254
  0
LINE
  8
0
 62
     4
 10
15.919677
 20
22.255253
 11
15.919677
 21
19.755253
  0
LINE
  8
0
 62
     4
 10
20.919678
 20
22.255253
 11
20.919678
 21
19.755253
  0
LINE
  8
0
 62
     4
 10
15.519677
 20
20.755253
 11
21.319675
 21
20.755253
  0
LINE
  8
0
 62
     4
 10
21.319675
 20
20.255253
 11
21.319675
 21
21.255253
  0
LINE
  8
0
 62
     4
 10
15.519677
 20
20.255253
 11
15.519677
 21
21.255253
  0
LINE
  8
0
 62
     4
 10
15.519677
 20
20.255253
 11
15.919677
 21
20.255253
  0
LINE
  8
0
 62
     4
 10
13.719678
 20
21.255253
 11
15.919677
 21
21.255253
  0
LINE
  8
0
 62
     4
 10
23.119675
 20
33.455254
 11
13.719678
 21
33.455254
  0
LINE
  8
0
 62
     4
 10
23.419678
 20
15.955254
 11
23.119675
 21
15.955254
  0
LINE
  8
0
 62
     1
 10
19.919678
 20
28.455254
 11
19.919678
 21
33.455254
  0
LINE
  8
0
 62
     1
 10
16.919678
 20
28.455254
 11
19.919678
 21
28.455254
  0
LINE
  8
0
 62
     1
 10
16.919678
 20
28.455254
 11
16.919678
 21
33.455254
  0
LINE
  8
0
  6
CENTER
 62
     2
 10
18.419678
 20
2.010107
 11
18.419678
 21
34.630615
  0
LINE
  8
0
 10
16.025307
 20
7.414438
 11
15.769677
 21
7.855256
  0
LINE
  8
0
 10
21.069677
 20
7.855254
 11
20.814047
 21
7.414437
  0
LINE
  8
0
 10
17.275307
 20
8.664435
 11
17.019676
 21
9.105253
  0
LINE
  8
0
 10
15.769675
 20
7.855254
 11
17.019676
 21
9.105253
  0
LINE
  8
0
 10
17.275307
 20
8.664436
 11
16.025305
 21
7.414436
  0
LINE
  8
0
 10
19.564047
 20
8.664437
 11
19.819677
 21
9.105254
  0
LINE
  8
0
 10
23.419678
 20
14.546071
 11
13.419677
 21
14.546071
  0
LINE
  8
0
 10
19.564049
 20
8.664436
 11
20.814049
 21
7.414435
  0
LINE
  8
0
 10
23.419678
 20
7.414436
 11
20.814049
 21
7.414436
  0
LINE
  8
0
 10
16.025307
 20
7.414436
 11
13.419677
 21
7.414436
  0
LINE
  8
0
 10
17.275307
 20
8.664436
 11
19.564049
 21
8.664436
  0
LINE
  8
0
 10
23.419678
 20
7.855253
 11
21.069675
 21
7.855253
  0
LINE
  8
0
 10
21.069677
 20
7.855253
 11
19.819677
 21
9.105253
  0
LINE
  8
0
 10
17.019676
 20
9.105253
 11
19.819675
 21
9.105253
  0
LINE
  8
0
 10
15.769677
 20
7.855253
 11
13.419677
 21
7.855253
  0
LINE
  8
0
 10
13.419677
 20
15.357175
 11
23.419678
 21
15.357175
  0
LINE
  8
0
 10
23.419678
 20
15.855253
 11
23.119675
 21
15.855253
  0
LINE
  8
0
 10
21.919678
 20
11.555254
 11
23.419678
 21
11.555254
  0
LINE
  8
0
 10
23.419678
 20
8.355253
 11
21.919678
 21
8.355253
  0
LINE
  8
0
 10
14.919677
 20
8.355253
 11
13.419677
 21
8.355253
  0
LINE
  8
0
 10
13.419677
 20
11.555254
 11
14.919677
 21
11.555254
  0
LINE
  8
0
 62
     4
 10
13.419677
 20
33.155254
 11
13.419677
 21
15.955254
  0
LINE
  8
0
  6
CENTER
 62
     2
 10
20.919678
 20
11.705254
 11
15.919677
 21
11.705254
  0
LINE
  8
0
 62
     4
 10
23.419678
 20
33.155254
 11
23.419678
 21
15.955254
  0
LINE
  8
0
 10
20.245190
 20
11.405253
 11
16.594162
 21
11.405253
  0
LINE
  8
0
 10
20.245190
 20
12.005254
 11
16.594162
 21
12.005254
  0
LINE
  8
0
 10
14.212569
 20
9.248145
 11
15.626782
 21
10.662359
  0
LINE
  8
0
 10
14.212570
 20
10.662360
 11
15.626783
 21
9.248146
  0
LINE
  8
0
 10
22.626783
 20
10.662360
 11
21.212570
 21
9.248146
  0
LINE
  8
0
 10
22.626783
 20
9.248146
 11
21.212570
 21
10.662360
  0
LINE
  8
0
 10
23.419678
 20
1.455254
 11
13.419677
 21
1.455254
  0
LINE
  8
0
  6
CENTER
 62
     2
 10
21.905983
 20
5.355253
 11
14.771781
 21
5.355253
  0
LINE
  8
0
  6
CENTER
 62
     2
 10
28.614677
 20
2.462267
 11
28.614677
 21
16.235497
  0
LINE
  8
0
  6
CENTER
 62
     2
 10
-13.251171
 20
17.955254
 11
-8.033125
 21
17.955254
  0
LINE
  8
0
 10
13.419677
 20
15.955254
 11
13.419677
 21
1.455254
  0
LINE
  8
0
 10
13.219678
 20
15.955254
 11
13.219678
 21
1.455254
  0
LINE
  8
0
 10
3.019677
 20
15.955254
 11
3.019677
 21
1.455254
  0
LINE
  8
0
 10
3.219677
 20
15.955254
 11
3.219677
 21
1.455254
  0
LINE
  8
0
 10
-6.980323
 20
15.955254
 11
-6.980323
 21
1.455254
  0
LINE
  8
0
 10
23.419678
 20
15.955254
 11
23.419678
 21
1.455254
  0
LINE
  8
0
  6
CENTER
 62
     2
 10
-91.600647
 20
9.955253
 11
-87.709290
 21
9.955253
  0
LINE
  8
0
 10
-52.733273
 20
-87.200005
 11
-47.619884
 21
-87.200005
  0
LINE
  8
0
 10
-65.533272
 20
-87.200005
 11
-60.419884
 21
-87.200005
  0
LINE
  8
0
 10
-81.556686
 20
-87.200005
 11
-76.443298
 21
-87.200005
  0
LINE
  8
0
 10
-43.799995
 20
-32.600002
 11
-43.799995
 21
-89.800003
  0
LINE
  8
0
 10
-56.599995
 20
-32.600002
 11
-56.599995
 21
-89.800003
  0
LINE
  8
0
 10
-69.399994
 20
-32.600002
 11
-69.399994
 21
-89.800003
  0
LINE
  8
0
 10
-88.599991
 20
-32.600002
 11
-88.599991
 21
-89.800003
  0
LINE
  8
0
 10
-101.399994
 20
-32.600002
 11
-101.399994
 21
-89.800003
  0
LINE
  8
0
 10
-114.199997
 20
-32.600002
 11
-114.199997
 21
-89.800003
  0
LINE
  8
0
 10
-133.399994
 20
-32.600002
 11
-133.399994
 21
-89.800003
  0
LINE
  8
0
 10
-133.399994
 20
-89.800003
 11
-43.799995
 21
-89.800003
  0
LINE
  8
0
 10
-133.399994
 20
-84.600006
 11
-43.799995
 21
-84.600006
  0
LINE
  8
0
 10
-133.399994
 20
-79.400002
 11
-43.799995
 21
-79.400002
  0
LINE
  8
0
 10
-133.399994
 20
-74.200005
 11
-43.799995
 21
-74.200005
  0
LINE
  8
0
 10
-133.399994
 20
-69.000000
 11
-43.799995
 21
-69.000000
  0
LINE
  8
0
 10
-133.399994
 20
-63.800003
 11
-43.799995
 21
-63.800003
  0
LINE
  8
0
 10
-133.399994
 20
-58.600002
 11
-43.799995
 21
-58.600002
  0
LINE
  8
0
 10
-133.399994
 20
-53.400002
 11
-43.799995
 21
-53.400002
  0
LINE
  8
0
 10
-133.399994
 20
-48.200005
 11
-43.799995
 21
-48.200005
  0
LINE
  8
0
 10
-133.399994
 20
-43.000004
 11
-43.799995
 21
-43.000004
  0
LINE
  8
0
 10
-133.399994
 20
-37.800003
 11
-43.799995
 21
-37.800003
  0
LINE
  8
0
 10
-133.399994
 20
-32.600002
 11
-43.799995
 21
-32.600002
  0
LINE
  8
0
 10
-138.399994
 20
94.500000
 11
138.350006
 21
94.500000
  0
LINE
  8
0
 10
138.350006
 20
94.500000
 11
138.350006
 21
-94.800003
  0
LINE
  8
0
 10
-138.399994
 20
-94.800003
 11
138.350006
 21
-94.800003
  0
LINE
  8
0
 10
-138.399994
 20
94.500000
 11
-138.399994
 21
-94.800003
  0
LINE
  8
0
 10
73.350006
 20
-84.800003
 11
138.350006
 21
-84.800003
  0
LINE
  8
0
 10
-138.399994
 20
84.500000
 11
-73.399994
 21
84.500000
  0
LINE
  8
0
 10
73.350006
 20
84.500000
 11
138.350006
 21
84.500000
  0
LINE
  8
0
 10
73.350006
 20
-84.800003
 11
73.350006
 21
-94.800003
  0
LINE
  8
0
 10
73.350006
 20
94.500000
 11
73.350006
 21
84.500000
  0
LINE
  8
0
 10
-73.399994
 20
94.500000
 11
-73.399994
 21
84.500000
  0
ARC
  8
0
 62
     4
 10
24.214661
 20
-61.793102
 40
0.599983
 50
89.998360
 51
180.001450
  0
ARC
  8
0
 62
     4
 10
26.014683
 20
-61.793114
 40
0.599993
 50
359.999268
 51
90.000725
  0
ARC
  8
0
 62
     4
 10
33.014698
 20
-61.793098
 40
0.599976
 50
359.997803
 51
90.002182
  0
ARC
  8
0
 62
     4
 10
31.214676
 20
-61.793118
 40
0.599998
 50
89.999817
 51
180.000000
  0
ARC
  8
0
 10
0.719677
 20
-62.893120
 40
0.200000
 50
0.000000
 51
90.000000
  0
ARC
  8
0
 10
-4.680323
 20
-62.893120
 40
0.200001
 50
90.000000
 51
180.000000
  0
ARC
  8
0
 10
-5.980323
 20
-63.393120
 40
0.300000
 50
180.000000
 51
270.000000
  0
ARC
  8
0
 10
-5.980323
 20
-61.893120
 40
0.299999
 50
90.000000
 51
180.000000
  0
ARC
  8
0
 10
2.019677
 20
-61.893120
 40
0.300000
 50
0.000000
 51
90.000000
  0
ARC
  8
0
 10
2.019677
 20
-63.393120
 40
0.299999
 50
270.000000
 51
0.000000
  0
ARC
  8
0
 10
10.919677
 20
-62.893120
 40
0.200000
 50
0.000000
 51
90.000000
  0
ARC
  8
0
 10
5.519677
 20
-62.893120
 40
0.200001
 50
90.000000
 51
180.000000
  0
ARC
  8
0
 10
4.219677
 20
-63.393120
 40
0.300000
 50
180.000000
 51
270.000000
  0
ARC
  8
0
 10
4.219677
 20
-61.893120
 40
0.299999
 50
90.000000
 51
180.000000
  0
ARC
  8
0
 10
12.219678
 20
-61.893120
 40
0.300000
 50
0.000000
 51
90.000000
  0
ARC
  8
0
 10
12.219678
 20
-63.393120
 40
0.299999
 50
270.000000
 51
0.000000
  0
ARC
  8
0
 10
22.419678
 20
-63.393120
 40
0.299999
 50
270.000000
 51
0.000000
  0
ARC
  8
0
 10
22.419678
 20
-61.893120
 40
0.299999
 50
0.000000
 51
90.000000
  0
ARC
  8
0
 10
14.419677
 20
-61.893120
 40
0.299999
 50
90.000000
 51
180.000000
  0
ARC
  8
0
 10
14.419677
 20
-63.393120
 40
0.300000
 50
180.000000
 51
270.000000
  0
ARC
  8
0
 10
15.719678
 20
-62.893120
 40
0.200001
 50
90.000000
 51
180.000000
  0
ARC
  8
0
 10
21.119678
 20
-62.893120
 40
0.200001
 50
0.000000
 51
90.000000
  0
ARC
  8
0
 62
     4
 10
-69.579613
 20
18.354542
 40
0.199291
 50
269.796021
 51
0.204541
  0
ARC
  8
0
 62
     4
 10
-69.579613
 20
21.955965
 40
0.199289
 50
359.795471
 51
90.203987
  0
ARC
  8
0
 62
     4
 10
-70.680328
 20
33.155254
 40
0.300003
 50
0.000000
 51
90.000000
  0
ARC
  8
0
 10
-75.880325
 20
10.955254
 40
0.500000
 50
0.000000
 51
90.000000
  0
ARC
  8
0
 10
-75.880325
 20
8.955254
 40
0.500000
 50
270.000000
 51
0.000000
  0
CIRCLE
  8
0
 62
     2
 10
-99.482445
 20
12.755350
 40
2.500000
  0
CIRCLE
  8
0
 62
     2
 10
-94.982445
 20
5.655344
 40
2.500000
  0
CIRCLE
  8
0
 10
-99.482445
 20
12.755350
 40
2.100000
  0
CIRCLE
  8
0
 10
-94.982445
 20
5.655344
 40
2.100000
  0
ARC
  8
0
 62
     4
 10
24.614677
 20
13.955251
 40
1.000003
 50
90.000221
 51
179.999832
  0
ARC
  8
0
 62
     4
 10
24.614677
 20
4.955256
 40
1.000004
 50
180.000168
 51
269.999786
  0
ARC
  8
0
 62
     4
 10
32.614677
 20
4.955251
 40
0.999997
 50
269.999786
 51
0.000164
  0
ARC
  8
0
 62
     4
 10
32.614677
 20
13.955256
 40
0.999996
 50
359.999847
 51
90.000221
  0
CIRCLE
  8
0
 62
     4
 10
25.114666
 20
9.955254
 40
1.500000
  0
CIRCLE
  8
0
 62
     4
 10
32.114697
 20
9.955254
 40
1.500000
  0
CIRCLE
  8
0
 10
-10.483203
 20
17.955347
 40
1.600000
  0
CIRCLE
  8
0
 10
37.116798
 20
17.955347
 40
1.600000
  0
CIRCLE
  8
0
 10
-1.980323
 20
11.705254
 40
2.050000
  0
ARC
  8
0
 10
-5.480323
 20
9.955254
 40
1.600000
 50
270.000000
 51
90.000000
  0
ARC
  8
0
 10
1.519677
 20
9.955254
 40
1.600000
 50
90.000008
 51
270.000000
  0
CIRCLE
  8
0
 10
-1.980323
 20
11.705254
 40
1.900000
  0
ARC
  8
0
 62
     4
 10
-6.680323
 20
33.155254
 40
0.299999
 50
90.000000
 51
180.000000
  0
ARC
  8
0
 62
     4
 10
2.719677
 20
33.155254
 40
0.300000
 50
0.000000
 51
90.000000
  0
CIRCLE
  8
0
 62
     4
 10
-4.880323
 20
20.155254
 40
0.875000
  0
CIRCLE
  8
0
 62
     4
 10
0.919677
 20
20.155254
 40
0.875000
  0
ARC
  8
0
 62
     4
 10
0.919677
 20
20.155254
 40
2.000000
 50
270.000000
 51
90.000000
  0
ARC
  8
0
 62
     4
 10
-4.880323
 20
20.155254
 40
2.000000
 50
90.000000
 51
270.000000
  0
CIRCLE
  8
0
 10
-1.980323
 20
11.705254
 40
1.850000
  0
ARC
  8
0
 10
-1.980323
 20
11.705254
 40
0.800000
 50
22.024326
 51
157.975677
  0
ARC
  8
0
 10
-1.980323
 20
11.705254
 40
0.800000
 50
202.024323
 51
337.975677
  0
CIRCLE
  8
0
 10
-5.480323
 20
9.955254
 40
1.500000
  0
CIRCLE
  8
0
 10
1.519677
 20
9.955254
 40
1.500000
  0
CIRCLE
  8
0
 10
-1.980323
 20
5.355253
 40
2.750000
  0
CIRCLE
  8
0
 10
-1.980323
 20
5.355253
 40
1.250000
  0
CIRCLE
  8
0
 62
     2
 10
-1.980323
 20
5.355253
 40
1.500000
  0
CIRCLE
  8
0
 10
8.219678
 20
11.705254
 40
2.050000
  0
ARC
  8
0
 10
4.719677
 20
9.955254
 40
1.600000
 50
270.000000
 51
90.000000
  0
ARC
  8
0
 10
11.719678
 20
9.955254
 40
1.600000
 50
90.000000
 51
270.000000
  0
CIRCLE
  8
0
 10
8.219678
 20
11.705254
 40
1.900000
  0
CIRCLE
  8
0
 10
8.219678
 20
11.705254
 40
1.850000
  0
ARC
  8
0
 10
8.219678
 20
11.705254
 40
0.800000
 50
22.024321
 51
157.975677
  0
ARC
  8
0
 10
8.219678
 20
11.705254
 40
0.800000
 50
202.024323
 51
337.975677
  0
CIRCLE
  8
0
 10
4.719677
 20
9.955254
 40
1.500000
  0
CIRCLE
  8
0
 10
11.719678
 20
9.955254
 40
1.500000
  0
CIRCLE
  8
0
 10
8.219678
 20
5.355253
 40
2.750000
  0
CIRCLE
  8
0
 10
8.219678
 20
5.355253
 40
1.250000
  0
CIRCLE
  8
0
 62
     2
 10
8.219678
 20
5.355253
 40
1.500000
  0
CIRCLE
  8
0
 62
     4
 10
20.959679
 20
18.255253
 40
0.750000
  0
CIRCLE
  8
0
 62
     4
 10
15.879678
 20
18.255253
 40
0.750000
  0
ARC
  8
0
 62
     4
 10
15.004022
 20
17.355917
 40
0.200665
 50
176.761688
 51
269.901703
  0
ARC
  8
0
 62
     4
 10
16.754391
 20
17.354919
 40
0.199666
 50
269.794739
 51
3.541817
  0
ARC
  8
0
 62
     4
 10
17.544022
 20
17.355917
 40
0.200665
 50
176.761688
 51
269.901978
  0
ARC
  8
0
 62
     4
 10
19.294392
 20
17.354919
 40
0.199666
 50
269.794739
 51
3.541817
  0
ARC
  8
0
 62
     4
 10
20.084023
 20
17.355917
 40
0.200665
 50
176.761688
 51
269.901978
  0
ARC
  8
0
 62
     4
 10
21.834393
 20
17.354919
 40
0.199666
 50
269.794739
 51
3.541817
  0
ARC
  8
0
 62
     4
 10
23.119675
 20
20.955254
 40
0.299999
 50
0.000000
 51
90.000000
  0
ARC
  8
0
 62
     4
 10
13.719678
 20
20.955254
 40
0.299999
 50
90.000000
 51
180.000000
  0
ARC
  8
0
 62
     4
 10
13.719678
 20
33.155254
 40
0.299999
 50
90.000000
 51
180.000000
  0
ARC
  8
0
 62
     4
 10
23.119675
 20
33.155254
 40
0.299999
 50
0.000000
 51
90.000000
  0
CIRCLE
  8
0
 10
18.419678
 20
11.705254
 40
2.050000
  0
ARC
  8
0
 10
14.919677
 20
9.955254
 40
1.600000
 50
270.000000
 51
90.000000
  0
ARC
  8
0
 10
21.919678
 20
9.955254
 40
1.600000
 50
90.000000
 51
270.000000
  0
CIRCLE
  8
0
 10
18.419678
 20
11.705254
 40
1.900000
  0
CIRCLE
  8
0
 10
18.419678
 20
11.705254
 40
1.850000
  0
ARC
  8
0
 10
18.419678
 20
11.705254
 40
0.799999
 50
22.024345
 51
157.975662
  0
ARC
  8
0
 10
18.419678
 20
11.705254
 40
0.799999
 50
202.024338
 51
337.975647
  0
CIRCLE
  8
0
 10
14.919677
 20
9.955254
 40
1.500000
  0
CIRCLE
  8
0
 10
21.919678
 20
9.955254
 40
1.500000
  0
CIRCLE
  8
0
 10
18.419678
 20
5.355253
 40
2.750000
  0
CIRCLE
  8
0
 10
18.419678
 20
5.355253
 40
1.250000
  0
CIRCLE
  8
0
 62
     2
 10
18.419678
 20
5.355253
 40
1.500000
  0
TEXT
  8
0
 10
-132.899994
 20
-89.080002
 40
3.200000
  1
G010M11F
 50
0.000000
 41
0.756579
 51
0.000000
  7
STANDARD
  0
TEXT
  8
0
 10
-111.149994
 20
-89.080002
 40
3.200000
  1
126
 50
0.000000
 41
0.756579
 51
0.000000
  7
STANDARD
  0
TEXT
  8
0
 10
-98.349991
 20
-89.080002
 40
3.200000
  1
119
 50
0.000000
 41
0.756579
 51
0.000000
  7
STANDARD
  0
TEXT
  8
0
 10
-132.899994
 20
-83.879997
 40
3.200000
  1
G010M10F
 50
0.000000
 41
0.756579
 51
0.000000
  7
STANDARD
  0
TEXT
  8
0
 10
-113.449997
 20
-83.879997
 40
3.200000
  1
115.8
 50
0.000000
 41
0.756579
 51
0.000000
  7
STANDARD
  0
TEXT
  8
0
 10
-100.649994
 20
-83.879997
 40
3.200000
  1
108.8
 50
0.000000
 41
0.756579
 51
0.000000
  7
STANDARD
  0
TEXT
  8
0
 10
-68.649994
 20
-83.879997
 40
3.200000
  1
217.8
 50
0.000000
 41
0.756579
 51
0.000000
  7
STANDARD
  0
TEXT
  8
0
 10
-55.849995
 20
-83.879997
 40
3.200000
  1
210.8
 50
0.000000
 41
0.756579
 51
0.000000
  7
STANDARD
  0
TEXT
  8
0
 10
-132.399994
 20
-78.680000
 40
3.200000
  1
G010M9F
 50
0.000000
 41
0.822368
 51
0.000000
  7
STANDARD
  0
TEXT
  8
0
 10
-113.449997
 20
-78.680000
 40
3.200000
  1
105.6
 50
0.000000
 41
0.756579
 51
0.000000
  7
STANDARD
  0
TEXT
  8
0
 10
-99.499992
 20
-78.680000
 40
3.200000
  1
98.6
 50
0.000000
 41
0.756579
 51
0.000000
  7
STANDARD
  0
TEXT
  8
0
 10
-68.649994
 20
-78.680000
 40
3.200000
  1
207.6
 50
0.000000
 41
0.756579
 51
0.000000
  7
STANDARD
  0
TEXT
  8
0
 10
-55.849995
 20
-78.680000
 40
3.200000
  1
200.6
 50
0.000000
 41
0.756579
 51
0.000000
  7
STANDARD
  0
TEXT
  8
0
 10
-132.399994
 20
-73.480003
 40
3.200000
  1
G010M8F
 50
0.000000
 41
0.822368
 51
0.000000
  7
STANDARD
  0
TEXT
  8
0
 10
-112.299995
 20
-73.480003
 40
3.200000
  1
95.4
 50
0.000000
 41
0.756579
 51
0.000000
  7
STANDARD
  0
TEXT
  8
0
 10
-99.499992
 20
-73.480003
 40
3.200000
  1
88.4
 50
0.000000
 41
0.756579
 51
0.000000
  7
STANDARD
  0
TEXT
  8
0
 10
-68.649994
 20
-73.480003
 40
3.200000
  1
197.4
 50
0.000000
 41
0.756579
 51
0.000000
  7
STANDARD
  0
TEXT
  8
0
 10
-55.849995
 20
-73.480003
 40
3.200000
  1
190.4
 50
0.000000
 41
0.756579
 51
0.000000
  7
STANDARD
  0
TEXT
  8
0
 10
-132.399994
 20
-68.279999
 40
3.200000
  1
G010M7F
 50
0.000000
 41
0.822368
 51
0.000000
  7
STANDARD
  0
TEXT
  8
0
 10
-112.299995
 20
-68.279999
 40
3.200000
  1
85.2
 50
0.000000
 41
0.756579
 51
0.000000
  7
STANDARD
  0
TEXT
  8
0
 10
-99.499992
 20
-68.279999
 40
3.200000
  1
78.2
 50
0.000000
 41
0.756579
 51
0.000000
  7
STANDARD
  0
TEXT
  8
0
 10
-68.649994
 20
-68.279999
 40
3.200000
  1
187.2
 50
0.000000
 41
0.756579
 51
0.000000
  7
STANDARD
  0
TEXT
  8
0
 10
-55.849995
 20
-68.279999
 40
3.200000
  1
180.2
 50
0.000000
 41
0.756579
 51
0.000000
  7
STANDARD
  0
TEXT
  8
0
 10
-132.399994
 20
-63.080002
 40
3.200000
  1
G010M6F
 50
0.000000
 41
0.822368
 51
0.000000
  7
STANDARD
  0
TEXT
  8
0
 10
-109.999992
 20
-63.080002
 40
3.200000
  1
75
 50
0.000000
 41
0.756579
 51
0.000000
  7
STANDARD
  0
TEXT
  8
0
 10
-97.199989
 20
-63.080002
 40
3.200000
  1
68
 50
0.000000
 41
0.756579
 51
0.000000
  7
STANDARD
  0
TEXT
  8
0
 10
-66.349991
 20
-63.080002
 40
3.200000
  1
177
 50
0.000000
 41
0.756579
 51
0.000000
  7
STANDARD
  0
TEXT
  8
0
 10
-53.549992
 20
-63.080002
 40
3.200000
  1
170
 50
0.000000
 41
0.756579
 51
0.000000
  7
STANDARD
  0
TEXT
  8
0
 10
-132.399994
 20
-57.880005
 40
3.200000
  1
G010M5F
 50
0.000000
 41
0.822368
 51
0.000000
  7
STANDARD
  0
TEXT
  8
0
 10
-112.299995
 20
-57.880005
 40
3.200000
  1
64.8
 50
0.000000
 41
0.756579
 51
0.000000
  7
STANDARD
  0
TEXT
  8
0
 10
-99.499992
 20
-57.880005
 40
3.200000
  1
57.8
 50
0.000000
 41
0.756579
 51
0.000000
  7
STANDARD
  0
TEXT
  8
0
 10
-68.649994
 20
-57.880005
 40
3.200000
  1
166.8
 50
0.000000
 41
0.756579
 51
0.000000
  7
STANDARD
  0
TEXT
  8
0
 10
-55.849995
 20
-57.880005
 40
3.200000
  1
159.8
 50
0.000000
 41
0.756579
 51
0.000000
  7
STANDARD
  0
TEXT
  8
0
 10
-132.399994
 20
-52.680004
 40
3.200000
  1
G010M4F
 50
0.000000
 41
0.822368
 51
0.000000
  7
STANDARD
  0
TEXT
  8
0
 10
-112.299995
 20
-52.680004
 40
3.200000
  1
54.6
 50
0.000000
 41
0.756579
 51
0.000000
  7
STANDARD
  0
TEXT
  8
0
 10
-99.499992
 20
-52.680004
 40
3.200000
  1
47.6
 50
0.000000
 41
0.756579
 51
0.000000
  7
STANDARD
  0
TEXT
  8
0
 10
-68.649994
 20
-52.680004
 40
3.200000
  1
156.6
 50
0.000000
 41
0.756579
 51
0.000000
  7
STANDARD
  0
TEXT
  8
0
 10
-55.849995
 20
-52.680004
 40
3.200000
  1
149.6
 50
0.000000
 41
0.756579
 51
0.000000
  7
STANDARD
  0
TEXT
  8
0
 10
-132.399994
 20
-47.480003
 40
3.200000
  1
G010M3F
 50
0.000000
 41
0.822368
 51
0.000000
  7
STANDARD
  0
TEXT
  8
0
 10
-112.299995
 20
-47.480003
 40
3.200000
  1
44.4
 50
0.000000
 41
0.756579
 51
0.000000
  7
STANDARD
  0
TEXT
  8
0
 10
-99.499992
 20
-47.480003
 40
3.200000
  1
37.4
 50
0.000000
 41
0.756579
 51
0.000000
  7
STANDARD
  0
TEXT
  8
0
 10
-68.649994
 20
-47.480003
 40
3.200000
  1
146.4
 50
0.000000
 41
0.756579
 51
0.000000
  7
STANDARD
  0
TEXT
  8
0
 10
-55.849995
 20
-47.480003
 40
3.200000
  1
139.4
 50
0.000000
 41
0.756579
 51
0.000000
  7
STANDARD
  0
TEXT
  8
0
 10
-112.299995
 20
-42.280003
 40
3.200000
  1
34.2
 50
0.000000
 41
0.756579
 51
0.000000
  7
STANDARD
  0
TEXT
  8
0
 10
-99.499992
 20
-42.280003
 40
3.200000
  1
27.2
 50
0.000000
 41
0.756579
 51
0.000000
  7
STANDARD
  0
TEXT
  8
0
 10
-68.649994
 20
-42.280003
 40
3.200000
  1
136.2
 50
0.000000
 41
0.756579
 51
0.000000
  7
STANDARD
  0
TEXT
  8
0
 10
-55.849995
 20
-42.280003
 40
3.200000
  1
129.2
 50
0.000000
 41
0.756579
 51
0.000000
  7
STANDARD
  0
TEXT
  8
0
 10
-51.899994
 20
-37.080006
 40
3.200000
  1
P
 50
0.000000
 41
1.052632
 51
0.000000
  7
STANDARD
  0
TEXT
  8
0
 10
-64.699989
 20
-37.080006
 40
3.200000
  1
L
 50
0.000000
 41
1.052632
 51
0.000000
  7
STANDARD
  0
TEXT
  8
0
 10
-87.099991
 20
-37.080006
 40
3.200000
  1
TYPE
 50
0.000000
 41
1.052632
 51
0.000000
  7
STANDARD
  0
TEXT
  8
0
 10
-96.699989
 20
-37.080006
 40
3.200000
  1
P
 50
0.000000
 41
1.052632
 51
0.000000
  7
STANDARD
  0
TEXT
  8
0
 10
-109.499992
 20
-37.080006
 40
3.200000
  1
L
 50
0.000000
 41
1.052632
 51
0.000000
  7
STANDARD
  0
TEXT
  8
0
 10
-130.299988
 20
-37.080006
 40
3.200000
  1
TYPE
 50
0.000000
 41
1.052632
 51
0.000000
  7
STANDARD
  0
TEXT
  8
0
 10
-132.399994
 20
-42.280003
 40
3.200000
  1
G010M2F
 50
0.000000
 41
0.822368
 51
0.000000
  7
STANDARD
  0
TEXT
  8
0
 10
-88.099991
 20
-42.280003
 40
3.200000
  1
G010M12F
 50
0.000000
 41
0.756579
 51
0.000000
  7
STANDARD
  0
TEXT
  8
0
 10
-88.099991
 20
-47.480003
 40
3.200000
  1
G010M13F
 50
0.000000
 41
0.756579
 51
0.000000
  7
STANDARD
  0
TEXT
  8
0
 10
-88.099991
 20
-52.680004
 40
3.200000
  1
G010M14F
 50
0.000000
 41
0.756579
 51
0.000000
  7
STANDARD
  0
TEXT
  8
0
 10
-88.099991
 20
-57.880005
 40
3.200000
  1
G010M15F
 50
0.000000
 41
0.756579
 51
0.000000
  7
STANDARD
  0
TEXT
  8
0
 10
-88.099991
 20
-63.080002
 40
3.200000
  1
G010M16F
 50
0.000000
 41
0.756579
 51
0.000000
  7
STANDARD
  0
TEXT
  8
0
 10
-88.099991
 20
-68.279999
 40
3.200000
  1
G010M17F
 50
0.000000
 41
0.756579
 51
0.000000
  7
STANDARD
  0
TEXT
  8
0
 10
-88.099991
 20
-73.480003
 40
3.200000
  1
G010M18F
 50
0.000000
 41
0.756579
 51
0.000000
  7
STANDARD
  0
TEXT
  8
0
 10
-88.099991
 20
-78.680000
 40
3.200000
  1
G010M19F
 50
0.000000
 41
0.756579
 51
0.000000
  7
STANDARD
  0
TEXT
  8
0
 10
-88.099991
 20
-83.879997
 40
3.200000
  1
G010M20F
 50
0.000000
 41
0.756579
 51
0.000000
  7
STANDARD
  0
TEXT
  8
0
 10
-112.730438
 20
-31.484009
 40
3.200000
  1
DIMENSION LIST
 50
0.000000
 41
1.052632
 51
0.000000
  7
STANDARD
  0
TEXT
  8
0
 10
76.207352
 20
-92.850006
 40
4.500000
  1
KOGANEI CORP.
 50
0.000000
 41
1.052632
 51
0.000000
  7
STANDARD
  0
TEXT
  8
0
 10
92.842865
 20
87.620003
 40
3.200000
  1
Ver. 1.0
 50
0.000000
 41
1.052632
 51
0.000000
  7
STANDARD
  0
TEXT
  8
0
 10
-123.707138
 20
87.620003
 40
3.200000
  1
G010 SERIES
 50
0.000000
 41
1.052632
 51
0.000000
  7
STANDARD
  0
TEXT
  8
0
 10
-130.207001
 20
72.620003
 40
3.200000
  1
MODEL:G010MF
 50
0.000000
 41
1.052632
 51
0.000000
  7
STANDARD
  0
LINE
  8
0
 62
     2
 10
23.119678
 20
-34.193123
 11
28.145803
 21
-25.487619
  0
LINE
  8
0
 62
     2
 10
28.145803
 20
-25.487619
 11
58.912392
 21
-25.487617
  0
LINE
  8
0
 62
     2
 10
23.119678
 20
-34.193123
 11
25.240999
 21
-32.071804
  0
LINE
  8
0
 62
     2
 10
23.119678
 20
-34.193123
 11
23.896135
 21
-31.295345
  0
TEXT
  8
0
 62
     2
 10
29.448391
 20
-24.487617
 40
3.200000
  1
G010E1-PL
 50
0.000000
 41
1.052632
 51
0.000000
  7
STANDARD
  0
LINE
  8
0
 62
     2
 10
28.614674
 20
-61.793121
 11
36.907764
 21
-47.429070
  0
LINE
  8
0
 62
     2
 10
36.907764
 20
-47.429070
 11
49.349110
 21
-47.429070
  0
LINE
  8
0
 62
     2
 10
28.614674
 20
-61.793121
 11
30.735994
 21
-59.671803
  0
LINE
  8
0
 62
     2
 10
28.614674
 20
-61.793121
 11
29.391130
 21
-58.895344
  0
TEXT
  8
0
 62
     2
 10
39.085110
 20
-46.429070
 40
3.200000
  1
-BP
 50
0.000000
 41
1.052632
 51
0.000000
  7
STANDARD
  0
LINE
  8
0
 62
     2
 10
8.219676
 20
-44.793118
 11
-2.926360
 21
-25.487617
  0
LINE
  8
0
 62
     2
 10
-2.926360
 20
-25.487617
 11
-34.506947
 21
-25.487617
  0
LINE
  8
0
 62
     2
 10
8.219676
 20
-44.793118
 11
7.443219
 21
-41.895340
  0
LINE
  8
0
 62
     2
 10
8.219676
 20
-44.793118
 11
6.098356
 21
-42.671799
  0
TEXT
  8
0
 62
     2
 10
-34.256947
 20
-24.487617
 40
3.200000
  1
G010E1-PS
 50
0.000000
 41
1.052632
 51
0.000000
  7
STANDARD
  0
LINE
  8
0
 62
     2
 10
-6.980323
 20
-43.793121
 11
-12.502324
 21
-33.722633
  0
LINE
  8
0
 62
     2
 10
-12.502324
 20
-33.722633
 11
-34.368454
 21
-33.722633
  0
LINE
  8
0
 62
     2
 10
-6.980323
 20
-43.793121
 11
-7.692745
 21
-40.878941
  0
LINE
  8
0
 62
     2
 10
-6.980323
 20
-43.793121
 11
-9.054389
 21
-41.625576
  0
TEXT
  8
0
 62
     2
 10
-34.118454
 20
-32.722633
 40
3.200000
  1
G010E1  
 50
0.000000
 41
1.052632
 51
0.000000
  7
STANDARD
  0
TEXT
  8
0
 62
     2
 10
-26.305550
 20
70.985252
 40
3.200000
  1
3.5
 50
0.000000
 41
1.052632
 51
0.000000
  7
STANDARD
  0
LINE
  8
0
 62
     2
 10
-13.980323
 20
69.985252
 11
-25.641550
 21
69.985252
  0
LINE
  8
0
 62
     2
 10
-13.980323
 20
69.985252
 11
-10.480323
 21
69.985252
  0
LINE
  8
0
 62
     2
 10
-13.980323
 20
69.985252
 11
-16.878101
 21
69.208794
  0
LINE
  8
0
 62
     2
 10
-13.980323
 20
69.985252
 11
-16.878101
 21
70.761711
  0
LINE
  8
0
 62
     2
 10
-13.980323
 20
69.985252
 11
-19.980324
 21
69.985252
  0
LINE
  8
0
 62
     2
 10
-10.480323
 20
69.985252
 11
-7.582545
 21
70.761711
  0
LINE
  8
0
 62
     2
 10
-10.480323
 20
69.985252
 11
-7.582545
 21
69.208794
  0
LINE
  8
0
 62
     2
 10
-10.480323
 20
69.985252
 11
-4.480323
 21
69.985252
  0
LINE
  8
0
 62
     2
 10
-13.980323
 20
20.955254
 11
-13.980323
 21
71.485252
  0
LINE
  8
0
 62
     2
 10
-10.480323
 20
17.955254
 11
-10.480323
 21
71.485252
  0
TEXT
  8
0
 62
     2
 10
43.514500
 20
70.985252
 40
3.200000
  1
3.5
 50
0.000000
 41
1.052632
 51
0.000000
  7
STANDARD
  0
LINE
  8
0
 62
     2
 10
40.614677
 20
69.985252
 11
52.864498
 21
69.985252
  0
LINE
  8
0
 62
     2
 10
37.114677
 20
69.985252
 11
40.614677
 21
69.985252
  0
LINE
  8
0
 62
     2
 10
37.114677
 20
69.985252
 11
34.216900
 21
69.208794
  0
LINE
  8
0
 62
     2
 10
37.114677
 20
69.985252
 11
34.216900
 21
70.761711
  0
LINE
  8
0
 62
     2
 10
37.114677
 20
69.985252
 11
31.114677
 21
69.985252
  0
LINE
  8
0
 62
     2
 10
40.614677
 20
69.985252
 11
43.512455
 21
70.761711
  0
LINE
  8
0
 62
     2
 10
40.614677
 20
69.985252
 11
43.512455
 21
69.208794
  0
LINE
  8
0
 62
     2
 10
40.614677
 20
69.985252
 11
46.614677
 21
69.985252
  0
LINE
  8
0
 62
     2
 10
37.114677
 20
17.955254
 11
37.114677
 21
71.485252
  0
LINE
  8
0
 62
     2
 10
40.614677
 20
20.955254
 11
40.614677
 21
71.485252
  0
TEXT
  8
0
 62
     2
 10
11.510178
 20
70.985252
 40
3.200000
  1
P
 50
0.000000
 41
1.052632
 51
0.000000
  7
STANDARD
  0
LINE
  8
0
 62
     2
 10
-10.480323
 20
69.985252
 11
37.114677
 21
69.985252
  0
LINE
  8
0
 62
     2
 10
-10.480323
 20
69.985252
 11
-7.582545
 21
70.761711
  0
LINE
  8
0
 62
     2
 10
-10.480323
 20
69.985252
 11
-7.582545
 21
69.208794
  0
LINE
  8
0
 62
     2
 10
37.114677
 20
69.985252
 11
34.216900
 21
69.208794
  0
LINE
  8
0
 62
     2
 10
37.114677
 20
69.985252
 11
34.216900
 21
70.761711
  0
LINE
  8
0
 62
     2
 10
-10.480323
 20
17.955254
 11
-10.480323
 21
71.485252
  0
LINE
  8
0
 62
     2
 10
37.114677
 20
17.955254
 11
37.114677
 21
71.485252
  0
TEXT
  8
0
 62
     2
 10
11.510178
 20
78.985252
 40
3.200000
  1
L
 50
0.000000
 41
1.052632
 51
0.000000
  7
STANDARD
  0
LINE
  8
0
 62
     2
 10
-13.980323
 20
77.985252
 11
40.614677
 21
77.985252
  0
LINE
  8
0
 62
     2
 10
-13.980323
 20
77.985252
 11
-11.082545
 21
78.761711
  0
LINE
  8
0
 62
     2
 10
-13.980323
 20
77.985252
 11
-11.082545
 21
77.208794
  0
LINE
  8
0
 62
     2
 10
40.614677
 20
77.985252
 11
37.716900
 21
77.208794
  0
LINE
  8
0
 62
     2
 10
40.614677
 20
77.985252
 11
37.716900
 21
78.761711
  0
LINE
  8
0
 62
     2
 10
-13.980323
 20
20.955254
 11
-13.980323
 21
79.485252
  0
LINE
  8
0
 62
     2
 10
40.614677
 20
20.955254
 11
40.614677
 21
79.485252
  0
ENDSEC
  0
EOF
