  0
SECTION
  2
HEADER
  0
ENDSEC
  0
SECTION
  2
TABLES
  0
TABLE
  2
LTYPE
 70
     4
  0
LTYPE
  2
CONTINUOUS
 70
    64
  3
Solid line
 72
    65
 73
     0
 40
0.000000
  0
LTYPE
  2
DASHED
 70
    64
  3
__ __ __ __ __ __ __ __ __ __ __ __ __ __ __
 72
    65
 73
     2
 40
3.500000
 49
2.000000
 49
-1.500000
  0
LTYPE
  2
CENTER
 70
    64
  3
____ _ ____ _ ____ _ ____ _ ____ _ ____ _ ____
 72
    65
 73
     4
 40
17.500000
 49
13.000000
 49
-1.500000
 49
1.500000
 49
-1.500000
  0
LTYPE
  2
PHANTOM
 70
    64
  3
_____ _ _ _____ _ _ _____ _ _ _____ _ _ ____  
 72
    65
 73
     6
 40
15.500000
 49
8.000000
 49
-1.500000
 49
1.500000
 49
-1.500000
 49
1.500000
 49
-1.500000
  0
LTYPE
  2
DASHED1
 70
    64
  3
__ __ __ __ __ __ __ __ __ __ __ __ __ __ __
 72
    65
 73
     2
 40
1.500000
 49
1.000000
 49
-0.500000
  0
LTYPE
  2
DASHED2
 70
    64
  3
__ __ __ __ __ __ __ __ __ __ __ __ __ __ __
 72
    65
 73
     2
 40
3.500000
 49
2.500000
 49
-1.000000
  0
LTYPE
  2
DASHED3
 70
    64
  3
__ __ __ __ __ __ __ __ __ __ __ __ __ __ __
 72
    65
 73
     2
 40
6.000000
 49
4.000000
 49
-2.000000
  0
LTYPE
  2
DASHED4
 70
    64
  3
__ __ __ __ __ __ __ __ __ __ __ __ __ __ __
 72
    65
 73
     2
 40
12.000000
 49
10.000000
 49
-2.000000
  0
LTYPE
  2
DASHED5
 70
    64
  3
__ __ __ __ __ __ __ __ __ __ __ __ __ __ __
 72
    65
 73
     2
 40
17.000000
 49
15.000000
 49
-2.000000
  0
LTYPE
  2
DASHED6
 70
    64
  3
__ __ __ __ __ __ __ __ __ __ __ __ __ __ __
 72
    65
 73
     2
 40
29.000000
 49
27.000000
 49
-2.000000
  0
LTYPE
  2
PHANTOM1
 70
    64
  3
_____ _ _ _____ _ _ _____ _ _ _____ _ _ ____  
 72
    65
 73
     6
 40
31.000000
 49
25.000000
 49
-1.500000
 49
1.000000
 49
-1.000000
 49
1.000000
 49
-1.500000
  0
LTYPE
  2
PHANTOM2
 70
    64
  3
_____ _ _ _____ _ _ _____ _ _ _____ _ _ ____  
 72
    65
 73
     6
 40
36.000000
 49
27.000000
 49
-1.500000
 49
2.500000
 49
-1.000000
 49
2.500000
 49
-1.500000
  0
LTYPE
  2
PHANTOM3
 70
    64
  3
_____ _ _ _____ _ _ _____ _ _ _____ _ _ ____  
 72
    65
 73
     6
 40
78.000000
 49
64.000000
 49
-2.000000
 49
4.000000
 49
-2.000000
 49
4.000000
 49
-2.000000
  0
LTYPE
  2
CENTER1
 70
    64
  3
____ _ ____ _ ____ _ ____ _ ____ _ ____ _ ____
 72
    65
 73
     4
 40
19.000000
 49
14.000000
 49
-1.000000
 49
3.000000
 49
-1.000000
  0
LTYPE
  2
CENTER2
 70
    64
  3
____ _ ____ _ ____ _ ____ _ ____ _ ____ _ ____
 72
    65
 73
     4
 40
28.500000
 49
25.000000
 49
-1.000000
 49
1.500000
 49
-1.000000
  0
LTYPE
  2
CENTER3
 70
    64
  3
____ _ ____ _ ____ _ ____ _ ____ _ ____ _ ____
 72
    65
 73
     4
 40
31.500000
 49
27.000000
 49
-1.000000
 49
2.500000
 49
-1.000000
  0
LTYPE
  2
CENTER4
 70
    64
  3
____ _ ____ _ ____ _ ____ _ ____ _ ____ _ ____
 72
    65
 73
     4
 40
50.000000
 49
45.000000
 49
-1.000000
 49
3.000000
 49
-1.000000
  0
LTYPE
  2
CENTER5
 70
    64
  3
____ _ ____ _ ____ _ ____ _ ____ _ ____ _ ____
 72
    65
 73
     4
 40
100.000000
 49
92.000000
 49
-2.000000
 49
4.000000
 49
-2.000000
  0
LTYPE
  2
SBK1
 70
    64
  3
______ _ _ _ ______ _ _ _ ______ _ _ _ _____  
 72
    65
 73
     8
 40
60.500000
 49
45.000000
 49
-2.000000
 49
2.500000
 49
-2.000000
 49
2.500000
 49
-2.000000
 49
2.500000
 49
-2.000000
  0
LTYPE
  2
SBK2
 70
    64
  3
______ _ _ _ ______ _ _ _ ______ _ _ _ _____  
 72
    65
 73
     8
 40
84.000000
 49
64.000000
 49
-2.000000
 49
4.000000
 49
-2.000000
 49
4.000000
 49
-2.000000
 49
4.000000
 49
-2.000000
  0
LTYPE
  2
STCH
 70
    64
  3
__ __ __ __ __ __ __ __ __ __ __ __ __ __ __
 72
    65
 73
     2
 40
3.000000
 49
1.000000
 49
-2.000000
  0
LTYPE
  2
MTCH
 70
    64
  3
_____ _ _ _____ _ _ _____ _ _ _____ _ _ ____  
 72
    65
 73
     6
 40
80.000000
 49
66.000000
 49
-2.000000
 49
4.000000
 49
-2.000000
 49
4.000000
 49
-2.000000
  0
ENDTAB
  0
TABLE
  2
LAYER
 70
     1
  0
LAYER
  2
0
 70
     0
 62
     7
  6
CONTINUOUS
  0
ENDTAB
  0
TABLE
  2
STYLE
 70
     1
  0
STYLE
  2
STANDARD
 70
     0
 40
0.000000
 41
1.000000
 50
0.000000
 71
     0
 42
0.200000
  3
txt
  4
BIGFONT
  0
ENDTAB
  0
TABLE
  2
VIEW
 70
     0
  0
ENDTAB
  0
ENDSEC
  0
SECTION
  2
BLOCKS
  0
ENDSEC
  0
SECTION
  2
ENTITIES
  0
LINE
  8
0
  6
CENTER
 62
     2
 10
40.333984
 20
-80.754311
 11
40.333984
 21
-77.391266
  0
LINE
  8
0
 10
16.639750
 20
-52.438374
 11
26.639751
 21
-52.438374
  0
LINE
  8
0
 10
16.639750
 20
-48.938374
 11
26.639751
 21
-48.938374
  0
LINE
  8
0
 10
6.439750
 20
-52.438374
 11
16.439751
 21
-52.438374
  0
LINE
  8
0
 10
6.439750
 20
-48.938374
 11
16.439751
 21
-48.938374
  0
LINE
  8
0
 10
-3.760250
 20
-52.438374
 11
6.239750
 21
-52.438374
  0
LINE
  8
0
 10
-3.760250
 20
-48.938374
 11
6.239750
 21
-48.938374
  0
LINE
  8
0
 10
-15.766015
 20
-79.138374
 11
-15.766015
 21
-63.938374
  0
LINE
  8
0
 10
-15.766015
 20
-79.138374
 11
48.833984
 21
-79.138374
  0
LINE
  8
0
 10
48.833984
 20
-79.138374
 11
48.833984
 21
-63.938374
  0
LINE
  8
0
 10
-15.766015
 20
-63.938374
 11
48.833984
 21
-63.938374
  0
LINE
  8
0
  6
CENTER
 62
     2
 10
-2.474629
 20
-74.138374
 11
35.480343
 21
-74.138374
  0
LINE
  8
0
  6
CENTER
 62
     2
 10
21.639750
 20
-32.677135
 11
21.639750
 21
-77.399017
  0
LINE
  8
0
 10
21.366417
 20
-62.238373
 11
21.366417
 21
-63.238373
  0
LINE
  8
0
 10
21.913084
 20
-62.238373
 11
21.913084
 21
-63.238373
  0
LINE
  8
0
 10
21.913084
 20
-62.238373
 11
24.339750
 21
-62.238373
  0
LINE
  8
0
 10
18.739750
 20
-62.438374
 11
18.739750
 21
-63.238373
  0
LINE
  8
0
 10
24.539749
 20
-62.438374
 11
24.539749
 21
-63.238373
  0
LINE
  8
0
 10
18.939751
 20
-62.238373
 11
21.366417
 21
-62.238373
  0
LINE
  8
0
 10
19.339750
 20
-61.138374
 11
19.339750
 21
-62.238373
  0
LINE
  8
0
 10
23.939751
 20
-61.138374
 11
23.939751
 21
-62.238373
  0
LINE
  8
0
 10
16.639750
 20
-44.338375
 11
26.639751
 21
-44.338375
  0
LINE
  8
0
 10
21.986418
 20
-61.138374
 11
21.986418
 21
-62.238373
  0
LINE
  8
0
 10
21.839750
 20
-61.138374
 11
21.839750
 21
-63.238373
  0
LINE
  8
0
 10
21.439751
 20
-61.138374
 11
21.439751
 21
-63.238373
  0
LINE
  8
0
 10
21.293083
 20
-61.138374
 11
21.293083
 21
-62.238373
  0
LINE
  8
0
 10
17.339750
 20
-62.938374
 11
17.339750
 21
-61.438374
  0
LINE
  8
0
 10
25.939751
 20
-62.938374
 11
25.939751
 21
-61.438374
  0
LINE
  8
0
 10
17.639750
 20
-61.138374
 11
25.639751
 21
-61.138374
  0
LINE
  8
0
 10
17.639750
 20
-63.238373
 11
25.639751
 21
-63.238373
  0
LINE
  8
0
 10
26.639751
 20
-63.938374
 11
26.639751
 21
-44.338375
  0
LINE
  8
0
 10
16.639750
 20
-63.938374
 11
16.639750
 21
-44.338375
  0
LINE
  8
0
 10
6.439750
 20
-63.938374
 11
6.439750
 21
-44.338375
  0
LINE
  8
0
 10
16.439751
 20
-63.938374
 11
16.439751
 21
-44.338375
  0
LINE
  8
0
 10
7.439750
 20
-63.238373
 11
15.439751
 21
-63.238373
  0
LINE
  8
0
 10
7.439750
 20
-61.138374
 11
15.439751
 21
-61.138374
  0
LINE
  8
0
 10
15.739750
 20
-62.938374
 11
15.739750
 21
-61.438374
  0
LINE
  8
0
 10
7.139750
 20
-62.938374
 11
7.139750
 21
-61.438374
  0
LINE
  8
0
 10
11.093082
 20
-61.138374
 11
11.093082
 21
-62.238373
  0
LINE
  8
0
 10
11.239750
 20
-61.138374
 11
11.239750
 21
-63.238373
  0
LINE
  8
0
 10
11.639750
 20
-61.138374
 11
11.639750
 21
-63.238373
  0
LINE
  8
0
 10
11.786417
 20
-61.138374
 11
11.786417
 21
-62.238373
  0
LINE
  8
0
 10
6.439750
 20
-44.338375
 11
16.439751
 21
-44.338375
  0
LINE
  8
0
 10
13.739750
 20
-61.138374
 11
13.739750
 21
-62.238373
  0
LINE
  8
0
 10
9.139750
 20
-61.138374
 11
9.139750
 21
-62.238373
  0
LINE
  8
0
 10
8.739750
 20
-62.238373
 11
11.166416
 21
-62.238373
  0
LINE
  8
0
 10
14.339750
 20
-62.438374
 11
14.339750
 21
-63.238373
  0
LINE
  8
0
 10
8.539750
 20
-62.438374
 11
8.539750
 21
-63.238373
  0
LINE
  8
0
 10
11.713083
 20
-62.238373
 11
14.139750
 21
-62.238373
  0
LINE
  8
0
 10
11.713083
 20
-62.238373
 11
11.713083
 21
-63.238373
  0
LINE
  8
0
 10
11.166416
 20
-62.238373
 11
11.166416
 21
-63.238373
  0
LINE
  8
0
  6
CENTER
 62
     2
 10
11.439751
 20
-41.966957
 11
11.439751
 21
-77.399017
  0
LINE
  8
0
 10
-3.760250
 20
-63.938374
 11
-3.760250
 21
-44.338375
  0
LINE
  8
0
 10
6.239750
 20
-63.938374
 11
6.239750
 21
-44.338375
  0
LINE
  8
0
 10
-2.760250
 20
-63.238373
 11
5.239750
 21
-63.238373
  0
LINE
  8
0
 10
-2.760250
 20
-61.138374
 11
5.239750
 21
-61.138374
  0
LINE
  8
0
 10
5.539750
 20
-62.938374
 11
5.539750
 21
-61.438374
  0
LINE
  8
0
 10
-3.060250
 20
-62.938374
 11
-3.060250
 21
-61.438374
  0
LINE
  8
0
 10
0.893083
 20
-61.138374
 11
0.893083
 21
-62.238373
  0
LINE
  8
0
 10
1.039750
 20
-61.138374
 11
1.039750
 21
-63.238373
  0
LINE
  8
0
 10
1.439750
 20
-61.138374
 11
1.439750
 21
-63.238373
  0
LINE
  8
0
 10
1.586417
 20
-61.138374
 11
1.586417
 21
-62.238373
  0
LINE
  8
0
 10
-3.760250
 20
-44.338375
 11
6.239750
 21
-44.338375
  0
LINE
  8
0
 10
3.539750
 20
-61.138374
 11
3.539750
 21
-62.238373
  0
LINE
  8
0
 10
-1.060250
 20
-61.138374
 11
-1.060250
 21
-62.238373
  0
LINE
  8
0
 10
-1.460250
 20
-62.238373
 11
0.966416
 21
-62.238373
  0
LINE
  8
0
 10
4.139750
 20
-62.438374
 11
4.139750
 21
-63.238373
  0
LINE
  8
0
 10
-1.660250
 20
-62.438374
 11
-1.660250
 21
-63.238373
  0
LINE
  8
0
 10
1.513083
 20
-62.238373
 11
3.939750
 21
-62.238373
  0
LINE
  8
0
 10
1.513083
 20
-62.238373
 11
1.513083
 21
-63.238373
  0
LINE
  8
0
 10
0.966416
 20
-62.238373
 11
0.966416
 21
-63.238373
  0
LINE
  8
0
  6
CENTER
 62
     2
 10
1.239750
 20
-41.966957
 11
1.239750
 21
-77.399017
  0
LINE
  8
0
 62
     4
 10
-3.760250
 20
-43.338375
 11
6.239750
 21
-43.338375
  0
LINE
  8
0
 62
     4
 10
3.489750
 20
-38.448376
 11
3.489750
 21
-35.138374
  0
LINE
  8
0
 62
     4
 10
4.789750
 20
-38.798374
 11
4.789750
 21
-35.138374
  0
LINE
  8
0
 62
     4
 10
4.789750
 20
-35.138374
 11
3.489750
 21
-35.138374
  0
LINE
  8
0
 62
     4
 10
4.389750
 20
-31.138374
 11
3.889750
 21
-31.138374
  0
LINE
  8
0
 62
     4
 10
4.389750
 20
-35.138374
 11
4.389750
 21
-31.138374
  0
LINE
  8
0
 62
     4
 10
3.889750
 20
-35.138374
 11
3.889750
 21
-31.138374
  0
LINE
  8
0
 62
     1
 10
5.739750
 20
-39.058372
 11
2.539751
 21
-38.198376
  0
LINE
  8
0
 62
     1
 10
5.739750
 20
-40.088375
 11
2.539749
 21
-39.228374
  0
LINE
  8
0
 62
     4
 10
3.489750
 20
-43.338375
 11
3.489750
 21
-39.488373
  0
LINE
  8
0
 62
     4
 10
4.789750
 20
-43.338375
 11
4.789750
 21
-39.838375
  0
LINE
  8
0
 62
     1
 10
-0.060252
 20
-39.058376
 11
-3.260251
 21
-38.198376
  0
LINE
  8
0
 62
     1
 10
-0.060250
 20
-40.088375
 11
-3.260250
 21
-39.228374
  0
LINE
  8
0
 62
     4
 10
-2.310250
 20
-43.338375
 11
-2.310250
 21
-39.488373
  0
LINE
  8
0
 62
     4
 10
-1.010250
 20
-43.338375
 11
-1.010250
 21
-39.838375
  0
LINE
  8
0
 62
     4
 10
-1.910250
 20
-35.138374
 11
-1.910250
 21
-31.138374
  0
LINE
  8
0
 62
     4
 10
-1.410250
 20
-35.138374
 11
-1.410250
 21
-31.138374
  0
LINE
  8
0
 62
     4
 10
-1.410250
 20
-31.138374
 11
-1.910250
 21
-31.138374
  0
LINE
  8
0
 62
     4
 10
-1.010250
 20
-35.138374
 11
-2.310250
 21
-35.138374
  0
LINE
  8
0
 62
     4
 10
-1.010250
 20
-38.798374
 11
-1.010250
 21
-35.138374
  0
LINE
  8
0
 62
     4
 10
-2.310250
 20
-38.448376
 11
-2.310250
 21
-35.138374
  0
LINE
  8
0
 62
     4
 10
16.639750
 20
-38.838375
 11
26.639751
 21
-38.838375
  0
LINE
  8
0
 62
     4
 10
16.939751
 20
-38.738373
 11
26.339748
 21
-38.738373
  0
LINE
  8
0
 62
     4
 10
16.939751
 20
-33.738373
 11
26.339748
 21
-33.738373
  0
LINE
  8
0
 62
     4
 10
26.339748
 20
-33.738373
 11
26.339748
 21
-38.738373
  0
LINE
  8
0
 62
     4
 10
16.939751
 20
-33.738373
 11
16.939751
 21
-38.738373
  0
LINE
  8
0
 62
     4
 10
25.739750
 20
-38.738373
 11
25.739750
 21
-38.838375
  0
LINE
  8
0
 10
17.539749
 20
-38.738373
 11
17.539749
 21
-38.838375
  0
LINE
  8
0
 62
     4
 10
16.939751
 20
-34.738373
 11
26.339748
 21
-34.738373
  0
LINE
  8
0
 62
     4
 10
16.939751
 20
-34.449699
 11
26.339748
 21
-34.449699
  0
LINE
  8
0
 62
     4
 10
19.779751
 20
-27.387833
 11
19.779751
 21
-23.308372
  0
LINE
  8
0
 62
     4
 10
18.349751
 20
-27.003521
 11
18.349751
 21
-23.308372
  0
LINE
  8
0
 62
     4
 10
18.349751
 20
-33.738373
 11
18.349751
 21
-28.033520
  0
LINE
  8
0
 62
     4
 10
19.779751
 20
-33.738373
 11
19.779751
 21
-28.417831
  0
LINE
  8
0
 62
     4
 10
18.739750
 20
-23.308372
 11
18.739750
 21
-18.308372
  0
LINE
  8
0
 62
     4
 10
19.539749
 20
-23.308372
 11
19.539749
 21
-18.308372
  0
LINE
  8
0
 62
     4
 10
18.419750
 20
-23.308372
 11
19.849751
 21
-23.308372
  0
LINE
  8
0
 62
     4
 10
18.739750
 20
-18.308372
 11
19.539749
 21
-18.308372
  0
LINE
  8
0
 62
     4
 10
24.859749
 20
-28.753082
 11
24.859749
 21
-23.308372
  0
LINE
  8
0
 62
     4
 10
23.429750
 20
-28.368771
 11
23.429750
 21
-23.308372
  0
LINE
  8
0
 62
     4
 10
23.429750
 20
-33.738373
 11
23.429750
 21
-29.398769
  0
LINE
  8
0
 62
     4
 10
24.859749
 20
-33.738373
 11
24.859749
 21
-29.783081
  0
LINE
  8
0
 62
     4
 10
24.539749
 20
-23.308372
 11
24.539749
 21
-18.308372
  0
LINE
  8
0
 62
     4
 10
23.739750
 20
-23.308372
 11
23.739750
 21
-18.308372
  0
LINE
  8
0
 62
     4
 10
24.859749
 20
-23.308372
 11
23.429750
 21
-23.308372
  0
LINE
  8
0
 62
     4
 10
24.539749
 20
-18.308372
 11
23.739750
 21
-18.308372
  0
LINE
  8
0
 62
     1
 10
25.976028
 20
-30.083078
 11
17.178936
 21
-27.718861
  0
LINE
  8
0
 62
     1
 10
25.976028
 20
-29.053083
 11
17.178934
 21
-26.688866
  0
LINE
  8
0
  6
CENTER
 62
     2
 10
31.834751
 20
-58.888374
 11
31.834751
 21
-77.399017
  0
LINE
  8
0
 62
     4
 10
34.434750
 20
-60.738373
 11
36.234749
 21
-60.738373
  0
LINE
  8
0
 62
     4
 10
27.434750
 20
-60.738373
 11
29.234749
 21
-60.738373
  0
LINE
  8
0
 62
     4
 10
36.834751
 20
-61.338375
 11
36.834751
 21
-62.938374
  0
LINE
  8
0
 62
     4
 10
26.834751
 20
-61.338375
 11
26.834751
 21
-62.938374
  0
LINE
  8
0
 62
     4
 10
26.834751
 20
-61.338375
 11
36.834751
 21
-61.338375
  0
LINE
  8
0
  6
CENTER
 62
     2
 10
-7.260250
 20
-80.754311
 11
-7.260250
 21
-77.391266
  0
LINE
  8
0
 10
26.834740
 20
-62.938351
 11
26.834740
 21
-63.938351
  0
LINE
  8
0
 10
26.834740
 20
-63.938351
 11
36.834740
 21
-63.938351
  0
LINE
  8
0
 62
     4
 10
36.834740
 20
-62.938351
 11
26.834740
 21
-62.938351
  0
LINE
  8
0
 10
36.834740
 20
-62.938351
 11
36.834740
 21
-63.938351
  0
LINE
  8
0
 62
     4
 10
26.639751
 20
-44.338375
 11
26.639751
 21
-38.838375
  0
LINE
  8
0
 62
     4
 10
16.639750
 20
-44.338375
 11
16.639750
 21
-38.838375
  0
LINE
  8
0
 62
     4
 10
6.239750
 20
-44.338375
 11
6.239750
 21
-43.338375
  0
LINE
  8
0
 62
     4
 10
-3.760250
 20
-44.338375
 11
-3.760250
 21
-43.338375
  0
LINE
  8
0
 62
     4
 10
-40.130249
 20
22.221624
 11
-40.130249
 21
23.021624
  0
LINE
  8
0
 62
     4
 10
-71.400253
 20
69.391624
 11
-72.200249
 21
69.391624
  0
LINE
  8
0
 10
-85.760254
 20
5.861624
 11
-74.260254
 21
5.861624
  0
LINE
  8
0
 10
-74.260254
 20
5.861624
 11
-74.260254
 21
11.644480
  0
LINE
  8
0
 10
-74.260246
 20
11.644478
 11
-70.760246
 21
12.261622
  0
LINE
  8
0
 10
-100.960251
 20
8.061625
 11
-98.960251
 21
11.525725
  0
LINE
  8
0
 10
-98.960251
 20
11.525725
 11
-98.960251
 21
19.597523
  0
LINE
  8
0
 10
-100.960243
 20
23.061628
 11
-98.960243
 21
19.597527
  0
LINE
  8
0
 10
-85.760254
 20
1.061624
 11
-100.960251
 21
1.061624
  0
LINE
  8
0
  6
CENTER
 62
     2
 10
-93.760254
 20
18.061625
 11
-93.760254
 21
29.751858
  0
LINE
  8
0
 10
-100.960251
 20
30.061623
 11
-85.760254
 21
30.061623
  0
LINE
  8
0
 10
-100.960251
 20
23.061623
 11
-100.960251
 21
30.061623
  0
LINE
  8
0
 10
-100.960251
 20
8.061624
 11
-100.960251
 21
1.061624
  0
LINE
  8
0
  6
CENTER
 62
     2
 10
-87.760254
 20
24.061623
 11
-99.760254
 21
24.061623
  0
LINE
  8
0
  6
CENTER
 62
     2
 10
-91.760254
 20
3.561624
 11
-91.760254
 21
15.561624
  0
LINE
  8
0
  6
CENTER
 62
     2
 10
-86.228302
 20
9.561624
 11
-97.760254
 21
9.561624
  0
LINE
  8
0
 10
-71.160248
 20
13.361624
 11
-71.160248
 21
15.361624
  0
LINE
  8
0
 10
-71.660248
 20
15.861624
 11
-71.760254
 21
15.861624
  0
LINE
  8
0
 10
-71.660248
 20
12.861624
 11
-71.760254
 21
12.861624
  0
LINE
  8
0
 62
     4
 10
-50.270252
 20
25.211624
 11
-46.960251
 21
25.211624
  0
LINE
  8
0
 62
     4
 10
-50.620251
 20
23.911625
 11
-46.960251
 21
23.911625
  0
LINE
  8
0
 62
     4
 10
-46.960251
 20
24.311623
 11
-42.960251
 21
24.311623
  0
LINE
  8
0
 62
     4
 10
-46.960251
 20
24.811623
 11
-42.960251
 21
24.811623
  0
LINE
  8
0
 62
     4
 10
-42.960251
 20
24.811623
 11
-42.960251
 21
24.311623
  0
LINE
  8
0
 62
     1
 10
-51.726040
 20
23.647055
 11
-51.174656
 21
25.698713
  0
LINE
  8
0
 62
     1
 10
-50.715481
 20
23.574720
 11
-50.120270
 21
25.789450
  0
LINE
  8
0
 62
     4
 10
-65.160248
 20
25.211624
 11
-51.310249
 21
25.211624
  0
LINE
  8
0
 62
     4
 10
-65.160248
 20
23.911625
 11
-51.660252
 21
23.911625
  0
LINE
  8
0
 10
-70.760254
 20
12.761623
 11
-71.760254
 21
12.761623
  0
LINE
  8
0
 10
-70.760254
 20
15.961624
 11
-71.760254
 21
15.961624
  0
LINE
  8
0
 10
-71.760254
 20
12.761623
 11
-71.760254
 21
15.961624
  0
LINE
  8
0
 62
     4
 10
-84.560249
 20
37.861626
 11
-66.460251
 21
37.861626
  0
LINE
  8
0
 62
     4
 10
-72.060249
 20
36.361626
 11
-72.060249
 21
20.261623
  0
LINE
  8
0
 62
     4
 10
-66.160248
 20
20.361624
 11
-66.160248
 21
37.561623
  0
LINE
  8
0
 62
     4
 10
-84.560249
 20
37.861626
 11
-84.560249
 21
36.361626
  0
LINE
  8
0
 62
     4
 10
-72.060249
 20
20.361624
 11
-66.160248
 21
20.361624
  0
LINE
  8
0
 62
     4
 10
-65.360252
 20
26.561623
 11
-66.160248
 21
26.561623
  0
LINE
  8
0
 62
     4
 10
-65.160248
 20
22.761623
 11
-65.160248
 21
26.361624
  0
LINE
  8
0
 62
     4
 10
-65.360252
 20
22.561623
 11
-66.160248
 21
22.561623
  0
LINE
  8
0
 10
-82.560249
 20
6.561624
 11
-82.560249
 21
7.361624
  0
LINE
  8
0
 10
-74.960251
 20
7.361624
 11
-74.960251
 21
6.561624
  0
LINE
  8
0
 10
-74.960251
 20
7.361624
 11
-82.560249
 21
7.361624
  0
LINE
  8
0
 10
-70.760254
 20
12.261623
 11
-70.760254
 21
18.952442
  0
LINE
  8
0
 10
-85.760254
 20
37.861626
 11
-85.760254
 21
1.061624
  0
LINE
  8
0
 10
-85.760254
 20
37.861626
 11
-84.860252
 21
37.861626
  0
LINE
  8
0
 10
-74.960251
 20
6.561624
 11
-82.560249
 21
6.561624
  0
LINE
  8
0
 10
-72.060249
 20
20.261623
 11
-66.160248
 21
20.261623
  0
LINE
  8
0
 10
-70.760246
 20
18.952442
 11
-66.160248
 21
19.763546
  0
LINE
  8
0
 10
-66.160248
 20
19.763546
 11
-66.160248
 21
20.261623
  0
LINE
  8
0
 10
-66.760254
 20
20.361624
 11
-66.760254
 21
20.261623
  0
LINE
  8
0
 10
-84.860252
 20
37.861626
 11
-84.560249
 21
37.561623
  0
LINE
  8
0
 62
     4
 10
-72.060249
 20
36.361626
 11
-84.560249
 21
36.361626
  0
LINE
  8
0
  6
CENTER
 62
     2
 10
-78.760254
 20
4.076618
 11
-78.760254
 21
39.997677
  0
LINE
  8
0
 62
     4
 10
-68.760254
 20
37.861626
 11
-68.760254
 21
43.861626
  0
LINE
  8
0
 62
     4
 10
-74.060249
 20
37.861626
 11
-74.060249
 21
43.861626
  0
LINE
  8
0
 62
     4
 10
-70.260254
 20
43.861626
 11
-70.260254
 21
43.961624
  0
LINE
  8
0
 62
     4
 10
-73.360252
 20
43.861626
 11
-73.360252
 21
43.961624
  0
LINE
  8
0
 62
     4
 10
-74.060249
 20
43.961624
 11
-74.060249
 21
47.961624
  0
LINE
  8
0
 62
     4
 10
-68.760254
 20
47.961624
 11
-67.760254
 21
47.961624
  0
LINE
  8
0
 62
     4
 10
-69.260254
 20
43.961624
 11
-74.060249
 21
43.961624
  0
LINE
  8
0
 62
     4
 10
-69.260254
 20
43.861626
 11
-69.260254
 21
48.961624
  0
LINE
  8
0
 62
     4
 10
-68.960251
 20
47.961624
 11
-68.760254
 21
47.961624
  0
LINE
  8
0
  6
PHANTOM
 62
     4
 10
-69.260254
 20
44.761623
 11
-69.260254
 21
46.260239
  0
LINE
  8
0
 62
     4
 10
-68.960251
 20
47.961620
 11
-69.260254
 21
46.260239
  0
LINE
  8
0
 62
     4
 10
-68.260254
 20
40.427650
 11
-68.260254
 21
46.961624
  0
LINE
  8
0
 62
     4
 10
-74.560249
 20
48.961624
 11
-69.260254
 21
48.961624
  0
LINE
  8
0
 62
     4
 10
-68.760246
 20
39.561623
 11
-68.260246
 21
40.427650
  0
LINE
  8
0
 62
     4
 10
-67.760254
 20
47.250298
 11
-67.760254
 21
47.961624
  0
LINE
  8
0
 62
     4
 10
-68.260254
 20
46.961628
 11
-67.760254
 21
47.250298
  0
LINE
  8
0
 62
     4
 10
-74.560249
 20
48.250298
 11
-74.560249
 21
48.961624
  0
LINE
  8
0
 62
     4
 10
-74.060249
 20
47.961624
 11
-74.560249
 21
48.250294
  0
LINE
  8
0
 62
     4
 10
-68.760254
 20
43.861626
 11
-74.060249
 21
43.861626
  0
LINE
  8
0
 62
     1
 10
-74.800247
 20
54.971622
 11
-68.800247
 21
53.071621
  0
LINE
  8
0
 62
     1
 10
-74.800247
 20
56.211624
 11
-68.800247
 21
54.311623
  0
LINE
  8
0
 62
     4
 10
-72.510254
 20
55.486458
 11
-72.510254
 21
59.391624
  0
LINE
  8
0
 62
     4
 10
-71.080254
 20
55.033623
 11
-71.080254
 21
59.391624
  0
LINE
  8
0
 62
     4
 10
-71.080254
 20
59.391624
 11
-72.510254
 21
59.391624
  0
LINE
  8
0
 62
     4
 10
-71.080254
 20
48.961624
 11
-71.080254
 21
53.793625
  0
LINE
  8
0
 62
     4
 10
-72.510254
 20
48.961624
 11
-72.510254
 21
54.246460
  0
LINE
  8
0
 62
     4
 10
-60.660252
 20
20.361624
 11
-66.160248
 21
20.361624
  0
LINE
  8
0
 62
     4
 10
-60.660252
 20
25.661625
 11
-65.160248
 21
25.661625
  0
LINE
  8
0
 62
     4
 10
-55.560249
 20
21.911625
 11
-50.940250
 21
21.911625
  0
LINE
  8
0
 62
     4
 10
-55.560249
 20
23.341623
 11
-50.560249
 21
23.341623
  0
LINE
  8
0
 62
     4
 10
-45.130249
 20
23.341623
 11
-45.130249
 21
21.911625
  0
LINE
  8
0
 62
     4
 10
-49.320251
 20
23.341623
 11
-45.130249
 21
23.341623
  0
LINE
  8
0
 62
     4
 10
-49.700253
 20
21.911625
 11
-45.130249
 21
21.911625
  0
LINE
  8
0
 62
     1
 10
-49.922390
 20
21.076103
 11
-49.223377
 21
23.697412
  0
LINE
  8
0
 62
     1
 10
-51.132290
 20
21.188986
 11
-50.451519
 21
23.741871
  0
LINE
  8
0
 62
     4
 10
-56.560253
 20
20.361626
 11
-56.271576
 21
19.861622
  0
LINE
  8
0
 62
     4
 10
-56.271576
 20
19.861624
 11
-55.560249
 21
19.861624
  0
LINE
  8
0
 62
     4
 10
-57.560253
 20
26.161621
 11
-57.271576
 21
26.661623
  0
LINE
  8
0
 62
     4
 10
-57.271576
 20
26.661625
 11
-56.560249
 21
26.661625
  0
LINE
  8
0
 62
     4
 10
-64.960251
 20
25.661623
 11
-64.094223
 21
26.161625
  0
LINE
  8
0
 62
     4
 10
-60.660252
 20
21.061623
 11
-60.560249
 21
21.061623
  0
LINE
  8
0
 62
     4
 10
-55.560249
 20
19.861624
 11
-55.560249
 21
23.911625
  0
LINE
  8
0
 62
     4
 10
-64.094223
 20
26.161625
 11
-57.560249
 21
26.161625
  0
LINE
  8
0
 62
     4
 10
-56.560253
 20
25.461378
 11
-57.976685
 21
25.211622
  0
LINE
  8
0
 62
     4
 10
-60.560249
 20
23.911625
 11
-60.560249
 21
20.361624
  0
LINE
  8
0
 62
     4
 10
-56.560249
 20
25.461380
 11
-56.560249
 21
26.661625
  0
LINE
  8
0
 62
     4
 10
-60.560249
 20
20.361624
 11
-56.560249
 21
20.361624
  0
LINE
  8
0
 62
     4
 10
-60.660252
 20
20.361624
 11
-60.660252
 21
23.911625
  0
LINE
  8
0
 62
     4
 10
-60.660252
 20
25.211624
 11
-60.660252
 21
25.661625
  0
LINE
  8
0
 62
     4
 10
-46.960251
 20
25.211624
 11
-46.960251
 21
23.911625
  0
LINE
  8
0
  6
CENTER
 62
     2
 10
-102.250374
 20
16.861624
 11
-97.286575
 21
16.861624
  0
LINE
  8
0
 62
     4
 10
-45.130249
 20
23.021624
 11
-40.130249
 21
23.021624
  0
LINE
  8
0
 62
     4
 10
-45.130249
 20
22.221624
 11
-40.130249
 21
22.221624
  0
LINE
  8
0
 62
     4
 10
-72.200249
 20
59.391624
 11
-72.200249
 21
69.391624
  0
LINE
  8
0
 62
     4
 10
-71.400253
 20
59.391624
 11
-71.400253
 21
69.391624
  0
LINE
  8
0
 62
     4
 10
26.844749
 20
18.366625
 11
26.844749
 21
9.366626
  0
LINE
  8
0
 62
     4
 10
34.704750
 20
13.726625
 11
35.974751
 21
14.996625
  0
LINE
  8
0
 62
     4
 10
35.974751
 20
13.726627
 11
34.704750
 21
14.996625
  0
LINE
  8
0
 62
     4
 10
36.844749
 20
15.466625
 11
36.364750
 21
15.466625
  0
LINE
  8
0
 62
     4
 10
36.844749
 20
13.266625
 11
36.364750
 21
13.266625
  0
LINE
  8
0
 62
     4
 10
28.974751
 20
13.726625
 11
27.704752
 21
14.996626
  0
LINE
  8
0
 62
     4
 10
27.704752
 20
13.726624
 11
28.974751
 21
14.996626
  0
LINE
  8
0
 62
     4
 10
27.844749
 20
8.366626
 11
35.844749
 21
8.366626
  0
LINE
  8
0
 62
     4
 10
27.844749
 20
19.366627
 11
35.844749
 21
19.366627
  0
LINE
  8
0
 62
     4
 10
36.844749
 20
18.366625
 11
36.844749
 21
9.366626
  0
LINE
  8
0
 62
     4
 10
26.844749
 20
13.266625
 11
27.324749
 21
13.266625
  0
LINE
  8
0
 62
     4
 10
26.844749
 20
15.466625
 11
27.324749
 21
15.466625
  0
LINE
  8
0
  6
CENTER
 62
     2
 10
31.844749
 20
6.596625
 11
31.844749
 21
20.926626
  0
LINE
  8
0
 10
16.639750
 20
30.061626
 11
16.439751
 21
30.061626
  0
LINE
  8
0
 10
-3.760250
 20
30.061626
 11
-15.760250
 21
30.061626
  0
LINE
  8
0
 10
6.439750
 20
30.061626
 11
6.239750
 21
30.061626
  0
LINE
  8
0
 10
-15.760250
 20
1.061625
 11
48.839748
 21
1.061625
  0
LINE
  8
0
 10
-15.760250
 20
1.061625
 11
-15.760250
 21
30.061626
  0
LINE
  8
0
 10
48.839748
 20
30.061626
 11
26.639751
 21
30.061626
  0
LINE
  8
0
  6
CENTER
 62
     2
 10
42.773861
 20
16.861626
 11
37.852436
 21
16.861626
  0
LINE
  8
0
  6
CENTER
 62
     2
 10
40.339748
 20
14.114407
 11
40.339748
 21
19.420515
  0
LINE
  8
0
 10
48.839748
 20
1.061625
 11
48.839748
 21
30.061626
  0
LINE
  8
0
 10
-15.766015
 20
1.061625
 11
-15.766015
 21
30.061626
  0
LINE
  8
0
  6
CENTER
 62
     2
 10
1.239750
 20
4.076620
 11
1.239750
 21
39.997681
  0
LINE
  8
0
 10
-1.154621
 20
11.820809
 11
-1.410250
 21
12.261625
  0
LINE
  8
0
 10
3.889750
 20
12.261625
 11
3.634120
 21
11.820807
  0
LINE
  8
0
 10
0.095380
 20
13.070808
 11
-0.160250
 21
13.511625
  0
LINE
  8
0
 10
-1.410250
 20
12.261625
 11
-0.160250
 21
13.511625
  0
LINE
  8
0
 10
0.095380
 20
13.070808
 11
-1.154620
 21
11.820808
  0
LINE
  8
0
 10
2.384120
 20
13.070808
 11
2.639750
 21
13.511625
  0
LINE
  8
0
 10
6.239750
 20
18.952442
 11
-3.760250
 21
18.952442
  0
LINE
  8
0
 10
2.384120
 20
13.070808
 11
3.634120
 21
11.820808
  0
LINE
  8
0
 10
6.239750
 20
11.820808
 11
3.634120
 21
11.820808
  0
LINE
  8
0
 10
-1.154621
 20
11.820808
 11
-3.760250
 21
11.820808
  0
LINE
  8
0
 10
0.095379
 20
13.070808
 11
2.384120
 21
13.070808
  0
LINE
  8
0
 10
6.239750
 20
12.261625
 11
3.889750
 21
12.261625
  0
LINE
  8
0
 10
3.889750
 20
12.261626
 11
2.639750
 21
13.511626
  0
LINE
  8
0
 10
-0.160250
 20
13.511625
 11
2.639750
 21
13.511625
  0
LINE
  8
0
 10
-1.410250
 20
12.261625
 11
-3.760250
 21
12.261625
  0
LINE
  8
0
 10
-3.760250
 20
19.763548
 11
6.239750
 21
19.763548
  0
LINE
  8
0
 10
6.239750
 20
20.261625
 11
-3.760250
 21
20.261625
  0
LINE
  8
0
 10
4.739750
 20
15.961626
 11
6.239750
 21
15.961626
  0
LINE
  8
0
 10
6.239750
 20
12.761625
 11
4.739750
 21
12.761625
  0
LINE
  8
0
 10
-2.260250
 20
12.761625
 11
-3.760250
 21
12.761625
  0
LINE
  8
0
 10
-3.760250
 20
15.961626
 11
-2.260250
 21
15.961626
  0
LINE
  8
0
 62
     4
 10
-3.760250
 20
37.861626
 11
-3.760250
 21
20.361626
  0
LINE
  8
0
  6
CENTER
 62
     2
 10
3.739750
 20
16.111626
 11
-1.260250
 21
16.111626
  0
LINE
  8
0
 62
     4
 10
6.239750
 20
37.861626
 11
6.239750
 21
20.361626
  0
LINE
  8
0
 62
     4
 10
-3.760250
 20
37.861626
 11
6.239750
 21
37.861626
  0
LINE
  8
0
 62
     4
 10
6.239750
 20
20.361626
 11
-3.760250
 21
20.361626
  0
LINE
  8
0
 62
     1
 10
2.739750
 20
32.861626
 11
2.739750
 21
37.861626
  0
LINE
  8
0
 62
     1
 10
-0.260250
 20
32.861626
 11
-0.260250
 21
37.861626
  0
LINE
  8
0
 62
     1
 10
-0.260250
 20
32.861626
 11
2.739750
 21
32.861626
  0
LINE
  8
0
 62
     4
 10
4.139750
 20
22.561626
 11
-1.660250
 21
22.561626
  0
LINE
  8
0
 62
     4
 10
4.139750
 20
26.561626
 11
-1.660250
 21
26.561626
  0
LINE
  8
0
 10
3.065264
 20
15.811625
 11
-0.585764
 21
15.811625
  0
LINE
  8
0
 10
3.115916
 20
16.411625
 11
-0.585764
 21
16.411625
  0
LINE
  8
0
 10
-2.967357
 20
13.654519
 11
-1.553143
 21
15.068732
  0
LINE
  8
0
 10
-2.967357
 20
15.068732
 11
-1.553143
 21
13.654519
  0
LINE
  8
0
 10
5.446856
 20
15.068733
 11
4.032642
 21
13.654519
  0
LINE
  8
0
 10
5.446856
 20
13.654519
 11
4.032643
 21
15.068733
  0
LINE
  8
0
 10
6.239750
 20
5.861626
 11
-3.760250
 21
5.861626
  0
LINE
  8
0
 62
     4
 10
8.939751
 20
43.861626
 11
6.439750
 21
43.861626
  0
LINE
  8
0
 62
     4
 10
13.939751
 20
42.995598
 11
14.339750
 21
42.995598
  0
LINE
  8
0
 62
     4
 10
13.939751
 20
41.461624
 11
14.339750
 21
41.461624
  0
LINE
  8
0
 62
     4
 10
8.939751
 20
40.327652
 11
13.939751
 21
40.327652
  0
LINE
  8
0
 62
     1
 10
10.189751
 20
43.961624
 11
10.189751
 21
44.961624
  0
LINE
  8
0
 62
     1
 10
12.689751
 20
43.961624
 11
12.689751
 21
44.961624
  0
LINE
  8
0
 62
     1
 10
10.189751
 20
44.961624
 11
8.939751
 21
44.961624
  0
LINE
  8
0
 62
     1
 10
13.939751
 20
44.961624
 11
12.689751
 21
44.961624
  0
LINE
  8
0
 62
     1
 10
10.189751
 20
43.961624
 11
8.939751
 21
43.961624
  0
LINE
  8
0
 62
     1
 10
13.939751
 20
43.961624
 11
12.689751
 21
43.961624
  0
LINE
  8
0
 62
     4
 10
7.839750
 20
43.961624
 11
6.739750
 21
43.961624
  0
LINE
  8
0
 62
     4
 10
6.739750
 20
43.961624
 11
6.739750
 21
48.961624
  0
LINE
  8
0
 62
     4
 10
8.939751
 20
39.461624
 11
8.939751
 21
47.961624
  0
LINE
  8
0
 62
     4
 10
7.339750
 20
43.861626
 11
7.339750
 21
43.961624
  0
LINE
  8
0
 62
     4
 10
7.839750
 20
43.861626
 11
7.839750
 21
48.961624
  0
LINE
  8
0
 62
     4
 10
15.039749
 20
43.861626
 11
15.039749
 21
48.961624
  0
LINE
  8
0
 62
     4
 10
15.539749
 20
43.861626
 11
15.539749
 21
43.961624
  0
LINE
  8
0
 62
     4
 10
8.939751
 20
46.961624
 11
13.939751
 21
46.961624
  0
LINE
  8
0
 62
     4
 10
8.939751
 20
47.250301
 11
13.939751
 21
47.250301
  0
LINE
  8
0
 62
     4
 10
13.939751
 20
39.461624
 11
13.939751
 21
47.961624
  0
LINE
  8
0
 62
     4
 10
16.139750
 20
43.961624
 11
16.139750
 21
48.961624
  0
LINE
  8
0
 62
     4
 10
13.939751
 20
47.961624
 11
8.939751
 21
47.961624
  0
LINE
  8
0
 62
     4
 10
15.039749
 20
43.961624
 11
16.139750
 21
43.961624
  0
LINE
  8
0
 62
     4
 10
16.139750
 20
48.961624
 11
6.739750
 21
48.961624
  0
LINE
  8
0
 62
     4
 10
13.939751
 20
39.461624
 11
8.939751
 21
39.461624
  0
LINE
  8
0
 62
     4
 10
13.299749
 20
48.961624
 11
13.299749
 21
53.961624
  0
LINE
  8
0
 62
     4
 10
14.729750
 20
48.961624
 11
14.729750
 21
53.581627
  0
LINE
  8
0
 62
     4
 10
13.619749
 20
69.391624
 11
14.419750
 21
69.391624
  0
LINE
  8
0
 62
     4
 10
13.299749
 20
59.391624
 11
14.729750
 21
59.391624
  0
LINE
  8
0
 62
     4
 10
14.419750
 20
59.391624
 11
14.419750
 21
69.391624
  0
LINE
  8
0
 62
     4
 10
13.619749
 20
59.391624
 11
13.619749
 21
69.391624
  0
LINE
  8
0
 62
     4
 10
13.299749
 20
55.201626
 11
13.299749
 21
59.391624
  0
LINE
  8
0
 62
     4
 10
14.729750
 20
54.821625
 11
14.729750
 21
59.391624
  0
LINE
  8
0
 62
     1
 10
16.467991
 20
54.358765
 11
5.921438
 21
57.171181
  0
LINE
  8
0
 62
     1
 10
16.208679
 20
53.187912
 11
5.921437
 21
55.931175
  0
LINE
  8
0
 62
     4
 10
8.219749
 20
48.961624
 11
8.219749
 21
55.318291
  0
LINE
  8
0
 62
     4
 10
9.649750
 20
48.961624
 11
9.649750
 21
54.936958
  0
LINE
  8
0
 62
     4
 10
9.649750
 20
56.176960
 11
9.649750
 21
59.391624
  0
LINE
  8
0
 62
     4
 10
8.219749
 20
56.558292
 11
8.219749
 21
59.391624
  0
LINE
  8
0
 62
     4
 10
9.259750
 20
59.391624
 11
9.259750
 21
69.391624
  0
LINE
  8
0
 62
     4
 10
8.459750
 20
59.391624
 11
8.459750
 21
69.391624
  0
LINE
  8
0
 62
     4
 10
9.579750
 20
59.391624
 11
8.149750
 21
59.391624
  0
LINE
  8
0
 62
     4
 10
9.259750
 20
69.391624
 11
8.459750
 21
69.391624
  0
LINE
  8
0
 62
     4
 10
16.439751
 20
43.861626
 11
13.939751
 21
43.861626
  0
LINE
  8
0
 62
     4
 10
16.439751
 20
37.861626
 11
6.439750
 21
37.861626
  0
LINE
  8
0
 62
     4
 10
8.539750
 20
42.995598
 11
8.939751
 21
42.995598
  0
LINE
  8
0
 62
     4
 10
8.539750
 20
41.461624
 11
8.939751
 21
41.461624
  0
LINE
  8
0
 62
     4
 10
8.539750
 20
37.861626
 11
8.539750
 21
43.861626
  0
LINE
  8
0
 62
     4
 10
14.339750
 20
37.861626
 11
14.339750
 21
43.861626
  0
LINE
  8
0
 62
     4
 10
6.439750
 20
20.361626
 11
16.439751
 21
20.361626
  0
LINE
  8
0
 62
     1
 10
12.939751
 20
32.861626
 11
12.939751
 21
37.861626
  0
LINE
  8
0
 62
     1
 10
12.939751
 20
32.861626
 11
9.939751
 21
32.861626
  0
LINE
  8
0
 62
     1
 10
9.939751
 20
32.861626
 11
9.939751
 21
37.861626
  0
LINE
  8
0
  6
CENTER
 62
     2
 10
11.439751
 20
4.076620
 11
11.439751
 21
51.279812
  0
LINE
  8
0
 10
9.045380
 20
11.820808
 11
8.789749
 21
12.261626
  0
LINE
  8
0
 10
14.089750
 20
12.261623
 11
13.834122
 21
11.820807
  0
LINE
  8
0
 10
10.295380
 20
13.070808
 11
10.039750
 21
13.511626
  0
LINE
  8
0
 10
8.789750
 20
12.261625
 11
10.039750
 21
13.511625
  0
LINE
  8
0
 10
10.295380
 20
13.070808
 11
9.045380
 21
11.820808
  0
LINE
  8
0
 10
12.584121
 20
13.070807
 11
12.839750
 21
13.511625
  0
LINE
  8
0
 10
16.439751
 20
18.952442
 11
6.439750
 21
18.952442
  0
LINE
  8
0
 10
12.584120
 20
13.070808
 11
13.834120
 21
11.820808
  0
LINE
  8
0
 10
16.439751
 20
11.820808
 11
13.834120
 21
11.820808
  0
LINE
  8
0
 10
9.045380
 20
11.820808
 11
6.439750
 21
11.820808
  0
LINE
  8
0
 10
10.295380
 20
13.070808
 11
12.584120
 21
13.070808
  0
LINE
  8
0
 10
16.439751
 20
12.261625
 11
14.089750
 21
12.261625
  0
LINE
  8
0
 10
14.089750
 20
12.261626
 11
12.839750
 21
13.511626
  0
LINE
  8
0
 10
10.039749
 20
13.511625
 11
12.839750
 21
13.511625
  0
LINE
  8
0
 10
8.789749
 20
12.261625
 11
6.439750
 21
12.261625
  0
LINE
  8
0
 10
6.439750
 20
19.763548
 11
16.439751
 21
19.763548
  0
LINE
  8
0
 10
16.439751
 20
20.261625
 11
6.439750
 21
20.261625
  0
LINE
  8
0
 10
14.939751
 20
15.961626
 11
16.439751
 21
15.961626
  0
LINE
  8
0
 10
16.439751
 20
12.761625
 11
14.939751
 21
12.761625
  0
LINE
  8
0
 10
7.939750
 20
12.761625
 11
6.439750
 21
12.761625
  0
LINE
  8
0
 10
6.439750
 20
15.961626
 11
7.939750
 21
15.961626
  0
LINE
  8
0
 62
     4
 10
6.439750
 20
43.861626
 11
6.439750
 21
20.361626
  0
LINE
  8
0
  6
CENTER
 62
     2
 10
13.939751
 20
16.111626
 11
8.939751
 21
16.111626
  0
LINE
  8
0
 62
     4
 10
16.439751
 20
43.861626
 11
16.439751
 21
20.361626
  0
LINE
  8
0
 10
13.265263
 20
15.811625
 11
9.614237
 21
15.811625
  0
LINE
  8
0
 10
13.265263
 20
16.411625
 11
9.614237
 21
16.411625
  0
LINE
  8
0
 10
7.232643
 20
13.654519
 11
8.646855
 21
15.068732
  0
LINE
  8
0
 10
7.232643
 20
15.068732
 11
8.646856
 21
13.654519
  0
LINE
  8
0
 10
15.646856
 20
15.068731
 11
14.232642
 21
13.654517
  0
LINE
  8
0
 10
15.646855
 20
13.654517
 11
14.232642
 21
15.068730
  0
LINE
  8
0
 10
16.439751
 20
5.861626
 11
6.439750
 21
5.861626
  0
LINE
  8
0
 62
     4
 10
16.939751
 20
20.361626
 11
16.639750
 21
20.361626
  0
LINE
  8
0
 10
16.939751
 20
20.261625
 11
16.639750
 21
20.261625
  0
LINE
  8
0
 62
     4
 10
24.139750
 20
25.661625
 11
26.339748
 21
25.661625
  0
LINE
  8
0
 62
     4
 10
24.139750
 20
24.661625
 11
24.539749
 21
24.661625
  0
LINE
  8
0
 62
     4
 10
19.139750
 20
25.461626
 11
24.139750
 21
25.461626
  0
LINE
  8
0
 62
     4
 10
19.139750
 20
26.661625
 11
24.139750
 21
26.661625
  0
LINE
  8
0
 62
     4
 10
17.939751
 20
24.161625
 11
25.339748
 21
24.161625
  0
LINE
  8
0
 62
     4
 10
16.939751
 20
19.861626
 11
16.939751
 21
25.161625
  0
LINE
  8
0
 62
     4
 10
26.339748
 20
19.861626
 11
26.339748
 21
25.161625
  0
LINE
  8
0
 62
     4
 10
16.939751
 20
19.861626
 11
26.339748
 21
19.861626
  0
LINE
  8
0
 62
     4
 10
18.549749
 20
21.561626
 11
18.549749
 21
21.061626
  0
LINE
  8
0
 62
     4
 10
19.649750
 20
21.561626
 11
19.649750
 21
21.061626
  0
LINE
  8
0
 62
     4
 10
18.149750
 20
23.661625
 11
20.049749
 21
23.661625
  0
LINE
  8
0
 62
     4
 10
18.223749
 20
21.561626
 11
19.973749
 21
21.561626
  0
LINE
  8
0
 62
     4
 10
18.549749
 20
21.061626
 11
19.649750
 21
21.061626
  0
LINE
  8
0
 62
     4
 10
22.889750
 20
25.161625
 11
22.889750
 21
24.161625
  0
LINE
  8
0
 62
     4
 10
20.389750
 20
25.161625
 11
20.389750
 21
24.161625
  0
LINE
  8
0
 62
     4
 10
16.939751
 20
25.161625
 11
17.939751
 21
25.161625
  0
LINE
  8
0
 62
     4
 10
17.939751
 20
24.161625
 11
17.939751
 21
25.161625
  0
LINE
  8
0
 62
     4
 10
26.339748
 20
25.161625
 11
25.339748
 21
25.161625
  0
LINE
  8
0
 62
     4
 10
25.339748
 20
24.161625
 11
25.339748
 21
25.161625
  0
LINE
  8
0
 62
     4
 10
20.049749
 20
23.661625
 11
20.173750
 21
21.773626
  0
LINE
  8
0
 62
     4
 10
18.023748
 20
21.773626
 11
18.149750
 21
23.661627
  0
LINE
  8
0
 62
     4
 10
20.689751
 20
23.661625
 11
22.589750
 21
23.661625
  0
LINE
  8
0
 62
     4
 10
20.563749
 20
21.773626
 11
20.689749
 21
23.661625
  0
LINE
  8
0
 62
     4
 10
20.763750
 20
21.561626
 11
22.513750
 21
21.561626
  0
LINE
  8
0
 62
     4
 10
21.089750
 20
21.561626
 11
21.089750
 21
21.061626
  0
LINE
  8
0
 62
     4
 10
21.089750
 20
21.061626
 11
22.189751
 21
21.061626
  0
LINE
  8
0
 62
     4
 10
22.189751
 20
21.561626
 11
22.189751
 21
21.061626
  0
LINE
  8
0
 62
     4
 10
22.589750
 20
23.661625
 11
22.713751
 21
21.773626
  0
LINE
  8
0
 62
     4
 10
21.239750
 20
23.061626
 11
21.239750
 21
22.261625
  0
LINE
  8
0
 62
     4
 10
22.039749
 20
23.061626
 11
21.239750
 21
23.061626
  0
LINE
  8
0
 62
     4
 10
22.039749
 20
23.061626
 11
22.039749
 21
22.261625
  0
LINE
  8
0
 62
     4
 10
22.039749
 20
22.261625
 11
21.239750
 21
22.261625
  0
LINE
  8
0
 62
     4
 10
23.229750
 20
23.661625
 11
25.129749
 21
23.661625
  0
LINE
  8
0
 62
     4
 10
23.103750
 20
21.773626
 11
23.229750
 21
23.661627
  0
LINE
  8
0
 62
     4
 10
23.303749
 20
21.561626
 11
25.053749
 21
21.561626
  0
LINE
  8
0
 62
     4
 10
23.629749
 20
21.561626
 11
23.629749
 21
21.061626
  0
LINE
  8
0
 62
     4
 10
23.629749
 20
21.061626
 11
24.729750
 21
21.061626
  0
LINE
  8
0
 62
     4
 10
24.729750
 20
21.561626
 11
24.729750
 21
21.061626
  0
LINE
  8
0
 62
     4
 10
25.129749
 20
23.661625
 11
25.253750
 21
21.773626
  0
LINE
  8
0
 62
     4
 10
19.139750
 20
26.661625
 11
19.139750
 21
24.161625
  0
LINE
  8
0
 62
     4
 10
24.139750
 20
26.661625
 11
24.139750
 21
24.161625
  0
LINE
  8
0
 62
     4
 10
18.739750
 20
25.161625
 11
24.539749
 21
25.161625
  0
LINE
  8
0
 62
     4
 10
24.539749
 20
24.661625
 11
24.539749
 21
25.661625
  0
LINE
  8
0
 62
     4
 10
18.739750
 20
24.661625
 11
18.739750
 21
25.661625
  0
LINE
  8
0
 62
     4
 10
18.739750
 20
24.661625
 11
19.139750
 21
24.661625
  0
LINE
  8
0
 62
     4
 10
16.939751
 20
25.661625
 11
19.139750
 21
25.661625
  0
LINE
  8
0
 62
     4
 10
26.339748
 20
37.861626
 11
16.939751
 21
37.861626
  0
LINE
  8
0
 62
     4
 10
26.639751
 20
20.361626
 11
26.339748
 21
20.361626
  0
LINE
  8
0
 62
     1
 10
23.139750
 20
32.861626
 11
20.139750
 21
32.861626
  0
LINE
  8
0
 62
     1
 10
23.139750
 20
32.861626
 11
23.139750
 21
37.861626
  0
LINE
  8
0
 62
     1
 10
20.139750
 20
32.861626
 11
20.139750
 21
37.861626
  0
LINE
  8
0
  6
CENTER
 62
     2
 10
21.639750
 20
4.076620
 11
21.639750
 21
39.997681
  0
LINE
  8
0
 10
19.245378
 20
11.820807
 11
18.989750
 21
12.261625
  0
LINE
  8
0
 10
24.289749
 20
12.261626
 11
24.034121
 21
11.820808
  0
LINE
  8
0
 10
20.495378
 20
13.070809
 11
20.239750
 21
13.511627
  0
LINE
  8
0
 10
18.989750
 20
12.261627
 11
20.239750
 21
13.511627
  0
LINE
  8
0
 10
20.495380
 20
13.070807
 11
19.245380
 21
11.820809
  0
LINE
  8
0
 10
22.784121
 20
13.070807
 11
23.039749
 21
13.511625
  0
LINE
  8
0
 10
26.639751
 20
18.952442
 11
16.639750
 21
18.952442
  0
LINE
  8
0
 10
22.784121
 20
13.070808
 11
24.034121
 21
11.820808
  0
LINE
  8
0
 10
26.639751
 20
11.820808
 11
24.034121
 21
11.820808
  0
LINE
  8
0
 10
19.245380
 20
11.820808
 11
16.639750
 21
11.820808
  0
LINE
  8
0
 10
20.495380
 20
13.070808
 11
22.784121
 21
13.070808
  0
LINE
  8
0
 10
26.639751
 20
12.261625
 11
24.289749
 21
12.261625
  0
LINE
  8
0
 10
24.289751
 20
12.261625
 11
23.039751
 21
13.511625
  0
LINE
  8
0
 10
20.239750
 20
13.511625
 11
23.039749
 21
13.511625
  0
LINE
  8
0
 10
18.989750
 20
12.261625
 11
16.639750
 21
12.261625
  0
LINE
  8
0
 10
16.639750
 20
19.763548
 11
26.639751
 21
19.763548
  0
LINE
  8
0
 10
26.639751
 20
20.261625
 11
26.339748
 21
20.261625
  0
LINE
  8
0
 10
25.139751
 20
15.961626
 11
26.639751
 21
15.961626
  0
LINE
  8
0
 10
26.639751
 20
12.761625
 11
25.139751
 21
12.761625
  0
LINE
  8
0
 10
18.139750
 20
12.761625
 11
16.639750
 21
12.761625
  0
LINE
  8
0
 10
16.639750
 20
15.961626
 11
18.139750
 21
15.961626
  0
LINE
  8
0
 62
     4
 10
16.639750
 20
37.561626
 11
16.639750
 21
20.361626
  0
LINE
  8
0
  6
CENTER
 62
     2
 10
24.139750
 20
16.111626
 11
19.139750
 21
16.111626
  0
LINE
  8
0
 62
     4
 10
26.639751
 20
37.561626
 11
26.639751
 21
20.361626
  0
LINE
  8
0
 10
23.465263
 20
15.811625
 11
19.814236
 21
15.811625
  0
LINE
  8
0
 10
23.465263
 20
16.411625
 11
19.814236
 21
16.411625
  0
LINE
  8
0
 10
17.432644
 20
13.654518
 11
18.846857
 21
15.068732
  0
LINE
  8
0
 10
17.432644
 20
15.068731
 11
18.846857
 21
13.654519
  0
LINE
  8
0
 10
25.846855
 20
15.068732
 11
24.432642
 21
13.654519
  0
LINE
  8
0
 10
25.846855
 20
13.654519
 11
24.432642
 21
15.068732
  0
LINE
  8
0
 10
26.639751
 20
5.861626
 11
16.639750
 21
5.861626
  0
LINE
  8
0
  6
CENTER
 62
     2
 10
-10.139740
 20
16.861626
 11
-4.840939
 21
16.861626
  0
LINE
  8
0
  6
CENTER
 62
     2
 10
-7.260250
 20
13.776602
 11
-7.260250
 21
19.420515
  0
LINE
  8
0
 10
6.239750
 20
20.361626
 11
6.239750
 21
5.861626
  0
LINE
  8
0
 10
6.439750
 20
20.361626
 11
6.439750
 21
5.861626
  0
LINE
  8
0
 10
-3.760250
 20
20.361626
 11
-3.760250
 21
5.861626
  0
LINE
  8
0
 10
16.439751
 20
20.361626
 11
16.439751
 21
5.861626
  0
LINE
  8
0
 10
16.639750
 20
20.361626
 11
16.639750
 21
5.861626
  0
LINE
  8
0
 10
26.639751
 20
20.361626
 11
26.639751
 21
5.861626
  0
LINE
  8
0
  6
CENTER
 62
     2
 10
-87.823952
 20
14.361625
 11
-83.876373
 21
14.361625
  0
LINE
  8
0
 10
-52.733273
 20
-87.200005
 11
-47.619884
 21
-87.200005
  0
LINE
  8
0
 10
-65.533272
 20
-87.200005
 11
-60.419884
 21
-87.200005
  0
LINE
  8
0
 10
-81.556686
 20
-87.200005
 11
-76.443298
 21
-87.200005
  0
LINE
  8
0
 10
-43.799995
 20
-32.600002
 11
-43.799995
 21
-89.800003
  0
LINE
  8
0
 10
-56.599995
 20
-32.600002
 11
-56.599995
 21
-89.800003
  0
LINE
  8
0
 10
-69.399994
 20
-32.600002
 11
-69.399994
 21
-89.800003
  0
LINE
  8
0
 10
-88.599991
 20
-32.600002
 11
-88.599991
 21
-89.800003
  0
LINE
  8
0
 10
-101.399994
 20
-32.600002
 11
-101.399994
 21
-89.800003
  0
LINE
  8
0
 10
-114.199997
 20
-32.600002
 11
-114.199997
 21
-89.800003
  0
LINE
  8
0
 10
-133.399994
 20
-32.600002
 11
-133.399994
 21
-89.800003
  0
LINE
  8
0
 10
-133.399994
 20
-89.800003
 11
-43.799995
 21
-89.800003
  0
LINE
  8
0
 10
-133.399994
 20
-84.600006
 11
-43.799995
 21
-84.600006
  0
LINE
  8
0
 10
-133.399994
 20
-79.400002
 11
-43.799995
 21
-79.400002
  0
LINE
  8
0
 10
-133.399994
 20
-74.200005
 11
-43.799995
 21
-74.200005
  0
LINE
  8
0
 10
-133.399994
 20
-69.000000
 11
-43.799995
 21
-69.000000
  0
LINE
  8
0
 10
-133.399994
 20
-63.800003
 11
-43.799995
 21
-63.800003
  0
LINE
  8
0
 10
-133.399994
 20
-58.600002
 11
-43.799995
 21
-58.600002
  0
LINE
  8
0
 10
-133.399994
 20
-53.400002
 11
-43.799995
 21
-53.400002
  0
LINE
  8
0
 10
-133.399994
 20
-48.200005
 11
-43.799995
 21
-48.200005
  0
LINE
  8
0
 10
-133.399994
 20
-43.000004
 11
-43.799995
 21
-43.000004
  0
LINE
  8
0
 10
-133.399994
 20
-37.800003
 11
-43.799995
 21
-37.800003
  0
LINE
  8
0
 10
-133.399994
 20
-32.600002
 11
-43.799995
 21
-32.600002
  0
LINE
  8
0
 10
-138.399994
 20
94.500000
 11
138.350006
 21
94.500000
  0
LINE
  8
0
 10
138.350006
 20
94.500000
 11
138.350006
 21
-94.800003
  0
LINE
  8
0
 10
-138.399994
 20
-94.800003
 11
138.350006
 21
-94.800003
  0
LINE
  8
0
 10
-138.399994
 20
94.500000
 11
-138.399994
 21
-94.800003
  0
LINE
  8
0
 10
73.350006
 20
-84.800003
 11
138.350006
 21
-84.800003
  0
LINE
  8
0
 10
-138.399994
 20
84.500000
 11
-73.399994
 21
84.500000
  0
LINE
  8
0
 10
73.350006
 20
84.500000
 11
138.350006
 21
84.500000
  0
LINE
  8
0
 10
73.350006
 20
-84.800003
 11
73.350006
 21
-94.800003
  0
LINE
  8
0
 10
73.350006
 20
94.500000
 11
73.350006
 21
84.500000
  0
LINE
  8
0
 10
-73.399994
 20
94.500000
 11
-73.399994
 21
84.500000
  0
CIRCLE
  8
0
 10
1.233985
 20
-74.138374
 40
0.700000
  0
CIRCLE
  8
0
 62
     2
 10
1.233985
 20
-74.138374
 40
2.500000
  0
CIRCLE
  8
0
 10
1.233985
 20
-74.138374
 40
2.000000
  0
CIRCLE
  8
0
 10
11.433985
 20
-74.138374
 40
0.700000
  0
CIRCLE
  8
0
 62
     2
 10
11.433985
 20
-74.138374
 40
2.500000
  0
CIRCLE
  8
0
 10
11.433985
 20
-74.138374
 40
2.000000
  0
CIRCLE
  8
0
 10
21.633986
 20
-74.138374
 40
0.700000
  0
CIRCLE
  8
0
 62
     2
 10
21.633986
 20
-74.138374
 40
2.500000
  0
CIRCLE
  8
0
 10
21.633986
 20
-74.138374
 40
2.000000
  0
CIRCLE
  8
0
 10
31.833984
 20
-74.138374
 40
0.700000
  0
CIRCLE
  8
0
 62
     2
 10
31.833984
 20
-74.138374
 40
2.500000
  0
CIRCLE
  8
0
 10
31.833984
 20
-74.138374
 40
2.000000
  0
ARC
  8
0
 10
24.339750
 20
-62.438374
 40
0.200001
 50
0.000000
 51
90.000000
  0
ARC
  8
0
 10
18.939751
 20
-62.438374
 40
0.200001
 50
90.000000
 51
180.000000
  0
ARC
  8
0
 10
17.639750
 20
-62.938374
 40
0.299999
 50
180.000000
 51
270.000000
  0
ARC
  8
0
 10
17.639750
 20
-61.438374
 40
0.299999
 50
90.000000
 51
180.000000
  0
ARC
  8
0
 10
25.639751
 20
-61.438374
 40
0.299999
 50
0.000000
 51
90.000000
  0
ARC
  8
0
 10
25.639751
 20
-62.938374
 40
0.299999
 50
270.000000
 51
0.000000
  0
ARC
  8
0
 10
15.439751
 20
-62.938374
 40
0.299999
 50
270.000000
 51
0.000000
  0
ARC
  8
0
 10
15.439751
 20
-61.438374
 40
0.300000
 50
0.000000
 51
90.000000
  0
ARC
  8
0
 10
7.439750
 20
-61.438374
 40
0.299999
 50
90.000000
 51
180.000000
  0
ARC
  8
0
 10
7.439750
 20
-62.938374
 40
0.300000
 50
180.000000
 51
270.000000
  0
ARC
  8
0
 10
8.739750
 20
-62.438374
 40
0.200001
 50
90.000000
 51
180.000000
  0
ARC
  8
0
 10
14.139750
 20
-62.438374
 40
0.200000
 50
0.000000
 51
90.000000
  0
ARC
  8
0
 10
5.239750
 20
-62.938374
 40
0.299999
 50
270.000000
 51
0.000000
  0
ARC
  8
0
 10
5.239750
 20
-61.438374
 40
0.300000
 50
0.000000
 51
90.000000
  0
ARC
  8
0
 10
-2.760250
 20
-61.438374
 40
0.299999
 50
90.000000
 51
180.000000
  0
ARC
  8
0
 10
-2.760250
 20
-62.938374
 40
0.300000
 50
180.000000
 51
270.000000
  0
ARC
  8
0
 10
-1.460250
 20
-62.438374
 40
0.200001
 50
90.000000
 51
180.000000
  0
ARC
  8
0
 10
3.939750
 20
-62.438374
 40
0.200000
 50
0.000000
 51
90.000000
  0
ARC
  8
0
 62
     4
 10
34.434750
 20
-61.338371
 40
0.599998
 50
90.000000
 51
180.000000
  0
ARC
  8
0
 62
     4
 10
36.234772
 20
-61.338352
 40
0.599976
 50
359.997803
 51
90.002182
  0
ARC
  8
0
 62
     4
 10
29.234756
 20
-61.338367
 40
0.599993
 50
359.999268
 51
90.000725
  0
ARC
  8
0
 62
     4
 10
27.434734
 20
-61.338356
 40
0.599983
 50
89.998360
 51
180.001450
  0
CIRCLE
  8
0
 10
-91.760254
 20
9.561624
 40
2.500000
  0
CIRCLE
  8
0
 10
-93.760254
 20
24.061623
 40
2.500000
  0
CIRCLE
  8
0
 10
-93.760254
 20
24.061623
 40
4.250000
  0
CIRCLE
  8
0
 62
     2
 10
-93.760254
 20
24.061623
 40
5.000000
  0
CIRCLE
  8
0
 10
-91.760254
 20
9.561624
 40
4.250000
  0
CIRCLE
  8
0
 62
     2
 10
-91.760254
 20
9.561624
 40
5.000000
  0
ARC
  8
0
 10
-71.660248
 20
13.361624
 40
0.500000
 50
270.000000
 51
0.000000
  0
ARC
  8
0
 10
-71.660248
 20
15.361624
 40
0.500000
 50
0.000000
 51
90.000000
  0
ARC
  8
0
 62
     4
 10
-66.460251
 20
37.561623
 40
0.300003
 50
0.000000
 51
90.000000
  0
ARC
  8
0
 62
     4
 10
-65.359543
 20
26.362335
 40
0.199289
 50
359.795471
 51
90.203987
  0
ARC
  8
0
 62
     4
 10
-65.359543
 20
22.760912
 40
0.199291
 50
269.796021
 51
0.204541
  0
CIRCLE
  8
0
 62
     4
 10
35.344772
 20
14.366626
 40
1.500000
  0
ARC
  8
0
 62
     4
 10
35.844753
 20
18.366629
 40
0.999996
 50
359.999786
 51
90.000221
  0
ARC
  8
0
 62
     4
 10
35.844753
 20
9.366623
 40
0.999997
 50
269.999786
 51
0.000164
  0
ARC
  8
0
 62
     4
 10
27.844753
 20
18.366623
 40
1.000004
 50
90.000221
 51
179.999786
  0
ARC
  8
0
 62
     4
 10
27.844753
 20
9.366629
 40
1.000004
 50
180.000168
 51
269.999786
  0
CIRCLE
  8
0
 62
     4
 10
28.344742
 20
14.366626
 40
1.500000
  0
CIRCLE
  8
0
 10
40.342628
 20
16.861532
 40
1.600000
  0
CIRCLE
  8
0
 10
-7.263130
 20
16.861532
 40
1.600000
  0
CIRCLE
  8
0
 10
1.239750
 20
16.111626
 40
2.050000
  0
ARC
  8
0
 10
-2.260250
 20
14.361626
 40
1.600000
 50
270.000000
 51
90.000000
  0
ARC
  8
0
 10
4.739750
 20
14.361626
 40
1.600000
 50
90.000000
 51
270.000000
  0
CIRCLE
  8
0
 10
1.239750
 20
16.111626
 40
1.900000
  0
ARC
  8
0
 62
     4
 10
-3.460250
 20
37.561626
 40
0.299999
 50
90.000000
 51
180.000000
  0
ARC
  8
0
 62
     4
 10
5.939750
 20
37.561626
 40
0.300000
 50
0.000000
 51
90.000000
  0
CIRCLE
  8
0
 62
     4
 10
-1.660250
 20
24.561626
 40
0.875000
  0
CIRCLE
  8
0
 62
     4
 10
4.139750
 20
24.561626
 40
0.875000
  0
ARC
  8
0
 62
     4
 10
4.139750
 20
24.561626
 40
2.000000
 50
270.000000
 51
90.000000
  0
ARC
  8
0
 62
     4
 10
-1.660250
 20
24.561626
 40
2.000000
 50
90.000000
 51
270.000000
  0
CIRCLE
  8
0
 10
1.239750
 20
16.111626
 40
1.850000
  0
ARC
  8
0
 10
1.239750
 20
16.111626
 40
0.800000
 50
22.024263
 51
157.975739
  0
ARC
  8
0
 10
1.239750
 20
16.111626
 40
0.800000
 50
202.024323
 51
337.975677
  0
CIRCLE
  8
0
 10
-2.260250
 20
14.361626
 40
1.500000
  0
CIRCLE
  8
0
 10
4.739750
 20
14.361626
 40
1.500000
  0
CIRCLE
  8
0
 10
11.439751
 20
16.111626
 40
2.050000
  0
ARC
  8
0
 10
7.939750
 20
14.361626
 40
1.600000
 50
270.000000
 51
90.000000
  0
ARC
  8
0
 10
14.939751
 20
14.361626
 40
1.600000
 50
90.000000
 51
270.000000
  0
CIRCLE
  8
0
 10
11.439751
 20
16.111626
 40
1.900000
  0
CIRCLE
  8
0
 10
11.439751
 20
16.111626
 40
1.850000
  0
ARC
  8
0
 10
11.439751
 20
16.111626
 40
0.800000
 50
22.024256
 51
157.975739
  0
ARC
  8
0
 10
11.439751
 20
16.111626
 40
0.800000
 50
202.024323
 51
337.975677
  0
CIRCLE
  8
0
 10
7.939750
 20
14.361626
 40
1.500000
  0
CIRCLE
  8
0
 10
14.939751
 20
14.361626
 40
1.500000
  0
CIRCLE
  8
0
 62
     4
 10
24.179750
 20
22.661625
 40
0.750000
  0
CIRCLE
  8
0
 62
     4
 10
19.099751
 20
22.661625
 40
0.750000
  0
ARC
  8
0
 62
     4
 10
18.224094
 20
21.762291
 40
0.200665
 50
176.761688
 51
269.901978
  0
ARC
  8
0
 62
     4
 10
19.974464
 20
21.761292
 40
0.199666
 50
269.794739
 51
3.541817
  0
ARC
  8
0
 62
     4
 10
20.764093
 20
21.762291
 40
0.200665
 50
176.761688
 51
269.901978
  0
ARC
  8
0
 62
     4
 10
22.514465
 20
21.761292
 40
0.199666
 50
269.794739
 51
3.541817
  0
ARC
  8
0
 62
     4
 10
23.304094
 20
21.762291
 40
0.200665
 50
176.761688
 51
269.901978
  0
ARC
  8
0
 62
     4
 10
25.054466
 20
21.761292
 40
0.199666
 50
269.794739
 51
3.541817
  0
ARC
  8
0
 62
     4
 10
26.339748
 20
25.361626
 40
0.299999
 50
0.000000
 51
90.000000
  0
ARC
  8
0
 62
     4
 10
16.939751
 20
25.361626
 40
0.299999
 50
90.000000
 51
180.000000
  0
ARC
  8
0
 62
     4
 10
16.939751
 20
37.561626
 40
0.299999
 50
90.000000
 51
180.000000
  0
ARC
  8
0
 62
     4
 10
26.339748
 20
37.561626
 40
0.299999
 50
0.000000
 51
90.000000
  0
CIRCLE
  8
0
 10
21.639750
 20
16.111626
 40
2.050000
  0
ARC
  8
0
 10
18.139750
 20
14.361626
 40
1.600000
 50
270.000000
 51
90.000000
  0
ARC
  8
0
 10
25.139751
 20
14.361626
 40
1.600000
 50
90.000000
 51
270.000000
  0
CIRCLE
  8
0
 10
21.639750
 20
16.111626
 40
1.900000
  0
CIRCLE
  8
0
 10
21.639750
 20
16.111626
 40
1.850000
  0
ARC
  8
0
 10
21.639750
 20
16.111626
 40
0.799999
 50
22.024282
 51
157.975723
  0
ARC
  8
0
 10
21.639750
 20
16.111626
 40
0.799999
 50
202.024338
 51
337.975647
  0
CIRCLE
  8
0
 10
18.139750
 20
14.361626
 40
1.500000
  0
CIRCLE
  8
0
 10
25.139751
 20
14.361626
 40
1.500000
  0
TEXT
  8
0
 10
-85.499992
 20
-37.080006
 40
3.200000
  1
TYPE
 50
0.000000
 41
1.052632
 51
0.000000
  7
STANDARD
  0
TEXT
  8
0
 10
-87.899994
 20
-83.879997
 40
3.200000
  1
G010MH20A
 50
0.000000
 41
0.657895
 51
0.000000
  7
STANDARD
  0
TEXT
  8
0
 10
-87.899994
 20
-78.680000
 40
3.200000
  1
G010MH19A
 50
0.000000
 41
0.657895
 51
0.000000
  7
STANDARD
  0
TEXT
  8
0
 10
-87.899994
 20
-73.480003
 40
3.200000
  1
G010MH18A
 50
0.000000
 41
0.657895
 51
0.000000
  7
STANDARD
  0
TEXT
  8
0
 10
-87.899994
 20
-68.279999
 40
3.200000
  1
G010MH17A
 50
0.000000
 41
0.657895
 51
0.000000
  7
STANDARD
  0
TEXT
  8
0
 10
-87.899994
 20
-63.080002
 40
3.200000
  1
G010MH16A
 50
0.000000
 41
0.657895
 51
0.000000
  7
STANDARD
  0
TEXT
  8
0
 10
-87.899994
 20
-57.880005
 40
3.200000
  1
G010MH15A
 50
0.000000
 41
0.657895
 51
0.000000
  7
STANDARD
  0
TEXT
  8
0
 10
-87.899994
 20
-52.680004
 40
3.200000
  1
G010MH14A
 50
0.000000
 41
0.657895
 51
0.000000
  7
STANDARD
  0
TEXT
  8
0
 10
-87.899994
 20
-47.480003
 40
3.200000
  1
G010MH13A
 50
0.000000
 41
0.657895
 51
0.000000
  7
STANDARD
  0
TEXT
  8
0
 10
-87.899994
 20
-42.280003
 40
3.200000
  1
G010MH12A
 50
0.000000
 41
0.657895
 51
0.000000
  7
STANDARD
  0
TEXT
  8
0
 10
-132.549988
 20
-89.080002
 40
3.200000
  1
G010MH11A
 50
0.000000
 41
0.674342
 51
0.000000
  7
STANDARD
  0
TEXT
  8
0
 10
-132.549988
 20
-83.879997
 40
3.200000
  1
G010MH10A
 50
0.000000
 41
0.674342
 51
0.000000
  7
STANDARD
  0
TEXT
  8
0
 10
-131.699997
 20
-78.680000
 40
3.200000
  1
G010MH9A
 50
0.000000
 41
0.723684
 51
0.000000
  7
STANDARD
  0
TEXT
  8
0
 10
-131.699997
 20
-73.480003
 40
3.200000
  1
G010MH8A
 50
0.000000
 41
0.723684
 51
0.000000
  7
STANDARD
  0
TEXT
  8
0
 10
-131.699997
 20
-68.279999
 40
3.200000
  1
G010MH7A
 50
0.000000
 41
0.723684
 51
0.000000
  7
STANDARD
  0
TEXT
  8
0
 10
-131.699997
 20
-63.080002
 40
3.200000
  1
G010MH6A
 50
0.000000
 41
0.723684
 51
0.000000
  7
STANDARD
  0
TEXT
  8
0
 10
-131.699997
 20
-57.880005
 40
3.200000
  1
G010MH5A
 50
0.000000
 41
0.723684
 51
0.000000
  7
STANDARD
  0
TEXT
  8
0
 10
-131.699997
 20
-52.680004
 40
3.200000
  1
G010MH4A
 50
0.000000
 41
0.723684
 51
0.000000
  7
STANDARD
  0
TEXT
  8
0
 10
-131.699997
 20
-47.480003
 40
3.200000
  1
G010MH3A
 50
0.000000
 41
0.723684
 51
0.000000
  7
STANDARD
  0
TEXT
  8
0
 10
-131.699997
 20
-42.280003
 40
3.200000
  1
G010MH2A
 50
0.000000
 41
0.723684
 51
0.000000
  7
STANDARD
  0
TEXT
  8
0
 10
-130.299988
 20
-37.080006
 40
3.200000
  1
TYPE
 50
0.000000
 41
1.052632
 51
0.000000
  7
STANDARD
  0
TEXT
  8
0
 10
-111.149994
 20
-89.080002
 40
3.200000
  1
136
 50
0.000000
 41
0.756579
 51
0.000000
  7
STANDARD
  0
TEXT
  8
0
 10
-98.349991
 20
-89.080002
 40
3.200000
  1
119
 50
0.000000
 41
0.756579
 51
0.000000
  7
STANDARD
  0
TEXT
  8
0
 10
-113.449997
 20
-83.879997
 40
3.200000
  1
125.8
 50
0.000000
 41
0.756579
 51
0.000000
  7
STANDARD
  0
TEXT
  8
0
 10
-100.649994
 20
-83.879997
 40
3.200000
  1
108.8
 50
0.000000
 41
0.756579
 51
0.000000
  7
STANDARD
  0
TEXT
  8
0
 10
-68.649994
 20
-83.879997
 40
3.200000
  1
227.8
 50
0.000000
 41
0.756579
 51
0.000000
  7
STANDARD
  0
TEXT
  8
0
 10
-55.849995
 20
-83.879997
 40
3.200000
  1
210.8
 50
0.000000
 41
0.756579
 51
0.000000
  7
STANDARD
  0
TEXT
  8
0
 10
-113.449997
 20
-78.680000
 40
3.200000
  1
115.6
 50
0.000000
 41
0.756579
 51
0.000000
  7
STANDARD
  0
TEXT
  8
0
 10
-99.499992
 20
-78.680000
 40
3.200000
  1
98.6
 50
0.000000
 41
0.756579
 51
0.000000
  7
STANDARD
  0
TEXT
  8
0
 10
-68.649994
 20
-78.680000
 40
3.200000
  1
217.6
 50
0.000000
 41
0.756579
 51
0.000000
  7
STANDARD
  0
TEXT
  8
0
 10
-55.849995
 20
-78.680000
 40
3.200000
  1
200.6
 50
0.000000
 41
0.756579
 51
0.000000
  7
STANDARD
  0
TEXT
  8
0
 10
-113.449997
 20
-73.480003
 40
3.200000
  1
105.4
 50
0.000000
 41
0.756579
 51
0.000000
  7
STANDARD
  0
TEXT
  8
0
 10
-99.499992
 20
-73.480003
 40
3.200000
  1
88.4
 50
0.000000
 41
0.756579
 51
0.000000
  7
STANDARD
  0
TEXT
  8
0
 10
-68.649994
 20
-73.480003
 40
3.200000
  1
207.4
 50
0.000000
 41
0.756579
 51
0.000000
  7
STANDARD
  0
TEXT
  8
0
 10
-55.849995
 20
-73.480003
 40
3.200000
  1
190.4
 50
0.000000
 41
0.756579
 51
0.000000
  7
STANDARD
  0
TEXT
  8
0
 10
-112.299995
 20
-68.279999
 40
3.200000
  1
95.2
 50
0.000000
 41
0.756579
 51
0.000000
  7
STANDARD
  0
TEXT
  8
0
 10
-99.499992
 20
-68.279999
 40
3.200000
  1
78.2
 50
0.000000
 41
0.756579
 51
0.000000
  7
STANDARD
  0
TEXT
  8
0
 10
-68.649994
 20
-68.279999
 40
3.200000
  1
197.2
 50
0.000000
 41
0.756579
 51
0.000000
  7
STANDARD
  0
TEXT
  8
0
 10
-55.849995
 20
-68.279999
 40
3.200000
  1
180.2
 50
0.000000
 41
0.756579
 51
0.000000
  7
STANDARD
  0
TEXT
  8
0
 10
-109.999992
 20
-63.080002
 40
3.200000
  1
85
 50
0.000000
 41
0.756579
 51
0.000000
  7
STANDARD
  0
TEXT
  8
0
 10
-97.199989
 20
-63.080002
 40
3.200000
  1
68
 50
0.000000
 41
0.756579
 51
0.000000
  7
STANDARD
  0
TEXT
  8
0
 10
-66.349991
 20
-63.080002
 40
3.200000
  1
187
 50
0.000000
 41
0.756579
 51
0.000000
  7
STANDARD
  0
TEXT
  8
0
 10
-53.549992
 20
-63.080002
 40
3.200000
  1
170
 50
0.000000
 41
0.756579
 51
0.000000
  7
STANDARD
  0
TEXT
  8
0
 10
-112.299995
 20
-57.880005
 40
3.200000
  1
74.8
 50
0.000000
 41
0.756579
 51
0.000000
  7
STANDARD
  0
TEXT
  8
0
 10
-99.499992
 20
-57.880005
 40
3.200000
  1
57.8
 50
0.000000
 41
0.756579
 51
0.000000
  7
STANDARD
  0
TEXT
  8
0
 10
-68.649994
 20
-57.880005
 40
3.200000
  1
176.8
 50
0.000000
 41
0.756579
 51
0.000000
  7
STANDARD
  0
TEXT
  8
0
 10
-55.849995
 20
-57.880005
 40
3.200000
  1
159.8
 50
0.000000
 41
0.756579
 51
0.000000
  7
STANDARD
  0
TEXT
  8
0
 10
-112.299995
 20
-52.680004
 40
3.200000
  1
64.6
 50
0.000000
 41
0.756579
 51
0.000000
  7
STANDARD
  0
TEXT
  8
0
 10
-99.499992
 20
-52.680004
 40
3.200000
  1
47.6
 50
0.000000
 41
0.756579
 51
0.000000
  7
STANDARD
  0
TEXT
  8
0
 10
-68.649994
 20
-52.680004
 40
3.200000
  1
166.6
 50
0.000000
 41
0.756579
 51
0.000000
  7
STANDARD
  0
TEXT
  8
0
 10
-55.849995
 20
-52.680004
 40
3.200000
  1
149.6
 50
0.000000
 41
0.756579
 51
0.000000
  7
STANDARD
  0
TEXT
  8
0
 10
-112.299995
 20
-47.480003
 40
3.200000
  1
54.4
 50
0.000000
 41
0.756579
 51
0.000000
  7
STANDARD
  0
TEXT
  8
0
 10
-99.499992
 20
-47.480003
 40
3.200000
  1
37.4
 50
0.000000
 41
0.756579
 51
0.000000
  7
STANDARD
  0
TEXT
  8
0
 10
-68.649994
 20
-47.480003
 40
3.200000
  1
156.4
 50
0.000000
 41
0.756579
 51
0.000000
  7
STANDARD
  0
TEXT
  8
0
 10
-55.849995
 20
-47.480003
 40
3.200000
  1
139.4
 50
0.000000
 41
0.756579
 51
0.000000
  7
STANDARD
  0
TEXT
  8
0
 10
-112.299995
 20
-42.280003
 40
3.200000
  1
44.2
 50
0.000000
 41
0.756579
 51
0.000000
  7
STANDARD
  0
TEXT
  8
0
 10
-99.499992
 20
-42.280003
 40
3.200000
  1
27.2
 50
0.000000
 41
0.756579
 51
0.000000
  7
STANDARD
  0
TEXT
  8
0
 10
-68.649994
 20
-42.280003
 40
3.200000
  1
146.2
 50
0.000000
 41
0.756579
 51
0.000000
  7
STANDARD
  0
TEXT
  8
0
 10
-55.849995
 20
-42.280003
 40
3.200000
  1
129.2
 50
0.000000
 41
0.756579
 51
0.000000
  7
STANDARD
  0
TEXT
  8
0
 10
-51.899994
 20
-37.080006
 40
3.200000
  1
P
 50
0.000000
 41
1.052632
 51
0.000000
  7
STANDARD
  0
TEXT
  8
0
 10
-64.699989
 20
-37.080006
 40
3.200000
  1
L
 50
0.000000
 41
1.052632
 51
0.000000
  7
STANDARD
  0
TEXT
  8
0
 10
-96.699989
 20
-37.080006
 40
3.200000
  1
P
 50
0.000000
 41
1.052632
 51
0.000000
  7
STANDARD
  0
TEXT
  8
0
 10
-109.499992
 20
-37.080006
 40
3.200000
  1
L
 50
0.000000
 41
1.052632
 51
0.000000
  7
STANDARD
  0
TEXT
  8
0
 10
76.207352
 20
-92.850006
 40
4.500000
  1
KOGANEI CORP.
 50
0.000000
 41
1.052632
 51
0.000000
  7
STANDARD
  0
TEXT
  8
0
 10
92.842865
 20
87.620003
 40
3.200000
  1
Ver. 1.0
 50
0.000000
 41
1.052632
 51
0.000000
  7
STANDARD
  0
TEXT
  8
0
 10
-123.707138
 20
87.620003
 40
3.200000
  1
G010 SERIES
 50
0.000000
 41
1.052632
 51
0.000000
  7
STANDARD
  0
TEXT
  8
0
 10
-130.207001
 20
72.620003
 40
3.200000
  1
MODEL:G010MHA
 50
0.000000
 41
1.052632
 51
0.000000
  7
STANDARD
  0
LINE
  8
0
 62
     2
 10
31.834751
 20
-61.338375
 11
41.664398
 21
-44.312927
  0
LINE
  8
0
 62
     2
 10
41.664398
 20
-44.312927
 11
55.359188
 21
-44.312927
  0
LINE
  8
0
 62
     2
 10
31.834751
 20
-61.338375
 11
33.956070
 21
-59.217056
  0
LINE
  8
0
 62
     2
 10
31.834751
 20
-61.338375
 11
32.611210
 21
-58.440598
  0
TEXT
  8
0
 62
     2
 10
45.095188
 20
-43.312927
 40
3.200000
  1
-BP
 50
0.000000
 41
1.052632
 51
0.000000
  7
STANDARD
  0
LINE
  8
0
 62
     2
 10
26.339748
 20
-33.738377
 11
31.493338
 21
-24.812099
  0
LINE
  8
0
 62
     2
 10
31.493338
 20
-24.812099
 11
69.552391
 21
-24.812099
  0
LINE
  8
0
 62
     2
 10
26.339748
 20
-33.738377
 11
28.461069
 21
-31.617056
  0
LINE
  8
0
 62
     2
 10
26.339748
 20
-33.738377
 11
27.116205
 21
-30.840599
  0
TEXT
  8
0
 62
     2
 10
33.688393
 20
-23.812099
 40
3.200000
  1
GA010HE1-PL  
 50
0.000000
 41
1.052632
 51
0.000000
  7
STANDARD
  0
LINE
  8
0
 62
     2
 10
11.439751
 20
-44.338375
 11
0.166250
 21
-24.812099
  0
LINE
  8
0
 62
     2
 10
0.166250
 20
-24.812099
 11
-38.296829
 21
-24.812099
  0
LINE
  8
0
 62
     2
 10
11.439751
 20
-44.338375
 11
10.663293
 21
-41.440598
  0
LINE
  8
0
 62
     2
 10
11.439751
 20
-44.338375
 11
9.318430
 21
-42.217056
  0
TEXT
  8
0
 62
     2
 10
-38.046829
 20
-23.812099
 40
3.200000
  1
GA010HE1-PS  
 50
0.000000
 41
1.052632
 51
0.000000
  7
STANDARD
  0
LINE
  8
0
 62
     2
 10
-3.760250
 20
-43.338375
 11
-8.858998
 21
-34.507084
  0
LINE
  8
0
 62
     2
 10
-8.858998
 20
-34.507084
 11
-36.501480
 21
-34.507084
  0
LINE
  8
0
 62
     2
 10
-3.760250
 20
-43.338375
 11
-4.536707
 21
-40.440598
  0
LINE
  8
0
 62
     2
 10
-3.760250
 20
-43.338375
 11
-5.881570
 21
-41.217056
  0
TEXT
  8
0
 62
     2
 10
-36.251480
 20
-33.507084
 40
3.200000
  1
GA010HE1  
 50
0.000000
 41
1.052632
 51
0.000000
  7
STANDARD
  0
TEXT
  8
0
 62
     2
 10
-26.010399
 20
78.391624
 40
3.200000
  1
8.5
 50
0.000000
 41
1.052632
 51
0.000000
  7
STANDARD
  0
LINE
  8
0
 62
     2
 10
-15.760250
 20
77.391624
 11
-25.346399
 21
77.391624
  0
LINE
  8
0
 62
     2
 10
-15.760250
 20
77.391624
 11
-7.260250
 21
77.391624
  0
LINE
  8
0
 62
     2
 10
-15.760250
 20
77.391624
 11
-18.658028
 21
76.615166
  0
LINE
  8
0
 62
     2
 10
-15.760250
 20
77.391624
 11
-18.658028
 21
78.168083
  0
LINE
  8
0
 62
     2
 10
-15.760250
 20
77.391624
 11
-21.760250
 21
77.391624
  0
LINE
  8
0
 62
     2
 10
-7.260250
 20
77.391624
 11
-4.362473
 21
78.168083
  0
LINE
  8
0
 62
     2
 10
-7.260250
 20
77.391624
 11
-4.362473
 21
76.615166
  0
LINE
  8
0
 62
     2
 10
-7.260250
 20
77.391624
 11
-1.260250
 21
77.391624
  0
LINE
  8
0
 62
     2
 10
-15.760250
 20
30.061623
 11
-15.760250
 21
78.891624
  0
LINE
  8
0
 62
     2
 10
-7.260250
 20
16.861626
 11
-7.260250
 21
78.891624
  0
TEXT
  8
0
 62
     2
 10
49.121563
 20
78.391624
 40
3.200000
  1
8.5
 50
0.000000
 41
1.052632
 51
0.000000
  7
STANDARD
  0
LINE
  8
0
 62
     2
 10
48.839748
 20
77.391624
 11
58.471561
 21
77.391624
  0
LINE
  8
0
 62
     2
 10
40.339748
 20
77.391624
 11
48.839748
 21
77.391624
  0
LINE
  8
0
 62
     2
 10
40.339748
 20
77.391624
 11
37.441971
 21
76.615166
  0
LINE
  8
0
 62
     2
 10
40.339748
 20
77.391624
 11
37.441971
 21
78.168083
  0
LINE
  8
0
 62
     2
 10
40.339748
 20
77.391624
 11
34.339748
 21
77.391624
  0
LINE
  8
0
 62
     2
 10
48.839748
 20
77.391624
 11
51.737526
 21
78.168083
  0
LINE
  8
0
 62
     2
 10
48.839748
 20
77.391624
 11
51.737526
 21
76.615166
  0
LINE
  8
0
 62
     2
 10
48.839748
 20
77.391624
 11
54.839748
 21
77.391624
  0
LINE
  8
0
 62
     2
 10
40.339748
 20
16.861626
 11
40.339748
 21
78.891624
  0
LINE
  8
0
 62
     2
 10
48.839748
 20
30.061623
 11
48.839748
 21
78.891624
  0
TEXT
  8
0
 62
     2
 10
14.732749
 20
78.391624
 40
3.200000
  1
P
 50
0.000000
 41
1.052632
 51
0.000000
  7
STANDARD
  0
LINE
  8
0
 62
     2
 10
-7.260250
 20
77.391624
 11
40.339748
 21
77.391624
  0
LINE
  8
0
 62
     2
 10
-7.260250
 20
77.391624
 11
-4.362473
 21
78.168083
  0
LINE
  8
0
 62
     2
 10
-7.260250
 20
77.391624
 11
-4.362473
 21
76.615166
  0
LINE
  8
0
 62
     2
 10
40.339748
 20
77.391624
 11
37.441971
 21
76.615166
  0
LINE
  8
0
 62
     2
 10
40.339748
 20
77.391624
 11
37.441971
 21
78.168083
  0
LINE
  8
0
 62
     2
 10
-7.260250
 20
16.861626
 11
-7.260250
 21
78.891624
  0
LINE
  8
0
 62
     2
 10
40.339748
 20
16.861626
 11
40.339748
 21
78.891624
  0
TEXT
  8
0
 62
     2
 10
14.729869
 20
86.391624
 40
3.200000
  1
L
 50
0.000000
 41
1.052632
 51
0.000000
  7
STANDARD
  0
LINE
  8
0
 62
     2
 10
-15.766015
 20
85.391624
 11
48.839748
 21
85.391624
  0
LINE
  8
0
 62
     2
 10
-15.766015
 20
85.391624
 11
-12.868237
 21
86.168083
  0
LINE
  8
0
 62
     2
 10
-15.766015
 20
85.391624
 11
-12.868237
 21
84.615166
  0
LINE
  8
0
 62
     2
 10
48.839748
 20
85.391624
 11
45.941971
 21
84.615166
  0
LINE
  8
0
 62
     2
 10
48.839748
 20
85.391624
 11
45.941971
 21
86.168083
  0
LINE
  8
0
 62
     2
 10
-15.766015
 20
30.061623
 11
-15.766015
 21
86.891624
  0
LINE
  8
0
 62
     2
 10
48.839748
 20
30.061623
 11
48.839748
 21
86.891624
  0
ENDSEC
  0
EOF
