  0
SECTION
  2
HEADER
  9
$ACADVER
  1
AC1012
  9
$DWGCODEPAGE
  3
dos932
  9
$INSBASE
 10
0.0
 20
0.0
 30
0.0
  9
$EXTMIN
 10
-138.4094391564276
 20
-94.80677969792248
 30
-0.0015258207003583
  9
$EXTMAX
 10
138.3594524451544
 20
94.50677747942865
 30
0.0000000349246037
  9
$LIMMIN
 10
-138.400994
 20
-94.8010031
  9
$LIMMAX
 10
138.351006
 20
94.501
  9
$ORTHOMODE
 70
     0
  9
$REGENMODE
 70
     1
  9
$FILLMODE
 70
     1
  9
$QTEXTMODE
 70
     0
  9
$MIRRTEXT
 70
     1
  9
$DRAGMODE
 70
     2
  9
$LTSCALE
 40
4.612499999999999
  9
$OSMODE
 70
    37
  9
$ATTMODE
 70
     1
  9
$TEXTSIZE
 40
0.2
  9
$TRACEWID
 40
0.05
  9
$TEXTSTYLE
  7
STANDARD
  9
$CLAYER
  8
0
  9
$CELTYPE
  6
CONTINUOUS
  9
$CECOLOR
 62
   256
  9
$CELTSCALE
 40
1.0
  9
$DELOBJ
 70
     1
  9
$DISPSILH
 70
     0
  9
$DIMSCALE
 40
1.0
  9
$DIMASZ
 40
0.18
  9
$DIMEXO
 40
0.0625
  9
$DIMDLI
 40
0.38
  9
$DIMRND
 40
0.0
  9
$DIMDLE
 40
0.0
  9
$DIMEXE
 40
0.18
  9
$DIMTP
 40
0.0
  9
$DIMTM
 40
0.0
  9
$DIMTXT
 40
0.18
  9
$DIMCEN
 40
0.09
  9
$DIMTSZ
 40
0.0
  9
$DIMTOL
 70
     0
  9
$DIMLIM
 70
     0
  9
$DIMTIH
 70
     1
  9
$DIMTOH
 70
     1
  9
$DIMSE1
 70
     0
  9
$DIMSE2
 70
     0
  9
$DIMTAD
 70
     0
  9
$DIMZIN
 70
     0
  9
$DIMBLK
  1

  9
$DIMASO
 70
     1
  9
$DIMSHO
 70
     1
  9
$DIMPOST
  1

  9
$DIMAPOST
  1

  9
$DIMALT
 70
     0
  9
$DIMALTD
 70
     2
  9
$DIMALTF
 40
25.4
  9
$DIMLFAC
 40
1.0
  9
$DIMTOFL
 70
     0
  9
$DIMTVP
 40
0.0
  9
$DIMTIX
 70
     0
  9
$DIMSOXD
 70
     0
  9
$DIMSAH
 70
     0
  9
$DIMBLK1
  1

  9
$DIMBLK2
  1

  9
$DIMSTYLE
  2
STANDARD
  9
$DIMCLRD
 70
     0
  9
$DIMCLRE
 70
     0
  9
$DIMCLRT
 70
     0
  9
$DIMTFAC
 40
1.0
  9
$DIMGAP
 40
0.09
  9
$DIMJUST
 70
     0
  9
$DIMSD1
 70
     0
  9
$DIMSD2
 70
     0
  9
$DIMTOLJ
 70
     1
  9
$DIMTZIN
 70
     0
  9
$DIMALTZ
 70
     0
  9
$DIMALTTZ
 70
     0
  9
$DIMFIT
 70
     3
  9
$DIMUPT
 70
     0
  9
$DIMUNIT
 70
     2
  9
$DIMDEC
 70
     4
  9
$DIMTDEC
 70
     4
  9
$DIMALTU
 70
     2
  9
$DIMALTTD
 70
     2
  9
$DIMTXSTY
  7
STANDARD
  9
$DIMAUNIT
 70
     0
  9
$LUNITS
 70
     2
  9
$LUPREC
 70
     4
  9
$SKETCHINC
 40
0.1
  9
$FILLETRAD
 40
0.0
  9
$AUNITS
 70
     0
  9
$AUPREC
 70
     0
  9
$MENU
  1
.
  9
$ELEVATION
 40
0.0
  9
$PELEVATION
 40
0.0
  9
$THICKNESS
 40
0.0
  9
$LIMCHECK
 70
     0
  9
$BLIPMODE
 70
     0
  9
$CHAMFERA
 40
0.0
  9
$CHAMFERB
 40
0.0
  9
$CHAMFERC
 40
0.0
  9
$CHAMFERD
 40
0.0
  9
$SKPOLY
 70
     0
  9
$TDCREATE
 40
2451967.780889803
  9
$TDUPDATE
 40
2451967.780894097
  9
$TDINDWG
 40
0.0000046412
  9
$TDUSRTIMER
 40
0.0000046412
  9
$USRTIMER
 70
     1
  9
$ANGBASE
 50
0.0
  9
$ANGDIR
 70
     0
  9
$PDMODE
 70
     0
  9
$PDSIZE
 40
0.0
  9
$PLINEWID
 40
0.0
  9
$COORDS
 70
     0
  9
$SPLFRAME
 70
     0
  9
$SPLINETYPE
 70
     6
  9
$SPLINESEGS
 70
     8
  9
$ATTDIA
 70
     0
  9
$ATTREQ
 70
     1
  9
$HANDLING
 70
 10241
  9
$HANDSEED
  5
1A2
  9
$SURFTAB1
 70
     6
  9
$SURFTAB2
 70
     6
  9
$SURFTYPE
 70
     6
  9
$SURFU
 70
     6
  9
$SURFV
 70
     6
  9
$UCSNAME
  2

  9
$UCSORG
 10
0.0
 20
0.0
 30
0.0
  9
$UCSXDIR
 10
1.0
 20
0.0
 30
0.0
  9
$UCSYDIR
 10
0.0
 20
1.0
 30
0.0
  9
$PUCSNAME
  2

  9
$PUCSORG
 10
0.0
 20
0.0
 30
0.0
  9
$PUCSXDIR
 10
1.0
 20
0.0
 30
0.0
  9
$PUCSYDIR
 10
0.0
 20
1.0
 30
0.0
  9
$USERI1
 70
     0
  9
$USERI2
 70
     0
  9
$USERI3
 70
     0
  9
$USERI4
 70
     0
  9
$USERI5
 70
     0
  9
$USERR1
 40
0.0
  9
$USERR2
 40
0.0
  9
$USERR3
 40
0.0
  9
$USERR4
 40
0.0
  9
$USERR5
 40
0.0
  9
$WORLDVIEW
 70
     1
  9
$SHADEDGE
 70
     3
  9
$SHADEDIF
 70
    70
  9
$TILEMODE
 70
     1
  9
$MAXACTVP
 70
    64
  9
$PINSBASE
 10
0.0
 20
0.0
 30
0.0
  9
$PLIMCHECK
 70
     0
  9
$PEXTMIN
 10
1.000000000000000E+20
 20
1.000000000000000E+20
 30
1.000000000000000E+20
  9
$PEXTMAX
 10
-1.000000000000000E+20
 20
-1.000000000000000E+20
 30
-1.000000000000000E+20
  9
$PLIMMIN
 10
0.0
 20
0.0
  9
$PLIMMAX
 10
12.0
 20
9.0
  9
$UNITMODE
 70
     0
  9
$VISRETAIN
 70
     1
  9
$PLINEGEN
 70
     0
  9
$PSLTSCALE
 70
     1
  9
$TREEDEPTH
 70
  3020
  9
$PICKSTYLE
 70
     1
  9
$CMLSTYLE
  2
STANDARD
  9
$CMLJUST
 70
     0
  9
$CMLSCALE
 40
1.0
  9
$SAVEIMAGES
 70
     1
  0
ENDSEC
  0
SECTION
  2
CLASSES
  0
CLASS
  1
ACDBDICTIONARYWDFLT
  2
AcDbDictionaryWithDefault
  3
AutoCAD 2000
 90
    32768
280
     0
281
     0
  0
CLASS
  1
ACDBPLACEHOLDER
  2
AcDbPlaceHolder
  3
AutoCAD 2000
 90
    32768
280
     0
281
     0
  0
CLASS
  1
LAYOUT
  2
AcDbLayout
  3
AutoCAD 2000
 90
    32768
280
     0
281
     0
  0
CLASS
  1
LONG_TRANSACTION
  2
AcDbLongTransaction
  3
AutoCAD 2000
 90
    32768
280
     0
281
     0
  0
CLASS
  1
LWPOLYLINE
  2
AcDbPolyline
  3
AutoCAD 2000
 90
    32768
280
     0
281
     1
  0
CLASS
  1
HATCH
  2
AcDbHatch
  3
AutoCAD 2000
 90
    32768
280
     0
281
     1
  0
CLASS
  1
XRECORD
  2
AcDbXrecord
  3
AutoCAD 2000
 90
    32768
280
     0
281
     0
  0
ENDSEC
  0
SECTION
  2
TABLES
  0
TABLE
  2
VPORT
  5
8
330
0
100
AcDbSymbolTable
 70
     3
  0
VPORT
  5
19D
330
8
100
AcDbSymbolTableRecord
100
AcDbViewportTableRecord
  2
*ACTIVE
 70
     0
 10
0.0
 20
0.0
 11
1.0
 21
1.0
 12
-0.0249933556365747
 22
-0.1500011092469151
 13
0.0
 23
0.0
 14
1.0
 24
1.0
 15
0.0
 25
0.0
 16
0.0
 26
0.0
 36
1.0
 17
0.0
 27
0.0
 37
0.0
 40
191.8718484905585
 41
1.961625282167042
 42
50.0
 43
0.0
 44
0.0
 50
0.0
 51
0.0
 71
     0
 72
   100
 73
     1
 74
     1
 75
     0
 76
     0
 77
     0
 78
     0
  0
ENDTAB
  0
TABLE
  2
LTYPE
  5
5
330
0
100
AcDbSymbolTable
 70
     5
  0
LTYPE
  5
13
330
5
100
AcDbSymbolTableRecord
100
AcDbLinetypeTableRecord
  2
BYBLOCK
 70
     0
  3

 72
    65
 73
     0
 40
0.0
  0
LTYPE
  5
14
330
5
100
AcDbSymbolTableRecord
100
AcDbLinetypeTableRecord
  2
BYLAYER
 70
     0
  3

 72
    65
 73
     0
 40
0.0
  0
LTYPE
  5
15
330
5
100
AcDbSymbolTableRecord
100
AcDbLinetypeTableRecord
  2
CONTINUOUS
 70
     0
  3
Solid-Line
 72
    65
 73
     0
 40
0.0
  0
LTYPE
  5
22
330
5
100
AcDbSymbolTableRecord
100
AcDbLinetypeTableRecord
  2
DASHED
 70
     0
  3
DASHED
 72
    65
 73
     2
 40
0.75
 49
0.5
 74
     0
 49
-0.25
 74
     0
  0
LTYPE
  5
23
330
5
100
AcDbSymbolTableRecord
100
AcDbLinetypeTableRecord
  2
HIDDEN
 70
     0
  3
HIDDEN
 72
    65
 73
     2
 40
0.375
 49
0.25
 74
     0
 49
-0.125
 74
     0
  0
LTYPE
  5
24
330
5
100
AcDbSymbolTableRecord
100
AcDbLinetypeTableRecord
  2
CENTER
 70
     0
  3
CENTER
 72
    65
 73
     4
 40
2.0
 49
1.25
 74
     0
 49
-0.25
 74
     0
 49
0.25
 74
     0
 49
-0.25
 74
     0
  0
LTYPE
  5
25
330
5
100
AcDbSymbolTableRecord
100
AcDbLinetypeTableRecord
  2
PHANTOM
 70
     0
  3
PHANTOM
 72
    65
 73
     6
 40
2.5
 49
1.25
 74
     0
 49
-0.25
 74
     0
 49
0.25
 74
     0
 49
-0.25
 74
     0
 49
0.25
 74
     0
 49
-0.25
 74
     0
  0
ENDTAB
  0
TABLE
  2
LAYER
  5
2
330
0
100
AcDbSymbolTable
 70
     1
  0
LAYER
  5
10
330
2
100
AcDbSymbolTableRecord
100
AcDbLayerTableRecord
  2
0
 70
     0
 62
     7
  6
CONTINUOUS
  0
ENDTAB
  0
TABLE
  2
STYLE
  5
3
330
0
100
AcDbSymbolTable
 70
     3
  0
STYLE
  5
11
330
3
100
AcDbSymbolTableRecord
100
AcDbTextStyleTableRecord
  2
STANDARD
 70
     0
 40
0.0
 41
1.0
 50
0.0
 71
     0
 42
0.2
  3
txt
  4

  0
STYLE
  5
26
330
3
100
AcDbSymbolTableRecord
100
AcDbTextStyleTableRecord
  2
MONOTXT
 70
     0
 40
0.0
 41
1.0
 50
0.0
 71
     0
 42
0.2
  3
monotxt
  4

  0
STYLE
  5
27
330
3
100
AcDbSymbolTableRecord
100
AcDbTextStyleTableRecord
  2
BIGFONT
 70
     0
 40
0.0
 41
1.0
 50
0.0
 71
     0
 42
0.2
  3
txt
  4
bigfont
  0
ENDTAB
  0
TABLE
  2
VIEW
  5
6
330
0
100
AcDbSymbolTable
 70
     0
  0
ENDTAB
  0
TABLE
  2
UCS
  5
7
330
0
100
AcDbSymbolTable
 70
     0
  0
ENDTAB
  0
TABLE
  2
APPID
  5
9
330
0
100
AcDbSymbolTable
 70
     1
  0
APPID
  5
12
330
9
100
AcDbSymbolTableRecord
100
AcDbRegAppTableRecord
  2
ACAD
 70
     0
  0
ENDTAB
  0
TABLE
  2
DIMSTYLE
  5
A
330
0
100
AcDbSymbolTable
 70
     1
  0
DIMSTYLE
105
166
330
A
100
AcDbSymbolTableRecord
100
AcDbDimStyleTableRecord
  2
STANDARD
 70
     0
  3

  4

  5

  6

  7

 40
1.0
 41
0.18
 42
0.0625
 43
0.38
 44
0.18
 45
0.0
 46
0.0
 47
0.0
 48
0.0
140
0.18
141
0.09
142
0.0
143
25.4
144
1.0
145
0.0
146
1.0
147
0.09
 71
     0
 72
     0
 73
     1
 74
     1
 75
     0
 76
     0
 77
     0
 78
     0
170
     0
171
     2
172
     0
173
     0
174
     0
175
     0
176
     0
177
     0
178
     0
270
     2
271
     4
272
     4
273
     2
274
     2
340
11
275
     0
280
     0
281
     0
282
     0
283
     1
284
     0
285
     0
286
     0
287
     3
288
     0
  0
ENDTAB
  0
TABLE
  2
BLOCK_RECORD
  5
1
330
0
100
AcDbSymbolTable
 70
     0
  0
BLOCK_RECORD
  5
1E
102
{ACAD_XDICTIONARY
360
1A0
102
}
330
1
100
AcDbSymbolTableRecord
100
AcDbBlockTableRecord
  2
*MODEL_SPACE
  0
BLOCK_RECORD
  5
1A
102
{ACAD_XDICTIONARY
360
19E
102
}
330
1
100
AcDbSymbolTableRecord
100
AcDbBlockTableRecord
  2
*PAPER_SPACE
  0
ENDTAB
  0
ENDSEC
  0
SECTION
  2
BLOCKS
  0
BLOCK
  5
1F
330
1E
100
AcDbEntity
  8
0
100
AcDbBlockBegin
  2
*MODEL_SPACE
 70
     0
 10
0.0
 20
0.0
 30
0.0
  3
*MODEL_SPACE
  1

  0
ENDBLK
  5
20
330
1E
100
AcDbEntity
  8
0
100
AcDbBlockEnd
  0
BLOCK
  5
1B
330
1A
100
AcDbEntity
 67
     1
  8
0
100
AcDbBlockBegin
  2
*PAPER_SPACE
 70
     0
 10
0.0
 20
0.0
 30
0.0
  3
*PAPER_SPACE
  1

  0
ENDBLK
  5
1C
330
1A
100
AcDbEntity
 67
     1
  8
0
100
AcDbBlockEnd
  0
ENDSEC
  0
SECTION
  2
ENTITIES
  0
LINE
  5
2C
330
1E
100
AcDbEntity
  8
0
  6
CENTER
 62
     2
100
AcDbLine
 10
-0.0249938965
 20
-35.6500015
 30
0.0
 11
-0.0249938965
 21
-14.6500015
 31
0.0
  0
CIRCLE
  5
2D
330
1E
100
AcDbEntity
  8
0
 62
     7
100
AcDbCircle
 10
-0.0249938965
 20
-25.1500015
 30
0.0
 40
9.0
  0
LINE
  5
2E
330
1E
100
AcDbEntity
  8
0
 62
     7
100
AcDbLine
 10
-8.28634972
 20
-27.1500015
 30
0.0
 11
-4.607569589999999
 21
-27.1500015
 31
0.0
  0
ARC
  5
2F
330
1E
100
AcDbEntity
  8
0
 62
     7
100
AcDbCircle
 10
-0.0249938965
 20
-25.1500015
 30
0.0
 40
8.5
100
AcDbArc
 50
193.60896
 51
346.3910399999999
  0
LINE
  5
30
330
1E
100
AcDbEntity
  8
0
 62
     7
100
AcDbLine
 10
4.5575818
 20
-27.1500015
 30
0.0
 11
8.23636192
 21
-27.1500015
 31
0.0
  0
LINE
  5
31
330
1E
100
AcDbEntity
  8
0
  6
CENTER
 62
     2
100
AcDbLine
 10
-10.5249939
 20
-25.1500015
 30
0.0
 11
10.47500609999999
 21
-25.1500015
 31
0.0
  0
ARC
  5
32
330
1E
100
AcDbEntity
  8
0
 62
     7
100
AcDbCircle
 10
-0.0249938965
 20
-25.1500015
 30
0.0
 40
5.0
100
AcDbArc
 50
203.578178
 51
336.421821
  0
CIRCLE
  5
33
330
1E
100
AcDbEntity
  8
0
 62
     7
100
AcDbCircle
 10
-0.0249938965
 20
-25.1500015
 30
0.0
 40
4.0
  0
LINE
  5
34
330
1E
100
AcDbEntity
  8
0
 62
     7
100
AcDbLine
 10
7.964999849999999
 20
-25.5500015
 30
0.0
 11
5.15959866
 21
-25.5500015
 31
0.0
  0
ARC
  5
35
330
1E
100
AcDbEntity
  8
0
 62
     7
100
AcDbCircle
 10
-0.0249938965
 20
-25.1500015
 30
0.0
 40
8.0
100
AcDbArc
 50
357.134016
 51
2.86598398
  0
LINE
  5
36
330
1E
100
AcDbEntity
  8
0
 62
     7
100
AcDbLine
 10
7.964999849999999
 20
-24.7500015
 30
0.0
 11
5.15959866
 21
-24.7500015
 31
0.0
  0
ARC
  5
37
330
1E
100
AcDbEntity
  8
0
 62
     7
100
AcDbCircle
 10
-0.0249938965
 20
-25.1500015
 30
0.0
 40
8.0
100
AcDbArc
 50
163.850904
 51
168.1490949999999
  0
ARC
  5
38
330
1E
100
AcDbEntity
  8
0
 62
     7
100
AcDbCircle
 10
-0.0249938965
 20
-25.1500015
 30
0.0
 40
5.2
100
AcDbArc
 50
355.588274
 51
4.41172579
  0
ARC
  5
39
330
1E
100
AcDbEntity
  8
0
 62
     7
100
AcDbCircle
 10
-0.0249938965
 20
-25.1500015
 30
0.0
 40
5.2
100
AcDbArc
 50
175.588274
 51
184.4117259999999
  0
LINE
  5
3A
330
1E
100
AcDbEntity
  8
0
 62
     7
100
AcDbLine
 10
-8.014987639999999
 20
-24.7500015
 30
0.0
 11
-5.209586459999999
 21
-24.7500015
 31
0.0
  0
ARC
  5
3B
330
1E
100
AcDbEntity
  8
0
 62
     7
100
AcDbCircle
 10
-0.0249938965
 20
-25.1500015
 30
0.0
 40
8.0
100
AcDbArc
 50
177.134016
 51
182.865984
  0
LINE
  5
3C
330
1E
100
AcDbEntity
  8
0
 62
     7
100
AcDbLine
 10
-8.014987639999999
 20
-25.5500015
 30
0.0
 11
-5.209586459999999
 21
-25.5500015
 31
0.0
  0
LINE
  5
3D
330
1E
100
AcDbEntity
  8
0
 62
     7
100
AcDbLine
 10
-7.7093233
 20
-22.9248989
 30
0.0
 11
-5.57259934
 21
-23.4576441
 31
0.0
  0
LINE
  5
3E
330
1E
100
AcDbEntity
  8
0
 62
     7
100
AcDbLine
 10
-7.85447644
 20
-23.50707639999999
 30
0.0
 11
-5.717752479999999
 21
-24.0398215
 31
0.0
  0
ARC
  5
3F
330
1E
100
AcDbEntity
  8
0
 62
     7
100
AcDbCircle
 10
-0.0249938965
 20
-25.1500015
 30
0.0
 40
5.799999999999999
100
AcDbArc
 50
163.0351019999999
 51
168.964898
  0
LINE
  5
40
330
1E
100
AcDbEntity
  8
0
 62
     7
100
AcDbLine
 10
-1.806364849999999
 20
-17.350853
 30
0.0
 11
-1.319212049999999
 21
-20.1136338
 31
0.0
  0
ARC
  5
41
330
1E
100
AcDbEntity
  8
0
 62
     7
100
AcDbCircle
 10
-0.0249938965
 20
-25.1500015
 30
0.0
 40
8.0
100
AcDbArc
 50
97.13401629999999
 51
102.8659839999999
  0
LINE
  5
42
330
1E
100
AcDbEntity
  8
0
 62
     7
100
AcDbLine
 10
-1.01851865
 20
-17.2119345
 30
0.0
 11
-0.531365845
 21
-19.9747153
 31
0.0
  0
ARC
  5
43
330
1E
100
AcDbEntity
  8
0
 62
     7
100
AcDbCircle
 10
-0.0249938965
 20
-25.1500015
 30
0.0
 40
5.2
100
AcDbArc
 50
95.58827410000001
 51
104.4117259999999
  0
ARC
  5
44
330
1E
100
AcDbEntity
  8
0
 62
     7
100
AcDbCircle
 10
-0.0249938965
 20
-25.1500015
 30
0.0
 40
5.799999999999999
100
AcDbArc
 50
148.035102
 51
153.964898
  0
LINE
  5
45
330
1E
100
AcDbEntity
  8
0
 62
     7
100
AcDbLine
 10
-7.162472969999999
 20
-21.5366385
 30
0.0
 11
-5.2364407
 21
-22.6042556
 31
0.0
  0
LINE
  5
46
330
1E
100
AcDbEntity
  8
0
 62
     7
100
AcDbLine
 10
-6.871587199999999
 20
-21.0118667
 30
0.0
 11
-4.94555492
 21
-22.0794838
 31
0.0
  0
ARC
  5
47
330
1E
100
AcDbEntity
  8
0
 62
     7
100
AcDbCircle
 10
-0.0249938965
 20
-25.1500015
 30
0.0
 40
8.0
100
AcDbArc
 50
148.850905
 51
153.149096
  0
ARC
  5
48
330
1E
100
AcDbEntity
  8
0
 62
     7
100
AcDbCircle
 10
-0.0249938965
 20
-25.1500015
 30
0.0
 40
5.799999999999999
100
AcDbArc
 50
132.0351019999999
 51
137.964898
  0
LINE
  5
49
330
1E
100
AcDbEntity
  8
0
 62
     7
100
AcDbLine
 10
-5.890001309999999
 20
-19.7092582
 30
0.0
 11
-4.332855409999999
 21
-21.2664041
 31
0.0
  0
LINE
  5
4A
330
1E
100
AcDbEntity
  8
0
 62
     7
100
AcDbLine
 10
-5.46573724
 20
-19.2849941
 30
0.0
 11
-3.90859135
 21
-20.84214
 31
0.0
  0
ARC
  5
4B
330
1E
100
AcDbEntity
  8
0
 62
     7
100
AcDbCircle
 10
-0.0249938965
 20
-25.1500015
 30
0.0
 40
8.0
100
AcDbArc
 50
132.850905
 51
137.1490949999999
  0
ARC
  5
4C
330
1E
100
AcDbEntity
  8
0
 62
     7
100
AcDbCircle
 10
-0.0249938965
 20
-25.1500015
 30
0.0
 40
5.799999999999999
100
AcDbArc
 50
115.035102
 51
120.964898
  0
LINE
  5
4D
330
1E
100
AcDbEntity
  8
0
 62
     7
100
AcDbLine
 10
-4.043008969999999
 20
-18.2322306
 30
0.0
 11
-3.009168349999999
 21
-20.17660199999999
 31
0.0
  0
LINE
  5
4E
330
1E
100
AcDbEntity
  8
0
 62
     7
100
AcDbLine
 10
-3.513240409999999
 20
-17.9505476
 30
0.0
 11
-2.479399789999999
 21
-19.8949191
 31
0.0
  0
ARC
  5
4F
330
1E
100
AcDbEntity
  8
0
 62
     7
100
AcDbCircle
 10
-0.0249938965
 20
-25.1500015
 30
0.0
 40
8.0
100
AcDbArc
 50
115.8509039999999
 51
120.149096
  0
ARC
  5
50
330
1E
100
AcDbEntity
  8
0
 62
     7
100
AcDbCircle
 10
-0.0249938965
 20
-25.1500015
 30
0.0
 40
5.799999999999999
100
AcDbArc
 50
79.03510229999999
 51
84.96489809999998
  0
LINE
  5
51
330
1E
100
AcDbEntity
  8
0
 62
     7
100
AcDbLine
 10
0.790527366
 20
-17.1916773
 30
0.0
 11
0.484049154
 21
-19.3723831
 31
0.0
  0
LINE
  5
52
330
1E
100
AcDbEntity
  8
0
 62
     7
100
AcDbLine
 10
1.384688209999999
 20
-17.2751811
 30
0.0
 11
1.078209999999999
 21
-19.4558869
 31
0.0
  0
ARC
  5
53
330
1E
100
AcDbEntity
  8
0
 62
     7
100
AcDbCircle
 10
-0.0249938965
 20
-25.1500015
 30
0.0
 40
8.0
100
AcDbArc
 50
79.85090429999999
 51
84.14909559999999
  0
ARC
  5
54
330
1E
100
AcDbEntity
  8
0
 62
     7
100
AcDbCircle
 10
-0.0249938965
 20
-25.1500015
 30
0.0
 40
5.799999999999999
100
AcDbArc
 50
60.03510219999999
 51
65.964898
  0
LINE
  5
55
330
1E
100
AcDbEntity
  8
0
 62
     7
100
AcDbLine
 10
3.337073549999999
 20
-17.89076589999999
 30
0.0
 11
2.337324349999999
 21
-19.8528841
 31
0.0
  0
LINE
  5
56
330
1E
100
AcDbEntity
  8
0
 62
     7
100
AcDbLine
 10
3.871677459999999
 20
-18.1631602
 30
0.0
 11
2.871928259999999
 21
-20.1252784
 31
0.0
  0
ARC
  5
57
330
1E
100
AcDbEntity
  8
0
 62
     7
100
AcDbCircle
 10
-0.0249938965
 20
-25.1500015
 30
0.0
 40
8.0
100
AcDbArc
 50
60.85090409999999
 51
65.14909540000001
  0
ARC
  5
58
330
1E
100
AcDbEntity
  8
0
 62
     7
100
AcDbCircle
 10
-0.0249938965
 20
-25.1500015
 30
0.0
 40
5.799999999999999
100
AcDbArc
 50
40.03510220000001
 51
45.96489789999998
  0
LINE
  5
59
330
1E
100
AcDbEntity
  8
0
 62
     7
100
AcDbLine
 10
5.617120899999999
 20
-19.47844609999999
 30
0.0
 11
4.006579969999999
 21
-20.9802998
 31
0.0
  0
LINE
  5
5A
330
1E
100
AcDbEntity
  8
0
 62
     7
100
AcDbLine
 10
6.026319909999999
 20
-19.9172583
 30
0.0
 11
4.415778979999999
 21
-21.4191121
 31
0.0
  0
ARC
  5
5B
330
1E
100
AcDbEntity
  8
0
 62
     7
100
AcDbCircle
 10
-0.0249938965
 20
-25.1500015
 30
0.0
 40
8.0
100
AcDbArc
 50
40.8509044
 51
45.1490956
  0
ARC
  5
5C
330
1E
100
AcDbEntity
  8
0
 62
     7
100
AcDbCircle
 10
-0.0249938965
 20
-25.1500015
 30
0.0
 40
5.799999999999999
100
AcDbArc
 50
19.0351022
 51
24.9648979
  0
LINE
  5
5D
330
1E
100
AcDbEntity
  8
0
 62
     7
100
AcDbLine
 10
7.27487772
 20
-21.8771015
 30
0.0
 11
5.233092
 21
-22.7020365
 31
0.0
  0
LINE
  5
5E
330
1E
100
AcDbEntity
  8
0
 62
     7
100
AcDbLine
 10
7.499641669999999
 20
-22.4334118
 30
0.0
 11
5.457855949999999
 21
-23.25834679999999
 31
0.0
  0
ARC
  5
5F
330
1E
100
AcDbEntity
  8
0
 62
     7
100
AcDbCircle
 10
-0.0249938965
 20
-25.1500015
 30
0.0
 40
8.0
100
AcDbArc
 50
19.8509044
 51
24.14909559999999
  0
ARC
  5
60
330
1E
100
AcDbEntity
  8
0
 62
     7
100
AcDbCircle
 10
-0.0249938965
 20
-25.1500015
 30
0.0
 40
6.599999999999999
100
AcDbArc
 50
183.474601
 51
184.3447519999999
  0
LINE
  5
61
330
1E
100
AcDbEntity
  8
0
 62
     7
100
AcDbLine
 10
-6.60602725
 20
-24.6500015
 30
0.0
 11
-3.99362086
 21
-24.6500015
 31
0.0
  0
LINE
  5
62
330
1E
100
AcDbEntity
  8
0
 62
     7
100
AcDbLine
 10
-6.60602725
 20
-25.6500015
 30
0.0
 11
-3.99362086
 21
-25.6500015
 31
0.0
  0
ARC
  5
63
330
1E
100
AcDbEntity
  8
0
 62
     7
100
AcDbCircle
 10
-0.0249938965
 20
-25.1500015
 30
0.0
 40
6.599999999999999
100
AcDbArc
 50
175.655248
 51
176.5253989999999
  0
LINE
  5
64
330
1E
100
AcDbEntity
  8
0
  6
CENTER
 62
     2
100
AcDbLine
 10
-62.928338
 20
-31.1500015
 30
0.0
 11
-62.928338
 21
-19.1500015
 31
0.0
  0
LINE
  5
65
330
1E
100
AcDbEntity
  8
0
  6
CENTER
 62
     2
100
AcDbLine
 10
-68.8148272
 20
-25.1500015
 30
0.0
 11
-42.977378
 21
-25.1500015
 31
0.0
  0
LINE
  5
66
330
1E
100
AcDbEntity
  8
0
 62
     7
100
AcDbLine
 10
-51.428338
 20
-17.34873059999999
 30
0.0
 11
-51.428338
 21
-17.06704769999999
 31
0.0
  0
LINE
  5
67
330
1E
100
AcDbEntity
  8
0
 62
     7
100
AcDbLine
 10
-51.428338
 20
-19.00170899999999
 30
0.0
 11
-49.428338
 21
-19.00170899999999
 31
0.0
  0
LINE
  5
68
330
1E
100
AcDbEntity
  8
0
 62
     7
100
AcDbLine
 10
-51.428338
 20
-18.577445
 30
0.0
 11
-49.428338
 21
-18.577445
 31
0.0
  0
LINE
  5
69
330
1E
100
AcDbEntity
  8
0
 62
     7
100
AcDbLine
 10
-51.428338
 20
-17.34873059999999
 30
0.0
 11
-49.428338
 21
-17.34873059999999
 31
0.0
  0
LINE
  5
6A
330
1E
100
AcDbEntity
  8
0
 62
     7
100
AcDbLine
 10
-51.428338
 20
-17.06704769999999
 30
0.0
 11
-49.428338
 21
-17.06704769999999
 31
0.0
  0
LINE
  5
6B
330
1E
100
AcDbEntity
  8
0
 62
     7
100
AcDbLine
 10
-51.428338
 20
-19.00170899999999
 30
0.0
 11
-51.428338
 21
-18.577445
 31
0.0
  0
LINE
  5
6C
330
1E
100
AcDbEntity
  8
0
 62
     2
100
AcDbLine
 10
-57.428338
 20
-34.1500015
 30
0.0
 11
-53.42833800000001
 21
-30.01665189999999
 31
0.0
  0
LINE
  5
6D
330
1E
100
AcDbEntity
  8
0
 62
     2
100
AcDbLine
 10
-57.428338
 20
-30.01665189999999
 30
0.0
 11
-53.42833800000001
 21
-34.1500015
 31
0.0
  0
LINE
  5
6E
330
1E
100
AcDbEntity
  8
0
 62
     2
100
AcDbLine
 10
-57.428338
 20
-21.02689589999999
 30
0.0
 11
-53.42833800000001
 21
-29.27310719999999
 31
0.0
  0
LINE
  5
6F
330
1E
100
AcDbEntity
  8
0
 62
     2
100
AcDbLine
 10
-53.42833800000001
 20
-21.02689589999999
 30
0.0
 11
-57.428338
 21
-29.27310719999999
 31
0.0
  0
LINE
  5
70
330
1E
100
AcDbEntity
  8
0
 62
     2
100
AcDbLine
 10
-57.428338
 20
-20.2833511
 30
0.0
 11
-53.42833800000001
 21
-16.1500015
 31
0.0
  0
LINE
  5
71
330
1E
100
AcDbEntity
  8
0
 62
     2
100
AcDbLine
 10
-57.428338
 20
-16.1500015
 30
0.0
 11
-53.42833800000001
 21
-20.2833511
 31
0.0
  0
LINE
  5
72
330
1E
100
AcDbEntity
  8
0
 62
     7
100
AcDbLine
 10
-45.2524857
 20
-24.7500015
 30
0.0
 11
-45.2524857
 21
-24.6500015
 31
0.0
  0
LINE
  5
73
330
1E
100
AcDbEntity
  8
0
 62
     7
100
AcDbLine
 10
-49.428338
 20
-25.6500015
 30
0.0
 11
-45.2524857
 21
-25.6500015
 31
0.0
  0
LINE
  5
74
330
1E
100
AcDbEntity
  8
0
 62
     7
100
AcDbLine
 10
-49.428338
 20
-24.6500015
 30
0.0
 11
-45.2524857
 21
-24.6500015
 31
0.0
  0
LINE
  5
75
330
1E
100
AcDbEntity
  8
0
 62
     7
100
AcDbLine
 10
-45.2524857
 20
-25.6500015
 30
0.0
 11
-45.2524857
 21
-25.5500015
 31
0.0
  0
LINE
  5
76
330
1E
100
AcDbEntity
  8
0
 62
     7
100
AcDbLine
 10
-53.42833800000001
 20
-30.01665189999999
 30
0.0
 11
-53.42833800000001
 21
-34.1500015
 31
0.0
  0
LINE
  5
77
330
1E
100
AcDbEntity
  8
0
 62
     7
100
AcDbLine
 10
-57.428338
 20
-29.27310719999999
 30
0.0
 11
-53.42833800000001
 21
-29.27310719999999
 31
0.0
  0
LINE
  5
78
330
1E
100
AcDbEntity
  8
0
 62
     7
100
AcDbLine
 10
-57.428338
 20
-30.01665189999999
 30
0.0
 11
-53.42833800000001
 21
-30.01665189999999
 31
0.0
  0
LINE
  5
79
330
1E
100
AcDbEntity
  8
0
 62
     7
100
AcDbLine
 10
-53.42833800000001
 20
-20.2833511
 30
0.0
 11
-53.42833800000001
 21
-16.1500015
 31
0.0
  0
LINE
  5
7A
330
1E
100
AcDbEntity
  8
0
 62
     7
100
AcDbLine
 10
-57.428338
 20
-21.02689589999999
 30
0.0
 11
-53.42833800000001
 21
-21.02689589999999
 31
0.0
  0
LINE
  5
7B
330
1E
100
AcDbEntity
  8
0
 62
     7
100
AcDbLine
 10
-57.428338
 20
-20.2833511
 30
0.0
 11
-53.42833800000001
 21
-20.2833511
 31
0.0
  0
LINE
  5
7C
330
1E
100
AcDbEntity
  8
0
 62
     7
100
AcDbLine
 10
-44.4445826
 20
-20.1136338
 30
0.0
 11
-44.4445826
 21
-19.9747153
 31
0.0
  0
LINE
  5
7D
330
1E
100
AcDbEntity
  8
0
 62
     7
100
AcDbLine
 10
-44.7902182
 20
-20.17660199999999
 30
0.0
 11
-44.7902182
 21
-19.8949191
 31
0.0
  0
LINE
  5
7E
330
1E
100
AcDbEntity
  8
0
 62
     7
100
AcDbLine
 10
-44.7902182
 20
-21.2664041
 30
0.0
 11
-44.7902182
 21
-20.84214
 31
0.0
  0
LINE
  5
7F
330
1E
100
AcDbEntity
  8
0
 62
     7
100
AcDbLine
 10
-44.7902182
 20
-22.6042556
 30
0.0
 11
-44.7902182
 21
-22.0794838
 31
0.0
  0
LINE
  5
80
330
1E
100
AcDbEntity
  8
0
 62
     7
100
AcDbLine
 10
-46.06038879999999
 20
-17.350853
 30
0.0
 11
-46.06038879999999
 21
-17.2119345
 31
0.0
  0
LINE
  5
81
330
1E
100
AcDbEntity
  8
0
 62
     7
100
AcDbLine
 10
-46.06038879999999
 20
-18.2322306
 30
0.0
 11
-46.06038879999999
 21
-17.9593889
 31
0.0
  0
LINE
  5
82
330
1E
100
AcDbEntity
  8
0
 62
     7
100
AcDbLine
 10
-46.06038879999999
 20
-19.71633869999999
 30
0.0
 11
-46.06038879999999
 21
-19.2849941
 31
0.0
  0
LINE
  5
83
330
1E
100
AcDbEntity
  8
0
 62
     7
100
AcDbLine
 10
-46.06038879999999
 20
-21.54149299999999
 30
0.0
 11
-46.06038879999999
 21
-21.01672119999999
 31
0.0
  0
LINE
  5
84
330
1E
100
AcDbEntity
  8
0
 62
     7
100
AcDbLine
 10
-46.06038879999999
 20
-23.5094988
 30
0.0
 11
-46.06038879999999
 21
-22.9248989
 31
0.0
  0
LINE
  5
85
330
1E
100
AcDbEntity
  8
0
 62
     7
100
AcDbLine
 10
-46.06038879999999
 20
-17.2119345
 30
0.0
 11
-44.4445826
 21
-19.9747153
 31
0.0
  0
LINE
  5
86
330
1E
100
AcDbEntity
  8
0
 62
     7
100
AcDbLine
 10
-46.06038879999999
 20
-17.350853
 30
0.0
 11
-44.4445826
 21
-20.1136338
 31
0.0
  0
LINE
  5
87
330
1E
100
AcDbEntity
  8
0
 62
     7
100
AcDbLine
 10
-46.06038879999999
 20
-17.9593889
 30
0.0
 11
-44.7902182
 21
-19.8949191
 31
0.0
  0
LINE
  5
88
330
1E
100
AcDbEntity
  8
0
 62
     7
100
AcDbLine
 10
-46.06038879999999
 20
-18.2322306
 30
0.0
 11
-44.7902182
 21
-20.17660199999999
 31
0.0
  0
LINE
  5
89
330
1E
100
AcDbEntity
  8
0
 62
     7
100
AcDbLine
 10
-46.06038879999999
 20
-19.2849941
 30
0.0
 11
-44.7902182
 21
-20.84214
 31
0.0
  0
LINE
  5
8A
330
1E
100
AcDbEntity
  8
0
 62
     7
100
AcDbLine
 10
-46.06038879999999
 20
-19.71633869999999
 30
0.0
 11
-44.7902182
 21
-21.2664041
 31
0.0
  0
LINE
  5
8B
330
1E
100
AcDbEntity
  8
0
 62
     7
100
AcDbLine
 10
-46.06038879999999
 20
-21.01672119999999
 30
0.0
 11
-44.7902182
 21
-22.0794838
 31
0.0
  0
LINE
  5
8C
330
1E
100
AcDbEntity
  8
0
 62
     7
100
AcDbLine
 10
-44.7902182
 20
-22.6042556
 30
0.0
 11
-46.06038879999999
 21
-21.54149299999999
 31
0.0
  0
LINE
  5
8D
330
1E
100
AcDbEntity
  8
0
 62
     7
100
AcDbLine
 10
-46.06038879999999
 20
-23.5094988
 30
0.0
 11
-44.7902182
 21
-24.0398215
 31
0.0
  0
LINE
  5
8E
330
1E
100
AcDbEntity
  8
0
 62
     7
100
AcDbLine
 10
-46.06038879999999
 20
-22.9248989
 30
0.0
 11
-44.7902182
 21
-23.4576441
 31
0.0
  0
LINE
  5
8F
330
1E
100
AcDbEntity
  8
0
 62
     7
100
AcDbLine
 10
-44.7902182
 20
-24.0398215
 30
0.0
 11
-44.7902182
 21
-23.4576441
 31
0.0
  0
LINE
  5
90
330
1E
100
AcDbEntity
  8
0
 62
     7
100
AcDbLine
 10
-46.06038879999999
 20
-24.7500015
 30
0.0
 11
-44.4445826
 21
-24.7500015
 31
0.0
  0
LINE
  5
91
330
1E
100
AcDbEntity
  8
0
 62
     7
100
AcDbLine
 10
-46.06038879999999
 20
-25.5500015
 30
0.0
 11
-44.4445826
 21
-25.5500015
 31
0.0
  0
LINE
  5
92
330
1E
100
AcDbEntity
  8
0
 62
     7
100
AcDbLine
 10
-44.4445826
 20
-25.5500015
 30
0.0
 11
-44.4445826
 21
-24.7500015
 31
0.0
  0
LINE
  5
93
330
1E
100
AcDbEntity
  8
0
 62
     7
100
AcDbLine
 10
-46.06038879999999
 20
-25.5500015
 30
0.0
 11
-46.06038879999999
 21
-24.7500015
 31
0.0
  0
ARC
  5
94
330
1E
100
AcDbEntity
  8
0
 62
     7
100
AcDbCircle
 10
-45.328338
 20
-29.8820523
 30
0.0
 40
1.0
100
AcDbArc
 50
330.0
 51
0.0
  0
LINE
  5
95
330
1E
100
AcDbEntity
  8
0
 62
     7
100
AcDbLine
 10
-44.4623126
 20
-30.38205229999999
 30
0.0
 11
-46.3490639
 21
-33.6500015
 31
0.0
  0
ARC
  5
96
330
1E
100
AcDbEntity
  8
0
 62
     7
100
AcDbCircle
 10
-47.21508929999999
 20
-33.1500015
 30
0.0
 40
1.0
100
AcDbArc
 50
270.0
 51
330.0
  0
LINE
  5
97
330
1E
100
AcDbEntity
  8
0
 62
     7
100
AcDbLine
 10
-46.3490639
 20
-27.1500015
 30
0.0
 11
-44.328338
 21
-27.1500015
 31
0.0
  0
LINE
  5
98
330
1E
100
AcDbEntity
  8
0
 62
     7
100
AcDbLine
 10
-49.428338
 20
-27.1500015
 30
0.0
 11
-47.21508929999999
 21
-27.1500015
 31
0.0
  0
LINE
  5
99
330
1E
100
AcDbEntity
  8
0
 62
     7
100
AcDbLine
 10
-49.428338
 20
-27.1500015
 30
0.0
 11
-49.428338
 21
-16.1500015
 31
0.0
  0
LINE
  5
9A
330
1E
100
AcDbEntity
  8
0
 62
     7
100
AcDbLine
 10
-46.3490639
 20
-33.6500015
 30
0.0
 11
-46.3490639
 21
-27.1500015
 31
0.0
  0
LINE
  5
9B
330
1E
100
AcDbEntity
  8
0
 62
     7
100
AcDbLine
 10
-47.21508929999999
 20
-34.1500015
 30
0.0
 11
-47.21508929999999
 21
-27.1500015
 31
0.0
  0
LINE
  5
9C
330
1E
100
AcDbEntity
  8
0
 62
     7
100
AcDbLine
 10
-52.928338
 20
-34.1500015
 30
0.0
 11
-52.928338
 21
-16.1500015
 31
0.0
  0
LINE
  5
9D
330
1E
100
AcDbEntity
  8
0
 62
     7
100
AcDbLine
 10
-53.42833800000001
 20
-29.27310719999999
 30
0.0
 11
-53.42833800000001
 21
-21.02689589999999
 31
0.0
  0
ARC
  5
9E
330
1E
100
AcDbEntity
  8
0
 62
     7
100
AcDbCircle
 10
-45.328338
 20
-20.4179507
 30
0.0
 40
1.0
100
AcDbArc
 50
0.0
 51
30.0
  0
ARC
  5
9F
330
1E
100
AcDbEntity
  8
0
 62
     7
100
AcDbCircle
 10
-47.21508929999999
 20
-17.1500015
 30
0.0
 40
1.0
100
AcDbArc
 50
30.0
 51
90.00000020000001
  0
LINE
  5
A0
330
1E
100
AcDbEntity
  8
0
 62
     7
100
AcDbLine
 10
-44.4623126
 20
-19.9179507
 30
0.0
 11
-46.3490639
 21
-16.6500015
 31
0.0
  0
LINE
  5
A1
330
1E
100
AcDbEntity
  8
0
 62
     7
100
AcDbLine
 10
-44.328338
 20
-29.8820523
 30
0.0
 11
-44.328338
 21
-20.4179507
 31
0.0
  0
LINE
  5
A2
330
1E
100
AcDbEntity
  8
0
 62
     7
100
AcDbLine
 10
-57.428338
 20
-34.1500015
 30
0.0
 11
-57.428338
 21
-16.1500015
 31
0.0
  0
LINE
  5
A3
330
1E
100
AcDbEntity
  8
0
 62
     7
100
AcDbLine
 10
-57.428338
 20
-34.1500015
 30
0.0
 11
-47.21508929999999
 21
-34.1500015
 31
0.0
  0
LINE
  5
A4
330
1E
100
AcDbEntity
  8
0
 62
     7
100
AcDbLine
 10
-57.428338
 20
-16.1500015
 30
0.0
 11
-47.21508929999999
 21
-16.1500015
 31
0.0
  0
ARC
  5
A5
330
1E
100
AcDbEntity
  8
0
 62
     7
100
AcDbCircle
 10
-57.928338
 20
-30.65610289999999
 30
0.0
 40
0.5
100
AcDbArc
 50
0.0
 51
90.00000020000001
  0
ARC
  5
A6
330
1E
100
AcDbEntity
  8
0
 62
     7
100
AcDbCircle
 10
-57.928338
 20
-19.64390019999999
 30
0.0
 40
0.5
100
AcDbArc
 50
270.0
 51
0.0
  0
LINE
  5
A7
330
1E
100
AcDbEntity
  8
0
 62
     7
100
AcDbLine
 10
-58.40385999999999
 20
-20.1439002
 30
0.0
 11
-57.928338
 21
-20.1439002
 31
0.0
  0
LINE
  5
A8
330
1E
100
AcDbEntity
  8
0
 62
     7
100
AcDbLine
 10
-58.40385999999999
 20
-30.15610289999999
 30
0.0
 11
-57.928338
 21
-30.15610289999999
 31
0.0
  0
LINE
  5
A9
330
1E
100
AcDbEntity
  8
0
 62
     2
100
AcDbLine
 10
-59.928338
 20
-29.5225195
 30
0.0
 11
-58.40385999999999
 21
-30.15610289999999
 31
0.0
  0
LINE
  5
AA
330
1E
100
AcDbEntity
  8
0
 62
     2
100
AcDbLine
 10
-59.928338
 20
-20.77731619999999
 30
0.0
 11
-58.4283365
 21
-20.1444393
 31
0.0
  0
LINE
  5
AB
330
1E
100
AcDbEntity
  8
0
 62
     7
100
AcDbLine
 10
-59.928338
 20
-30.0928383
 30
0.0
 11
-59.928338
 21
-20.20693969999999
 31
0.0
  0
LINE
  5
AC
330
1E
100
AcDbEntity
  8
0
 62
     7
100
AcDbLine
 10
-66.42858209999999
 20
-29.90532879999999
 30
0.0
 11
-66.42858209999999
 21
-20.39444539999999
 31
0.0
  0
LINE
  5
AD
330
1E
100
AcDbEntity
  8
0
 62
     7
100
AcDbLine
 10
-66.42857259999999
 20
-20.3944508
 30
0.0
 11
-66.9283307
 21
-20.9264511
 31
0.0
  0
LINE
  5
AE
330
1E
100
AcDbEntity
  8
0
 62
     7
100
AcDbLine
 10
-66.42856229999999
 20
-29.9053174
 30
0.0
 11
-66.92832049999999
 21
-29.3733172
 31
0.0
  0
LINE
  5
AF
330
1E
100
AcDbEntity
  8
0
 62
     7
100
AcDbLine
 10
-66.92833799999999
 20
-29.37333109999999
 30
0.0
 11
-66.92833799999999
 21
-20.9264412
 31
0.0
  0
LINE
  5
B0
330
1E
100
AcDbEntity
  8
0
 62
     7
100
AcDbLine
 10
-58.40385999999999
 20
-30.15610289999999
 30
0.0
 11
-66.42856979999999
 21
-29.90532879999999
 31
0.0
  0
LINE
  5
B1
330
1E
100
AcDbEntity
  8
0
 62
     2
100
AcDbLine
 10
-59.928338
 20
-29.5225195
 30
0.0
 11
-66.92833449999999
 21
-29.30376799999999
 31
0.0
  0
LINE
  5
B2
330
1E
100
AcDbEntity
  8
0
 62
     2
100
AcDbLine
 10
-59.928338
 20
-20.77731619999999
 30
0.0
 11
-66.9283379
 21
-20.9960645
 31
0.0
  0
LINE
  5
B3
330
1E
100
AcDbEntity
  8
0
 62
     7
100
AcDbLine
 10
-58.4283365
 20
-20.1444393
 30
0.0
 11
-66.42859
 21
-20.3944453
 31
0.0
  0
LINE
  5
B4
330
1E
100
AcDbEntity
  8
0
  6
CENTER
 62
     2
100
AcDbLine
 10
62.8783502
 20
-31.1500015
 30
0.0
 11
62.8783502
 21
-19.1500015
 31
0.0
  0
LINE
  5
B5
330
1E
100
AcDbEntity
  8
0
  6
CENTER
 62
     2
100
AcDbLine
 10
69.0266467
 20
-25.1500015
 30
0.0
 11
41.45715079999999
 21
-25.1500015
 31
0.0
  0
LINE
  5
B6
330
1E
100
AcDbEntity
  8
0
 62
     7
100
AcDbLine
 10
57.3783502
 20
-16.1500015
 30
0.0
 11
47.1651015
 21
-16.1500015
 31
0.0
  0
LINE
  5
B7
330
1E
100
AcDbEntity
  8
0
 62
     7
100
AcDbLine
 10
57.3783502
 20
-34.1500015
 30
0.0
 11
47.1651015
 21
-34.1500015
 31
0.0
  0
LINE
  5
B8
330
1E
100
AcDbEntity
  8
0
 62
     7
100
AcDbLine
 10
57.3783502
 20
-34.1500015
 30
0.0
 11
57.3783502
 21
-16.1500015
 31
0.0
  0
LINE
  5
B9
330
1E
100
AcDbEntity
  8
0
 62
     7
100
AcDbLine
 10
44.2783502
 20
-29.8820523
 30
0.0
 11
44.2783502
 21
-20.4179507
 31
0.0
  0
LINE
  5
BA
330
1E
100
AcDbEntity
  8
0
 62
     7
100
AcDbLine
 10
44.41232479999999
 20
-19.9179507
 30
0.0
 11
46.2990761
 21
-16.6500015
 31
0.0
  0
ARC
  5
BB
330
1E
100
AcDbEntity
  8
0
 62
     7
100
AcDbCircle
 10
47.1651015
 20
-17.1500015
 30
0.0
 40
1.0
100
AcDbArc
 50
90.00000020000001
 51
150.0
  0
ARC
  5
BC
330
1E
100
AcDbEntity
  8
0
 62
     7
100
AcDbCircle
 10
45.2783502
 20
-20.4179507
 30
0.0
 40
1.0
100
AcDbArc
 50
150.0
 51
180.0
  0
LINE
  5
BD
330
1E
100
AcDbEntity
  8
0
 62
     7
100
AcDbLine
 10
53.37835019999999
 20
-29.27310719999999
 30
0.0
 11
53.37835019999999
 21
-21.02689589999999
 31
0.0
  0
LINE
  5
BE
330
1E
100
AcDbEntity
  8
0
 62
     7
100
AcDbLine
 10
52.8783502
 20
-34.1500015
 30
0.0
 11
52.8783502
 21
-16.1500015
 31
0.0
  0
LINE
  5
BF
330
1E
100
AcDbEntity
  8
0
 62
     7
100
AcDbLine
 10
47.1651015
 20
-34.1500015
 30
0.0
 11
47.1651015
 21
-27.1500015
 31
0.0
  0
LINE
  5
C0
330
1E
100
AcDbEntity
  8
0
 62
     7
100
AcDbLine
 10
46.2990761
 20
-33.6500015
 30
0.0
 11
46.2990761
 21
-27.1500015
 31
0.0
  0
LINE
  5
C1
330
1E
100
AcDbEntity
  8
0
 62
     7
100
AcDbLine
 10
49.37835020000001
 20
-27.1500015
 30
0.0
 11
49.37835020000001
 21
-16.1500015
 31
0.0
  0
LINE
  5
C2
330
1E
100
AcDbEntity
  8
0
 62
     7
100
AcDbLine
 10
49.37835020000001
 20
-27.1500015
 30
0.0
 11
47.1651015
 21
-27.1500015
 31
0.0
  0
LINE
  5
C3
330
1E
100
AcDbEntity
  8
0
 62
     7
100
AcDbLine
 10
46.2990761
 20
-27.1500015
 30
0.0
 11
44.2783502
 21
-27.1500015
 31
0.0
  0
ARC
  5
C4
330
1E
100
AcDbEntity
  8
0
 62
     7
100
AcDbCircle
 10
47.1651015
 20
-33.1500015
 30
0.0
 40
1.0
100
AcDbArc
 50
210.0
 51
270.0
  0
LINE
  5
C5
330
1E
100
AcDbEntity
  8
0
 62
     7
100
AcDbLine
 10
44.41232479999999
 20
-30.38205229999999
 30
0.0
 11
46.2990761
 21
-33.6500015
 31
0.0
  0
ARC
  5
C6
330
1E
100
AcDbEntity
  8
0
 62
     7
100
AcDbCircle
 10
45.2783502
 20
-29.8820523
 30
0.0
 40
1.0
100
AcDbArc
 50
180.0
 51
210.0
  0
LINE
  5
C7
330
1E
100
AcDbEntity
  8
0
 62
     7
100
AcDbLine
 10
46.010401
 20
-25.5500015
 30
0.0
 11
46.010401
 21
-24.7500015
 31
0.0
  0
LINE
  5
C8
330
1E
100
AcDbEntity
  8
0
 62
     7
100
AcDbLine
 10
44.3945948
 20
-25.5500015
 30
0.0
 11
44.3945948
 21
-24.7500015
 31
0.0
  0
LINE
  5
C9
330
1E
100
AcDbEntity
  8
0
 62
     7
100
AcDbLine
 10
46.010401
 20
-25.5500015
 30
0.0
 11
44.3945948
 21
-25.5500015
 31
0.0
  0
LINE
  5
CA
330
1E
100
AcDbEntity
  8
0
 62
     7
100
AcDbLine
 10
46.010401
 20
-24.7500015
 30
0.0
 11
44.3945948
 21
-24.7500015
 31
0.0
  0
LINE
  5
CB
330
1E
100
AcDbEntity
  8
0
 62
     7
100
AcDbLine
 10
46.010401
 20
-22.4334118
 30
0.0
 11
46.010401
 21
-21.8808526
 31
0.0
  0
LINE
  5
CC
330
1E
100
AcDbEntity
  8
0
 62
     7
100
AcDbLine
 10
46.010401
 20
-19.92408739999999
 30
0.0
 11
46.010401
 21
-19.47844609999999
 31
0.0
  0
LINE
  5
CD
330
1E
100
AcDbEntity
  8
0
 62
     7
100
AcDbLine
 10
46.010401
 20
-18.1631602
 30
0.0
 11
46.010401
 21
-17.89076589999999
 31
0.0
  0
LINE
  5
CE
330
1E
100
AcDbEntity
  8
0
 62
     7
100
AcDbLine
 10
46.010401
 20
-17.2751811
 30
0.0
 11
46.010401
 21
-17.1916773
 31
0.0
  0
LINE
  5
CF
330
1E
100
AcDbEntity
  8
0
 62
     7
100
AcDbLine
 10
44.7402304
 20
-23.25834679999999
 30
0.0
 11
44.7402304
 21
-22.7020365
 31
0.0
  0
LINE
  5
D0
330
1E
100
AcDbEntity
  8
0
 62
     7
100
AcDbLine
 10
44.7402304
 20
-21.4191121
 30
0.0
 11
44.7402304
 21
-20.9802998
 31
0.0
  0
LINE
  5
D1
330
1E
100
AcDbEntity
  8
0
 62
     7
100
AcDbLine
 10
44.7402304
 20
-19.4558869
 30
0.0
 11
44.7402304
 21
-19.3723831
 31
0.0
  0
LINE
  5
D2
330
1E
100
AcDbEntity
  8
0
 62
     7
100
AcDbLine
 10
57.3783502
 20
-20.2833511
 30
0.0
 11
53.37835019999999
 21
-20.2833511
 31
0.0
  0
LINE
  5
D3
330
1E
100
AcDbEntity
  8
0
 62
     7
100
AcDbLine
 10
57.3783502
 20
-21.02689589999999
 30
0.0
 11
53.37835019999999
 21
-21.02689589999999
 31
0.0
  0
LINE
  5
D4
330
1E
100
AcDbEntity
  8
0
 62
     7
100
AcDbLine
 10
53.37835019999999
 20
-20.2833511
 30
0.0
 11
53.37835019999999
 21
-16.1500015
 31
0.0
  0
LINE
  5
D5
330
1E
100
AcDbEntity
  8
0
 62
     7
100
AcDbLine
 10
57.3783502
 20
-30.01665189999999
 30
0.0
 11
53.37835019999999
 21
-30.01665189999999
 31
0.0
  0
LINE
  5
D6
330
1E
100
AcDbEntity
  8
0
 62
     7
100
AcDbLine
 10
57.3783502
 20
-29.27310719999999
 30
0.0
 11
53.37835019999999
 21
-29.27310719999999
 31
0.0
  0
LINE
  5
D7
330
1E
100
AcDbEntity
  8
0
 62
     7
100
AcDbLine
 10
53.37835019999999
 20
-30.01665189999999
 30
0.0
 11
53.37835019999999
 21
-34.1500015
 31
0.0
  0
LINE
  5
D8
330
1E
100
AcDbEntity
  8
0
 62
     7
100
AcDbLine
 10
58.37834870000001
 20
-30.1555637
 30
0.0
 11
66.3786022
 21
-29.9055577
 31
0.0
  0
LINE
  5
D9
330
1E
100
AcDbEntity
  8
0
 62
     2
100
AcDbLine
 10
59.8783502
 20
-29.5226869
 30
0.0
 11
66.8783501
 21
-29.3039385
 31
0.0
  0
LINE
  5
DA
330
1E
100
AcDbEntity
  8
0
 62
     2
100
AcDbLine
 10
59.8783502
 20
-20.77748349999999
 30
0.0
 11
66.8783467
 21
-20.996235
 31
0.0
  0
LINE
  5
DB
330
1E
100
AcDbEntity
  8
0
 62
     7
100
AcDbLine
 10
58.3538723
 20
-20.1439002
 30
0.0
 11
66.3785821
 21
-20.3946743
 31
0.0
  0
LINE
  5
DC
330
1E
100
AcDbEntity
  8
0
 62
     7
100
AcDbLine
 10
66.8783502
 20
-20.926672
 30
0.0
 11
66.8783502
 21
-29.3735619
 31
0.0
  0
LINE
  5
DD
330
1E
100
AcDbEntity
  8
0
 62
     7
100
AcDbLine
 10
66.3785745
 20
-20.39468569999999
 30
0.0
 11
66.8783327
 21
-20.9266858
 31
0.0
  0
LINE
  5
DE
330
1E
100
AcDbEntity
  8
0
 62
     7
100
AcDbLine
 10
66.3785848
 20
-29.9055522
 30
0.0
 11
66.87834290000001
 21
-29.373552
 31
0.0
  0
LINE
  5
DF
330
1E
100
AcDbEntity
  8
0
 62
     7
100
AcDbLine
 10
66.3785943
 20
-20.3946743
 30
0.0
 11
66.3785943
 21
-29.9055576
 31
0.0
  0
LINE
  5
E0
330
1E
100
AcDbEntity
  8
0
 62
     2
100
AcDbLine
 10
57.3783502
 20
-16.1500015
 30
0.0
 11
53.37835019999999
 21
-20.2833511
 31
0.0
  0
LINE
  5
E1
330
1E
100
AcDbEntity
  8
0
 62
     2
100
AcDbLine
 10
57.3783502
 20
-20.2833511
 30
0.0
 11
53.37835019999999
 21
-16.1500015
 31
0.0
  0
LINE
  5
E2
330
1E
100
AcDbEntity
  8
0
 62
     2
100
AcDbLine
 10
53.37835019999999
 20
-21.02689589999999
 30
0.0
 11
57.3783502
 21
-29.27310719999999
 31
0.0
  0
LINE
  5
E3
330
1E
100
AcDbEntity
  8
0
 62
     2
100
AcDbLine
 10
57.3783502
 20
-21.02689589999999
 30
0.0
 11
53.37835019999999
 21
-29.27310719999999
 31
0.0
  0
LINE
  5
E4
330
1E
100
AcDbEntity
  8
0
 62
     2
100
AcDbLine
 10
57.3783502
 20
-30.01665189999999
 30
0.0
 11
53.37835019999999
 21
-34.1500015
 31
0.0
  0
LINE
  5
E5
330
1E
100
AcDbEntity
  8
0
 62
     2
100
AcDbLine
 10
57.3783502
 20
-34.1500015
 30
0.0
 11
53.37835019999999
 21
-30.01665189999999
 31
0.0
  0
LINE
  5
E6
330
1E
100
AcDbEntity
  8
0
 62
     7
100
AcDbLine
 10
51.3783502
 20
-16.28429359999999
 30
0.0
 11
51.3783502
 21
-16.2007897
 31
0.0
  0
LINE
  5
E7
330
1E
100
AcDbEntity
  8
0
 62
     7
100
AcDbLine
 10
51.3783502
 20
-17.2715962
 30
0.0
 11
51.3783502
 21
-16.99920189999999
 31
0.0
  0
LINE
  5
E8
330
1E
100
AcDbEntity
  8
0
 62
     7
100
AcDbLine
 10
59.8783502
 20
-20.2071648
 30
0.0
 11
59.8783502
 21
-30.09306339999999
 31
0.0
  0
LINE
  5
E9
330
1E
100
AcDbEntity
  8
0
 62
     2
100
AcDbLine
 10
59.8783502
 20
-29.5226869
 30
0.0
 11
58.37834870000001
 21
-30.1555637
 31
0.0
  0
LINE
  5
EA
330
1E
100
AcDbEntity
  8
0
 62
     2
100
AcDbLine
 10
59.8783502
 20
-20.77748349999999
 30
0.0
 11
58.3538723
 21
-20.1439002
 31
0.0
  0
LINE
  5
EB
330
1E
100
AcDbEntity
  8
0
 62
     7
100
AcDbLine
 10
44.7402304
 20
-20.1252784
 30
0.0
 11
44.7402304
 21
-19.8528841
 31
0.0
  0
LINE
  5
EC
330
1E
100
AcDbEntity
  8
0
 62
     7
100
AcDbLine
 10
44.7402304
 20
-23.25834679999999
 30
0.0
 11
46.010401
 21
-22.4334118
 31
0.0
  0
LINE
  5
ED
330
1E
100
AcDbEntity
  8
0
 62
     7
100
AcDbLine
 10
44.7402304
 20
-22.7020365
 30
0.0
 11
46.010401
 21
-21.8808526
 31
0.0
  0
LINE
  5
EE
330
1E
100
AcDbEntity
  8
0
 62
     7
100
AcDbLine
 10
44.7402304
 20
-21.4191121
 30
0.0
 11
46.010401
 21
-19.92408739999999
 31
0.0
  0
LINE
  5
EF
330
1E
100
AcDbEntity
  8
0
 62
     7
100
AcDbLine
 10
44.7402304
 20
-20.9802998
 30
0.0
 11
46.010401
 21
-19.47844609999999
 31
0.0
  0
LINE
  5
F0
330
1E
100
AcDbEntity
  8
0
 62
     7
100
AcDbLine
 10
44.7402304
 20
-20.1252784
 30
0.0
 11
46.010401
 21
-18.1631602
 31
0.0
  0
LINE
  5
F1
330
1E
100
AcDbEntity
  8
0
 62
     7
100
AcDbLine
 10
44.7402304
 20
-19.8528841
 30
0.0
 11
46.010401
 21
-17.89076589999999
 31
0.0
  0
LINE
  5
F2
330
1E
100
AcDbEntity
  8
0
 62
     7
100
AcDbLine
 10
44.7402304
 20
-19.4558869
 30
0.0
 11
46.010401
 21
-17.2751811
 31
0.0
  0
LINE
  5
F3
330
1E
100
AcDbEntity
  8
0
 62
     7
100
AcDbLine
 10
44.7402304
 20
-19.3723831
 30
0.0
 11
46.010401
 21
-17.1916773
 31
0.0
  0
LINE
  5
F4
330
1E
100
AcDbEntity
  8
0
 62
     7
100
AcDbLine
 10
51.3783502
 20
-16.2007897
 30
0.0
 11
49.37835020000001
 21
-16.2007897
 31
0.0
  0
LINE
  5
F5
330
1E
100
AcDbEntity
  8
0
 62
     7
100
AcDbLine
 10
51.3783502
 20
-16.28429359999999
 30
0.0
 11
49.37835020000001
 21
-16.28429359999999
 31
0.0
  0
LINE
  5
F6
330
1E
100
AcDbEntity
  8
0
 62
     7
100
AcDbLine
 10
51.3783502
 20
-16.99920189999999
 30
0.0
 11
49.37835020000001
 21
-16.99920189999999
 31
0.0
  0
LINE
  5
F7
330
1E
100
AcDbEntity
  8
0
 62
     7
100
AcDbLine
 10
51.3783502
 20
-17.2715962
 30
0.0
 11
49.37835020000001
 21
-17.2715962
 31
0.0
  0
LINE
  5
F8
330
1E
100
AcDbEntity
  8
0
 62
     7
100
AcDbLine
 10
58.3538723
 20
-20.1439002
 30
0.0
 11
57.8783502
 21
-20.1439002
 31
0.0
  0
ARC
  5
F9
330
1E
100
AcDbEntity
  8
0
 62
     7
100
AcDbCircle
 10
57.8783502
 20
-19.64390019999999
 30
0.0
 40
0.5
100
AcDbArc
 50
180.0
 51
270.0
  0
ARC
  5
FA
330
1E
100
AcDbEntity
  8
0
 62
     7
100
AcDbCircle
 10
57.8783502
 20
-30.65610289999999
 30
0.0
 40
0.5
100
AcDbArc
 50
90.00000020000001
 51
180.0
  0
LINE
  5
FB
330
1E
100
AcDbEntity
  8
0
 62
     7
100
AcDbLine
 10
58.3538723
 20
-30.15610289999999
 30
0.0
 11
57.8783502
 21
-30.15610289999999
 31
0.0
  0
LINE
  5
FC
330
1E
100
AcDbEntity
  8
0
  6
CENTER
 62
     2
100
AcDbLine
 10
5.975006099999999
 20
32.7533425
 30
0.0
 11
-6.0249939
 21
32.7533425
 31
0.0
  0
LINE
  5
FD
330
1E
100
AcDbEntity
  8
0
  6
CENTER
 62
     2
100
AcDbLine
 10
-0.0249938965
 20
40.02555629999999
 30
0.0
 11
-0.0249938965
 21
11.76647749999999
 31
0.0
  0
LINE
  5
FE
330
1E
100
AcDbEntity
  8
0
 62
     7
100
AcDbLine
 10
-8.0249939
 20
23.2533425
 30
0.0
 11
-9.0249939
 21
23.2533425
 31
0.0
  0
LINE
  5
FF
330
1E
100
AcDbEntity
  8
0
 62
     7
100
AcDbLine
 10
-5.719108499999999
 20
14.6152228
 30
0.0
 11
-5.80261237
 21
14.6152228
 31
0.0
  0
LINE
  5
100
330
1E
100
AcDbEntity
  8
0
 62
     7
100
AcDbLine
 10
5.457855949999999
 20
14.6152228
 30
0.0
 11
5.233092
 21
14.6152228
 31
0.0
  0
LINE
  5
101
330
1E
100
AcDbEntity
  8
0
 62
     7
100
AcDbLine
 10
-0.531365845
 20
14.2695872
 30
0.0
 11
-1.319212049999999
 21
14.2695872
 31
0.0
  0
LINE
  5
102
330
1E
100
AcDbEntity
  8
0
 62
     7
100
AcDbLine
 10
7.49035749
 20
15.8853933
 30
0.0
 11
7.27487772
 21
15.8853933
 31
0.0
  0
ARC
  5
103
330
1E
100
AcDbEntity
  8
0
 62
     7
100
AcDbCircle
 10
4.70705691
 20
15.15334249999999
 30
0.0
 40
1.0
100
AcDbArc
 50
270.0
 51
300.0
  0
LINE
  5
104
330
1E
100
AcDbEntity
  8
0
 62
     7
100
AcDbLine
 10
5.20705691
 20
14.2873171
 30
0.0
 11
8.475006099999999
 21
16.1740685
 31
0.0
  0
ARC
  5
105
330
1E
100
AcDbEntity
  8
0
 62
     7
100
AcDbCircle
 10
7.975006099999999
 20
17.04009389999999
 30
0.0
 40
1.0
100
AcDbArc
 50
300.0
 51
0.0
  0
LINE
  5
106
330
1E
100
AcDbEntity
  8
0
 62
     7
100
AcDbLine
 10
8.975006099999999
 20
19.25334249999999
 30
0.0
 11
-9.0249939
 21
19.25334249999999
 31
0.0
  0
LINE
  5
107
330
1E
100
AcDbEntity
  8
0
 62
     7
100
AcDbLine
 10
8.975006099999999
 20
22.75334249999999
 30
0.0
 11
-9.0249939
 21
22.75334249999999
 31
0.0
  0
LINE
  5
108
330
1E
100
AcDbEntity
  8
0
 62
     7
100
AcDbLine
 10
-0.4542796820000001
 20
23.2533425
 30
0.0
 11
-7.59570811
 21
23.2533425
 31
0.0
  0
ARC
  5
109
330
1E
100
AcDbEntity
  8
0
 62
     7
100
AcDbCircle
 10
-4.757044699999999
 20
15.15334249999999
 30
0.0
 40
1.0
100
AcDbArc
 50
239.9999999999999
 51
270.0
  0
ARC
  5
10A
330
1E
100
AcDbEntity
  8
0
 62
     7
100
AcDbCircle
 10
-8.0249939
 20
17.04009389999999
 30
0.0
 40
1.0
100
AcDbArc
 50
180.0
 51
239.9999999999999
  0
LINE
  5
10B
330
1E
100
AcDbEntity
  8
0
 62
     7
100
AcDbLine
 10
-5.257044699999999
 20
14.2873171
 30
0.0
 11
-8.5249939
 21
16.1740685
 31
0.0
  0
LINE
  5
10C
330
1E
100
AcDbEntity
  8
0
 62
     7
100
AcDbLine
 10
4.70705691
 20
14.15334249999999
 30
0.0
 11
-4.757044699999999
 21
14.15334249999999
 31
0.0
  0
LINE
  5
10D
330
1E
100
AcDbEntity
  8
0
 62
     7
100
AcDbLine
 10
7.975006099999999
 20
27.25334249999999
 30
0.0
 11
-8.0249939
 21
27.25334249999999
 31
0.0
  0
LINE
  5
10E
330
1E
100
AcDbEntity
  8
0
 62
     7
100
AcDbLine
 10
-9.0249939
 20
23.2533425
 30
0.0
 11
-9.0249939
 21
17.04009389999999
 31
0.0
  0
LINE
  5
10F
330
1E
100
AcDbEntity
  8
0
 62
     7
100
AcDbLine
 10
-1.01754031
 20
15.8853933
 30
0.0
 11
-0.531365845
 21
14.2695872
 31
0.0
  0
LINE
  5
110
330
1E
100
AcDbEntity
  8
0
 62
     7
100
AcDbLine
 10
-1.805386509999999
 20
15.8853933
 30
0.0
 11
-1.319212049999999
 21
14.2695872
 31
0.0
  0
LINE
  5
111
330
1E
100
AcDbEntity
  8
0
 62
     7
100
AcDbLine
 10
-3.508539449999999
 20
15.8853933
 30
0.0
 11
-2.479399789999999
 21
14.6152228
 31
0.0
  0
LINE
  5
112
330
1E
100
AcDbEntity
  8
0
 62
     7
100
AcDbLine
 10
-4.038308009999999
 20
15.8853933
 30
0.0
 11
-3.009168349999999
 21
14.6152228
 31
0.0
  0
LINE
  5
113
330
1E
100
AcDbEntity
  8
0
 62
     7
100
AcDbLine
 10
-5.46573724
 20
15.8853933
 30
0.0
 11
-3.90859135
 21
14.6152228
 31
0.0
  0
LINE
  5
114
330
1E
100
AcDbEntity
  8
0
 62
     7
100
AcDbLine
 10
-5.882920829999999
 20
15.8853933
 30
0.0
 11
-4.332855409999999
 21
14.6152228
 31
0.0
  0
LINE
  5
115
330
1E
100
AcDbEntity
  8
0
 62
     7
100
AcDbLine
 10
-6.871587199999999
 20
15.8853933
 30
0.0
 11
-4.94555492
 21
14.6152228
 31
0.0
  0
LINE
  5
116
330
1E
100
AcDbEntity
  8
0
 62
     7
100
AcDbLine
 10
-7.162472969999999
 20
15.8853933
 30
0.0
 11
-5.2364407
 21
14.6152228
 31
0.0
  0
LINE
  5
117
330
1E
100
AcDbEntity
  8
0
 62
     7
100
AcDbLine
 10
-7.69960743
 20
15.8853933
 30
0.0
 11
-5.57259934
 21
14.6152228
 31
0.0
  0
LINE
  5
118
330
1E
100
AcDbEntity
  8
0
 62
     7
100
AcDbLine
 10
-7.85447644
 20
15.8853933
 30
0.0
 11
-5.717752479999999
 21
14.6152228
 31
0.0
  0
LINE
  5
119
330
1E
100
AcDbEntity
  8
0
 62
     7
100
AcDbLine
 10
0.789133783
 20
15.8853933
 30
0.0
 11
0.484049154
 21
14.6152228
 31
0.0
  0
LINE
  5
11A
330
1E
100
AcDbEntity
  8
0
 62
     7
100
AcDbLine
 10
1.384688209999999
 20
15.8853933
 30
0.0
 11
1.078209999999999
 21
14.6152228
 31
0.0
  0
LINE
  5
11B
330
1E
100
AcDbEntity
  8
0
 62
     7
100
AcDbLine
 10
3.3325276
 20
15.8853933
 30
0.0
 11
2.337324349999999
 21
14.6152228
 31
0.0
  0
LINE
  5
11C
330
1E
100
AcDbEntity
  8
0
 62
     7
100
AcDbLine
 10
3.871677459999999
 20
15.8853933
 30
0.0
 11
2.871928259999999
 21
14.6152228
 31
0.0
  0
LINE
  5
11D
330
1E
100
AcDbEntity
  8
0
 62
     7
100
AcDbLine
 10
5.617120899999999
 20
15.8853933
 30
0.0
 11
4.006579969999999
 21
14.6152228
 31
0.0
  0
LINE
  5
11E
330
1E
100
AcDbEntity
  8
0
 62
     7
100
AcDbLine
 10
6.01899664
 20
15.8853933
 30
0.0
 11
4.415778979999999
 21
14.6152228
 31
0.0
  0
LINE
  5
11F
330
1E
100
AcDbEntity
  8
0
 62
     7
100
AcDbLine
 10
7.27487772
 20
15.8853933
 30
0.0
 11
5.233092
 21
14.6152228
 31
0.0
  0
LINE
  5
120
330
1E
100
AcDbEntity
  8
0
 62
     7
100
AcDbLine
 10
7.49035749
 20
15.8853933
 30
0.0
 11
5.457855949999999
 21
14.6152228
 31
0.0
  0
LINE
  5
121
330
1E
100
AcDbEntity
  8
0
 62
     7
100
AcDbLine
 10
4.415778979999999
 20
14.6152228
 30
0.0
 11
4.006579969999999
 21
14.6152228
 31
0.0
  0
LINE
  5
122
330
1E
100
AcDbEntity
  8
0
 62
     7
100
AcDbLine
 10
2.871928259999999
 20
14.6152228
 30
0.0
 11
2.337324349999999
 21
14.6152228
 31
0.0
  0
LINE
  5
123
330
1E
100
AcDbEntity
  8
0
 62
     7
100
AcDbLine
 10
1.078209999999999
 20
14.6152228
 30
0.0
 11
0.484049154
 21
14.6152228
 31
0.0
  0
LINE
  5
124
330
1E
100
AcDbEntity
  8
0
 62
     7
100
AcDbLine
 10
-2.479399789999999
 20
14.6152228
 30
0.0
 11
-3.009168349999999
 21
14.6152228
 31
0.0
  0
LINE
  5
125
330
1E
100
AcDbEntity
  8
0
 62
     7
100
AcDbLine
 10
-3.90859135
 20
14.6152228
 30
0.0
 11
-4.332855409999999
 21
14.6152228
 31
0.0
  0
LINE
  5
126
330
1E
100
AcDbEntity
  8
0
 62
     7
100
AcDbLine
 10
-4.94555492
 20
14.6152228
 30
0.0
 11
-5.2364407
 21
14.6152228
 31
0.0
  0
LINE
  5
127
330
1E
100
AcDbEntity
  8
0
 62
     7
100
AcDbLine
 10
-5.57259934
 20
14.6152228
 30
0.0
 11
-5.717752479999999
 21
14.6152228
 31
0.0
  0
LINE
  5
128
330
1E
100
AcDbEntity
  8
0
 62
     7
100
AcDbLine
 10
6.01899664
 20
15.8853933
 30
0.0
 11
5.617120899999999
 21
15.8853933
 31
0.0
  0
LINE
  5
129
330
1E
100
AcDbEntity
  8
0
 62
     7
100
AcDbLine
 10
3.871677459999999
 20
15.8853933
 30
0.0
 11
3.3325276
 21
15.8853933
 31
0.0
  0
LINE
  5
12A
330
1E
100
AcDbEntity
  8
0
 62
     7
100
AcDbLine
 10
1.384688209999999
 20
15.8853933
 30
0.0
 11
0.789133783
 21
15.8853933
 31
0.0
  0
LINE
  5
12B
330
1E
100
AcDbEntity
  8
0
 62
     7
100
AcDbLine
 10
-1.01754031
 20
15.8853933
 30
0.0
 11
-1.805386509999999
 21
15.8853933
 31
0.0
  0
LINE
  5
12C
330
1E
100
AcDbEntity
  8
0
 62
     7
100
AcDbLine
 10
-3.508539449999999
 20
15.8853933
 30
0.0
 11
-4.038308009999999
 21
15.8853933
 31
0.0
  0
LINE
  5
12D
330
1E
100
AcDbEntity
  8
0
 62
     7
100
AcDbLine
 10
-5.46573724
 20
15.8853933
 30
0.0
 11
-5.882920829999999
 21
15.8853933
 31
0.0
  0
LINE
  5
12E
330
1E
100
AcDbEntity
  8
0
 62
     7
100
AcDbLine
 10
-6.871587199999999
 20
15.8853933
 30
0.0
 11
-7.162472969999999
 21
15.8853933
 31
0.0
  0
LINE
  5
12F
330
1E
100
AcDbEntity
  8
0
 62
     7
100
AcDbLine
 10
-7.69960743
 20
15.8853933
 30
0.0
 11
-7.85447644
 21
15.8853933
 31
0.0
  0
LINE
  5
130
330
1E
100
AcDbEntity
  8
0
 62
     7
100
AcDbLine
 10
-6.59755044
 20
21.25334249999999
 30
0.0
 11
-6.59755044
 21
19.25334249999999
 31
0.0
  0
LINE
  5
131
330
1E
100
AcDbEntity
  8
0
 62
     7
100
AcDbLine
 10
-6.17328638
 20
21.25334249999999
 30
0.0
 11
-6.17328638
 21
19.25334249999999
 31
0.0
  0
LINE
  5
132
330
1E
100
AcDbEntity
  8
0
 62
     7
100
AcDbLine
 10
-4.512774229999999
 20
21.25334249999999
 30
0.0
 11
-4.512774229999999
 21
19.25334249999999
 31
0.0
  0
LINE
  5
133
330
1E
100
AcDbEntity
  8
0
 62
     7
100
AcDbLine
 10
-3.983005669999999
 20
21.25334249999999
 30
0.0
 11
-3.983005669999999
 21
19.25334249999999
 31
0.0
  0
LINE
  5
134
330
1E
100
AcDbEntity
  8
0
 62
     7
100
AcDbLine
 10
0.929787533
 20
21.25334249999999
 30
0.0
 11
0.929787533
 21
19.25334249999999
 31
0.0
  0
LINE
  5
135
330
1E
100
AcDbEntity
  8
0
 62
     7
100
AcDbLine
 10
1.52394837
 20
21.25334249999999
 30
0.0
 11
1.52394837
 21
19.25334249999999
 31
0.0
  0
LINE
  5
136
330
1E
100
AcDbEntity
  8
0
 62
     7
100
AcDbLine
 10
3.791348059999999
 20
21.25334249999999
 30
0.0
 11
3.791348059999999
 21
19.25334249999999
 31
0.0
  0
LINE
  5
137
330
1E
100
AcDbEntity
  8
0
 62
     7
100
AcDbLine
 10
4.32595198
 20
21.25334249999999
 30
0.0
 11
4.32595198
 21
19.25334249999999
 31
0.0
  0
LINE
  5
138
330
1E
100
AcDbEntity
  8
0
 62
     7
100
AcDbLine
 10
-6.59755044
 20
21.25334249999999
 30
0.0
 11
-6.17328638
 21
21.25334249999999
 31
0.0
  0
LINE
  5
139
330
1E
100
AcDbEntity
  8
0
 62
     7
100
AcDbLine
 10
-4.512774229999999
 20
21.25334249999999
 30
0.0
 11
-3.983005669999999
 21
21.25334249999999
 31
0.0
  0
LINE
  5
13A
330
1E
100
AcDbEntity
  8
0
 62
     7
100
AcDbLine
 10
0.929787533
 20
21.25334249999999
 30
0.0
 11
1.52394837
 21
21.25334249999999
 31
0.0
  0
LINE
  5
13B
330
1E
100
AcDbEntity
  8
0
 62
     7
100
AcDbLine
 10
3.791348059999999
 20
21.25334249999999
 30
0.0
 11
4.32595198
 21
21.25334249999999
 31
0.0
  0
LINE
  5
13C
330
1E
100
AcDbEntity
  8
0
 62
     7
100
AcDbLine
 10
-8.0249939
 20
23.2533425
 30
0.0
 11
-8.0249939
 21
27.25334249999999
 31
0.0
  0
LINE
  5
13D
330
1E
100
AcDbEntity
  8
0
 62
     7
100
AcDbLine
 10
-7.59570811
 20
23.2533425
 30
0.0
 11
-7.59570811
 21
27.25334249999999
 31
0.0
  0
LINE
  5
13E
330
1E
100
AcDbEntity
  8
0
 62
     7
100
AcDbLine
 10
-0.4542796820000001
 20
23.2533425
 30
0.0
 11
-0.4542796820000001
 21
27.25334249999999
 31
0.0
  0
LINE
  5
13F
330
1E
100
AcDbEntity
  8
0
 62
     7
100
AcDbLine
 10
7.975006099999999
 20
23.2533425
 30
0.0
 11
8.975006099999999
 21
23.2533425
 31
0.0
  0
LINE
  5
140
330
1E
100
AcDbEntity
  8
0
 62
     7
100
AcDbLine
 10
7.975006099999999
 20
23.2533425
 30
0.0
 11
7.975006099999999
 21
27.25334249999999
 31
0.0
  0
LINE
  5
141
330
1E
100
AcDbEntity
  8
0
 62
     7
100
AcDbLine
 10
7.54572032
 20
23.2533425
 30
0.0
 11
7.54572032
 21
27.25334249999999
 31
0.0
  0
LINE
  5
142
330
1E
100
AcDbEntity
  8
0
 62
     7
100
AcDbLine
 10
0.404291889
 20
23.2533425
 30
0.0
 11
0.404291889
 21
27.25334249999999
 31
0.0
  0
LINE
  5
143
330
1E
100
AcDbEntity
  8
0
 62
     7
100
AcDbLine
 10
0.404291889
 20
23.2533425
 30
0.0
 11
7.54572032
 21
23.2533425
 31
0.0
  0
LINE
  5
144
330
1E
100
AcDbEntity
  8
0
 62
     7
100
AcDbLine
 10
8.975006099999999
 20
23.2533425
 30
0.0
 11
8.975006099999999
 21
17.04009389999999
 31
0.0
  0
LINE
  5
145
330
1E
100
AcDbEntity
  8
0
 62
     2
100
AcDbLine
 10
-7.59570811
 20
27.25334249999999
 30
0.0
 11
-0.4542796820000001
 21
23.2533425
 31
0.0
  0
LINE
  5
146
330
1E
100
AcDbEntity
  8
0
 62
     2
100
AcDbLine
 10
-0.4542796820000001
 20
27.25334249999999
 30
0.0
 11
-7.59570811
 21
23.2533425
 31
0.0
  0
LINE
  5
147
330
1E
100
AcDbEntity
  8
0
 62
     2
100
AcDbLine
 10
0.404291889
 20
27.25334249999999
 30
0.0
 11
7.54572032
 21
23.2533425
 31
0.0
  0
LINE
  5
148
330
1E
100
AcDbEntity
  8
0
 62
     2
100
AcDbLine
 10
7.54572032
 20
27.25334249999999
 30
0.0
 11
0.404291889
 21
23.2533425
 31
0.0
  0
ARC
  5
149
330
1E
100
AcDbEntity
  8
0
 62
     7
100
AcDbCircle
 10
-5.531095239999999
 20
27.7533425
 30
0.0
 40
0.5
100
AcDbArc
 50
270.0
 51
0.0
  0
ARC
  5
14A
330
1E
100
AcDbEntity
  8
0
 62
     7
100
AcDbCircle
 10
5.481107439999999
 20
27.7533425
 30
0.0
 40
0.5
100
AcDbArc
 50
180.0
 51
270.0
  0
LINE
  5
14B
330
1E
100
AcDbEntity
  8
0
 62
     7
100
AcDbLine
 10
4.981107439999999
 20
28.2288646
 30
0.0
 11
4.981107439999999
 21
27.7533425
 31
0.0
  0
LINE
  5
14C
330
1E
100
AcDbEntity
  8
0
 62
     7
100
AcDbLine
 10
-5.031095239999999
 20
28.2288646
 30
0.0
 11
-5.031095239999999
 21
27.7533425
 31
0.0
  0
LINE
  5
14D
330
1E
100
AcDbEntity
  8
0
 62
     2
100
AcDbLine
 10
-4.39751192
 20
29.75334249999999
 30
0.0
 11
-5.031095239999999
 21
28.2288646
 31
0.0
  0
LINE
  5
14E
330
1E
100
AcDbEntity
  8
0
 62
     2
100
AcDbLine
 10
4.34769145
 20
29.75334249999999
 30
0.0
 11
4.980568299999999
 21
28.253341
 31
0.0
  0
LINE
  5
14F
330
1E
100
AcDbEntity
  8
0
 62
     2
100
AcDbLine
 10
-4.967830659999999
 20
29.75334249999999
 30
0.0
 11
4.91806793
 21
29.75334249999999
 31
0.0
  0
LINE
  5
150
330
1E
100
AcDbEntity
  8
0
 62
     7
100
AcDbLine
 10
-4.780321119999999
 20
36.2535867
 30
0.0
 11
4.73056221
 21
36.2535867
 31
0.0
  0
LINE
  5
151
330
1E
100
AcDbEntity
  8
0
 62
     7
100
AcDbLine
 10
4.730556789999999
 20
36.2535772
 30
0.0
 11
4.19855657
 21
36.75333529999999
 31
0.0
  0
LINE
  5
152
330
1E
100
AcDbEntity
  8
0
 62
     7
100
AcDbLine
 10
-4.780309739999999
 20
36.25356679999999
 30
0.0
 11
-4.248309609999999
 21
36.7533251
 31
0.0
  0
LINE
  5
153
330
1E
100
AcDbEntity
  8
0
 62
     7
100
AcDbLine
 10
-4.24832344
 20
36.7533425
 30
0.0
 11
4.198566439999999
 21
36.7533425
 31
0.0
  0
LINE
  5
154
330
1E
100
AcDbEntity
  8
0
 62
     7
100
AcDbLine
 10
-5.031095239999999
 20
28.2288646
 30
0.0
 11
-4.780321169999999
 21
36.2535744
 31
0.0
  0
LINE
  5
155
330
1E
100
AcDbEntity
  8
0
 62
     2
100
AcDbLine
 10
-4.39751192
 20
29.75334249999999
 30
0.0
 11
-4.178760379999999
 21
36.75333909999999
 31
0.0
  0
LINE
  5
156
330
1E
100
AcDbEntity
  8
0
 62
     2
100
AcDbLine
 10
4.34769145
 20
29.75334249999999
 30
0.0
 11
4.128943119999999
 21
36.7533425
 31
0.0
  0
LINE
  5
157
330
1E
100
AcDbEntity
  8
0
 62
     7
100
AcDbLine
 10
4.980568299999999
 20
28.253341
 30
0.0
 11
4.730562289999999
 21
36.2535946
 31
0.0
  0
LINE
  5
158
330
1E
100
AcDbEntity
  8
0
 62
     7
100
AcDbLine
 10
-67.9999939
 20
94.50000000000001
 30
0.0
 11
-67.9999939
 21
84.50000000000001
 31
0.0
  0
LINE
  5
159
330
1E
100
AcDbEntity
  8
0
 62
     7
100
AcDbLine
 10
-138.399994
 20
84.50000000000001
 30
0.0
 11
-67.9999939
 21
84.50000000000001
 31
0.0
  0
TEXT
  5
15A
330
1E
100
AcDbEntity
  8
0
 62
     7
100
AcDbText
 10
-125.1428509999999
 20
87.90000009999999
 30
0.0
 40
3.19999981
  1
PRESSURE GAUGE
 41
1.04477612
  7
MONOTXT
100
AcDbText
  0
LINE
  5
15B
330
1E
100
AcDbEntity
  8
0
 62
     7
100
AcDbLine
 10
-138.399994
 20
94.50000000000001
 30
0.0
 11
138.350006
 21
94.50000000000001
 31
0.0
  0
LINE
  5
15C
330
1E
100
AcDbEntity
  8
0
 62
     7
100
AcDbLine
 10
138.350006
 20
94.50000000000001
 30
0.0
 11
138.350006
 21
-94.80000309999999
 31
0.0
  0
LINE
  5
15D
330
1E
100
AcDbEntity
  8
0
 62
     7
100
AcDbLine
 10
-138.399994
 20
-94.80000309999999
 30
0.0
 11
138.350006
 21
-94.80000309999999
 31
0.0
  0
LINE
  5
15E
330
1E
100
AcDbEntity
  8
0
 62
     7
100
AcDbLine
 10
-138.399994
 20
94.50000000000001
 30
0.0
 11
-138.399994
 21
-94.80000309999999
 31
0.0
  0
LINE
  5
15F
330
1E
100
AcDbEntity
  8
0
 62
     7
100
AcDbLine
 10
73.3500061
 20
-84.80000309999999
 30
0.0
 11
138.350006
 21
-84.80000309999999
 31
0.0
  0
LINE
  5
160
330
1E
100
AcDbEntity
  8
0
 62
     7
100
AcDbLine
 10
73.3500061
 20
84.50000000000001
 30
0.0
 11
138.350006
 21
84.50000000000001
 31
0.0
  0
LINE
  5
161
330
1E
100
AcDbEntity
  8
0
 62
     7
100
AcDbLine
 10
73.3500061
 20
-84.80000309999999
 30
0.0
 11
73.3500061
 21
-94.80000309999999
 31
0.0
  0
LINE
  5
162
330
1E
100
AcDbEntity
  8
0
 62
     7
100
AcDbLine
 10
73.3500061
 20
94.50000000000001
 30
0.0
 11
73.3500061
 21
84.50000000000001
 31
0.0
  0
TEXT
  5
163
330
1E
100
AcDbEntity
  8
0
 62
     7
100
AcDbText
 10
77.2426624
 20
-92.0500031
 30
0.0
 40
4.5
  1
KOGANEI CORP.
 41
1.0483871
  7
MONOTXT
100
AcDbText
  0
TEXT
  5
164
330
1E
100
AcDbEntity
  8
0
 62
     7
100
AcDbText
 10
93.5071493
 20
87.90000009999999
 30
0.0
 40
3.19999981
  1
Ver. 1.0
 41
1.081081079999999
  7
MONOTXT
100
AcDbText
  0
TEXT
  5
165
330
1E
100
AcDbEntity
  8
0
 62
     7
100
AcDbText
 10
-129.085994
 20
72.90000009999999
 30
0.0
 40
3.19999981
  1
MODEL:G1-18D
  7
MONOTXT
100
AcDbText
  0
ENDSEC
  0
SECTION
  2
OBJECTS
  0
DICTIONARY
  5
C
330
0
100
AcDbDictionary
  3
ACAD_GROUP
350
D
  3
ACAD_MLINESTYLE
350
16
  3
ACAD_PLOTSETTINGS
350
18
  3
ACAD_LAYOUT
350
19
1001
ACAD
1000
TREAT_AS_HARD
1070
     0
  0
DICTIONARY
  5
1A0
330
1E
100
AcDbDictionary
  3
ACAD_LAYOUTSELFREF
350
1A1
  0
DICTIONARY
  5
19E
330
1A
100
AcDbDictionary
  3
ACAD_LAYOUTSELFREF
350
19F
  0
DICTIONARY
  5
D
102
{ACAD_REACTORS
330
C
102
}
330
C
100
AcDbDictionary
1001
ACAD
1000
TREAT_AS_HARD
1070
     0
  0
DICTIONARY
  5
16
102
{ACAD_REACTORS
330
C
102
}
330
C
100
AcDbDictionary
  3
STANDARD
350
17
1001
ACAD
1000
TREAT_AS_HARD
1070
     0
  0
DICTIONARY
  5
18
102
{ACAD_REACTORS
330
C
102
}
330
C
100
AcDbDictionary
1001
ACAD
1000
TREAT_AS_HARD
1070
     0
  0
DICTIONARY
  5
19
102
{ACAD_REACTORS
330
C
102
}
330
C
100
AcDbDictionary
1001
ACAD
1000
TREAT_AS_HARD
1070
     0
  0
XRECORD
  5
1A1
102
{ACAD_REACTORS
330
1A0
102
}
330
1A0
100
AcDbXrecord
340
1E
  0
XRECORD
  5
19F
102
{ACAD_REACTORS
330
19E
102
}
330
19E
100
AcDbXrecord
340
1A
  0
MLINESTYLE
  5
17
102
{ACAD_REACTORS
330
16
102
}
330
16
100
AcDbMlineStyle
  2
STANDARD
 70
     0
  3

 62
   256
 51
90.0
 52
90.0
 71
     2
 49
0.5
 62
   256
  6
BYLAYER
 49
-0.5
 62
   256
  6
BYLAYER
  0
ENDSEC
  0
EOF
