  0
SECTION
  2
HEADER
  0
ENDSEC
  0
SECTION
  2
TABLES
  0
TABLE
  2
LTYPE
 70
     4
  0
LTYPE
  2
CONTINUOUS
 70
    64
  3
Solid line
 72
    65
 73
     0
 40
0.000000
  0
LTYPE
  2
DASHED
 70
    64
  3
__ __ __ __ __ __ __ __ __ __ __ __ __ __ __
 72
    65
 73
     2
 40
3.500000
 49
2.000000
 49
-1.500000
  0
LTYPE
  2
CENTER
 70
    64
  3
____ _ ____ _ ____ _ ____ _ ____ _ ____ _ ____
 72
    65
 73
     4
 40
17.500000
 49
13.000000
 49
-1.500000
 49
1.500000
 49
-1.500000
  0
LTYPE
  2
PHANTOM
 70
    64
  3
_____ _ _ _____ _ _ _____ _ _ _____ _ _ ____  
 72
    65
 73
     6
 40
15.500000
 49
8.000000
 49
-1.500000
 49
1.500000
 49
-1.500000
 49
1.500000
 49
-1.500000
  0
LTYPE
  2
DASHED1
 70
    64
  3
__ __ __ __ __ __ __ __ __ __ __ __ __ __ __
 72
    65
 73
     2
 40
1.500000
 49
1.000000
 49
-0.500000
  0
LTYPE
  2
DASHED2
 70
    64
  3
__ __ __ __ __ __ __ __ __ __ __ __ __ __ __
 72
    65
 73
     2
 40
3.500000
 49
2.500000
 49
-1.000000
  0
LTYPE
  2
DASHED3
 70
    64
  3
__ __ __ __ __ __ __ __ __ __ __ __ __ __ __
 72
    65
 73
     2
 40
6.000000
 49
4.000000
 49
-2.000000
  0
LTYPE
  2
DASHED4
 70
    64
  3
__ __ __ __ __ __ __ __ __ __ __ __ __ __ __
 72
    65
 73
     2
 40
12.000000
 49
10.000000
 49
-2.000000
  0
LTYPE
  2
DASHED5
 70
    64
  3
__ __ __ __ __ __ __ __ __ __ __ __ __ __ __
 72
    65
 73
     2
 40
17.000000
 49
15.000000
 49
-2.000000
  0
LTYPE
  2
DASHED6
 70
    64
  3
__ __ __ __ __ __ __ __ __ __ __ __ __ __ __
 72
    65
 73
     2
 40
29.000000
 49
27.000000
 49
-2.000000
  0
LTYPE
  2
PHANTOM1
 70
    64
  3
_____ _ _ _____ _ _ _____ _ _ _____ _ _ ____  
 72
    65
 73
     6
 40
31.000000
 49
25.000000
 49
-1.500000
 49
1.000000
 49
-1.000000
 49
1.000000
 49
-1.500000
  0
LTYPE
  2
PHANTOM2
 70
    64
  3
_____ _ _ _____ _ _ _____ _ _ _____ _ _ ____  
 72
    65
 73
     6
 40
36.000000
 49
27.000000
 49
-1.500000
 49
2.500000
 49
-1.000000
 49
2.500000
 49
-1.500000
  0
LTYPE
  2
PHANTOM3
 70
    64
  3
_____ _ _ _____ _ _ _____ _ _ _____ _ _ ____  
 72
    65
 73
     6
 40
78.000000
 49
64.000000
 49
-2.000000
 49
4.000000
 49
-2.000000
 49
4.000000
 49
-2.000000
  0
LTYPE
  2
CENTER1
 70
    64
  3
____ _ ____ _ ____ _ ____ _ ____ _ ____ _ ____
 72
    65
 73
     4
 40
19.000000
 49
14.000000
 49
-1.000000
 49
3.000000
 49
-1.000000
  0
LTYPE
  2
CENTER2
 70
    64
  3
____ _ ____ _ ____ _ ____ _ ____ _ ____ _ ____
 72
    65
 73
     4
 40
28.500000
 49
25.000000
 49
-1.000000
 49
1.500000
 49
-1.000000
  0
LTYPE
  2
CENTER3
 70
    64
  3
____ _ ____ _ ____ _ ____ _ ____ _ ____ _ ____
 72
    65
 73
     4
 40
31.500000
 49
27.000000
 49
-1.000000
 49
2.500000
 49
-1.000000
  0
LTYPE
  2
CENTER4
 70
    64
  3
____ _ ____ _ ____ _ ____ _ ____ _ ____ _ ____
 72
    65
 73
     4
 40
50.000000
 49
45.000000
 49
-1.000000
 49
3.000000
 49
-1.000000
  0
LTYPE
  2
CENTER5
 70
    64
  3
____ _ ____ _ ____ _ ____ _ ____ _ ____ _ ____
 72
    65
 73
     4
 40
100.000000
 49
92.000000
 49
-2.000000
 49
4.000000
 49
-2.000000
  0
LTYPE
  2
SBK1
 70
    64
  3
______ _ _ _ ______ _ _ _ ______ _ _ _ _____  
 72
    65
 73
     8
 40
60.500000
 49
45.000000
 49
-2.000000
 49
2.500000
 49
-2.000000
 49
2.500000
 49
-2.000000
 49
2.500000
 49
-2.000000
  0
LTYPE
  2
SBK2
 70
    64
  3
______ _ _ _ ______ _ _ _ ______ _ _ _ _____  
 72
    65
 73
     8
 40
84.000000
 49
64.000000
 49
-2.000000
 49
4.000000
 49
-2.000000
 49
4.000000
 49
-2.000000
 49
4.000000
 49
-2.000000
  0
LTYPE
  2
STCH
 70
    64
  3
__ __ __ __ __ __ __ __ __ __ __ __ __ __ __
 72
    65
 73
     2
 40
3.000000
 49
1.000000
 49
-2.000000
  0
LTYPE
  2
MTCH
 70
    64
  3
_____ _ _ _____ _ _ _____ _ _ _____ _ _ ____  
 72
    65
 73
     6
 40
80.000000
 49
66.000000
 49
-2.000000
 49
4.000000
 49
-2.000000
 49
4.000000
 49
-2.000000
  0
ENDTAB
  0
TABLE
  2
LAYER
 70
     1
  0
LAYER
  2
0
 70
     0
 62
     7
  6
CONTINUOUS
  0
ENDTAB
  0
TABLE
  2
STYLE
 70
     1
  0
STYLE
  2
STANDARD
 70
     0
 40
0.000000
 41
1.000000
 50
0.000000
 71
     0
 42
0.200000
  3
txt
  4
BIGFONT
  0
ENDTAB
  0
TABLE
  2
VIEW
 70
     0
  0
ENDTAB
  0
ENDSEC
  0
SECTION
  2
BLOCKS
  0
ENDSEC
  0
SECTION
  2
ENTITIES
  0
LINE
  8
0
  6
CENTER
 62
     2
 10
15.929853
 20
-161.199997
 11
15.929853
 21
-166.199997
  0
LINE
  8
0
  6
CENTER
 62
     2
 10
104.929855
 20
-161.199997
 11
104.929855
 21
-166.199997
  0
LINE
  8
0
 10
99.426529
 20
-128.699997
 11
99.426529
 21
-127.699997
  0
LINE
  8
0
 10
85.426529
 20
-128.699997
 11
99.426529
 21
-128.699997
  0
LINE
  8
0
 10
85.426529
 20
-128.699997
 11
85.426529
 21
-127.699997
  0
LINE
  8
0
 62
     4
 10
85.426529
 20
-127.699997
 11
99.426529
 21
-127.699997
  0
LINE
  8
0
 10
46.429859
 20
-127.200005
 11
47.799858
 21
-127.699997
  0
LINE
  8
0
 10
47.799854
 20
-127.699997
 11
51.429855
 21
-127.699997
  0
LINE
  8
0
 10
51.429855
 20
-128.699997
 11
51.429855
 21
-127.699997
  0
LINE
  8
0
 10
37.429855
 20
-128.699997
 11
51.429855
 21
-128.699997
  0
LINE
  8
0
 10
37.429855
 20
-128.699997
 11
37.429855
 21
-127.699997
  0
LINE
  8
0
 10
37.429855
 20
-127.699997
 11
41.059853
 21
-127.699997
  0
LINE
  8
0
 10
42.429852
 20
-127.199997
 11
41.059849
 21
-127.699997
  0
LINE
  8
0
 10
42.429855
 20
-127.199997
 11
46.429855
 21
-127.199997
  0
LINE
  8
0
 10
30.429857
 20
-127.199997
 11
31.799849
 21
-127.699989
  0
LINE
  8
0
 10
31.799854
 20
-127.699997
 11
35.429855
 21
-127.699997
  0
LINE
  8
0
 10
35.429855
 20
-128.699997
 11
35.429855
 21
-127.699997
  0
LINE
  8
0
 10
21.429853
 20
-128.699997
 11
35.429855
 21
-128.699997
  0
LINE
  8
0
 10
21.429853
 20
-128.699997
 11
21.429853
 21
-127.699997
  0
LINE
  8
0
 10
21.429853
 20
-127.699997
 11
25.059853
 21
-127.699997
  0
LINE
  8
0
 10
26.429853
 20
-127.199997
 11
25.059851
 21
-127.699997
  0
LINE
  8
0
 10
26.429853
 20
-127.199997
 11
30.429853
 21
-127.199997
  0
LINE
  8
0
 10
23.429857
 20
-147.149994
 11
20.875080
 21
-145.675003
  0
LINE
  8
0
 10
20.875078
 20
-145.675003
 11
20.875078
 21
-142.724991
  0
LINE
  8
0
 10
20.875078
 20
-142.724991
 11
23.429852
 21
-141.250000
  0
LINE
  8
0
 10
23.429850
 20
-141.250000
 11
25.984627
 21
-142.724991
  0
LINE
  8
0
 10
25.984629
 20
-142.724991
 11
25.984629
 21
-145.675003
  0
LINE
  8
0
 10
25.984629
 20
-145.675018
 11
23.429855
 21
-147.150009
  0
LINE
  8
0
  6
CENTER
 62
     2
 10
95.426529
 20
-162.199997
 11
95.426529
 21
-150.199997
  0
LINE
  8
0
  6
CENTER
 62
     2
 10
87.426529
 20
-150.199997
 11
87.426529
 21
-138.199997
  0
LINE
  8
0
  6
CENTER
 62
     2
 10
79.426529
 20
-162.199997
 11
79.426529
 21
-150.199997
  0
LINE
  8
0
  6
CENTER
 62
     2
 10
71.426529
 20
-150.199997
 11
71.426529
 21
-138.199997
  0
LINE
  8
0
  6
CENTER
 62
     2
 10
63.426529
 20
-162.199997
 11
63.426529
 21
-150.199997
  0
LINE
  8
0
  6
CENTER
 62
     2
 10
55.426529
 20
-150.199997
 11
55.426529
 21
-138.199997
  0
LINE
  8
0
  6
CENTER
 62
     2
 10
39.429855
 20
-150.199997
 11
39.429855
 21
-138.199997
  0
LINE
  8
0
  6
CENTER
 62
     2
 10
47.429855
 20
-162.199997
 11
47.429855
 21
-150.199997
  0
LINE
  8
0
  6
CENTER
 62
     2
 10
31.429853
 20
-162.199997
 11
31.429853
 21
-150.199997
  0
LINE
  8
0
  6
CENTER
 62
     2
 10
23.429853
 20
-150.199997
 11
23.429853
 21
-138.199997
  0
LINE
  8
0
  6
CENTER
 62
     2
 10
16.413309
 20
-144.199997
 11
95.467415
 21
-144.199997
  0
LINE
  8
0
  6
CENTER
 62
     2
 10
24.439198
 20
-156.199997
 11
101.426529
 21
-156.199997
  0
LINE
  8
0
 10
12.429853
 20
-163.699997
 11
108.426529
 21
-163.699997
  0
LINE
  8
0
 10
35.429855
 20
-127.699997
 11
21.429853
 21
-127.699997
  0
LINE
  8
0
 10
51.429855
 20
-127.699997
 11
37.429855
 21
-127.699997
  0
LINE
  8
0
 10
69.326523
 20
-127.699997
 11
83.526527
 21
-127.699997
  0
LINE
  8
0
 10
53.326523
 20
-127.699997
 11
67.526527
 21
-127.699997
  0
LINE
  8
0
 10
23.429853
 20
-94.699997
 11
23.429853
 21
-94.899994
  0
LINE
  8
0
 10
33.429855
 20
-94.699997
 11
33.429855
 21
-94.899994
  0
LINE
  8
0
 10
39.429855
 20
-94.699997
 11
39.429855
 21
-94.899994
  0
LINE
  8
0
 10
49.429855
 20
-94.699997
 11
49.429855
 21
-94.899994
  0
LINE
  8
0
 10
49.129852
 20
-94.399994
 11
39.729855
 21
-94.399994
  0
LINE
  8
0
 10
33.129852
 20
-94.399994
 11
23.729855
 21
-94.399994
  0
LINE
  8
0
 10
37.329853
 20
-94.899994
 11
51.529854
 21
-94.899994
  0
LINE
  8
0
 10
46.179855
 20
-95.299995
 11
46.179855
 21
-103.199997
  0
LINE
  8
0
 10
47.796432
 20
-95.299995
 11
47.796432
 21
-103.199997
  0
LINE
  8
0
 10
42.679855
 20
-95.299995
 11
42.679855
 21
-103.199997
  0
LINE
  8
0
 10
41.063271
 20
-95.299995
 11
41.063271
 21
-103.199997
  0
LINE
  8
0
 10
51.929855
 20
-95.299995
 11
51.929855
 21
-104.199997
  0
LINE
  8
0
 10
36.929855
 20
-95.299995
 11
36.929855
 21
-104.199997
  0
LINE
  8
0
 10
21.329853
 20
-94.899994
 11
35.529854
 21
-94.899994
  0
LINE
  8
0
 10
30.179853
 20
-95.299995
 11
30.179853
 21
-103.199997
  0
LINE
  8
0
 10
31.796434
 20
-95.299995
 11
31.796434
 21
-103.199997
  0
LINE
  8
0
 10
26.679853
 20
-95.299995
 11
26.679853
 21
-103.199997
  0
LINE
  8
0
 10
25.063272
 20
-95.299995
 11
25.063272
 21
-103.199997
  0
LINE
  8
0
 10
35.929855
 20
-95.299995
 11
35.929855
 21
-104.199997
  0
LINE
  8
0
 10
20.929853
 20
-95.299995
 11
20.929853
 21
-104.199997
  0
LINE
  8
0
  6
CENTER
 62
     2
 10
76.426529
 20
-130.009995
 11
76.426529
 21
-92.264061
  0
LINE
  8
0
  6
CENTER
 62
     2
 10
60.426529
 20
-130.009995
 11
60.426529
 21
-92.264061
  0
LINE
  8
0
 10
54.426525
 20
-127.199997
 11
53.112587
 21
-127.637978
  0
LINE
  8
0
 10
61.926529
 20
-127.199997
 11
54.426529
 21
-127.199997
  0
LINE
  8
0
 10
61.926529
 20
-126.599998
 11
54.882423
 21
-126.599998
  0
LINE
  8
0
 10
52.926529
 20
-127.299995
 11
52.926529
 21
-95.299995
  0
LINE
  8
0
 10
67.926529
 20
-127.299995
 11
67.926529
 21
-95.299995
  0
LINE
  8
0
 10
65.426529
 20
-94.899994
 11
67.526527
 21
-94.899994
  0
LINE
  8
0
 10
55.426529
 20
-94.899994
 11
53.326523
 21
-94.899994
  0
LINE
  8
0
 10
67.926529
 20
-121.699997
 11
65.426529
 21
-121.699997
  0
LINE
  8
0
 10
61.926529
 20
-127.699997
 11
61.926529
 21
-126.399994
  0
LINE
  8
0
 10
55.426529
 20
-103.699997
 11
52.926529
 21
-103.699997
  0
LINE
  8
0
 10
55.426529
 20
-109.699997
 11
52.926529
 21
-109.699997
  0
LINE
  8
0
 10
55.426521
 20
-106.199997
 11
54.575726
 21
-105.349197
  0
LINE
  8
0
 10
66.277321
 20
-126.050797
 11
65.426521
 21
-125.199997
  0
LINE
  8
0
 10
54.575729
 20
-108.050797
 11
55.426525
 21
-107.199997
  0
LINE
  8
0
 10
65.426521
 20
-124.199997
 11
66.277321
 21
-123.349197
  0
LINE
  8
0
 10
55.176529
 20
-94.899994
 11
55.176529
 21
-103.699997
  0
LINE
  8
0
 10
65.676529
 20
-94.899994
 11
65.676529
 21
-121.699997
  0
LINE
  8
0
 10
55.176529
 20
-109.699997
 11
55.176529
 21
-126.599998
  0
LINE
  8
0
 10
66.426529
 20
-121.699997
 11
66.426529
 21
-94.899994
  0
LINE
  8
0
 10
54.426529
 20
-127.199997
 11
54.426529
 21
-109.699997
  0
LINE
  8
0
 10
54.426529
 20
-103.699997
 11
54.426529
 21
-94.899994
  0
LINE
  8
0
 62
     4
 10
55.726524
 20
-111.899994
 11
55.426529
 21
-111.899994
  0
LINE
  8
0
 62
     4
 10
55.726524
 20
-112.000000
 11
55.426529
 21
-112.000000
  0
LINE
  8
0
 62
     4
 10
62.926529
 20
-106.599998
 11
65.126526
 21
-106.599998
  0
LINE
  8
0
 62
     4
 10
62.926529
 20
-107.599998
 11
63.326523
 21
-107.599998
  0
LINE
  8
0
 62
     4
 10
57.926529
 20
-106.799995
 11
62.926529
 21
-106.799995
  0
LINE
  8
0
 62
     4
 10
57.926529
 20
-105.599998
 11
62.926529
 21
-105.599998
  0
LINE
  8
0
 62
     4
 10
56.726524
 20
-108.099998
 11
64.126526
 21
-108.099998
  0
LINE
  8
0
 62
     4
 10
55.726524
 20
-112.399994
 11
55.726524
 21
-107.099998
  0
LINE
  8
0
 62
     4
 10
65.126526
 20
-112.399994
 11
65.126526
 21
-107.099998
  0
LINE
  8
0
 62
     4
 10
55.726524
 20
-112.399994
 11
65.126526
 21
-112.399994
  0
LINE
  8
0
 62
     4
 10
57.336525
 20
-110.699997
 11
57.336525
 21
-111.199997
  0
LINE
  8
0
 62
     4
 10
58.436523
 20
-110.699997
 11
58.436523
 21
-111.199997
  0
LINE
  8
0
 62
     4
 10
56.936523
 20
-108.599998
 11
58.836525
 21
-108.599998
  0
LINE
  8
0
 62
     4
 10
57.010529
 20
-110.699997
 11
58.760529
 21
-110.699997
  0
LINE
  8
0
 62
     4
 10
57.336525
 20
-111.199997
 11
58.436523
 21
-111.199997
  0
LINE
  8
0
 62
     4
 10
61.676529
 20
-107.099998
 11
61.676529
 21
-108.099998
  0
LINE
  8
0
 62
     4
 10
59.176529
 20
-107.099998
 11
59.176529
 21
-108.099998
  0
LINE
  8
0
 62
     4
 10
55.726524
 20
-107.099998
 11
56.726524
 21
-107.099998
  0
LINE
  8
0
 62
     4
 10
56.726524
 20
-108.099998
 11
56.726524
 21
-107.099998
  0
LINE
  8
0
 62
     4
 10
65.126526
 20
-107.099998
 11
64.126526
 21
-107.099998
  0
LINE
  8
0
 62
     4
 10
64.126526
 20
-108.099998
 11
64.126526
 21
-107.099998
  0
LINE
  8
0
 62
     4
 10
58.836525
 20
-108.599991
 11
58.960522
 21
-110.487991
  0
LINE
  8
0
 62
     4
 10
56.810524
 20
-110.487999
 11
56.936523
 21
-108.599998
  0
LINE
  8
0
 62
     4
 10
59.476524
 20
-108.599998
 11
61.376526
 21
-108.599998
  0
LINE
  8
0
 62
     4
 10
59.350525
 20
-110.487999
 11
59.476524
 21
-108.599998
  0
LINE
  8
0
 62
     4
 10
59.550522
 20
-110.699997
 11
61.300522
 21
-110.699997
  0
LINE
  8
0
 62
     4
 10
59.876526
 20
-110.699997
 11
59.876526
 21
-111.199997
  0
LINE
  8
0
 62
     4
 10
59.876526
 20
-111.199997
 11
60.976524
 21
-111.199997
  0
LINE
  8
0
 62
     4
 10
60.976524
 20
-110.699997
 11
60.976524
 21
-111.199997
  0
LINE
  8
0
 62
     4
 10
61.376522
 20
-108.599998
 11
61.500523
 21
-110.487999
  0
LINE
  8
0
 62
     4
 10
60.026527
 20
-109.199997
 11
60.026527
 21
-110.000000
  0
LINE
  8
0
 62
     4
 10
60.826523
 20
-109.199997
 11
60.026527
 21
-109.199997
  0
LINE
  8
0
 62
     4
 10
60.826523
 20
-109.199997
 11
60.826523
 21
-110.000000
  0
LINE
  8
0
 62
     4
 10
60.826523
 20
-110.000000
 11
60.026527
 21
-110.000000
  0
LINE
  8
0
 62
     4
 10
62.016525
 20
-108.599998
 11
63.916527
 21
-108.599998
  0
LINE
  8
0
 62
     4
 10
61.890526
 20
-110.487999
 11
62.016525
 21
-108.600006
  0
LINE
  8
0
 62
     4
 10
62.090523
 20
-110.699997
 11
63.840523
 21
-110.699997
  0
LINE
  8
0
 62
     4
 10
62.416527
 20
-110.699997
 11
62.416527
 21
-111.199997
  0
LINE
  8
0
 62
     4
 10
62.416527
 20
-111.199997
 11
63.516525
 21
-111.199997
  0
LINE
  8
0
 62
     4
 10
63.516525
 20
-110.699997
 11
63.516525
 21
-111.199997
  0
LINE
  8
0
 62
     4
 10
63.916523
 20
-108.599998
 11
64.040527
 21
-110.487999
  0
LINE
  8
0
 62
     4
 10
57.926529
 20
-105.599998
 11
57.926529
 21
-108.099998
  0
LINE
  8
0
 62
     4
 10
62.926529
 20
-105.599998
 11
62.926529
 21
-108.099998
  0
LINE
  8
0
 62
     4
 10
57.526527
 20
-107.099998
 11
63.326523
 21
-107.099998
  0
LINE
  8
0
 62
     4
 10
63.326523
 20
-107.599998
 11
63.326523
 21
-106.599998
  0
LINE
  8
0
 62
     4
 10
57.526527
 20
-107.599998
 11
57.526527
 21
-106.599998
  0
LINE
  8
0
 62
     4
 10
57.526527
 20
-107.599998
 11
57.926529
 21
-107.599998
  0
LINE
  8
0
 62
     4
 10
55.726524
 20
-106.599998
 11
57.926529
 21
-106.599998
  0
LINE
  8
0
 62
     4
 10
65.126526
 20
-94.399994
 11
55.726524
 21
-94.399994
  0
LINE
  8
0
 62
     4
 10
65.426529
 20
-111.899994
 11
65.126526
 21
-111.899994
  0
LINE
  8
0
 62
     1
 10
61.926529
 20
-99.399994
 11
61.926529
 21
-94.399994
  0
LINE
  8
0
 62
     1
 10
58.926529
 20
-99.399994
 11
61.926529
 21
-99.399994
  0
LINE
  8
0
 62
     1
 10
58.926529
 20
-99.399994
 11
58.926529
 21
-94.399994
  0
LINE
  8
0
 62
     4
 10
63.226524
 20
-114.099998
 11
63.226524
 21
-115.599998
  0
LINE
  8
0
 62
     4
 10
64.726524
 20
-114.099998
 11
64.726524
 21
-115.599998
  0
LINE
  8
0
 62
     4
 10
63.226524
 20
-114.099998
 11
64.726524
 21
-114.099998
  0
LINE
  8
0
 62
     4
 10
63.226524
 20
-115.599998
 11
64.726524
 21
-115.599998
  0
LINE
  8
0
 62
     4
 10
58.032154
 20
-120.440804
 11
57.776524
 21
-119.999992
  0
LINE
  8
0
 62
     4
 10
63.076523
 20
-120.000000
 11
62.820892
 21
-120.440811
  0
LINE
  8
0
 62
     4
 10
59.282154
 20
-119.190804
 11
59.026527
 21
-118.750000
  0
LINE
  8
0
 62
     4
 10
57.776520
 20
-120.000000
 11
59.026524
 21
-118.749992
  0
LINE
  8
0
 62
     4
 10
59.282158
 20
-119.190804
 11
58.032154
 21
-120.440804
  0
LINE
  8
0
 62
     4
 10
61.570896
 20
-119.190819
 11
61.826527
 21
-118.750000
  0
LINE
  8
0
 62
     4
 10
65.426529
 20
-113.309181
 11
55.426529
 21
-113.309181
  0
LINE
  8
0
 62
     4
 10
61.570892
 20
-119.190819
 11
62.820896
 21
-120.440819
  0
LINE
  8
0
 62
     4
 10
65.426529
 20
-120.440811
 11
62.820892
 21
-120.440811
  0
LINE
  8
0
 62
     4
 10
58.032158
 20
-120.440811
 11
55.426529
 21
-120.440811
  0
LINE
  8
0
 62
     4
 10
59.282158
 20
-119.190811
 11
61.570892
 21
-119.190811
  0
LINE
  8
0
 62
     4
 10
65.426529
 20
-120.000000
 11
63.076523
 21
-120.000000
  0
LINE
  8
0
 62
     4
 10
63.076523
 20
-120.000000
 11
61.826519
 21
-118.750000
  0
LINE
  8
0
 62
     4
 10
59.026527
 20
-118.750000
 11
61.826523
 21
-118.750000
  0
LINE
  8
0
 62
     4
 10
57.776527
 20
-120.000000
 11
55.426529
 21
-120.000000
  0
LINE
  8
0
 62
     4
 10
55.426529
 20
-112.498077
 11
65.426529
 21
-112.498077
  0
LINE
  8
0
 62
     4
 10
65.426529
 20
-112.000000
 11
65.126526
 21
-112.000000
  0
LINE
  8
0
 62
     4
 10
63.926529
 20
-116.299995
 11
65.426529
 21
-116.299995
  0
LINE
  8
0
 62
     4
 10
65.426529
 20
-119.500000
 11
63.926529
 21
-119.500000
  0
LINE
  8
0
 62
     4
 10
56.926529
 20
-119.500000
 11
55.426529
 21
-119.500000
  0
LINE
  8
0
 62
     4
 10
55.426529
 20
-116.299995
 11
56.926529
 21
-116.299995
  0
LINE
  8
0
 62
     4
 10
55.426529
 20
-94.699997
 11
55.426529
 21
-126.399994
  0
LINE
  8
0
  6
CENTER
 62
     2
 10
62.926529
 20
-116.149994
 11
57.926529
 21
-116.149994
  0
LINE
  8
0
 62
     4
 10
65.426529
 20
-94.699997
 11
65.426529
 21
-126.399994
  0
LINE
  8
0
 62
     4
 10
62.252037
 20
-116.449997
 11
58.601013
 21
-116.449997
  0
LINE
  8
0
 62
     4
 10
60.426529
 20
-115.849998
 11
58.601013
 21
-115.849998
  0
LINE
  8
0
 62
     4
 10
62.252037
 20
-115.849998
 11
60.426529
 21
-115.849998
  0
LINE
  8
0
 62
     4
 10
56.219418
 20
-118.607101
 11
57.633633
 21
-117.192886
  0
LINE
  8
0
 62
     4
 10
56.219418
 20
-117.192886
 11
57.633633
 21
-118.607101
  0
LINE
  8
0
 62
     4
 10
64.633636
 20
-117.192886
 11
63.219421
 21
-118.607101
  0
LINE
  8
0
 62
     4
 10
64.633636
 20
-118.607101
 11
63.219418
 21
-117.192886
  0
LINE
  8
0
 62
     4
 10
65.426529
 20
-126.399994
 11
55.426529
 21
-126.399994
  0
LINE
  8
0
 10
70.426529
 20
-127.200005
 11
69.112587
 21
-127.637985
  0
LINE
  8
0
 10
77.926529
 20
-127.199997
 11
70.426529
 21
-127.199997
  0
LINE
  8
0
 10
77.926529
 20
-126.599998
 11
70.882423
 21
-126.599998
  0
LINE
  8
0
 10
68.926529
 20
-127.299995
 11
68.926529
 21
-95.299995
  0
LINE
  8
0
 10
83.926529
 20
-127.299995
 11
83.926529
 21
-95.299995
  0
LINE
  8
0
 10
81.426529
 20
-94.899994
 11
83.526527
 21
-94.899994
  0
LINE
  8
0
 10
71.426529
 20
-94.899994
 11
69.326523
 21
-94.899994
  0
LINE
  8
0
 10
83.926529
 20
-121.699997
 11
81.426529
 21
-121.699997
  0
LINE
  8
0
 10
77.926529
 20
-127.699997
 11
77.926529
 21
-126.399994
  0
LINE
  8
0
 10
71.426529
 20
-103.699997
 11
68.926529
 21
-103.699997
  0
LINE
  8
0
 10
71.426529
 20
-109.699997
 11
68.926529
 21
-109.699997
  0
LINE
  8
0
 10
71.426521
 20
-106.199997
 11
70.575722
 21
-105.349197
  0
LINE
  8
0
 10
82.277321
 20
-126.050797
 11
81.426521
 21
-125.199997
  0
LINE
  8
0
 10
70.575722
 20
-108.050797
 11
71.426514
 21
-107.199997
  0
LINE
  8
0
 10
81.426529
 20
-124.199997
 11
82.277321
 21
-123.349197
  0
LINE
  8
0
 10
71.176529
 20
-94.899994
 11
71.176529
 21
-103.699997
  0
LINE
  8
0
 10
81.676529
 20
-94.899994
 11
81.676529
 21
-121.699997
  0
LINE
  8
0
 10
71.176529
 20
-109.699997
 11
71.176529
 21
-126.599998
  0
LINE
  8
0
 10
82.426529
 20
-121.699997
 11
82.426529
 21
-94.899994
  0
LINE
  8
0
 10
70.426529
 20
-127.199997
 11
70.426529
 21
-109.699997
  0
LINE
  8
0
 10
70.426529
 20
-103.699997
 11
70.426529
 21
-94.899994
  0
LINE
  8
0
 62
     4
 10
71.726524
 20
-111.899994
 11
71.426529
 21
-111.899994
  0
LINE
  8
0
 62
     4
 10
71.726524
 20
-112.000000
 11
71.426529
 21
-112.000000
  0
LINE
  8
0
 62
     4
 10
78.926529
 20
-106.599998
 11
81.126526
 21
-106.599998
  0
LINE
  8
0
 62
     4
 10
78.926529
 20
-107.599998
 11
79.326523
 21
-107.599998
  0
LINE
  8
0
 62
     4
 10
73.926529
 20
-106.799995
 11
78.926529
 21
-106.799995
  0
LINE
  8
0
 62
     4
 10
73.926529
 20
-105.599998
 11
78.926529
 21
-105.599998
  0
LINE
  8
0
 62
     4
 10
72.726524
 20
-108.099998
 11
80.126526
 21
-108.099998
  0
LINE
  8
0
 62
     4
 10
71.726524
 20
-112.399994
 11
71.726524
 21
-107.099998
  0
LINE
  8
0
 62
     4
 10
81.126526
 20
-112.399994
 11
81.126526
 21
-107.099998
  0
LINE
  8
0
 62
     4
 10
71.726524
 20
-112.399994
 11
81.126526
 21
-112.399994
  0
LINE
  8
0
 62
     4
 10
73.336525
 20
-110.699997
 11
73.336525
 21
-111.199997
  0
LINE
  8
0
 62
     4
 10
74.436523
 20
-110.699997
 11
74.436523
 21
-111.199997
  0
LINE
  8
0
 62
     4
 10
72.936523
 20
-108.599998
 11
74.836525
 21
-108.599998
  0
LINE
  8
0
 62
     4
 10
73.010529
 20
-110.699997
 11
74.760529
 21
-110.699997
  0
LINE
  8
0
 62
     4
 10
73.336525
 20
-111.199997
 11
74.436523
 21
-111.199997
  0
LINE
  8
0
 62
     4
 10
77.676529
 20
-107.099998
 11
77.676529
 21
-108.099998
  0
LINE
  8
0
 62
     4
 10
75.176529
 20
-107.099998
 11
75.176529
 21
-108.099998
  0
LINE
  8
0
 62
     4
 10
71.726524
 20
-107.099998
 11
72.726524
 21
-107.099998
  0
LINE
  8
0
 62
     4
 10
72.726524
 20
-108.099998
 11
72.726524
 21
-107.099998
  0
LINE
  8
0
 62
     4
 10
81.126526
 20
-107.099998
 11
80.126526
 21
-107.099998
  0
LINE
  8
0
 62
     4
 10
80.126526
 20
-108.099998
 11
80.126526
 21
-107.099998
  0
LINE
  8
0
 62
     4
 10
74.836525
 20
-108.599998
 11
74.960526
 21
-110.487999
  0
LINE
  8
0
 62
     4
 10
72.810524
 20
-110.487999
 11
72.936523
 21
-108.599998
  0
LINE
  8
0
 62
     4
 10
75.476524
 20
-108.599998
 11
77.376526
 21
-108.599998
  0
LINE
  8
0
 62
     4
 10
75.350525
 20
-110.487999
 11
75.476524
 21
-108.599998
  0
LINE
  8
0
 62
     4
 10
75.550522
 20
-110.699997
 11
77.300522
 21
-110.699997
  0
LINE
  8
0
 62
     4
 10
75.876526
 20
-110.699997
 11
75.876526
 21
-111.199997
  0
LINE
  8
0
 62
     4
 10
75.876526
 20
-111.199997
 11
76.976524
 21
-111.199997
  0
LINE
  8
0
 62
     4
 10
76.976524
 20
-110.699997
 11
76.976524
 21
-111.199997
  0
LINE
  8
0
 62
     4
 10
77.376526
 20
-108.599998
 11
77.500519
 21
-110.487999
  0
LINE
  8
0
 62
     4
 10
76.026527
 20
-109.199997
 11
76.026527
 21
-110.000000
  0
LINE
  8
0
 62
     4
 10
76.826523
 20
-109.199997
 11
76.026527
 21
-109.199997
  0
LINE
  8
0
 62
     4
 10
76.826523
 20
-109.199997
 11
76.826523
 21
-110.000000
  0
LINE
  8
0
 62
     4
 10
76.826523
 20
-110.000000
 11
76.026527
 21
-110.000000
  0
LINE
  8
0
 62
     4
 10
78.016525
 20
-108.599998
 11
79.916527
 21
-108.599998
  0
LINE
  8
0
 62
     4
 10
77.890526
 20
-110.487999
 11
78.016525
 21
-108.600006
  0
LINE
  8
0
 62
     4
 10
78.090523
 20
-110.699997
 11
79.840523
 21
-110.699997
  0
LINE
  8
0
 62
     4
 10
78.416527
 20
-110.699997
 11
78.416527
 21
-111.199997
  0
LINE
  8
0
 62
     4
 10
78.416527
 20
-111.199997
 11
79.516525
 21
-111.199997
  0
LINE
  8
0
 62
     4
 10
79.516525
 20
-110.699997
 11
79.516525
 21
-111.199997
  0
LINE
  8
0
 62
     4
 10
79.916527
 20
-108.599998
 11
80.040527
 21
-110.487999
  0
LINE
  8
0
 62
     4
 10
73.926529
 20
-105.599998
 11
73.926529
 21
-108.099998
  0
LINE
  8
0
 62
     4
 10
78.926529
 20
-105.599998
 11
78.926529
 21
-108.099998
  0
LINE
  8
0
 62
     4
 10
73.526527
 20
-107.099998
 11
79.326523
 21
-107.099998
  0
LINE
  8
0
 62
     4
 10
79.326523
 20
-107.599998
 11
79.326523
 21
-106.599998
  0
LINE
  8
0
 62
     4
 10
73.526527
 20
-107.599998
 11
73.526527
 21
-106.599998
  0
LINE
  8
0
 62
     4
 10
73.526527
 20
-107.599998
 11
73.926529
 21
-107.599998
  0
LINE
  8
0
 62
     4
 10
71.726524
 20
-106.599998
 11
73.926529
 21
-106.599998
  0
LINE
  8
0
 62
     4
 10
81.126526
 20
-94.399994
 11
71.726524
 21
-94.399994
  0
LINE
  8
0
 62
     4
 10
81.426529
 20
-111.899994
 11
81.126526
 21
-111.899994
  0
LINE
  8
0
 62
     1
 10
77.926529
 20
-99.399994
 11
77.926529
 21
-94.399994
  0
LINE
  8
0
 62
     1
 10
74.926529
 20
-99.399994
 11
77.926529
 21
-99.399994
  0
LINE
  8
0
 62
     1
 10
74.926529
 20
-99.399994
 11
74.926529
 21
-94.399994
  0
LINE
  8
0
 62
     4
 10
79.226524
 20
-114.099998
 11
79.226524
 21
-115.599998
  0
LINE
  8
0
 62
     4
 10
80.726524
 20
-114.099998
 11
80.726524
 21
-115.599998
  0
LINE
  8
0
 62
     4
 10
79.226524
 20
-114.099998
 11
80.726524
 21
-114.099998
  0
LINE
  8
0
 62
     4
 10
79.226524
 20
-115.599998
 11
80.726524
 21
-115.599998
  0
LINE
  8
0
 62
     4
 10
74.032166
 20
-120.440819
 11
73.776527
 21
-119.999992
  0
LINE
  8
0
 62
     4
 10
79.076530
 20
-120.000008
 11
78.820908
 21
-120.440826
  0
LINE
  8
0
 62
     4
 10
75.282166
 20
-119.190819
 11
75.026527
 21
-118.750000
  0
LINE
  8
0
 62
     4
 10
73.776527
 20
-120.000000
 11
75.026535
 21
-118.750000
  0
LINE
  8
0
 62
     4
 10
75.282158
 20
-119.190811
 11
74.032158
 21
-120.440804
  0
LINE
  8
0
 62
     4
 10
77.570892
 20
-119.190819
 11
77.826523
 21
-118.750000
  0
LINE
  8
0
 62
     4
 10
81.426529
 20
-113.309181
 11
71.426529
 21
-113.309181
  0
LINE
  8
0
 62
     4
 10
77.570900
 20
-119.190811
 11
78.820900
 21
-120.440811
  0
LINE
  8
0
 62
     4
 10
81.426529
 20
-120.440811
 11
78.820892
 21
-120.440811
  0
LINE
  8
0
 62
     4
 10
74.032158
 20
-120.440811
 11
71.426529
 21
-120.440811
  0
LINE
  8
0
 62
     4
 10
75.282158
 20
-119.190811
 11
77.570892
 21
-119.190811
  0
LINE
  8
0
 62
     4
 10
81.426529
 20
-120.000000
 11
79.076523
 21
-120.000000
  0
LINE
  8
0
 62
     4
 10
79.076530
 20
-119.999985
 11
77.826530
 21
-118.749992
  0
LINE
  8
0
 62
     4
 10
75.026527
 20
-118.750000
 11
77.826523
 21
-118.750000
  0
LINE
  8
0
 62
     4
 10
73.776527
 20
-120.000000
 11
71.426529
 21
-120.000000
  0
LINE
  8
0
 62
     4
 10
71.426529
 20
-112.498077
 11
81.426529
 21
-112.498077
  0
LINE
  8
0
 62
     4
 10
81.426529
 20
-112.000000
 11
81.126526
 21
-112.000000
  0
LINE
  8
0
 62
     4
 10
79.926529
 20
-116.299995
 11
81.426529
 21
-116.299995
  0
LINE
  8
0
 62
     4
 10
81.426529
 20
-119.500000
 11
79.926529
 21
-119.500000
  0
LINE
  8
0
 62
     4
 10
72.926529
 20
-119.500000
 11
71.426529
 21
-119.500000
  0
LINE
  8
0
 62
     4
 10
71.426529
 20
-116.299995
 11
72.926529
 21
-116.299995
  0
LINE
  8
0
 62
     4
 10
71.426529
 20
-94.699997
 11
71.426529
 21
-126.399994
  0
LINE
  8
0
  6
CENTER
 62
     2
 10
78.926529
 20
-116.149994
 11
73.926529
 21
-116.149994
  0
LINE
  8
0
 62
     4
 10
81.426529
 20
-94.699997
 11
81.426529
 21
-126.399994
  0
LINE
  8
0
 62
     4
 10
78.252037
 20
-116.449997
 11
74.601013
 21
-116.449997
  0
LINE
  8
0
 62
     4
 10
76.426529
 20
-115.849998
 11
74.601013
 21
-115.849998
  0
LINE
  8
0
 62
     4
 10
78.252037
 20
-115.849998
 11
76.426529
 21
-115.849998
  0
LINE
  8
0
 62
     4
 10
72.219414
 20
-118.607094
 11
73.633629
 21
-117.192879
  0
LINE
  8
0
 62
     4
 10
72.219414
 20
-117.192879
 11
73.633629
 21
-118.607094
  0
LINE
  8
0
 62
     4
 10
80.633629
 20
-117.192894
 11
79.219421
 21
-118.607101
  0
LINE
  8
0
 62
     4
 10
80.633629
 20
-118.607101
 11
79.219414
 21
-117.192886
  0
LINE
  8
0
 62
     4
 10
81.426529
 20
-126.399994
 11
71.426529
 21
-126.399994
  0
LINE
  8
0
 10
47.873180
 20
-123.640106
 11
49.990681
 21
-125.757614
  0
LINE
  8
0
 10
47.875683
 20
-125.757614
 11
49.990681
 21
-123.642616
  0
LINE
  8
0
 10
31.873184
 20
-123.640121
 11
33.990677
 21
-125.757614
  0
LINE
  8
0
 10
31.875681
 20
-125.757614
 11
33.990681
 21
-123.642616
  0
LINE
  8
0
 10
38.873188
 20
-105.640121
 11
40.990681
 21
-107.757614
  0
LINE
  8
0
 10
38.875683
 20
-107.757614
 11
40.990685
 21
-105.642616
  0
LINE
  8
0
 10
22.869854
 20
-105.634995
 11
24.987354
 21
-107.752502
  0
LINE
  8
0
 10
22.872353
 20
-107.752502
 11
24.987354
 21
-105.637505
  0
LINE
  8
0
 10
51.929855
 20
-127.199997
 11
51.929855
 21
-104.199997
  0
LINE
  8
0
 10
36.929855
 20
-127.199997
 11
36.929855
 21
-104.199997
  0
LINE
  8
0
 10
37.429855
 20
-103.699997
 11
51.429855
 21
-103.699997
  0
LINE
  8
0
 10
45.729855
 20
-127.199997
 11
45.729855
 21
-124.699997
  0
LINE
  8
0
 10
48.929855
 20
-121.500000
 11
51.429855
 21
-121.500000
  0
LINE
  8
0
 10
43.129852
 20
-106.699997
 11
43.129852
 21
-104.199997
  0
LINE
  8
0
 10
37.429855
 20
-109.899994
 11
39.929855
 21
-109.899994
  0
LINE
  8
0
 10
35.929855
 20
-127.199997
 11
35.929855
 21
-104.199997
  0
LINE
  8
0
 10
20.929853
 20
-127.199997
 11
20.929853
 21
-104.199997
  0
LINE
  8
0
 10
21.429853
 20
-103.699997
 11
35.429855
 21
-103.699997
  0
LINE
  8
0
 10
29.729855
 20
-127.199997
 11
29.729855
 21
-124.699997
  0
LINE
  8
0
 10
32.929855
 20
-121.500000
 11
35.429855
 21
-121.500000
  0
LINE
  8
0
 10
27.129852
 20
-106.699997
 11
27.129852
 21
-104.199997
  0
LINE
  8
0
 10
21.429853
 20
-109.899994
 11
23.929853
 21
-109.899994
  0
LINE
  8
0
 10
83.429855
 20
-127.699997
 11
83.429855
 21
-128.699997
  0
LINE
  8
0
 10
69.429855
 20
-128.699997
 11
83.429855
 21
-128.699997
  0
LINE
  8
0
 10
69.429855
 20
-127.699997
 11
83.429855
 21
-127.699997
  0
LINE
  8
0
 10
69.429855
 20
-127.699997
 11
69.429855
 21
-128.699997
  0
LINE
  8
0
 10
67.429855
 20
-127.699997
 11
67.429855
 21
-128.699997
  0
LINE
  8
0
 10
53.429855
 20
-128.699997
 11
67.429855
 21
-128.699997
  0
LINE
  8
0
 10
53.429855
 20
-127.699997
 11
67.429855
 21
-127.699997
  0
LINE
  8
0
 10
53.429855
 20
-127.699997
 11
53.429855
 21
-128.699997
  0
LINE
  8
0
 10
108.426529
 20
-128.699997
 11
108.426529
 21
-163.699997
  0
LINE
  8
0
 10
12.429853
 20
-128.699997
 11
12.429853
 21
-163.699997
  0
LINE
  8
0
 62
     4
 10
99.426529
 20
-127.699997
 11
99.926529
 21
-127.699997
  0
LINE
  8
0
 62
     4
 10
85.426529
 20
-127.699997
 11
84.926529
 21
-127.699997
  0
LINE
  8
0
 62
     4
 10
100.526527
 20
-125.099998
 11
95.326530
 21
-125.099998
  0
LINE
  8
0
 62
     4
 10
95.676529
 20
-124.399994
 11
95.676529
 21
-125.099998
  0
LINE
  8
0
 62
     4
 10
100.176529
 20
-124.399994
 11
100.176529
 21
-125.099998
  0
LINE
  8
0
 62
     4
 10
89.526527
 20
-125.099998
 11
84.326530
 21
-125.099998
  0
LINE
  8
0
 62
     4
 10
84.676529
 20
-124.399994
 11
84.676529
 21
-125.099998
  0
LINE
  8
0
 62
     4
 10
89.176529
 20
-124.399994
 11
89.176529
 21
-125.099998
  0
LINE
  8
0
 62
     4
 10
95.326530
 20
-125.699997
 11
95.326530
 21
-125.099998
  0
LINE
  8
0
 62
     4
 10
100.526527
 20
-125.699997
 11
100.526527
 21
-125.099998
  0
LINE
  8
0
 62
     4
 10
84.326530
 20
-125.699997
 11
84.326530
 21
-125.099998
  0
LINE
  8
0
 62
     4
 10
89.526527
 20
-125.699997
 11
89.526527
 21
-125.099998
  0
LINE
  8
0
 62
     4
 10
99.926529
 20
-127.699997
 11
99.926529
 21
-125.699997
  0
LINE
  8
0
 62
     4
 10
84.926529
 20
-127.699997
 11
84.926529
 21
-125.699997
  0
LINE
  8
0
  6
CENTER
 62
     2
 10
92.426529
 20
-129.729996
 11
92.426529
 21
-123.559998
  0
LINE
  8
0
 62
     4
 10
84.326530
 20
-125.699997
 11
100.526527
 21
-125.699997
  0
LINE
  8
0
  6
CENTER
 62
     2
 10
44.429855
 20
-92.264061
 11
44.429855
 21
-130.290115
  0
LINE
  8
0
  6
CENTER
 62
     2
 10
28.429853
 20
-130.290115
 11
28.429853
 21
-92.264061
  0
LINE
  8
0
 10
12.429853
 20
-128.699997
 11
108.426529
 21
-128.699997
  0
LINE
  8
0
  6
CENTER
 62
     2
 10
-129.831970
 20
46.500000
 11
-123.312698
 21
46.500000
  0
LINE
  8
0
  6
CENTER
 62
     2
 10
-129.831970
 20
64.500000
 11
-123.312698
 21
64.500000
  0
LINE
  8
0
 62
     4
 10
-106.893600
 20
-12.511330
 11
-106.893600
 21
-7.500000
  0
LINE
  8
0
 62
     4
 10
-108.323608
 20
-12.129997
 11
-108.323608
 21
-7.500000
  0
LINE
  8
0
 62
     1
 10
-109.368774
 20
-13.091290
 11
-105.652069
 21
-14.082412
  0
LINE
  8
0
 62
     1
 10
-109.368767
 20
-11.851289
 11
-105.652061
 21
-12.842411
  0
LINE
  8
0
 62
     4
 10
-108.008606
 20
-23.029999
 11
-107.208603
 21
-23.029999
  0
LINE
  8
0
 62
     4
 10
-106.893600
 20
-18.029999
 11
-106.893600
 21
-13.751335
  0
LINE
  8
0
 62
     4
 10
-108.323608
 20
-18.029999
 11
-108.323608
 21
-13.370003
  0
LINE
  8
0
 62
     4
 10
-108.323608
 20
-18.029999
 11
-106.893600
 21
-18.029999
  0
LINE
  8
0
 62
     1
 10
-109.368774
 20
-26.991293
 11
-105.652061
 21
-27.982414
  0
LINE
  8
0
 62
     4
 10
-108.323608
 20
-27.269997
 11
-108.323608
 21
-31.930000
  0
LINE
  8
0
 62
     4
 10
-107.208603
 20
-18.029999
 11
-107.208603
 21
-23.029999
  0
LINE
  8
0
 62
     4
 10
-108.008606
 20
-18.029999
 11
-108.008606
 21
-23.029999
  0
LINE
  8
0
 62
     4
 10
-107.208603
 20
-21.400002
 11
-105.108604
 21
-21.400002
  0
LINE
  8
0
 62
     4
 10
-108.323608
 20
-16.400002
 11
-109.908600
 21
-16.400002
  0
LINE
  8
0
 62
     4
 10
-106.893600
 20
-16.300003
 11
-104.608604
 21
-16.300003
  0
LINE
  8
0
 62
     4
 10
-104.808846
 20
-20.400002
 11
-103.608604
 21
-20.400002
  0
LINE
  8
0
 62
     4
 10
-109.908600
 20
-20.400003
 11
-110.408600
 21
-20.688681
  0
LINE
  8
0
 62
     4
 10
-110.408600
 20
-20.688675
 11
-110.408600
 21
-21.400002
  0
LINE
  8
0
 62
     4
 10
-109.208603
 20
-16.300003
 11
-109.208603
 21
-16.400002
  0
LINE
  8
0
 62
     4
 10
-110.408600
 20
-21.400002
 11
-108.008606
 21
-21.400002
  0
LINE
  8
0
 62
     4
 10
-104.808846
 20
-20.400000
 11
-105.108604
 21
-18.699997
  0
LINE
  8
0
  6
PHANTOM
 62
     4
 10
-105.108604
 20
-17.199997
 11
-105.108604
 21
-18.698616
  0
LINE
  8
0
 62
     4
 10
-105.108604
 20
-16.300003
 11
-105.108604
 21
-21.400002
  0
LINE
  8
0
 62
     4
 10
-105.108604
 20
-16.400002
 11
-106.893600
 21
-16.400002
  0
LINE
  8
0
 62
     4
 10
-109.908600
 20
-16.400002
 11
-109.908600
 21
-20.400002
  0
LINE
  8
0
 62
     4
 10
-109.908600
 20
-16.300003
 11
-108.323608
 21
-16.300003
  0
LINE
  8
0
 62
     4
 10
-103.608604
 20
-19.688675
 11
-103.608604
 21
-20.400002
  0
LINE
  8
0
 62
     4
 10
-104.108604
 20
-19.400002
 11
-103.608604
 21
-19.688677
  0
LINE
  8
0
 62
     1
 10
-109.368767
 20
-25.751284
 11
-105.652054
 21
-26.742411
  0
LINE
  8
0
 62
     4
 10
-107.208603
 20
-36.930000
 11
-108.008606
 21
-36.930000
  0
LINE
  8
0
 62
     4
 10
-106.893600
 20
-31.930000
 11
-108.323608
 21
-31.930000
  0
LINE
  8
0
 62
     4
 10
-108.008606
 20
-31.930000
 11
-108.008606
 21
-36.930000
  0
LINE
  8
0
 62
     4
 10
-107.208603
 20
-31.930000
 11
-107.208603
 21
-36.930000
  0
LINE
  8
0
 62
     4
 10
-106.893600
 20
-27.651337
 11
-106.893600
 21
-31.930000
  0
LINE
  8
0
 10
-125.208603
 20
34.000000
 11
-102.208603
 21
34.000000
  0
LINE
  8
0
 10
-107.408600
 20
39.000000
 11
-102.208603
 21
39.000000
  0
LINE
  8
0
 10
-107.908600
 20
38.500000
 11
-107.908600
 21
34.500000
  0
LINE
  8
0
 10
-107.508606
 20
37.820000
 11
-107.508606
 21
39.000000
  0
LINE
  8
0
 10
-101.908600
 20
37.820000
 11
-101.908600
 21
39.000000
  0
LINE
  8
0
 62
     4
 10
-110.008606
 20
-7.500000
 11
-110.008606
 21
-10.800003
  0
LINE
  8
0
 62
     4
 10
-109.908600
 20
-4.900002
 11
-110.008606
 21
-4.900002
  0
LINE
  8
0
 10
-101.708603
 20
22.200001
 11
-92.908600
 21
22.200001
  0
LINE
  8
0
 10
-101.908600
 20
26.200001
 11
-101.908600
 21
24.657536
  0
LINE
  8
0
 10
-101.708603
 20
26.200001
 11
-101.708603
 21
22.200001
  0
LINE
  8
0
 10
-101.708603
 20
26.200001
 11
-107.708603
 21
26.200001
  0
LINE
  8
0
 10
-107.508606
 20
26.200001
 11
-107.508606
 21
24.657536
  0
LINE
  8
0
 10
-107.708603
 20
26.200001
 11
-107.708603
 21
22.200001
  0
LINE
  8
0
 10
-101.708603
 20
22.700001
 11
-107.708603
 21
22.700001
  0
LINE
  8
0
 10
-125.208603
 20
22.200001
 11
-107.708603
 21
22.200001
  0
LINE
  8
0
 10
-93.308601
 20
31.200001
 11
-101.308601
 21
31.200001
  0
LINE
  8
0
 62
     4
 10
-92.408600
 20
22.700001
 11
-92.908600
 21
22.700001
  0
LINE
  8
0
 10
-92.908600
 20
33.599998
 11
-92.908600
 21
22.200001
  0
LINE
  8
0
 10
-93.308601
 20
34.000000
 11
-101.208603
 21
34.000000
  0
LINE
  8
0
 10
-125.708595
 20
22.699999
 11
-125.208595
 21
22.199997
  0
LINE
  8
0
 62
     4
 10
-111.317787
 20
7.700003
 11
-110.506683
 21
3.100002
  0
LINE
  8
0
 62
     4
 10
-110.008606
 20
9.000000
 11
-110.008606
 21
3.099998
  0
LINE
  8
0
 62
     4
 10
-110.506683
 20
3.099998
 11
-110.008606
 21
3.099998
  0
LINE
  8
0
 62
     4
 10
-109.908600
 20
3.700001
 11
-110.008606
 21
3.700001
  0
LINE
  8
0
 62
     4
 10
-93.908600
 20
9.000000
 11
-93.908600
 21
21.500000
  0
LINE
  8
0
 62
     4
 10
-118.008606
 20
7.700001
 11
-111.317787
 21
7.700001
  0
LINE
  8
0
 62
     4
 10
-93.908600
 20
9.000000
 11
-110.008606
 21
9.000000
  0
LINE
  8
0
 62
     4
 10
-92.408600
 20
21.500000
 11
-93.908600
 21
21.500000
  0
LINE
  8
0
 62
     4
 10
-92.408592
 20
21.800003
 11
-92.708603
 21
21.499998
  0
LINE
  8
0
 62
     4
 10
-124.408600
 20
11.200001
 11
-118.625748
 21
11.200001
  0
LINE
  8
0
 62
     4
 10
-117.508606
 20
8.700001
 11
-114.308601
 21
8.700001
  0
LINE
  8
0
 62
     4
 10
-117.408600
 20
8.599998
 11
-117.408600
 21
8.700001
  0
LINE
  8
0
 62
     4
 10
-117.508606
 20
7.700001
 11
-117.508606
 21
8.700001
  0
LINE
  8
0
 62
     4
 10
-118.625748
 20
11.199999
 11
-118.008598
 21
7.699998
  0
LINE
  8
0
 62
     4
 10
-116.908600
 20
8.099998
 11
-114.908600
 21
8.099998
  0
LINE
  8
0
 62
     4
 10
-114.408600
 20
8.599998
 11
-114.408600
 21
8.700001
  0
LINE
  8
0
 62
     4
 10
-114.308601
 20
7.700001
 11
-114.308601
 21
8.700001
  0
LINE
  8
0
 62
     4
 10
-123.708603
 20
11.900002
 11
-123.708603
 21
19.500000
  0
LINE
  8
0
 62
     4
 10
-124.408600
 20
22.200001
 11
-124.408600
 21
11.200001
  0
LINE
  8
0
 62
     4
 10
-122.908600
 20
11.900002
 11
-122.908600
 21
19.500000
  0
LINE
  8
0
 62
     4
 10
-122.908600
 20
11.900002
 11
-123.708603
 21
11.900002
  0
LINE
  8
0
 62
     4
 10
-123.708603
 20
19.500000
 11
-122.908600
 21
19.500000
  0
LINE
  8
0
 62
     4
 10
-92.408600
 20
-10.500000
 11
-92.408600
 21
21.500000
  0
LINE
  8
0
 62
     4
 10
-104.608604
 20
3.099998
 11
-92.708603
 21
3.099998
  0
LINE
  8
0
 62
     4
 10
-109.908600
 20
-2.400002
 11
-109.908600
 21
9.000000
  0
LINE
  8
0
 62
     4
 10
-104.608604
 20
-2.400002
 11
-104.608604
 21
3.099998
  0
LINE
  8
0
 62
     4
 10
-104.808846
 20
-6.500000
 11
-103.608604
 21
-6.500000
  0
LINE
  8
0
 62
     4
 10
-109.908600
 20
-6.500000
 11
-110.408600
 21
-6.788677
  0
LINE
  8
0
 62
     4
 10
-110.408600
 20
-6.788673
 11
-110.408600
 21
-7.500000
  0
LINE
  8
0
 62
     4
 10
-109.208603
 20
-2.400002
 11
-109.208603
 21
-2.500000
  0
LINE
  8
0
 62
     4
 10
-110.408600
 20
-7.500000
 11
-105.108604
 21
-7.500000
  0
LINE
  8
0
 62
     4
 10
-104.808846
 20
-6.499999
 11
-105.108604
 21
-4.799997
  0
LINE
  8
0
  6
PHANTOM
 62
     4
 10
-105.108604
 20
-3.300003
 11
-105.108604
 21
-4.798615
  0
LINE
  8
0
 62
     4
 10
-105.108604
 20
-2.400002
 11
-105.108604
 21
-7.500000
  0
LINE
  8
0
 62
     4
 10
-105.108604
 20
-2.500000
 11
-109.908600
 21
-2.500000
  0
LINE
  8
0
 62
     4
 10
-109.908600
 20
-2.500000
 11
-109.908600
 21
-6.500000
  0
LINE
  8
0
 62
     4
 10
-109.908600
 20
-2.400002
 11
-104.608604
 21
-2.400002
  0
LINE
  8
0
 62
     4
 10
-103.608604
 20
-5.788673
 11
-103.608604
 21
-6.500000
  0
LINE
  8
0
 62
     4
 10
-104.108604
 20
-5.500002
 11
-103.608604
 21
-5.788674
  0
LINE
  8
0
 62
     4
 10
-104.608597
 20
1.900001
 11
-104.108597
 21
1.033976
  0
LINE
  8
0
 62
     4
 10
-104.108604
 20
1.033974
 11
-104.108604
 21
-5.500000
  0
LINE
  8
0
 62
     4
 10
-92.408600
 20
22.700001
 11
-92.408600
 21
21.799999
  0
LINE
  8
0
 10
-92.908600
 20
22.200001
 11
-101.708603
 21
22.200001
  0
LINE
  8
0
 62
     4
 10
-92.408592
 20
21.800003
 11
-92.708603
 21
21.499998
  0
LINE
  8
0
 62
     4
 10
-92.408600
 20
22.700001
 11
-92.408600
 21
21.799999
  0
LINE
  8
0
 62
     4
 10
-92.408600
 20
22.700001
 11
-92.908600
 21
22.700001
  0
LINE
  8
0
 62
     4
 10
-92.408600
 20
21.500000
 11
-93.908600
 21
21.500000
  0
LINE
  8
0
 10
-93.308601
 20
31.200001
 11
-101.308601
 21
31.200001
  0
LINE
  8
0
 10
-92.908600
 20
33.599998
 11
-92.908600
 21
22.200001
  0
LINE
  8
0
 10
-93.308601
 20
34.000000
 11
-101.208603
 21
34.000000
  0
LINE
  8
0
 10
-125.208603
 20
8.299999
 11
-118.114395
 21
8.299999
  0
LINE
  8
0
 10
-125.708603
 20
8.800007
 11
-125.208603
 21
8.300005
  0
LINE
  8
0
 62
     4
 10
-111.317787
 20
-6.200003
 11
-110.506683
 21
-10.799999
  0
LINE
  8
0
 62
     4
 10
-110.008606
 20
-4.900002
 11
-110.008606
 21
-6.557732
  0
LINE
  8
0
 62
     4
 10
-110.506683
 20
-10.800003
 11
-110.008606
 21
-10.800003
  0
LINE
  8
0
 62
     4
 10
-109.908600
 20
-10.199997
 11
-110.008606
 21
-10.199997
  0
LINE
  8
0
 62
     4
 10
-93.908600
 20
-4.900002
 11
-93.908600
 21
3.099998
  0
LINE
  8
0
 62
     4
 10
-118.008606
 20
-6.199997
 11
-111.317787
 21
-6.199997
  0
LINE
  8
0
 62
     4
 10
-93.908600
 20
-4.900002
 11
-104.108604
 21
-4.900002
  0
LINE
  8
0
 62
     4
 10
-124.408600
 20
-2.699997
 11
-118.625748
 21
-2.699997
  0
LINE
  8
0
 62
     4
 10
-117.508606
 20
-5.199997
 11
-114.308601
 21
-5.199997
  0
LINE
  8
0
 62
     4
 10
-117.408600
 20
-5.300003
 11
-117.408600
 21
-5.199997
  0
LINE
  8
0
 62
     4
 10
-117.508606
 20
-6.199997
 11
-117.508606
 21
-5.199997
  0
LINE
  8
0
 62
     4
 10
-118.625748
 20
-2.700000
 11
-118.008606
 21
-6.200001
  0
LINE
  8
0
 62
     4
 10
-116.908600
 20
-5.800003
 11
-114.908600
 21
-5.800003
  0
LINE
  8
0
 10
-114.408600
 20
-5.300003
 11
-114.408600
 21
-5.199997
  0
LINE
  8
0
 62
     4
 10
-114.308601
 20
-6.199997
 11
-114.308601
 21
-5.199997
  0
LINE
  8
0
 62
     4
 10
-123.708603
 20
-2.000000
 11
-123.708603
 21
5.599998
  0
LINE
  8
0
 62
     4
 10
-124.408600
 20
8.299999
 11
-124.408600
 21
-2.699997
  0
LINE
  8
0
 62
     4
 10
-122.908600
 20
-2.000000
 11
-122.908600
 21
5.599998
  0
LINE
  8
0
 62
     4
 10
-122.908600
 20
-2.000000
 11
-123.708603
 21
-2.000000
  0
LINE
  8
0
 62
     4
 10
-123.708603
 20
5.599998
 11
-122.908600
 21
5.599998
  0
LINE
  8
0
 62
     4
 10
-104.608604
 20
-10.800003
 11
-92.708603
 21
-10.800003
  0
LINE
  8
0
 62
     4
 10
-104.608604
 20
-12.000000
 11
-104.108604
 21
-12.866025
  0
LINE
  8
0
 10
-125.708603
 20
41.500000
 11
-125.708603
 21
22.700001
  0
LINE
  8
0
 10
-101.708603
 20
41.500000
 11
-101.708603
 21
31.600000
  0
LINE
  8
0
 10
-125.708603
 20
41.500000
 11
-125.708603
 21
8.799999
  0
LINE
  8
0
 10
-119.708603
 20
88.800003
 11
-92.908600
 21
88.800003
  0
LINE
  8
0
 10
-126.708603
 20
74.699997
 11
-126.708603
 21
69.500000
  0
LINE
  8
0
 10
-126.708603
 20
82.000000
 11
-126.708603
 21
81.699997
  0
LINE
  8
0
 10
-126.708603
 20
41.500000
 11
-126.708603
 21
36.299999
  0
LINE
  8
0
 10
-126.708603
 20
29.299999
 11
-126.708603
 21
29.000000
  0
LINE
  8
0
 10
-161.708603
 20
82.000000
 11
-161.708603
 21
34.500000
  0
LINE
  8
0
 10
-161.708603
 20
82.000000
 11
-126.708603
 21
82.000000
  0
LINE
  8
0
 10
-161.708603
 20
29.000000
 11
-126.708603
 21
29.000000
  0
LINE
  8
0
  6
CENTER
 62
     2
 10
-148.708603
 20
79.500000
 11
-148.708603
 21
62.500000
  0
LINE
  8
0
  6
CENTER
 62
     2
 10
-157.208603
 20
71.000000
 11
-140.208603
 21
71.000000
  0
LINE
  8
0
  6
CENTER
 62
     2
 10
-153.208603
 20
53.500000
 11
-140.208603
 21
53.500000
  0
LINE
  8
0
  6
CENTER
 62
     2
 10
-146.708603
 20
60.000000
 11
-146.708603
 21
47.000000
  0
LINE
  8
0
  6
CENTER
 62
     2
 10
-132.208603
 20
79.000000
 11
-132.208603
 21
32.000000
  0
LINE
  8
0
  6
CENTER
 62
     2
 10
-136.708603
 20
74.500000
 11
-127.708603
 21
74.500000
  0
LINE
  8
0
  6
CENTER
 62
     2
 10
-136.708603
 20
36.500000
 11
-127.708603
 21
36.500000
  0
LINE
  8
0
 10
-161.208603
 20
34.000000
 11
-161.708603
 21
34.500000
  0
LINE
  8
0
 10
-161.208603
 20
34.000000
 11
-161.708603
 21
33.499996
  0
LINE
  8
0
 10
-161.708603
 20
33.500000
 11
-161.708603
 21
29.000000
  0
LINE
  8
0
 10
-104.108604
 20
66.309998
 11
-104.108604
 21
62.680000
  0
LINE
  8
0
 10
-104.708603
 20
66.309998
 11
-104.708603
 21
62.680000
  0
LINE
  8
0
 10
-104.708603
 20
62.680000
 11
-101.708603
 21
62.680000
  0
LINE
  8
0
 10
-104.708603
 20
66.309998
 11
-101.708603
 21
66.309998
  0
LINE
  8
0
 10
-101.708603
 20
69.500000
 11
-101.708603
 21
41.500000
  0
LINE
  8
0
 10
-125.708603
 20
41.500000
 11
-101.708603
 21
41.500000
  0
LINE
  8
0
 10
-125.708603
 20
69.500000
 11
-125.708603
 21
41.500000
  0
LINE
  8
0
 62
     4
 10
-92.408600
 20
88.300003
 11
-92.908600
 21
88.300003
  0
LINE
  8
0
 10
-101.708603
 20
69.500000
 11
-125.708603
 21
69.500000
  0
LINE
  8
0
 10
-92.908600
 20
77.400002
 11
-92.908600
 21
88.800003
  0
LINE
  8
0
 10
-93.308601
 20
77.000000
 11
-101.208603
 21
77.000000
  0
LINE
  8
0
 10
-125.708611
 20
88.300003
 11
-125.208611
 21
88.799995
  0
LINE
  8
0
 10
-125.208603
 20
88.800003
 11
-124.408600
 21
88.800003
  0
LINE
  8
0
 62
     4
 10
-111.317787
 20
103.299995
 11
-110.506676
 21
107.900002
  0
LINE
  8
0
 62
     4
 10
-110.008606
 20
102.000000
 11
-110.008606
 21
107.900002
  0
LINE
  8
0
 62
     4
 10
-110.506683
 20
107.900002
 11
-110.008606
 21
107.900002
  0
LINE
  8
0
 62
     4
 10
-109.908600
 20
107.300003
 11
-110.008606
 21
107.300003
  0
LINE
  8
0
 62
     4
 10
-93.908600
 20
102.000000
 11
-93.908600
 21
89.500000
  0
LINE
  8
0
 62
     4
 10
-118.008606
 20
103.300003
 11
-111.317787
 21
103.300003
  0
LINE
  8
0
 62
     4
 10
-93.908600
 20
102.000000
 11
-110.008606
 21
102.000000
  0
LINE
  8
0
 62
     4
 10
-92.408600
 20
88.300003
 11
-92.408600
 21
89.199997
  0
LINE
  8
0
 62
     4
 10
-92.408600
 20
89.500000
 11
-93.908600
 21
89.500000
  0
LINE
  8
0
 62
     4
 10
-92.408600
 20
89.199989
 11
-92.708603
 21
89.500000
  0
LINE
  8
0
 62
     4
 10
-124.408600
 20
99.800003
 11
-118.625748
 21
99.800003
  0
LINE
  8
0
 62
     4
 10
-117.508606
 20
102.300003
 11
-114.308601
 21
102.300003
  0
LINE
  8
0
 62
     4
 10
-117.408600
 20
102.400002
 11
-117.408600
 21
102.300003
  0
LINE
  8
0
 62
     4
 10
-117.508606
 20
103.300003
 11
-117.508606
 21
102.300003
  0
LINE
  8
0
 62
     4
 10
-118.625748
 20
99.800011
 11
-118.008606
 21
103.300003
  0
LINE
  8
0
 62
     4
 10
-116.908600
 20
102.900002
 11
-114.908600
 21
102.900002
  0
LINE
  8
0
 62
     4
 10
-114.408600
 20
102.400002
 11
-114.408600
 21
102.300003
  0
LINE
  8
0
 62
     4
 10
-114.308601
 20
103.300003
 11
-114.308601
 21
102.300003
  0
LINE
  8
0
 62
     4
 10
-123.708603
 20
99.099998
 11
-123.708603
 21
91.500000
  0
LINE
  8
0
 62
     4
 10
-124.408600
 20
88.300003
 11
-124.408600
 21
99.800003
  0
LINE
  8
0
 62
     4
 10
-122.908600
 20
99.099998
 11
-122.908600
 21
91.500000
  0
LINE
  8
0
 62
     4
 10
-122.908600
 20
99.099998
 11
-123.708603
 21
99.099998
  0
LINE
  8
0
 62
     4
 10
-123.708603
 20
91.500000
 11
-122.908600
 21
91.500000
  0
LINE
  8
0
 62
     4
 10
-92.408600
 20
89.500000
 11
-92.408600
 21
107.599998
  0
LINE
  8
0
 62
     4
 10
-104.608604
 20
107.900002
 11
-92.708603
 21
107.900002
  0
LINE
  8
0
 62
     4
 10
-109.908600
 20
113.400002
 11
-109.908600
 21
102.000000
  0
LINE
  8
0
 62
     4
 10
-104.608604
 20
113.400002
 11
-104.608604
 21
107.900002
  0
LINE
  8
0
 62
     4
 10
-104.808846
 20
117.500000
 11
-103.608604
 21
117.500000
  0
LINE
  8
0
 62
     4
 10
-109.908600
 20
117.500000
 11
-110.408600
 21
117.788666
  0
LINE
  8
0
 62
     4
 10
-110.408600
 20
117.788673
 11
-110.408600
 21
118.500000
  0
LINE
  8
0
 62
     4
 10
-109.208603
 20
113.400002
 11
-109.208603
 21
113.500000
  0
LINE
  8
0
 62
     4
 10
-110.408600
 20
118.500000
 11
-105.108604
 21
118.500000
  0
LINE
  8
0
 62
     4
 10
-104.808846
 20
117.500000
 11
-105.108604
 21
115.799995
  0
LINE
  8
0
  6
PHANTOM
 62
     4
 10
-105.108604
 20
114.300003
 11
-105.108604
 21
115.798615
  0
LINE
  8
0
 62
     4
 10
-105.108604
 20
113.400002
 11
-105.108604
 21
118.500000
  0
LINE
  8
0
 62
     4
 10
-105.108604
 20
113.500000
 11
-109.908600
 21
113.500000
  0
LINE
  8
0
 62
     4
 10
-109.908600
 20
113.500000
 11
-109.908600
 21
117.500000
  0
LINE
  8
0
 62
     4
 10
-109.908600
 20
113.400002
 11
-104.608604
 21
113.400002
  0
LINE
  8
0
 62
     4
 10
-103.608604
 20
116.788673
 11
-103.608604
 21
117.500000
  0
LINE
  8
0
 62
     4
 10
-104.108604
 20
116.500000
 11
-103.608604
 21
116.788673
  0
LINE
  8
0
 62
     4
 10
-104.608604
 20
109.099998
 11
-104.108604
 21
109.966026
  0
LINE
  8
0
 62
     4
 10
-104.108604
 20
109.966026
 11
-104.108604
 21
116.500000
  0
LINE
  8
0
 10
-93.308601
 20
79.800003
 11
-101.308601
 21
79.800003
  0
LINE
  8
0
 10
-125.708603
 20
69.500000
 11
-125.708603
 21
88.300003
  0
LINE
  8
0
 10
-101.708603
 20
69.500000
 11
-101.708603
 21
79.400002
  0
LINE
  8
0
 10
-119.708603
 20
88.300003
 11
-124.608604
 21
88.300003
  0
LINE
  8
0
 10
-119.908600
 20
84.800003
 11
-119.908600
 21
86.342461
  0
LINE
  8
0
 10
-119.708603
 20
84.800003
 11
-119.708603
 21
88.800003
  0
LINE
  8
0
 10
-119.708603
 20
84.800003
 11
-125.708603
 21
84.800003
  0
LINE
  8
0
 10
-124.608604
 20
88.800003
 11
-124.608604
 21
88.300003
  0
LINE
  8
0
 10
-125.508606
 20
84.800003
 11
-125.508606
 21
86.342461
  0
LINE
  8
0
 62
     4
 10
-106.893600
 20
118.500000
 11
-106.893600
 21
123.130005
  0
LINE
  8
0
 62
     4
 10
-108.323608
 20
118.500000
 11
-108.323608
 21
123.511337
  0
LINE
  8
0
 62
     1
 10
-104.568596
 20
122.510002
 11
-110.568596
 21
124.110001
  0
LINE
  8
0
 62
     1
 10
-104.568596
 20
123.750000
 11
-110.568596
 21
125.350006
  0
LINE
  8
0
 62
     4
 10
-106.893600
 20
124.369995
 11
-106.893600
 21
129.029999
  0
LINE
  8
0
 62
     4
 10
-108.323608
 20
124.751335
 11
-108.323608
 21
129.029999
  0
LINE
  8
0
 62
     4
 10
-108.008606
 20
129.029999
 11
-108.008606
 21
134.029999
  0
LINE
  8
0
 62
     4
 10
-107.208603
 20
129.029999
 11
-107.208603
 21
134.029999
  0
LINE
  8
0
 62
     4
 10
-108.323608
 20
129.029999
 11
-106.893600
 21
129.029999
  0
LINE
  8
0
 62
     4
 10
-108.008606
 20
134.029999
 11
-107.208603
 21
134.029999
  0
LINE
  8
0
 10
-126.708603
 20
41.500000
 11
-125.708603
 21
41.500000
  0
LINE
  8
0
 10
-126.708603
 20
69.500000
 11
-126.708603
 21
41.500000
  0
LINE
  8
0
 10
-125.708603
 20
69.500000
 11
-125.708603
 21
41.500000
  0
LINE
  8
0
 10
-126.708603
 20
41.500000
 11
-125.708603
 21
41.500000
  0
LINE
  8
0
 10
-126.708603
 20
69.500000
 11
-125.708603
 21
69.500000
  0
LINE
  8
0
 10
-126.708603
 20
74.699997
 11
-125.708603
 21
74.699997
  0
LINE
  8
0
 10
-126.708603
 20
81.699997
 11
-126.708603
 21
74.699997
  0
LINE
  8
0
 10
-125.708603
 20
81.699997
 11
-125.708603
 21
74.699997
  0
LINE
  8
0
 10
-126.708603
 20
81.699997
 11
-125.708603
 21
81.699997
  0
LINE
  8
0
 10
-125.708603
 20
36.299999
 11
-125.708603
 21
34.500000
  0
LINE
  8
0
 10
-125.208603
 20
34.000000
 11
-125.208603
 21
30.680000
  0
LINE
  8
0
 10
-125.708595
 20
29.299995
 11
-125.208595
 21
30.679995
  0
LINE
  8
0
 10
-126.708603
 20
29.299999
 11
-125.708603
 21
29.299999
  0
LINE
  8
0
 10
-126.708603
 20
29.299999
 11
-126.708603
 21
36.299999
  0
LINE
  8
0
 10
-126.708603
 20
36.299999
 11
-125.708603
 21
36.299999
  0
LINE
  8
0
  6
CENTER
 62
     2
 10
-165.009995
 20
61.500000
 11
-159.103012
 21
61.500000
  0
LINE
  8
0
 62
     4
 10
-104.108604
 20
-12.866028
 11
-104.108604
 21
-19.400002
  0
LINE
  8
0
 62
     4
 10
-104.608604
 20
-16.300003
 11
-104.608604
 21
-10.800003
  0
LINE
  8
0
 62
     4
 10
-109.908600
 20
-16.300003
 11
-109.908600
 21
-7.500000
  0
LINE
  8
0
 62
     4
 10
-106.893600
 20
-26.411331
 11
-106.893600
 21
-21.400002
  0
LINE
  8
0
 62
     4
 10
-108.323608
 20
-26.029999
 11
-108.323608
 21
-21.400002
  0
LINE
  8
0
  6
CENTER
 62
     2
 10
25.429853
 20
79.800003
 11
31.429853
 21
79.800003
  0
LINE
  8
0
  6
CENTER
 62
     2
 10
41.429855
 20
79.800003
 11
47.429855
 21
79.800003
  0
LINE
  8
0
  6
CENTER
 62
     2
 10
57.429855
 20
79.800003
 11
63.429855
 21
79.800003
  0
LINE
  8
0
  6
CENTER
 62
     2
 10
73.429855
 20
79.800003
 11
79.429855
 21
79.800003
  0
LINE
  8
0
  6
CENTER
 62
     2
 10
57.429855
 20
31.200001
 11
63.429855
 21
31.200001
  0
LINE
  8
0
  6
CENTER
 62
     2
 10
73.429855
 20
17.299999
 11
79.429855
 21
17.299999
  0
LINE
  8
0
 10
41.149853
 20
34.000000
 11
47.709854
 21
34.000000
  0
LINE
  8
0
 10
25.149853
 20
34.000000
 11
31.709854
 21
34.000000
  0
LINE
  8
0
 10
52.929855
 20
29.000000
 11
12.429853
 21
29.000000
  0
LINE
  8
0
 10
68.929855
 20
29.000000
 11
67.929855
 21
29.000000
  0
LINE
  8
0
 10
20.929853
 20
82.000000
 11
12.429853
 21
82.000000
  0
LINE
  8
0
 10
36.929855
 20
82.000000
 11
35.929855
 21
82.000000
  0
LINE
  8
0
 10
52.929855
 20
82.000000
 11
51.929855
 21
82.000000
  0
LINE
  8
0
 10
68.929855
 20
82.000000
 11
67.929855
 21
82.000000
  0
LINE
  8
0
 10
108.429855
 20
82.000000
 11
83.929855
 21
82.000000
  0
LINE
  8
0
 10
108.429855
 20
29.000000
 11
83.929855
 21
29.000000
  0
LINE
  8
0
 62
     4
 10
84.929855
 20
30.500000
 11
99.929855
 21
30.500000
  0
LINE
  8
0
 62
     4
 10
84.929855
 20
80.500000
 11
99.929855
 21
80.500000
  0
LINE
  8
0
 62
     4
 10
96.364853
 20
44.934998
 11
99.494850
 21
48.065002
  0
LINE
  8
0
 62
     4
 10
96.974854
 20
47.454998
 11
98.884850
 21
45.544994
  0
LINE
  8
0
 62
     4
 10
85.364853
 20
62.934998
 11
88.494850
 21
66.065002
  0
LINE
  8
0
 62
     4
 10
85.974854
 20
65.455002
 11
87.884850
 21
63.545002
  0
LINE
  8
0
 10
83.929855
 20
44.917053
 11
83.929855
 21
41.500000
  0
LINE
  8
0
 10
68.929855
 20
62.904507
 11
68.929855
 21
41.500000
  0
LINE
  8
0
 10
67.929855
 20
44.917053
 11
67.929855
 21
41.500000
  0
LINE
  8
0
 10
52.929855
 20
62.904507
 11
52.929855
 21
41.500000
  0
LINE
  8
0
 10
51.929855
 20
44.917053
 11
51.929855
 21
34.500000
  0
LINE
  8
0
 10
36.929855
 20
62.904507
 11
36.929855
 21
34.500000
  0
LINE
  8
0
 10
35.929855
 20
44.917053
 11
35.929855
 21
34.500000
  0
LINE
  8
0
 10
20.929853
 20
62.904507
 11
20.929853
 21
34.500000
  0
LINE
  8
0
 10
84.434853
 20
46.035000
 11
84.134857
 21
46.035000
  0
LINE
  8
0
 10
84.154854
 20
46.205002
 11
84.464859
 21
46.205002
  0
LINE
  8
0
 10
84.154854
 20
46.805000
 11
84.464859
 21
46.805000
  0
LINE
  8
0
 10
80.364853
 20
44.934994
 11
83.494850
 21
48.064999
  0
LINE
  8
0
 10
80.974854
 20
47.455002
 11
82.884857
 21
45.544998
  0
LINE
  8
0
 10
73.434853
 20
64.035004
 11
73.134857
 21
64.035004
  0
LINE
  8
0
 10
73.154854
 20
64.205002
 11
73.464851
 21
64.205002
  0
LINE
  8
0
 10
73.154854
 20
64.805000
 11
73.464851
 21
64.805000
  0
LINE
  8
0
 10
69.364853
 20
62.935001
 11
72.494850
 21
66.065002
  0
LINE
  8
0
 10
69.974854
 20
65.455002
 11
71.884850
 21
63.545002
  0
LINE
  8
0
 10
68.434853
 20
46.035000
 11
68.134857
 21
46.035000
  0
LINE
  8
0
 10
68.154854
 20
46.205002
 11
68.464851
 21
46.205002
  0
LINE
  8
0
 10
68.154854
 20
46.805000
 11
68.464851
 21
46.805000
  0
LINE
  8
0
 10
64.364853
 20
44.935001
 11
67.494850
 21
48.064995
  0
LINE
  8
0
 10
64.974854
 20
47.455002
 11
66.884857
 21
45.544998
  0
LINE
  8
0
 10
57.434853
 20
64.035004
 11
57.134857
 21
64.035004
  0
LINE
  8
0
 10
57.154854
 20
64.205002
 11
57.464851
 21
64.205002
  0
LINE
  8
0
 10
57.154854
 20
64.805000
 11
57.464851
 21
64.805000
  0
LINE
  8
0
 10
53.364849
 20
62.934998
 11
56.494850
 21
66.065002
  0
LINE
  8
0
 10
53.974854
 20
65.455002
 11
55.884853
 21
63.545002
  0
LINE
  8
0
 10
52.434853
 20
46.035000
 11
52.134857
 21
46.035000
  0
LINE
  8
0
 10
52.154854
 20
46.205002
 11
52.464851
 21
46.205002
  0
LINE
  8
0
 10
52.154854
 20
46.805000
 11
52.464851
 21
46.805000
  0
LINE
  8
0
 10
48.364853
 20
44.935001
 11
51.494854
 21
48.065002
  0
LINE
  8
0
 10
48.974850
 20
47.454998
 11
50.884850
 21
45.545002
  0
LINE
  8
0
 10
41.434853
 20
64.035004
 11
41.134853
 21
64.035004
  0
LINE
  8
0
 10
41.154854
 20
64.205002
 11
41.464851
 21
64.205002
  0
LINE
  8
0
 10
41.154854
 20
64.805000
 11
41.464851
 21
64.805000
  0
LINE
  8
0
 10
37.364853
 20
62.935001
 11
40.494854
 21
66.065002
  0
LINE
  8
0
 10
37.974857
 20
65.455002
 11
39.884857
 21
63.545002
  0
LINE
  8
0
 10
36.434853
 20
46.035000
 11
36.134853
 21
46.035000
  0
LINE
  8
0
 10
36.154854
 20
46.205002
 11
36.464851
 21
46.205002
  0
LINE
  8
0
 10
36.154854
 20
46.805000
 11
36.464851
 21
46.805000
  0
LINE
  8
0
 10
32.364849
 20
44.935001
 11
35.494850
 21
48.064999
  0
LINE
  8
0
 10
32.974854
 20
47.455002
 11
34.884853
 21
45.544998
  0
LINE
  8
0
  6
CENTER
 62
     2
 10
28.429853
 20
136.275558
 11
28.429853
 21
30.900000
  0
LINE
  8
0
  6
CENTER
 62
     2
 10
76.429855
 20
136.375549
 11
76.429855
 21
-39.275558
  0
LINE
  8
0
 10
83.929855
 20
27.599998
 11
68.929855
 21
27.599998
  0
LINE
  8
0
 10
68.929855
 20
69.500000
 11
68.929855
 21
66.105492
  0
LINE
  8
0
 10
83.929855
 20
69.500000
 11
83.929855
 21
48.092949
  0
LINE
  8
0
 10
81.679855
 20
88.300003
 11
71.179855
 21
88.300003
  0
LINE
  8
0
 10
83.929855
 20
69.500000
 11
68.929855
 21
69.500000
  0
LINE
  8
0
 10
72.774597
 20
79.800003
 11
68.929855
 21
79.800003
  0
LINE
  8
0
 10
80.085114
 20
79.800003
 11
83.929855
 21
79.800003
  0
LINE
  8
0
 10
68.929855
 20
87.300003
 11
68.929855
 21
69.500000
  0
LINE
  8
0
 10
83.929855
 20
87.300003
 11
83.929855
 21
69.500000
  0
LINE
  8
0
 10
82.429855
 20
88.799995
 11
83.929855
 21
87.299995
  0
LINE
  8
0
 10
68.929855
 20
87.299995
 11
70.429855
 21
88.800003
  0
LINE
  8
0
 10
70.429855
 20
88.800003
 11
70.879852
 21
88.800003
  0
LINE
  8
0
 10
71.179855
 20
88.300003
 11
71.179855
 21
88.500000
  0
LINE
  8
0
 10
81.679855
 20
88.300003
 11
81.679855
 21
88.500000
  0
LINE
  8
0
 10
74.968529
 20
77.000000
 11
78.006645
 21
77.000000
  0
LINE
  8
0
 10
78.266457
 20
77.150002
 11
79.652100
 21
79.549995
  0
LINE
  8
0
 10
73.207611
 20
79.550003
 11
74.535515
 21
77.250000
  0
LINE
  8
0
 10
81.979858
 20
88.800003
 11
82.479858
 21
88.800003
  0
LINE
  8
0
 62
     4
 10
81.429855
 20
89.199997
 11
71.429855
 21
89.199997
  0
LINE
  8
0
 62
     4
 10
71.729851
 20
107.900002
 11
81.129852
 21
107.900002
  0
LINE
  8
0
 62
     4
 10
71.429855
 20
89.500000
 11
81.429855
 21
89.500000
  0
LINE
  8
0
 62
     4
 10
71.429855
 20
88.300003
 11
71.429855
 21
113.400002
  0
LINE
  8
0
 62
     4
 10
81.429855
 20
88.300003
 11
81.429855
 21
113.400002
  0
LINE
  8
0
 62
     4
 10
81.429855
 20
113.400002
 11
78.929855
 21
113.400002
  0
LINE
  8
0
 62
     4
 10
79.329857
 20
107.900002
 11
79.329857
 21
113.400002
  0
LINE
  8
0
 62
     4
 10
73.529854
 20
107.900002
 11
73.529854
 21
113.400002
  0
LINE
  8
0
 62
     1
 10
77.929855
 20
104.900002
 11
77.929855
 21
107.900002
  0
LINE
  8
0
 62
     1
 10
77.929855
 20
104.900002
 11
74.929855
 21
104.900002
  0
LINE
  8
0
 62
     1
 10
74.929855
 20
104.900002
 11
74.929855
 21
107.900002
  0
LINE
  8
0
 62
     4
 10
78.929855
 20
109.000000
 11
73.929855
 21
109.000000
  0
LINE
  8
0
 62
     4
 10
81.129852
 20
118.500000
 11
71.729851
 21
118.500000
  0
LINE
  8
0
 62
     4
 10
78.929855
 20
117.500000
 11
73.929855
 21
117.500000
  0
LINE
  8
0
 62
     4
 10
81.129852
 20
113.500000
 11
81.129852
 21
118.500000
  0
LINE
  8
0
 62
     4
 10
78.929855
 20
109.000000
 11
78.929855
 21
117.500000
  0
LINE
  8
0
 62
     4
 10
73.929855
 20
116.788673
 11
78.929855
 21
116.788673
  0
LINE
  8
0
 62
     4
 10
73.929855
 20
116.500000
 11
78.929855
 21
116.500000
  0
LINE
  8
0
 62
     4
 10
80.029854
 20
113.500000
 11
80.029854
 21
118.500000
  0
LINE
  8
0
 62
     4
 10
72.829857
 20
113.500000
 11
72.829857
 21
118.500000
  0
LINE
  8
0
 62
     4
 10
73.929855
 20
109.000000
 11
73.929855
 21
117.500000
  0
LINE
  8
0
 62
     4
 10
71.729851
 20
113.500000
 11
71.729851
 21
118.500000
  0
LINE
  8
0
 62
     4
 10
73.929855
 20
109.866028
 11
78.929855
 21
109.866028
  0
LINE
  8
0
 62
     4
 10
73.929855
 20
113.400002
 11
71.429855
 21
113.400002
  0
LINE
  8
0
 10
68.929855
 20
9.799999
 11
68.929855
 21
41.500000
  0
LINE
  8
0
 62
     4
 10
73.929855
 20
-16.300003
 11
71.429855
 21
-16.300003
  0
LINE
  8
0
 62
     4
 10
73.929855
 20
-12.666023
 11
78.929855
 21
-12.666023
  0
LINE
  8
0
 62
     4
 10
71.729851
 20
-16.400002
 11
71.729851
 21
-21.400002
  0
LINE
  8
0
 62
     4
 10
73.929855
 20
-11.900002
 11
73.929855
 21
-20.400002
  0
LINE
  8
0
 62
     4
 10
72.829857
 20
-16.400002
 11
72.829857
 21
-21.400002
  0
LINE
  8
0
  6
PHANTOM
 62
     4
 10
76.429855
 20
-12.666023
 11
75.179855
 21
-12.666023
  0
LINE
  8
0
 62
     4
 10
80.029854
 20
-16.400002
 11
80.029854
 21
-21.400002
  0
LINE
  8
0
  6
PHANTOM
 62
     4
 10
76.429855
 20
-12.666023
 11
77.679855
 21
-12.666023
  0
LINE
  8
0
 62
     4
 10
73.929855
 20
-19.400002
 11
78.929855
 21
-19.400002
  0
LINE
  8
0
 62
     4
 10
73.929855
 20
-19.688675
 11
78.929855
 21
-19.688675
  0
LINE
  8
0
 62
     4
 10
78.929855
 20
-11.900002
 11
78.929855
 21
-20.400002
  0
LINE
  8
0
 62
     4
 10
81.129852
 20
-16.400002
 11
81.129852
 21
-21.400002
  0
LINE
  8
0
 62
     4
 10
78.929855
 20
-20.400002
 11
73.929855
 21
-20.400002
  0
LINE
  8
0
 62
     4
 10
81.129852
 20
-21.400002
 11
71.729851
 21
-21.400002
  0
LINE
  8
0
 62
     4
 10
78.929855
 20
-11.800003
 11
73.929855
 21
-11.800003
  0
LINE
  8
0
 62
     1
 10
74.929855
 20
-7.800003
 11
74.929855
 21
-10.800003
  0
LINE
  8
0
 62
     1
 10
77.929855
 20
-7.800003
 11
74.929855
 21
-7.800003
  0
LINE
  8
0
 62
     1
 10
77.929855
 20
-7.800003
 11
77.929855
 21
-10.800003
  0
LINE
  8
0
 62
     4
 10
73.529854
 20
-10.800003
 11
73.529854
 21
-16.300003
  0
LINE
  8
0
 62
     4
 10
79.329857
 20
-10.800003
 11
79.329857
 21
-16.300003
  0
LINE
  8
0
 62
     4
 10
81.429855
 20
-16.300003
 11
78.929855
 21
-16.300003
  0
LINE
  8
0
 62
     4
 10
81.429855
 20
8.799999
 11
81.429855
 21
-16.300003
  0
LINE
  8
0
 62
     4
 10
71.429855
 20
8.799999
 11
71.429855
 21
-16.300003
  0
LINE
  8
0
 62
     4
 10
71.429855
 20
7.599998
 11
81.429855
 21
7.599998
  0
LINE
  8
0
 62
     4
 10
71.729851
 20
-10.800003
 11
81.129852
 21
-10.800003
  0
LINE
  8
0
 62
     4
 10
81.429855
 20
7.900002
 11
71.429855
 21
7.900002
  0
LINE
  8
0
 10
81.979858
 20
8.299999
 11
82.479858
 21
8.299999
  0
LINE
  8
0
 10
73.207611
 20
17.549997
 11
74.535515
 21
19.849998
  0
LINE
  8
0
 10
78.266457
 20
19.950003
 11
79.652100
 21
17.550005
  0
LINE
  8
0
 10
74.968529
 20
20.099998
 11
78.006645
 21
20.099998
  0
LINE
  8
0
 10
81.679855
 20
8.799999
 11
81.679855
 21
8.599998
  0
LINE
  8
0
 10
71.179855
 20
8.799999
 11
71.179855
 21
8.599998
  0
LINE
  8
0
 10
70.429855
 20
8.299999
 11
70.879852
 21
8.299999
  0
LINE
  8
0
 10
68.929855
 20
9.799999
 11
70.429855
 21
8.299997
  0
LINE
  8
0
 10
82.429848
 20
8.300002
 11
83.929848
 21
9.800004
  0
LINE
  8
0
 10
80.085114
 20
17.299999
 11
83.929855
 21
17.299999
  0
LINE
  8
0
 10
72.774597
 20
17.299999
 11
68.929855
 21
17.299999
  0
LINE
  8
0
 10
81.679855
 20
8.799999
 11
71.179855
 21
8.799999
  0
LINE
  8
0
 10
83.929855
 20
41.500000
 11
68.929855
 21
41.500000
  0
LINE
  8
0
 62
     4
 10
81.129852
 20
113.500000
 11
78.929855
 21
113.500000
  0
LINE
  8
0
 62
     4
 10
73.929855
 20
113.500000
 11
71.729851
 21
113.500000
  0
LINE
  8
0
 62
     4
 10
80.529854
 20
113.500000
 11
80.529854
 21
113.400002
  0
LINE
  8
0
 62
     4
 10
72.329857
 20
113.500000
 11
72.329857
 21
113.400002
  0
LINE
  8
0
 62
     4
 10
81.129852
 20
-16.400002
 11
78.929855
 21
-16.400002
  0
LINE
  8
0
 62
     4
 10
73.929855
 20
-16.400002
 11
71.729851
 21
-16.400002
  0
LINE
  8
0
 62
     4
 10
80.529854
 20
-16.400002
 11
80.529854
 21
-16.300003
  0
LINE
  8
0
 62
     4
 10
72.329857
 20
-16.400002
 11
72.329857
 21
-16.300003
  0
LINE
  8
0
 62
     4
 10
74.604851
 20
118.500000
 11
74.604851
 21
124.584671
  0
LINE
  8
0
 62
     4
 10
73.174850
 20
118.500000
 11
73.174850
 21
124.966003
  0
LINE
  8
0
 62
     1
 10
82.009857
 20
122.610008
 11
70.911545
 21
125.569557
  0
LINE
  8
0
 62
     1
 10
82.009857
 20
123.849991
 11
70.911537
 21
126.809540
  0
LINE
  8
0
 62
     4
 10
79.684853
 20
118.500000
 11
79.684853
 21
123.229996
  0
LINE
  8
0
 62
     4
 10
78.254852
 20
118.500000
 11
78.254852
 21
123.599998
  0
LINE
  8
0
 62
     4
 10
78.569855
 20
134.029999
 11
79.369850
 21
134.029999
  0
LINE
  8
0
 62
     4
 10
78.254852
 20
129.029999
 11
79.684853
 21
129.029999
  0
LINE
  8
0
 62
     4
 10
79.369850
 20
129.029999
 11
79.369850
 21
134.029999
  0
LINE
  8
0
 62
     4
 10
78.569855
 20
129.029999
 11
78.569855
 21
134.029999
  0
LINE
  8
0
 62
     4
 10
78.254852
 20
124.839996
 11
78.254852
 21
129.029999
  0
LINE
  8
0
 62
     4
 10
79.684853
 20
124.459999
 11
79.684853
 21
129.029999
  0
LINE
  8
0
 62
     4
 10
74.604851
 20
125.824669
 11
74.604851
 21
129.029999
  0
LINE
  8
0
 62
     4
 10
73.174850
 20
126.206001
 11
73.174850
 21
129.029999
  0
LINE
  8
0
 62
     4
 10
74.289856
 20
129.029999
 11
74.289856
 21
134.029999
  0
LINE
  8
0
 62
     4
 10
73.489853
 20
129.029999
 11
73.489853
 21
134.029999
  0
LINE
  8
0
 62
     4
 10
74.604851
 20
129.029999
 11
73.174850
 21
129.029999
  0
LINE
  8
0
 62
     4
 10
74.289856
 20
134.029999
 11
73.489853
 21
134.029999
  0
LINE
  8
0
 62
     4
 10
78.254852
 20
-21.400002
 11
78.254852
 21
-27.484665
  0
LINE
  8
0
 62
     4
 10
79.684853
 20
-21.400002
 11
79.684853
 21
-27.865997
  0
LINE
  8
0
 62
     4
 10
73.174850
 20
-21.400002
 11
73.174850
 21
-26.129997
  0
LINE
  8
0
 62
     4
 10
74.604851
 20
-21.400002
 11
74.604851
 21
-26.500000
  0
LINE
  8
0
 62
     4
 10
78.569855
 20
-36.930000
 11
79.369850
 21
-36.930000
  0
LINE
  8
0
 62
     4
 10
78.254852
 20
-31.930000
 11
79.684853
 21
-31.930000
  0
LINE
  8
0
 62
     4
 10
79.369850
 20
-31.930000
 11
79.369850
 21
-36.930000
  0
LINE
  8
0
 62
     4
 10
78.569855
 20
-31.930000
 11
78.569855
 21
-36.930000
  0
LINE
  8
0
 62
     4
 10
79.684853
 20
-29.106003
 11
79.684853
 21
-31.930000
  0
LINE
  8
0
 62
     4
 10
78.254852
 20
-28.724670
 11
78.254852
 21
-31.930000
  0
LINE
  8
0
 62
     4
 10
73.174850
 20
-27.360001
 11
73.174850
 21
-31.930000
  0
LINE
  8
0
 62
     4
 10
74.604851
 20
-27.739998
 11
74.604851
 21
-31.930000
  0
LINE
  8
0
 62
     4
 10
74.289856
 20
-31.930000
 11
74.289856
 21
-36.930000
  0
LINE
  8
0
 62
     4
 10
73.489853
 20
-31.930000
 11
73.489853
 21
-36.930000
  0
LINE
  8
0
 62
     4
 10
74.604851
 20
-31.930000
 11
73.174850
 21
-31.930000
  0
LINE
  8
0
 62
     4
 10
74.289856
 20
-36.930000
 11
73.489853
 21
-36.930000
  0
LINE
  8
0
 62
     1
 10
70.849854
 20
-26.750000
 11
81.948166
 21
-29.709549
  0
LINE
  8
0
 62
     1
 10
70.849854
 20
-25.510002
 11
81.948166
 21
-28.469553
  0
LINE
  8
0
  6
CENTER
 62
     2
 10
60.429855
 20
136.375549
 11
60.429855
 21
-25.375557
  0
LINE
  8
0
 10
67.929855
 20
41.500000
 11
52.929855
 21
41.500000
  0
LINE
  8
0
 10
52.929855
 20
69.500000
 11
52.929855
 21
66.105492
  0
LINE
  8
0
 10
67.929855
 20
69.500000
 11
67.929855
 21
48.092949
  0
LINE
  8
0
 10
65.679855
 20
88.300003
 11
55.179855
 21
88.300003
  0
LINE
  8
0
 10
67.929855
 20
69.500000
 11
52.929855
 21
69.500000
  0
LINE
  8
0
 10
56.774597
 20
79.800003
 11
52.929855
 21
79.800003
  0
LINE
  8
0
 10
64.085106
 20
79.800003
 11
67.929855
 21
79.800003
  0
LINE
  8
0
 10
52.929855
 20
87.300003
 11
52.929855
 21
69.500000
  0
LINE
  8
0
 10
67.929855
 20
87.300003
 11
67.929855
 21
69.500000
  0
LINE
  8
0
 10
66.429855
 20
88.800003
 11
67.929855
 21
87.300003
  0
LINE
  8
0
 10
52.929855
 20
87.300003
 11
54.429852
 21
88.800003
  0
LINE
  8
0
 10
54.429855
 20
88.800003
 11
54.879852
 21
88.800003
  0
LINE
  8
0
 10
55.179855
 20
88.300003
 11
55.179855
 21
88.500000
  0
LINE
  8
0
 10
65.679855
 20
88.300003
 11
65.679855
 21
88.500000
  0
LINE
  8
0
 10
58.968529
 20
77.000000
 11
62.006645
 21
77.000000
  0
LINE
  8
0
 10
62.266457
 20
77.150002
 11
63.652103
 21
79.550003
  0
LINE
  8
0
 10
57.207611
 20
79.550003
 11
58.535515
 21
77.250000
  0
LINE
  8
0
 10
65.979851
 20
88.800003
 11
66.479851
 21
88.800003
  0
LINE
  8
0
 62
     4
 10
65.429855
 20
89.199997
 11
55.429855
 21
89.199997
  0
LINE
  8
0
 62
     4
 10
55.729851
 20
107.900002
 11
65.129852
 21
107.900002
  0
LINE
  8
0
 62
     4
 10
55.429855
 20
89.500000
 11
65.429855
 21
89.500000
  0
LINE
  8
0
 62
     4
 10
55.429855
 20
88.300003
 11
55.429855
 21
113.400002
  0
LINE
  8
0
 62
     4
 10
65.429855
 20
88.300003
 11
65.429855
 21
113.400002
  0
LINE
  8
0
 62
     4
 10
65.429855
 20
113.400002
 11
62.929855
 21
113.400002
  0
LINE
  8
0
 62
     4
 10
63.329857
 20
107.900002
 11
63.329857
 21
113.400002
  0
LINE
  8
0
 62
     4
 10
57.529854
 20
107.900002
 11
57.529854
 21
113.400002
  0
LINE
  8
0
 62
     1
 10
61.929855
 20
104.900002
 11
61.929855
 21
107.900002
  0
LINE
  8
0
 62
     1
 10
61.929855
 20
104.900002
 11
58.929855
 21
104.900002
  0
LINE
  8
0
 62
     1
 10
58.929855
 20
104.900002
 11
58.929855
 21
107.900002
  0
LINE
  8
0
 62
     4
 10
62.929855
 20
109.000000
 11
57.929855
 21
109.000000
  0
LINE
  8
0
 62
     4
 10
65.129852
 20
118.500000
 11
55.729851
 21
118.500000
  0
LINE
  8
0
 62
     4
 10
62.929855
 20
117.500000
 11
57.929855
 21
117.500000
  0
LINE
  8
0
 62
     4
 10
65.129852
 20
113.500000
 11
65.129852
 21
118.500000
  0
LINE
  8
0
 62
     4
 10
62.929855
 20
109.000000
 11
62.929855
 21
117.500000
  0
LINE
  8
0
 62
     4
 10
57.929855
 20
116.788673
 11
62.929855
 21
116.788673
  0
LINE
  8
0
 62
     4
 10
57.929855
 20
116.500000
 11
62.929855
 21
116.500000
  0
LINE
  8
0
 62
     4
 10
64.029854
 20
113.500000
 11
64.029854
 21
118.500000
  0
LINE
  8
0
 62
     4
 10
56.829857
 20
113.500000
 11
56.829857
 21
118.500000
  0
LINE
  8
0
 62
     4
 10
57.929855
 20
109.000000
 11
57.929855
 21
117.500000
  0
LINE
  8
0
 62
     4
 10
55.729851
 20
113.500000
 11
55.729851
 21
118.500000
  0
LINE
  8
0
 62
     4
 10
57.929855
 20
109.866028
 11
62.929855
 21
109.866028
  0
LINE
  8
0
 62
     4
 10
57.929855
 20
113.400002
 11
55.429855
 21
113.400002
  0
LINE
  8
0
 10
52.929855
 20
23.700001
 11
52.929855
 21
41.500000
  0
LINE
  8
0
 10
67.929855
 20
23.700001
 11
67.929855
 21
41.500000
  0
LINE
  8
0
 62
     4
 10
57.929855
 20
-2.400002
 11
55.429855
 21
-2.400002
  0
LINE
  8
0
 62
     4
 10
57.929855
 20
1.133976
 11
62.929855
 21
1.133976
  0
LINE
  8
0
 62
     4
 10
55.729851
 20
-2.500000
 11
55.729851
 21
-7.500000
  0
LINE
  8
0
 62
     4
 10
57.929855
 20
2.000000
 11
57.929855
 21
-6.500000
  0
LINE
  8
0
 62
     4
 10
56.829857
 20
-2.500000
 11
56.829857
 21
-7.500000
  0
LINE
  8
0
  6
PHANTOM
 62
     4
 10
60.429855
 20
1.133976
 11
59.179855
 21
1.133976
  0
LINE
  8
0
 62
     4
 10
64.029854
 20
-2.500000
 11
64.029854
 21
-7.500000
  0
LINE
  8
0
 62
     4
 10
57.929855
 20
-5.500000
 11
62.929855
 21
-5.500000
  0
LINE
  8
0
 62
     4
 10
57.929855
 20
-5.788673
 11
62.929855
 21
-5.788673
  0
LINE
  8
0
 62
     4
 10
62.929855
 20
2.000000
 11
62.929855
 21
-6.500000
  0
LINE
  8
0
 62
     4
 10
65.129852
 20
-2.500000
 11
65.129852
 21
-7.500000
  0
LINE
  8
0
 62
     4
 10
62.929855
 20
-6.500000
 11
57.929855
 21
-6.500000
  0
LINE
  8
0
 62
     4
 10
65.129852
 20
-7.500000
 11
55.729851
 21
-7.500000
  0
LINE
  8
0
 62
     4
 10
62.929855
 20
2.000000
 11
57.929855
 21
2.000000
  0
LINE
  8
0
 62
     1
 10
58.929855
 20
6.099998
 11
58.929855
 21
3.099998
  0
LINE
  8
0
 62
     1
 10
61.929855
 20
6.099998
 11
58.929855
 21
6.099998
  0
LINE
  8
0
 62
     1
 10
61.929855
 20
6.099998
 11
61.929855
 21
3.099998
  0
LINE
  8
0
 62
     4
 10
57.529854
 20
3.099998
 11
57.529854
 21
-2.400002
  0
LINE
  8
0
 62
     4
 10
63.329857
 20
3.099998
 11
63.329857
 21
-2.400002
  0
LINE
  8
0
 62
     4
 10
65.429855
 20
-2.400002
 11
62.929855
 21
-2.400002
  0
LINE
  8
0
 62
     4
 10
65.429855
 20
22.700001
 11
65.429855
 21
-2.400002
  0
LINE
  8
0
 62
     4
 10
55.429855
 20
22.700001
 11
55.429855
 21
-2.400002
  0
LINE
  8
0
 62
     4
 10
55.429855
 20
21.500000
 11
65.429855
 21
21.500000
  0
LINE
  8
0
 62
     4
 10
55.729851
 20
3.099998
 11
65.129852
 21
3.099998
  0
LINE
  8
0
 62
     4
 10
65.429855
 20
21.799999
 11
55.429855
 21
21.799999
  0
LINE
  8
0
 10
65.979851
 20
22.200001
 11
66.479851
 21
22.200001
  0
LINE
  8
0
 10
57.207611
 20
31.449997
 11
58.535515
 21
33.750000
  0
LINE
  8
0
 10
62.266453
 20
33.850002
 11
63.652092
 21
31.450001
  0
LINE
  8
0
 10
58.968529
 20
34.000000
 11
62.006645
 21
34.000000
  0
LINE
  8
0
 10
65.679855
 20
22.700001
 11
65.679855
 21
22.500000
  0
LINE
  8
0
 10
55.179855
 20
22.700001
 11
55.179855
 21
22.500000
  0
LINE
  8
0
 10
54.429855
 20
22.200001
 11
54.879852
 21
22.200001
  0
LINE
  8
0
 10
52.929852
 20
23.700001
 11
54.429855
 21
22.199999
  0
LINE
  8
0
 10
66.429855
 20
22.200001
 11
67.929855
 21
23.699999
  0
LINE
  8
0
 10
64.085106
 20
31.200001
 11
67.929855
 21
31.200001
  0
LINE
  8
0
 10
56.774597
 20
31.200001
 11
52.929855
 21
31.200001
  0
LINE
  8
0
 10
65.679855
 20
22.700001
 11
55.179855
 21
22.700001
  0
LINE
  8
0
 62
     4
 10
65.129852
 20
-2.500000
 11
62.929855
 21
-2.500000
  0
LINE
  8
0
 62
     4
 10
57.929855
 20
-2.500000
 11
55.729851
 21
-2.500000
  0
LINE
  8
0
 62
     4
 10
65.129852
 20
113.500000
 11
62.929855
 21
113.500000
  0
LINE
  8
0
 62
     4
 10
57.929855
 20
113.500000
 11
55.729851
 21
113.500000
  0
LINE
  8
0
 62
     4
 10
64.529854
 20
113.500000
 11
64.529854
 21
113.400002
  0
LINE
  8
0
 62
     4
 10
56.329857
 20
113.500000
 11
56.329857
 21
113.400002
  0
LINE
  8
0
 62
     4
 10
64.529854
 20
-2.500000
 11
64.529854
 21
-2.400002
  0
LINE
  8
0
 62
     4
 10
56.329857
 20
-2.500000
 11
56.329857
 21
-2.400002
  0
LINE
  8
0
 62
     4
 10
58.604851
 20
118.500000
 11
58.604851
 21
124.584671
  0
LINE
  8
0
 62
     4
 10
57.174850
 20
118.500000
 11
57.174850
 21
124.966003
  0
LINE
  8
0
 62
     1
 10
66.009850
 20
122.609993
 11
54.911537
 21
125.569542
  0
LINE
  8
0
 62
     1
 10
66.009857
 20
123.849998
 11
54.911541
 21
126.809547
  0
LINE
  8
0
 62
     4
 10
58.604851
 20
125.824669
 11
58.604851
 21
129.029999
  0
LINE
  8
0
 62
     4
 10
57.174850
 20
126.206001
 11
57.174850
 21
129.029999
  0
LINE
  8
0
 62
     4
 10
58.289856
 20
129.029999
 11
58.289856
 21
134.029999
  0
LINE
  8
0
 62
     4
 10
57.489853
 20
129.029999
 11
57.489853
 21
134.029999
  0
LINE
  8
0
 62
     4
 10
58.604851
 20
129.029999
 11
57.174850
 21
129.029999
  0
LINE
  8
0
 62
     4
 10
58.289856
 20
134.029999
 11
57.489853
 21
134.029999
  0
LINE
  8
0
 62
     4
 10
63.684853
 20
118.500000
 11
63.684853
 21
123.229996
  0
LINE
  8
0
 62
     4
 10
62.254852
 20
118.500000
 11
62.254852
 21
123.599998
  0
LINE
  8
0
 62
     4
 10
62.569855
 20
134.029999
 11
63.369850
 21
134.029999
  0
LINE
  8
0
 62
     4
 10
62.254852
 20
129.029999
 11
63.684853
 21
129.029999
  0
LINE
  8
0
 62
     4
 10
63.369850
 20
129.029999
 11
63.369850
 21
134.029999
  0
LINE
  8
0
 62
     4
 10
62.569855
 20
129.029999
 11
62.569855
 21
134.029999
  0
LINE
  8
0
 62
     4
 10
62.254852
 20
124.839996
 11
62.254852
 21
129.029999
  0
LINE
  8
0
 62
     4
 10
63.684853
 20
124.459999
 11
63.684853
 21
129.029999
  0
LINE
  8
0
 62
     4
 10
62.254852
 20
-7.500000
 11
62.254852
 21
-13.584663
  0
LINE
  8
0
 62
     4
 10
63.684853
 20
-7.500000
 11
63.684853
 21
-13.966003
  0
LINE
  8
0
 62
     4
 10
57.174850
 20
-7.500000
 11
57.174850
 21
-12.230003
  0
LINE
  8
0
 62
     4
 10
58.604851
 20
-7.500000
 11
58.604851
 21
-12.599998
  0
LINE
  8
0
 62
     4
 10
57.174850
 20
-13.459999
 11
57.174850
 21
-18.029999
  0
LINE
  8
0
 62
     4
 10
58.604851
 20
-13.839996
 11
58.604851
 21
-18.029999
  0
LINE
  8
0
 62
     4
 10
58.289856
 20
-18.029999
 11
58.289856
 21
-23.029999
  0
LINE
  8
0
 62
     4
 10
57.489853
 20
-18.029999
 11
57.489853
 21
-23.029999
  0
LINE
  8
0
 62
     4
 10
58.604851
 20
-18.029999
 11
57.174850
 21
-18.029999
  0
LINE
  8
0
 62
     4
 10
58.289856
 20
-23.029999
 11
57.489853
 21
-23.029999
  0
LINE
  8
0
 62
     4
 10
62.569855
 20
-23.029999
 11
63.369850
 21
-23.029999
  0
LINE
  8
0
 62
     4
 10
62.254852
 20
-18.029999
 11
63.684853
 21
-18.029999
  0
LINE
  8
0
 62
     4
 10
63.369850
 20
-18.029999
 11
63.369850
 21
-23.029999
  0
LINE
  8
0
 62
     4
 10
62.569855
 20
-18.029999
 11
62.569855
 21
-23.029999
  0
LINE
  8
0
 62
     4
 10
63.684853
 20
-15.206001
 11
63.684853
 21
-18.029999
  0
LINE
  8
0
 62
     4
 10
62.254852
 20
-14.824669
 11
62.254852
 21
-18.029999
  0
LINE
  8
0
 62
     1
 10
54.849857
 20
-12.850000
 11
65.948174
 21
-15.809550
  0
LINE
  8
0
 62
     1
 10
54.849854
 20
-11.610000
 11
65.948166
 21
-14.569550
  0
LINE
  8
0
  6
CENTER
 62
     2
 10
44.429855
 20
136.275558
 11
44.429855
 21
30.900000
  0
LINE
  8
0
 10
51.929855
 20
41.500000
 11
36.929855
 21
41.500000
  0
LINE
  8
0
 10
36.929855
 20
69.500000
 11
36.929855
 21
66.105492
  0
LINE
  8
0
 10
51.929855
 20
69.500000
 11
51.929855
 21
48.092949
  0
LINE
  8
0
 10
49.679855
 20
88.300003
 11
39.179855
 21
88.300003
  0
LINE
  8
0
 10
51.929855
 20
69.500000
 11
36.929855
 21
69.500000
  0
LINE
  8
0
 10
40.774597
 20
79.800003
 11
36.929855
 21
79.800003
  0
LINE
  8
0
 10
48.085106
 20
79.800003
 11
51.929855
 21
79.800003
  0
LINE
  8
0
 10
36.929855
 20
87.300003
 11
36.929855
 21
69.500000
  0
LINE
  8
0
 10
51.929855
 20
87.300003
 11
51.929855
 21
69.500000
  0
LINE
  8
0
 10
50.429855
 20
88.800003
 11
51.929855
 21
87.300003
  0
LINE
  8
0
 10
36.929852
 20
87.300003
 11
38.429852
 21
88.800003
  0
LINE
  8
0
 10
38.429855
 20
88.800003
 11
38.879852
 21
88.800003
  0
LINE
  8
0
 10
39.179855
 20
88.300003
 11
39.179855
 21
88.500000
  0
LINE
  8
0
 10
49.679855
 20
88.300003
 11
49.679855
 21
88.500000
  0
LINE
  8
0
 10
42.968529
 20
77.000000
 11
46.006649
 21
77.000000
  0
LINE
  8
0
 10
46.266457
 20
77.150002
 11
47.652096
 21
79.550003
  0
LINE
  8
0
 10
41.207611
 20
79.550003
 11
42.535515
 21
77.250000
  0
LINE
  8
0
 10
49.979851
 20
88.800003
 11
50.479851
 21
88.800003
  0
LINE
  8
0
 62
     4
 10
49.429855
 20
89.199997
 11
39.429855
 21
89.199997
  0
LINE
  8
0
 62
     4
 10
39.729851
 20
107.900002
 11
49.129852
 21
107.900002
  0
LINE
  8
0
 62
     4
 10
39.429855
 20
89.500000
 11
49.429855
 21
89.500000
  0
LINE
  8
0
 62
     4
 10
39.429855
 20
88.300003
 11
39.429855
 21
113.400002
  0
LINE
  8
0
 62
     4
 10
49.429855
 20
88.300003
 11
49.429855
 21
113.400002
  0
LINE
  8
0
 62
     4
 10
49.429855
 20
113.400002
 11
46.929855
 21
113.400002
  0
LINE
  8
0
 62
     4
 10
47.329853
 20
107.900002
 11
47.329853
 21
113.400002
  0
LINE
  8
0
 62
     4
 10
41.529854
 20
107.900002
 11
41.529854
 21
113.400002
  0
LINE
  8
0
 62
     1
 10
45.929855
 20
104.900002
 11
45.929855
 21
107.900002
  0
LINE
  8
0
 62
     1
 10
45.929855
 20
104.900002
 11
42.929855
 21
104.900002
  0
LINE
  8
0
 62
     1
 10
42.929855
 20
104.900002
 11
42.929855
 21
107.900002
  0
LINE
  8
0
 62
     4
 10
46.929855
 20
109.000000
 11
41.929855
 21
109.000000
  0
LINE
  8
0
 62
     4
 10
49.129852
 20
118.500000
 11
39.729851
 21
118.500000
  0
LINE
  8
0
 62
     4
 10
46.929855
 20
117.500000
 11
41.929855
 21
117.500000
  0
LINE
  8
0
 62
     4
 10
49.129852
 20
113.500000
 11
49.129852
 21
118.500000
  0
LINE
  8
0
 62
     4
 10
46.929855
 20
109.000000
 11
46.929855
 21
117.500000
  0
LINE
  8
0
 62
     4
 10
41.929855
 20
116.788673
 11
46.929855
 21
116.788673
  0
LINE
  8
0
 62
     4
 10
41.929855
 20
116.500000
 11
46.929855
 21
116.500000
  0
LINE
  8
0
 62
     4
 10
48.029854
 20
113.500000
 11
48.029854
 21
118.500000
  0
LINE
  8
0
 62
     4
 10
40.829853
 20
113.500000
 11
40.829853
 21
118.500000
  0
LINE
  8
0
 62
     4
 10
41.929855
 20
109.000000
 11
41.929855
 21
117.500000
  0
LINE
  8
0
 62
     4
 10
39.729851
 20
113.500000
 11
39.729851
 21
118.500000
  0
LINE
  8
0
 62
     4
 10
41.929855
 20
109.866028
 11
46.929855
 21
109.866028
  0
LINE
  8
0
 62
     4
 10
41.929855
 20
113.400002
 11
39.429855
 21
113.400002
  0
LINE
  8
0
 10
37.429855
 20
34.000000
 11
51.429855
 21
34.000000
  0
LINE
  8
0
 10
37.429855
 20
39.000000
 11
42.629852
 21
39.000000
  0
LINE
  8
0
 10
42.729851
 20
37.830002
 11
42.729851
 21
39.000000
  0
LINE
  8
0
 10
43.129852
 20
38.500000
 11
43.129852
 21
34.500000
  0
LINE
  8
0
 10
37.129852
 20
37.830002
 11
37.129852
 21
39.000000
  0
LINE
  8
0
 62
     4
 10
49.129852
 20
113.500000
 11
46.929855
 21
113.500000
  0
LINE
  8
0
 62
     4
 10
41.929855
 20
113.500000
 11
39.729851
 21
113.500000
  0
LINE
  8
0
 62
     4
 10
48.529854
 20
113.500000
 11
48.529854
 21
113.400002
  0
LINE
  8
0
 62
     4
 10
40.329853
 20
113.500000
 11
40.329853
 21
113.400002
  0
LINE
  8
0
 62
     4
 10
42.604851
 20
118.500000
 11
42.604851
 21
124.584671
  0
LINE
  8
0
 62
     4
 10
41.174854
 20
118.500000
 11
41.174854
 21
124.966003
  0
LINE
  8
0
 62
     1
 10
50.009857
 20
122.610008
 11
38.911541
 21
125.569557
  0
LINE
  8
0
 62
     1
 10
50.009857
 20
123.849998
 11
38.911541
 21
126.809555
  0
LINE
  8
0
 62
     4
 10
42.604851
 20
125.824669
 11
42.604851
 21
129.029999
  0
LINE
  8
0
 62
     4
 10
41.174854
 20
126.206001
 11
41.174854
 21
129.029999
  0
LINE
  8
0
 62
     4
 10
42.289856
 20
129.029999
 11
42.289856
 21
134.029999
  0
LINE
  8
0
 62
     4
 10
41.489853
 20
129.029999
 11
41.489853
 21
134.029999
  0
LINE
  8
0
 62
     4
 10
42.604851
 20
129.029999
 11
41.174854
 21
129.029999
  0
LINE
  8
0
 62
     4
 10
42.289856
 20
134.029999
 11
41.489853
 21
134.029999
  0
LINE
  8
0
 62
     4
 10
47.684853
 20
118.500000
 11
47.684853
 21
123.229996
  0
LINE
  8
0
 62
     4
 10
46.254852
 20
118.500000
 11
46.254852
 21
123.599998
  0
LINE
  8
0
 62
     4
 10
46.569855
 20
134.029999
 11
47.369854
 21
134.029999
  0
LINE
  8
0
 62
     4
 10
46.254852
 20
129.029999
 11
47.684853
 21
129.029999
  0
LINE
  8
0
 62
     4
 10
47.369854
 20
129.029999
 11
47.369854
 21
134.029999
  0
LINE
  8
0
 62
     4
 10
46.569855
 20
129.029999
 11
46.569855
 21
134.029999
  0
LINE
  8
0
 62
     4
 10
46.254852
 20
124.839996
 11
46.254852
 21
129.029999
  0
LINE
  8
0
 62
     4
 10
47.684853
 20
124.459999
 11
47.684853
 21
129.029999
  0
LINE
  8
0
 10
35.929855
 20
41.500000
 11
20.929853
 21
41.500000
  0
LINE
  8
0
 10
35.929855
 20
69.500000
 11
35.929855
 21
48.092949
  0
LINE
  8
0
 10
33.679855
 20
88.300003
 11
23.179853
 21
88.300003
  0
LINE
  8
0
 10
35.929855
 20
69.500000
 11
20.929853
 21
69.500000
  0
LINE
  8
0
 10
24.774597
 20
79.800003
 11
20.929853
 21
79.800003
  0
LINE
  8
0
 10
32.085110
 20
79.800003
 11
35.929855
 21
79.800003
  0
LINE
  8
0
 10
20.929853
 20
87.300003
 11
20.929853
 21
69.500000
  0
LINE
  8
0
 10
35.929855
 20
87.300003
 11
35.929855
 21
69.500000
  0
LINE
  8
0
 10
34.429852
 20
88.800003
 11
35.929852
 21
87.300003
  0
LINE
  8
0
 10
20.929855
 20
87.300003
 11
22.429852
 21
88.799995
  0
LINE
  8
0
 10
22.429853
 20
88.800003
 11
22.879852
 21
88.800003
  0
LINE
  8
0
 10
23.179853
 20
88.300003
 11
23.179853
 21
88.500000
  0
LINE
  8
0
 10
33.679855
 20
88.300003
 11
33.679855
 21
88.500000
  0
LINE
  8
0
 10
26.968529
 20
77.000000
 11
30.006649
 21
77.000000
  0
LINE
  8
0
 10
30.266457
 20
77.150002
 11
31.652098
 21
79.550003
  0
LINE
  8
0
 10
25.207607
 20
79.550003
 11
26.535515
 21
77.250000
  0
LINE
  8
0
 10
33.979851
 20
88.800003
 11
34.479851
 21
88.800003
  0
LINE
  8
0
 62
     4
 10
33.429855
 20
89.199997
 11
23.429853
 21
89.199997
  0
LINE
  8
0
 62
     4
 10
23.729855
 20
107.900002
 11
33.129852
 21
107.900002
  0
LINE
  8
0
 62
     4
 10
23.429853
 20
89.500000
 11
33.429855
 21
89.500000
  0
LINE
  8
0
 62
     4
 10
23.429853
 20
88.300003
 11
23.429853
 21
113.400002
  0
LINE
  8
0
 62
     4
 10
33.429855
 20
88.300003
 11
33.429855
 21
113.400002
  0
LINE
  8
0
 62
     4
 10
33.429855
 20
113.400002
 11
30.929853
 21
113.400002
  0
LINE
  8
0
 62
     4
 10
31.329853
 20
107.900002
 11
31.329853
 21
113.400002
  0
LINE
  8
0
 62
     4
 10
25.529854
 20
107.900002
 11
25.529854
 21
113.400002
  0
LINE
  8
0
 62
     1
 10
29.929853
 20
104.900002
 11
29.929853
 21
107.900002
  0
LINE
  8
0
 62
     1
 10
29.929853
 20
104.900002
 11
26.929853
 21
104.900002
  0
LINE
  8
0
 62
     1
 10
26.929853
 20
104.900002
 11
26.929853
 21
107.900002
  0
LINE
  8
0
 62
     4
 10
26.289852
 20
134.029999
 11
25.489853
 21
134.029999
  0
LINE
  8
0
 62
     4
 10
26.604855
 20
129.029999
 11
25.174854
 21
129.029999
  0
LINE
  8
0
 62
     4
 10
25.489853
 20
129.029999
 11
25.489853
 21
134.029999
  0
LINE
  8
0
 62
     4
 10
26.289852
 20
129.029999
 11
26.289852
 21
134.029999
  0
LINE
  8
0
 62
     4
 10
25.174854
 20
126.206001
 11
25.174854
 21
129.029999
  0
LINE
  8
0
 62
     4
 10
26.604855
 20
125.824669
 11
26.604855
 21
129.029999
  0
LINE
  8
0
 62
     4
 10
26.604855
 20
118.500000
 11
26.604855
 21
124.584671
  0
LINE
  8
0
 62
     4
 10
25.174854
 20
118.500000
 11
25.174854
 21
124.966003
  0
LINE
  8
0
 62
     1
 10
34.009853
 20
122.610008
 11
22.911541
 21
125.569557
  0
LINE
  8
0
 62
     1
 10
34.009853
 20
123.849998
 11
22.911539
 21
126.809547
  0
LINE
  8
0
 62
     4
 10
31.684853
 20
124.459999
 11
31.684853
 21
129.029999
  0
LINE
  8
0
 62
     4
 10
30.254852
 20
124.839996
 11
30.254852
 21
129.029999
  0
LINE
  8
0
 62
     4
 10
30.569855
 20
129.029999
 11
30.569855
 21
134.029999
  0
LINE
  8
0
 62
     4
 10
31.369854
 20
129.029999
 11
31.369854
 21
134.029999
  0
LINE
  8
0
 62
     4
 10
30.254852
 20
129.029999
 11
31.684853
 21
129.029999
  0
LINE
  8
0
 62
     4
 10
30.569855
 20
134.029999
 11
31.369854
 21
134.029999
  0
LINE
  8
0
 62
     4
 10
31.684853
 20
118.500000
 11
31.684853
 21
123.229996
  0
LINE
  8
0
 62
     4
 10
30.254852
 20
118.500000
 11
30.254852
 21
123.599998
  0
LINE
  8
0
 62
     4
 10
30.929853
 20
109.000000
 11
25.929853
 21
109.000000
  0
LINE
  8
0
 62
     4
 10
33.129852
 20
118.500000
 11
23.729855
 21
118.500000
  0
LINE
  8
0
 62
     4
 10
30.929853
 20
117.500000
 11
25.929853
 21
117.500000
  0
LINE
  8
0
 62
     4
 10
33.129852
 20
113.500000
 11
33.129852
 21
118.500000
  0
LINE
  8
0
 62
     4
 10
30.929853
 20
109.000000
 11
30.929853
 21
117.500000
  0
LINE
  8
0
 62
     4
 10
25.929853
 20
116.788673
 11
30.929853
 21
116.788673
  0
LINE
  8
0
 62
     4
 10
25.929853
 20
116.500000
 11
30.929853
 21
116.500000
  0
LINE
  8
0
 62
     4
 10
32.029854
 20
113.500000
 11
32.029854
 21
118.500000
  0
LINE
  8
0
 62
     4
 10
24.829853
 20
113.500000
 11
24.829853
 21
118.500000
  0
LINE
  8
0
 62
     4
 10
25.929853
 20
109.000000
 11
25.929853
 21
117.500000
  0
LINE
  8
0
 62
     4
 10
23.729855
 20
113.500000
 11
23.729855
 21
118.500000
  0
LINE
  8
0
 62
     4
 10
25.929853
 20
109.866028
 11
30.929853
 21
109.866028
  0
LINE
  8
0
 62
     4
 10
25.929853
 20
113.400002
 11
23.429853
 21
113.400002
  0
LINE
  8
0
 10
21.429853
 20
34.000000
 11
35.429855
 21
34.000000
  0
LINE
  8
0
 10
21.429853
 20
39.000000
 11
26.629852
 21
39.000000
  0
LINE
  8
0
 10
26.729855
 20
37.830002
 11
26.729855
 21
39.000000
  0
LINE
  8
0
 10
27.129852
 20
38.500000
 11
27.129852
 21
34.500000
  0
LINE
  8
0
 10
21.129852
 20
37.830002
 11
21.129852
 21
39.000000
  0
LINE
  8
0
 10
21.364853
 20
62.934998
 11
24.494856
 21
66.065002
  0
LINE
  8
0
 10
21.974854
 20
65.455002
 11
23.884851
 21
63.545002
  0
LINE
  8
0
 10
25.434853
 20
64.035004
 11
25.134853
 21
64.035004
  0
LINE
  8
0
 10
25.154854
 20
64.205002
 11
25.464853
 21
64.205002
  0
LINE
  8
0
 10
25.154854
 20
64.805000
 11
25.464853
 21
64.805000
  0
LINE
  8
0
 10
20.929853
 20
69.500000
 11
20.929853
 21
66.105492
  0
LINE
  8
0
 62
     4
 10
33.129852
 20
113.500000
 11
30.929853
 21
113.500000
  0
LINE
  8
0
 62
     4
 10
25.929853
 20
113.500000
 11
23.729855
 21
113.500000
  0
LINE
  8
0
 62
     4
 10
32.529854
 20
113.500000
 11
32.529854
 21
113.400002
  0
LINE
  8
0
 62
     4
 10
24.329853
 20
113.500000
 11
24.329853
 21
113.400002
  0
LINE
  8
0
  6
CENTER
 62
     2
 10
101.429855
 20
61.500000
 11
108.429855
 21
61.500000
  0
LINE
  8
0
  6
CENTER
 62
     2
 10
12.429853
 20
61.500000
 11
19.429853
 21
61.500000
  0
LINE
  8
0
  6
CENTER
 62
     2
 10
104.929855
 20
65.000000
 11
104.929855
 21
58.000000
  0
LINE
  8
0
  6
CENTER
 62
     2
 10
15.929853
 20
65.000000
 11
15.929853
 21
58.000000
  0
LINE
  8
0
 10
108.429855
 20
82.000000
 11
108.429855
 21
29.000000
  0
LINE
  8
0
 10
12.429853
 20
82.000000
 11
12.429853
 21
29.000000
  0
LINE
  8
0
 62
     4
 10
99.929855
 20
44.838676
 11
99.929855
 21
30.500000
  0
LINE
  8
0
 62
     4
 10
84.929855
 20
62.838676
 11
84.929855
 21
30.500000
  0
LINE
  8
0
 62
     4
 10
84.929855
 20
80.500000
 11
84.929855
 21
66.161324
  0
LINE
  8
0
 62
     4
 10
99.929855
 20
80.500000
 11
99.929855
 21
48.161324
  0
LINE
  8
0
  6
CENTER
 62
     2
 10
92.429855
 20
82.691177
 11
92.429855
 21
27.883518
  0
LINE
  8
0
 10
83.929855
 20
9.799999
 11
83.929855
 21
41.500000
  0
LINE
  8
0
  6
CENTER
 62
     2
 10
81.929855
 20
-131.111786
 11
81.929855
 21
-124.557793
  0
LINE
  8
0
  6
CENTER
 62
     2
 10
70.929855
 20
-131.111786
 11
70.929855
 21
-124.557793
  0
LINE
  8
0
  6
CENTER
 62
     2
 10
65.929855
 20
-131.111786
 11
65.929855
 21
-124.557793
  0
LINE
  8
0
  6
CENTER
 62
     2
 10
54.929855
 20
-131.111786
 11
54.929855
 21
-124.557793
  0
LINE
  8
0
  6
CENTER
 62
     2
 10
49.929855
 20
-131.111786
 11
49.929855
 21
-124.557793
  0
LINE
  8
0
  6
CENTER
 62
     2
 10
38.929855
 20
-131.111786
 11
38.929855
 21
-124.557793
  0
LINE
  8
0
  6
CENTER
 62
     2
 10
33.929855
 20
-131.111786
 11
33.929855
 21
-124.557793
  0
LINE
  8
0
  6
CENTER
 62
     2
 10
22.929853
 20
-131.111786
 11
22.929853
 21
-124.557793
  0
LINE
  8
0
 10
-281.250000
 20
195.500000
 11
282.099854
 21
195.500000
  0
LINE
  8
0
 10
-271.250000
 20
-185.000000
 11
-186.250000
 21
-185.000000
  0
LINE
  8
0
 10
-271.250000
 20
-25.000000
 11
-271.250000
 21
-185.000000
  0
LINE
  8
0
 10
-271.250000
 20
-177.000000
 11
-186.250000
 21
-177.000000
  0
LINE
  8
0
 10
-231.250000
 20
-25.000000
 11
-231.250000
 21
-185.000000
  0
LINE
  8
0
 10
-208.750000
 20
-25.000000
 11
-208.750000
 21
-185.000000
  0
LINE
  8
0
 10
-186.250000
 20
-25.000000
 11
-186.250000
 21
-185.000000
  0
LINE
  8
0
 10
-271.250000
 20
-169.000000
 11
-186.250000
 21
-169.000000
  0
LINE
  8
0
 10
-271.250000
 20
-161.000000
 11
-186.250000
 21
-161.000000
  0
LINE
  8
0
 10
-271.250000
 20
-153.000000
 11
-186.250000
 21
-153.000000
  0
LINE
  8
0
 10
-271.250000
 20
-145.000000
 11
-186.250000
 21
-145.000000
  0
LINE
  8
0
 10
-271.250000
 20
-137.000000
 11
-186.250000
 21
-137.000000
  0
LINE
  8
0
 10
-271.250000
 20
-129.000000
 11
-186.250000
 21
-129.000000
  0
LINE
  8
0
 10
-271.250000
 20
-121.000000
 11
-186.250000
 21
-121.000000
  0
LINE
  8
0
 10
-271.250000
 20
-113.000000
 11
-186.250000
 21
-113.000000
  0
LINE
  8
0
 10
-271.250000
 20
-105.000000
 11
-186.250000
 21
-105.000000
  0
LINE
  8
0
 10
-271.250000
 20
-97.000000
 11
-186.250000
 21
-97.000000
  0
LINE
  8
0
 10
-271.250000
 20
-89.000000
 11
-186.250000
 21
-89.000000
  0
LINE
  8
0
 10
-271.250000
 20
-81.000000
 11
-186.250000
 21
-81.000000
  0
LINE
  8
0
 10
-271.250000
 20
-73.000000
 11
-186.250000
 21
-73.000000
  0
LINE
  8
0
 10
-271.250000
 20
-65.000000
 11
-186.250000
 21
-65.000000
  0
LINE
  8
0
 10
-271.250000
 20
-57.000000
 11
-186.250000
 21
-57.000000
  0
LINE
  8
0
 10
-271.250000
 20
-49.000000
 11
-186.250000
 21
-49.000000
  0
LINE
  8
0
 10
-271.250000
 20
-41.000000
 11
-186.250000
 21
-41.000000
  0
LINE
  8
0
 10
-271.250000
 20
-33.000000
 11
-186.250000
 21
-33.000000
  0
LINE
  8
0
 10
-271.250000
 20
-25.000000
 11
-186.250000
 21
-25.000000
  0
LINE
  8
0
 10
282.099854
 20
195.500000
 11
282.099854
 21
-195.000000
  0
LINE
  8
0
 10
-281.250000
 20
195.500000
 11
-281.250000
 21
-195.000000
  0
LINE
  8
0
 10
-281.250000
 20
-195.000000
 11
282.099854
 21
-195.000000
  0
LINE
  8
0
 10
162.099976
 20
-175.000000
 11
162.099976
 21
-195.000000
  0
LINE
  8
0
 10
162.099976
 20
-175.000000
 11
282.099854
 21
-175.000000
  0
LINE
  8
0
 10
162.099976
 20
175.500000
 11
282.099854
 21
175.500000
  0
LINE
  8
0
 10
-281.250000
 20
175.500000
 11
-161.250000
 21
175.500000
  0
LINE
  8
0
 10
162.099976
 20
195.500000
 11
162.099976
 21
175.500000
  0
LINE
  8
0
 10
-161.250000
 20
195.500000
 11
-161.250000
 21
175.500000
  0
CIRCLE
  8
0
 62
     2
 10
23.429853
 20
-144.199997
 40
4.278000
  0
CIRCLE
  8
0
 10
23.429853
 20
-144.199997
 40
4.863999
  0
CIRCLE
  8
0
 10
95.426529
 20
-156.199997
 40
4.278000
  0
CIRCLE
  8
0
 62
     2
 10
95.426529
 20
-156.199997
 40
4.863999
  0
CIRCLE
  8
0
 10
87.426529
 20
-144.199997
 40
4.278000
  0
CIRCLE
  8
0
 62
     2
 10
87.426529
 20
-144.199997
 40
4.863999
  0
CIRCLE
  8
0
 10
79.426529
 20
-156.199997
 40
4.278000
  0
CIRCLE
  8
0
 62
     2
 10
79.426529
 20
-156.199997
 40
4.863999
  0
CIRCLE
  8
0
 10
71.426529
 20
-144.199997
 40
4.278000
  0
CIRCLE
  8
0
 62
     2
 10
71.426529
 20
-144.199997
 40
4.863999
  0
CIRCLE
  8
0
 10
63.426529
 20
-156.199997
 40
4.278000
  0
CIRCLE
  8
0
 62
     2
 10
63.426529
 20
-156.199997
 40
4.863999
  0
CIRCLE
  8
0
 10
55.426529
 20
-144.199997
 40
4.278000
  0
CIRCLE
  8
0
 62
     2
 10
55.426529
 20
-144.199997
 40
4.863999
  0
CIRCLE
  8
0
 10
39.429855
 20
-144.199997
 40
4.278000
  0
CIRCLE
  8
0
 62
     2
 10
39.429855
 20
-144.199997
 40
4.863999
  0
CIRCLE
  8
0
 10
47.429855
 20
-156.199997
 40
4.278000
  0
CIRCLE
  8
0
 62
     2
 10
47.429855
 20
-156.199997
 40
4.863999
  0
CIRCLE
  8
0
 10
31.429853
 20
-156.199997
 40
4.278000
  0
CIRCLE
  8
0
 62
     2
 10
31.429853
 20
-156.199997
 40
4.863999
  0
ARC
  8
0
 10
49.129852
 20
-94.699997
 40
0.299999
 50
0.000000
 51
90.000000
  0
ARC
  8
0
 10
39.729855
 20
-94.699997
 40
0.300003
 50
90.000000
 51
180.000000
  0
ARC
  8
0
 10
33.129852
 20
-94.699997
 40
0.299999
 50
0.000000
 51
90.000000
  0
ARC
  8
0
 10
23.729855
 20
-94.699997
 40
0.300003
 50
90.000000
 51
180.000000
  0
ARC
  8
0
 10
51.529854
 20
-95.299995
 40
0.400002
 50
0.000000
 51
90.000000
  0
ARC
  8
0
 10
37.329853
 20
-95.299995
 40
0.400002
 50
90.000000
 51
180.000000
  0
ARC
  8
0
 10
47.396435
 20
-95.299995
 40
0.400002
 50
0.000000
 51
90.000000
  0
ARC
  8
0
 10
45.779854
 20
-95.299995
 40
0.400002
 50
0.000000
 51
90.000000
  0
ARC
  8
0
 10
41.463272
 20
-95.299995
 40
0.400002
 50
90.000000
 51
180.000000
  0
ARC
  8
0
 10
43.079853
 20
-95.299995
 40
0.400002
 50
90.000000
 51
180.000000
  0
ARC
  8
0
 10
40.563271
 20
-103.199997
 40
0.500000
 50
270.000000
 51
0.000000
  0
ARC
  8
0
 10
42.179855
 20
-103.199997
 40
0.500000
 50
270.000000
 51
0.000000
  0
ARC
  8
0
 10
48.296432
 20
-103.199997
 40
0.500000
 50
180.000000
 51
270.000000
  0
ARC
  8
0
 10
46.679855
 20
-103.199997
 40
0.500000
 50
180.000000
 51
270.000000
  0
ARC
  8
0
 10
35.529854
 20
-95.299995
 40
0.400002
 50
0.000000
 51
90.000000
  0
ARC
  8
0
 10
21.329853
 20
-95.299995
 40
0.400002
 50
90.000000
 51
180.000000
  0
ARC
  8
0
 10
31.396435
 20
-95.299995
 40
0.400000
 50
0.000000
 51
90.000000
  0
ARC
  8
0
 10
29.779854
 20
-95.299995
 40
0.400000
 50
0.000000
 51
90.000000
  0
ARC
  8
0
 10
25.463272
 20
-95.299995
 40
0.400002
 50
90.000000
 51
180.000000
  0
ARC
  8
0
 10
27.079853
 20
-95.299995
 40
0.400002
 50
90.000000
 51
180.000000
  0
ARC
  8
0
 10
24.563272
 20
-103.199997
 40
0.500000
 50
270.000000
 51
0.000000
  0
ARC
  8
0
 10
26.179853
 20
-103.199997
 40
0.500000
 50
270.000000
 51
0.000000
  0
ARC
  8
0
 10
32.296432
 20
-103.199997
 40
0.500000
 50
180.000000
 51
270.000000
  0
ARC
  8
0
 10
30.679853
 20
-103.199997
 40
0.500000
 50
180.000000
 51
270.000000
  0
ARC
  8
0
 10
55.926529
 20
-106.699997
 40
2.800002
 50
100.286552
 51
259.713440
  0
ARC
  8
0
 10
64.926529
 20
-124.699997
 40
2.799999
 50
217.383133
 51
79.713448
  0
ARC
  8
0
 10
53.326523
 20
-95.299995
 40
0.400002
 50
90.000000
 51
180.000000
  0
ARC
  8
0
 10
53.326523
 20
-127.299995
 40
0.400002
 50
180.000000
 51
270.000000
  0
ARC
  8
0
 10
67.526527
 20
-127.299995
 40
0.400002
 50
270.000000
 51
0.000000
  0
ARC
  8
0
 10
67.526527
 20
-95.299995
 40
0.400002
 50
0.000000
 51
90.000000
  0
CIRCLE
  8
0
 62
     4
 10
62.966522
 20
-109.599998
 40
0.750000
  0
CIRCLE
  8
0
 62
     4
 10
57.886528
 20
-109.599998
 40
0.750000
  0
ARC
  8
0
 62
     4
 10
57.010872
 20
-110.499329
 40
0.200665
 50
176.761139
 51
269.901978
  0
ARC
  8
0
 62
     4
 10
58.761238
 20
-110.500336
 40
0.199670
 50
269.795288
 51
3.542397
  0
ARC
  8
0
 62
     4
 10
59.550873
 20
-110.499329
 40
0.200665
 50
176.761139
 51
269.901978
  0
ARC
  8
0
 62
     4
 10
61.301239
 20
-110.500336
 40
0.199670
 50
269.795288
 51
3.542397
  0
ARC
  8
0
 62
     4
 10
62.090866
 20
-110.499329
 40
0.200665
 50
176.761139
 51
269.901978
  0
ARC
  8
0
 62
     4
 10
63.841240
 20
-110.500336
 40
0.199670
 50
269.795288
 51
3.542330
  0
ARC
  8
0
 62
     4
 10
65.126526
 20
-106.899994
 40
0.300003
 50
0.000000
 51
90.000000
  0
ARC
  8
0
 62
     4
 10
55.726524
 20
-106.899994
 40
0.300003
 50
90.000000
 51
180.000000
  0
ARC
  8
0
 62
     4
 10
55.726524
 20
-94.699997
 40
0.300003
 50
90.000000
 51
180.000000
  0
ARC
  8
0
 62
     4
 10
65.126526
 20
-94.699997
 40
0.300003
 50
0.000000
 51
90.000000
  0
CIRCLE
  8
0
 62
     4
 10
60.426529
 20
-116.149994
 40
2.050000
  0
ARC
  8
0
 62
     4
 10
56.926529
 20
-117.899994
 40
1.599998
 50
270.000000
 51
90.000000
  0
ARC
  8
0
 62
     4
 10
63.926529
 20
-117.899994
 40
1.599998
 50
90.000000
 51
270.000000
  0
CIRCLE
  8
0
 62
     4
 10
60.426529
 20
-116.149994
 40
1.900000
  0
CIRCLE
  8
0
 62
     4
 10
60.426529
 20
-116.149994
 40
1.850000
  0
ARC
  8
0
 62
     4
 10
60.426529
 20
-116.149994
 40
0.800000
 50
22.024536
 51
157.975464
  0
ARC
  8
0
 62
     4
 10
60.426529
 20
-116.149994
 40
0.800000
 50
202.024536
 51
337.975464
  0
CIRCLE
  8
0
 62
     4
 10
56.926529
 20
-117.899994
 40
1.500000
  0
CIRCLE
  8
0
 62
     4
 10
63.926529
 20
-117.899994
 40
1.500000
  0
ARC
  8
0
 10
71.926529
 20
-106.699997
 40
2.800002
 50
100.286552
 51
259.713440
  0
ARC
  8
0
 10
80.926529
 20
-124.699997
 40
2.799999
 50
217.383133
 51
79.713448
  0
ARC
  8
0
 10
69.326523
 20
-95.299995
 40
0.400002
 50
90.000000
 51
180.000000
  0
ARC
  8
0
 10
69.326523
 20
-127.299995
 40
0.400002
 50
180.000000
 51
270.000000
  0
ARC
  8
0
 10
83.526527
 20
-127.299995
 40
0.400002
 50
270.000000
 51
0.000000
  0
ARC
  8
0
 10
83.526527
 20
-95.299995
 40
0.400002
 50
0.000000
 51
90.000000
  0
CIRCLE
  8
0
 62
     4
 10
78.966522
 20
-109.599998
 40
0.750000
  0
CIRCLE
  8
0
 62
     4
 10
73.886528
 20
-109.599998
 40
0.750000
  0
ARC
  8
0
 62
     4
 10
73.010872
 20
-110.499329
 40
0.200668
 50
176.761200
 51
269.901978
  0
ARC
  8
0
 62
     4
 10
74.761238
 20
-110.500336
 40
0.199670
 50
269.794220
 51
3.542330
  0
ARC
  8
0
 62
     4
 10
75.550873
 20
-110.499329
 40
0.200668
 50
176.761200
 51
269.901978
  0
ARC
  8
0
 62
     4
 10
77.301239
 20
-110.500336
 40
0.199670
 50
269.794220
 51
3.542330
  0
ARC
  8
0
 62
     4
 10
78.090866
 20
-110.499329
 40
0.200668
 50
176.761200
 51
269.901978
  0
ARC
  8
0
 62
     4
 10
79.841240
 20
-110.500336
 40
0.199670
 50
269.794220
 51
3.542330
  0
ARC
  8
0
 62
     4
 10
81.126526
 20
-106.899994
 40
0.300003
 50
0.000000
 51
90.000000
  0
ARC
  8
0
 62
     4
 10
71.726524
 20
-106.899994
 40
0.300003
 50
90.000000
 51
180.000000
  0
ARC
  8
0
 62
     4
 10
71.726524
 20
-94.699997
 40
0.300003
 50
90.000000
 51
180.000000
  0
ARC
  8
0
 62
     4
 10
81.126526
 20
-94.699997
 40
0.300003
 50
0.000000
 51
90.000000
  0
CIRCLE
  8
0
 62
     4
 10
76.426529
 20
-116.149994
 40
2.050000
  0
ARC
  8
0
 62
     4
 10
72.926529
 20
-117.899994
 40
1.599998
 50
270.000000
 51
90.000000
  0
ARC
  8
0
 62
     4
 10
79.926529
 20
-117.899994
 40
1.599998
 50
90.000000
 51
270.000000
  0
CIRCLE
  8
0
 62
     4
 10
76.426529
 20
-116.149994
 40
1.900000
  0
CIRCLE
  8
0
 62
     4
 10
76.426529
 20
-116.149994
 40
1.850000
  0
ARC
  8
0
 62
     4
 10
76.426529
 20
-116.149994
 40
0.800004
 50
22.024433
 51
157.975571
  0
ARC
  8
0
 62
     4
 10
76.426529
 20
-116.149994
 40
0.800004
 50
202.024429
 51
337.975555
  0
CIRCLE
  8
0
 62
     4
 10
72.926529
 20
-117.899994
 40
1.500000
  0
CIRCLE
  8
0
 62
     4
 10
79.926529
 20
-117.899994
 40
1.500000
  0
ARC
  8
0
 10
37.431580
 20
-104.201721
 40
0.501727
 50
90.197342
 51
179.803101
  0
ARC
  8
0
 10
51.431458
 20
-104.198395
 40
0.498400
 50
359.815826
 51
90.184189
  0
ARC
  8
0
 10
48.931580
 20
-124.701721
 40
3.201722
 50
90.030853
 51
179.969147
  0
ARC
  8
0
 10
39.931580
 20
-106.701721
 40
3.198281
 50
269.969116
 51
0.030889
  0
ARC
  8
0
 10
51.431580
 20
-121.001724
 40
0.498279
 50
269.801727
 51
0.198267
  0
ARC
  8
0
 10
37.431580
 20
-110.401718
 40
0.501727
 50
90.196907
 51
179.803101
  0
ARC
  8
0
 10
43.631577
 20
-104.201721
 40
0.501727
 50
90.196907
 51
179.803101
  0
CIRCLE
  8
0
 10
39.933182
 20
-106.700119
 40
2.799999
  0
ARC
  8
0
 10
45.231575
 20
-127.201721
 40
0.498279
 50
269.801727
 51
0.198267
  0
ARC
  8
0
 10
51.431572
 20
-127.201721
 40
0.498279
 50
269.802185
 51
0.198265
  0
ARC
  8
0
 10
37.431461
 20
-127.198395
 40
0.501609
 50
180.183884
 51
269.816559
  0
CIRCLE
  8
0
 10
48.933182
 20
-124.700119
 40
2.799999
  0
ARC
  8
0
 10
21.431580
 20
-104.201721
 40
0.501727
 50
90.197121
 51
179.803101
  0
ARC
  8
0
 10
35.431458
 20
-104.198395
 40
0.498400
 50
359.815826
 51
90.184189
  0
ARC
  8
0
 10
32.931580
 20
-124.701721
 40
3.201722
 50
90.030853
 51
179.969147
  0
ARC
  8
0
 10
23.931576
 20
-106.701721
 40
3.198281
 50
269.969147
 51
0.030889
  0
ARC
  8
0
 10
35.431576
 20
-121.001724
 40
0.498279
 50
269.801727
 51
0.198267
  0
ARC
  8
0
 10
21.431578
 20
-110.401718
 40
0.501727
 50
90.196907
 51
179.803101
  0
ARC
  8
0
 10
27.631578
 20
-104.201721
 40
0.501727
 50
90.196907
 51
179.803101
  0
CIRCLE
  8
0
 10
23.933182
 20
-106.700119
 40
2.799999
  0
ARC
  8
0
 10
29.231575
 20
-127.201721
 40
0.498279
 50
269.801941
 51
0.198266
  0
ARC
  8
0
 10
35.431572
 20
-127.201721
 40
0.498279
 50
269.802185
 51
0.198265
  0
ARC
  8
0
 10
21.431461
 20
-127.198395
 40
0.501610
 50
180.183884
 51
269.816345
  0
CIRCLE
  8
0
 10
32.933182
 20
-124.700119
 40
2.799999
  0
ARC
  8
0
 62
     4
 10
88.375160
 20
-124.400185
 40
0.801369
 50
0.013637
 51
73.964317
  0
ARC
  8
0
 62
     4
 10
86.926529
 20
-129.400116
 40
6.006927
 50
73.858406
 51
106.141594
  0
ARC
  8
0
 62
     4
 10
85.482124
 20
-124.403366
 40
0.805610
 50
106.262459
 51
179.760162
  0
ARC
  8
0
 62
     4
 10
96.482124
 20
-124.403366
 40
0.805610
 50
106.262459
 51
179.760162
  0
ARC
  8
0
 62
     4
 10
99.375160
 20
-124.400185
 40
0.801369
 50
0.013637
 51
73.964317
  0
ARC
  8
0
 62
     4
 10
97.926529
 20
-129.400116
 40
6.006927
 50
73.858406
 51
106.141594
  0
ARC
  8
0
 10
-125.208603
 20
34.500000
 40
0.500000
 50
180.000000
 51
270.000000
  0
ARC
  8
0
 10
-102.208603
 20
34.500000
 40
0.500000
 50
270.000000
 51
0.000000
  0
ARC
  8
0
 10
-107.408615
 20
38.500008
 40
0.499992
 50
89.999123
 51
180.000870
  0
ARC
  8
0
 10
-108.408615
 20
34.500008
 40
0.500008
 50
270.000885
 51
359.999115
  0
ARC
  8
0
 10
-104.713608
 20
41.600006
 40
5.008581
 50
240.517609
 51
299.482330
  0
ARC
  8
0
 10
-106.836388
 20
37.818588
 40
0.672220
 50
179.879700
 51
239.396973
  0
ARC
  8
0
 10
-102.578354
 20
37.822960
 40
0.669761
 50
299.495209
 51
359.746765
  0
ARC
  8
0
 10
-104.708603
 20
28.799999
 40
5.000002
 50
235.944183
 51
304.055817
  0
ARC
  8
0
 10
-101.308601
 20
31.600000
 40
0.400002
 50
180.000000
 51
270.000000
  0
ARC
  8
0
 10
-93.308601
 20
30.799999
 40
0.400002
 50
0.000000
 51
90.000000
  0
ARC
  8
0
 10
-93.308601
 20
33.599998
 40
0.400002
 50
0.000000
 51
90.000000
  0
ARC
  8
0
 10
-101.208603
 20
34.500000
 40
0.500000
 50
180.000000
 51
270.000000
  0
ARC
  8
0
 62
     4
 10
-116.908600
 20
8.599998
 40
0.500000
 50
180.000000
 51
270.000000
  0
ARC
  8
0
 62
     4
 10
-114.908600
 20
8.599998
 40
0.500000
 50
270.000000
 51
0.000000
  0
ARC
  8
0
 62
     4
 10
-92.708603
 20
3.400002
 40
0.300000
 50
270.000000
 51
0.000000
  0
ARC
  8
0
 10
-93.308601
 20
33.599998
 40
0.400002
 50
0.000000
 51
90.000000
  0
ARC
  8
0
 10
-93.308601
 20
30.799999
 40
0.400002
 50
0.000000
 51
90.000000
  0
ARC
  8
0
 10
-101.208603
 20
34.500000
 40
0.500000
 50
180.000000
 51
270.000000
  0
ARC
  8
0
 10
-101.308601
 20
31.600000
 40
0.400002
 50
180.000000
 51
270.000000
  0
ARC
  8
0
 62
     4
 10
-116.908600
 20
-5.300003
 40
0.500000
 50
180.000000
 51
270.000000
  0
ARC
  8
0
 62
     4
 10
-114.908600
 20
-5.300003
 40
0.500000
 50
270.000000
 51
0.000000
  0
ARC
  8
0
 62
     4
 10
-92.708603
 20
-10.500000
 40
0.300000
 50
270.000000
 51
0.000000
  0
ARC
  8
0
 10
-102.208603
 20
39.500000
 40
0.500000
 50
270.000000
 51
0.000000
  0
CIRCLE
  8
0
 62
     2
 10
-132.208603
 20
74.500000
 40
2.500000
  0
CIRCLE
  8
0
 62
     2
 10
-132.208603
 20
36.500000
 40
2.500000
  0
CIRCLE
  8
0
 62
     2
 10
-146.708603
 20
53.500000
 40
4.863999
  0
CIRCLE
  8
0
 62
     2
 10
-148.708603
 20
71.000000
 40
6.578500
  0
CIRCLE
  8
0
 10
-132.208603
 20
74.500000
 40
1.750000
  0
CIRCLE
  8
0
 10
-132.208603
 20
36.500000
 40
1.750000
  0
CIRCLE
  8
0
 10
-146.708603
 20
53.500000
 40
4.283000
  0
CIRCLE
  8
0
 10
-148.708603
 20
71.000000
 40
5.722500
  0
ARC
  8
0
 10
-108.408615
 20
64.495003
 40
6.008216
 50
342.417053
 51
17.582977
  0
ARC
  8
0
 10
-93.308601
 20
77.400002
 40
0.400002
 50
270.000000
 51
0.000000
  0
ARC
  8
0
 10
-101.208603
 20
76.500000
 40
0.500000
 50
90.000000
 51
180.000000
  0
ARC
  8
0
 62
     4
 10
-116.908600
 20
102.400002
 40
0.500000
 50
90.000000
 51
180.000000
  0
ARC
  8
0
 62
     4
 10
-114.908600
 20
102.400002
 40
0.500000
 50
0.000000
 51
90.000000
  0
ARC
  8
0
 62
     4
 10
-92.708603
 20
107.599998
 40
0.300003
 50
0.000000
 51
90.000000
  0
ARC
  8
0
 10
-93.308601
 20
80.199997
 40
0.400002
 50
270.000000
 51
0.000000
  0
ARC
  8
0
 10
-101.308601
 20
79.400002
 40
0.400002
 50
90.000000
 51
180.000000
  0
ARC
  8
0
 10
-122.708603
 20
82.199997
 40
5.000002
 50
55.944176
 51
124.055824
  0
ARC
  8
0
 10
-125.208603
 20
34.500000
 40
0.500000
 50
180.000000
 51
270.000000
  0
ARC
  8
0
 10
44.429855
 20
32.799999
 40
3.492620
 50
159.904755
 51
20.095249
  0
ARC
  8
0
 10
28.429853
 20
32.799999
 40
3.492622
 50
159.904755
 51
20.095240
  0
ARC
  8
0
 62
     4
 10
92.429855
 20
32.799999
 40
3.500003
 50
221.082321
 51
318.917694
  0
ARC
  8
0
 62
     4
 10
92.429855
 20
78.199997
 40
3.500004
 50
41.082344
 51
138.917648
  0
CIRCLE
  8
0
 62
     4
 10
97.929855
 20
46.500000
 40
2.600000
  0
CIRCLE
  8
0
 62
     4
 10
86.929855
 20
64.500000
 40
2.600000
  0
ARC
  8
0
 10
81.924858
 20
46.505001
 40
2.557656
 50
6.735992
 51
353.264008
  0
CIRCLE
  8
0
 10
81.924858
 20
46.505001
 40
2.250000
  0
ARC
  8
0
 10
70.924850
 20
64.504997
 40
2.557657
 50
6.736077
 51
353.263916
  0
CIRCLE
  8
0
 10
70.924850
 20
64.504997
 40
2.250000
  0
ARC
  8
0
 10
65.924850
 20
46.505001
 40
2.557656
 50
6.735992
 51
353.264008
  0
CIRCLE
  8
0
 10
65.924850
 20
46.505001
 40
2.250000
  0
ARC
  8
0
 10
54.924850
 20
64.504997
 40
2.557657
 50
6.736077
 51
353.263916
  0
CIRCLE
  8
0
 10
54.924850
 20
64.504997
 40
2.250000
  0
ARC
  8
0
 10
49.924850
 20
46.505001
 40
2.557656
 50
6.735992
 51
353.264008
  0
CIRCLE
  8
0
 10
49.924850
 20
46.505001
 40
2.250000
  0
ARC
  8
0
 10
38.924854
 20
64.504997
 40
2.557657
 50
6.736077
 51
353.263916
  0
CIRCLE
  8
0
 10
38.924854
 20
64.504997
 40
2.250000
  0
ARC
  8
0
 10
33.924854
 20
46.505001
 40
2.557656
 50
6.735992
 51
353.264008
  0
CIRCLE
  8
0
 10
33.924854
 20
46.505001
 40
2.250000
  0
ARC
  8
0
 10
70.927788
 20
64.499184
 40
2.702069
 50
222.318954
 51
0.017310
  0
ARC
  8
0
 10
70.931137
 20
64.499496
 40
2.698715
 50
0.010691
 51
137.865158
  0
ARC
  8
0
 10
81.929855
 20
46.494999
 40
2.700781
 50
42.223721
 51
317.776276
  0
CIRCLE
  8
0
 10
76.429855
 20
79.800003
 40
0.800000
  0
CIRCLE
  8
0
 10
76.429855
 20
79.800003
 40
2.000000
  0
ARC
  8
0
 10
70.879852
 20
88.500000
 40
0.300003
 50
0.000000
 51
90.000000
  0
ARC
  8
0
 10
81.979858
 20
88.500000
 40
0.300003
 50
90.000000
 51
180.000000
  0
ARC
  8
0
 10
72.774597
 20
79.300003
 40
0.500001
 50
29.999931
 51
90.000000
  0
ARC
  8
0
 10
74.968529
 20
77.500000
 40
0.500001
 50
209.999924
 51
270.000000
  0
ARC
  8
0
 10
80.085114
 20
79.300003
 40
0.500000
 50
90.000000
 51
150.000076
  0
ARC
  8
0
 10
78.006645
 20
77.300003
 40
0.300003
 50
270.000000
 51
330.000122
  0
ARC
  8
0
 62
     4
 10
81.129852
 20
107.599998
 40
0.300003
 50
0.000000
 51
90.000000
  0
ARC
  8
0
 62
     4
 10
71.729851
 20
107.599998
 40
0.300003
 50
90.000000
 51
180.000000
  0
ARC
  8
0
 62
     4
 10
71.729851
 20
-10.500000
 40
0.300003
 50
180.000000
 51
270.000000
  0
ARC
  8
0
 62
     4
 10
81.129852
 20
-10.500000
 40
0.300000
 50
270.000000
 51
0.000000
  0
ARC
  8
0
 10
78.006645
 20
19.799999
 40
0.300003
 50
29.999577
 51
90.000000
  0
ARC
  8
0
 10
80.085114
 20
17.799999
 40
0.500001
 50
209.999924
 51
270.000000
  0
ARC
  8
0
 10
74.968529
 20
19.599998
 40
0.500000
 50
90.000000
 51
150.000076
  0
ARC
  8
0
 10
72.774597
 20
17.799999
 40
0.500000
 50
270.000000
 51
330.000061
  0
ARC
  8
0
 10
81.979858
 20
8.599998
 40
0.300003
 50
180.000000
 51
270.000000
  0
ARC
  8
0
 10
70.879852
 20
8.599998
 40
0.300000
 50
270.000000
 51
0.000000
  0
CIRCLE
  8
0
 10
76.429855
 20
17.299999
 40
2.000000
  0
CIRCLE
  8
0
 10
76.429855
 20
17.299999
 40
0.800000
  0
ARC
  8
0
 10
54.927788
 20
64.499184
 40
2.702069
 50
222.318954
 51
0.017310
  0
ARC
  8
0
 10
54.931137
 20
64.499496
 40
2.698715
 50
0.010691
 51
137.865158
  0
ARC
  8
0
 10
65.929848
 20
46.494999
 40
2.700781
 50
42.223721
 51
317.776276
  0
CIRCLE
  8
0
 10
60.429855
 20
79.800003
 40
0.800000
  0
CIRCLE
  8
0
 10
60.429855
 20
79.800003
 40
2.000000
  0
ARC
  8
0
 10
54.879852
 20
88.500000
 40
0.299999
 50
0.000000
 51
90.000000
  0
ARC
  8
0
 10
65.979851
 20
88.500000
 40
0.300003
 50
90.000000
 51
180.000000
  0
ARC
  8
0
 10
56.774597
 20
79.300003
 40
0.500001
 50
29.999931
 51
90.000000
  0
ARC
  8
0
 10
58.968529
 20
77.500000
 40
0.500001
 50
209.999924
 51
270.000000
  0
ARC
  8
0
 10
64.085106
 20
79.300003
 40
0.500000
 50
90.000000
 51
150.000076
  0
ARC
  8
0
 10
62.006645
 20
77.300003
 40
0.300003
 50
270.000000
 51
329.999756
  0
ARC
  8
0
 62
     4
 10
65.129852
 20
107.599998
 40
0.300003
 50
0.000000
 51
90.000000
  0
ARC
  8
0
 62
     4
 10
55.729851
 20
107.599998
 40
0.300003
 50
90.000000
 51
180.000000
  0
ARC
  8
0
 62
     4
 10
55.729851
 20
3.400002
 40
0.299999
 50
180.000000
 51
270.000000
  0
ARC
  8
0
 62
     4
 10
65.129852
 20
3.400002
 40
0.300000
 50
270.000000
 51
0.000000
  0
ARC
  8
0
 10
62.006645
 20
33.700001
 40
0.300001
 50
30.000256
 51
90.000000
  0
ARC
  8
0
 10
64.085106
 20
31.700001
 40
0.500001
 50
209.999924
 51
270.000000
  0
ARC
  8
0
 10
58.968529
 20
33.500000
 40
0.500000
 50
90.000000
 51
150.000076
  0
ARC
  8
0
 10
56.774597
 20
31.700001
 40
0.500000
 50
270.000000
 51
330.000061
  0
ARC
  8
0
 10
65.979851
 20
22.500000
 40
0.300003
 50
180.000000
 51
270.000000
  0
ARC
  8
0
 10
54.879852
 20
22.500000
 40
0.299999
 50
270.000000
 51
0.000000
  0
CIRCLE
  8
0
 10
60.429855
 20
31.200001
 40
2.000000
  0
CIRCLE
  8
0
 10
60.429855
 20
31.200001
 40
0.800000
  0
ARC
  8
0
 10
38.927788
 20
64.499184
 40
2.702069
 50
222.318954
 51
0.017310
  0
ARC
  8
0
 10
38.931137
 20
64.499496
 40
2.698715
 50
0.010691
 51
137.865158
  0
ARC
  8
0
 10
49.929848
 20
46.494999
 40
2.700784
 50
42.223667
 51
317.776337
  0
CIRCLE
  8
0
 10
44.429855
 20
79.800003
 40
0.800000
  0
CIRCLE
  8
0
 10
44.429855
 20
79.800003
 40
2.000000
  0
ARC
  8
0
 10
38.879852
 20
88.500000
 40
0.299999
 50
0.000000
 51
90.000000
  0
ARC
  8
0
 10
49.979851
 20
88.500000
 40
0.300003
 50
90.000000
 51
180.000000
  0
ARC
  8
0
 10
40.774597
 20
79.300003
 40
0.500001
 50
29.999931
 51
90.000000
  0
ARC
  8
0
 10
42.968529
 20
77.500000
 40
0.500001
 50
209.999924
 51
270.000000
  0
ARC
  8
0
 10
48.085106
 20
79.300003
 40
0.500000
 50
90.000000
 51
150.000076
  0
ARC
  8
0
 10
46.006649
 20
77.300003
 40
0.300003
 50
270.000000
 51
329.999756
  0
ARC
  8
0
 62
     4
 10
49.129852
 20
107.599998
 40
0.299999
 50
0.000000
 51
90.000000
  0
ARC
  8
0
 62
     4
 10
39.729851
 20
107.599998
 40
0.300003
 50
90.000000
 51
180.000000
  0
ARC
  8
0
 10
51.429855
 20
34.500000
 40
0.500000
 50
270.000000
 51
0.000000
  0
ARC
  8
0
 10
37.429855
 20
34.500000
 40
0.500000
 50
180.000000
 51
270.000000
  0
ARC
  8
0
 10
37.429855
 20
39.500000
 40
0.500000
 50
180.000000
 51
270.000000
  0
ARC
  8
0
 10
39.934853
 20
41.600006
 40
4.999875
 50
240.461227
 51
299.538757
  0
ARC
  8
0
 10
37.795227
 20
37.830391
 40
0.665375
 50
180.033829
 51
240.724457
  0
ARC
  8
0
 10
42.062004
 20
37.826103
 40
0.667860
 50
300.388977
 51
0.334137
  0
ARC
  8
0
 10
43.629852
 20
34.500000
 40
0.500000
 50
180.000000
 51
270.000427
  0
ARC
  8
0
 10
42.629852
 20
38.500000
 40
0.500000
 50
0.000437
 51
90.000000
  0
ARC
  8
0
 10
22.927786
 20
64.499184
 40
2.702069
 50
222.318954
 51
0.017310
  0
ARC
  8
0
 10
22.931137
 20
64.499496
 40
2.698717
 50
0.010691
 51
137.865189
  0
ARC
  8
0
 10
33.929848
 20
46.494999
 40
2.700784
 50
42.223667
 51
317.776337
  0
CIRCLE
  8
0
 10
28.429853
 20
79.800003
 40
0.800000
  0
CIRCLE
  8
0
 10
28.429853
 20
79.800003
 40
2.000000
  0
ARC
  8
0
 10
22.879852
 20
88.500000
 40
0.299999
 50
0.000000
 51
90.000000
  0
ARC
  8
0
 10
33.979851
 20
88.500000
 40
0.300003
 50
90.000000
 51
180.000000
  0
ARC
  8
0
 10
24.774597
 20
79.300003
 40
0.499999
 50
30.000040
 51
90.000000
  0
ARC
  8
0
 10
26.968529
 20
77.500000
 40
0.499999
 50
210.000046
 51
270.000000
  0
ARC
  8
0
 10
32.085110
 20
79.300003
 40
0.500000
 50
90.000000
 51
149.999954
  0
ARC
  8
0
 10
30.006649
 20
77.300003
 40
0.300003
 50
270.000000
 51
329.999756
  0
ARC
  8
0
 62
     4
 10
33.129852
 20
107.599998
 40
0.299999
 50
0.000000
 51
90.000000
  0
ARC
  8
0
 62
     4
 10
23.729855
 20
107.599998
 40
0.300003
 50
90.000000
 51
180.000000
  0
ARC
  8
0
 10
35.429855
 20
34.500000
 40
0.500000
 50
270.000000
 51
0.000000
  0
ARC
  8
0
 10
21.429853
 20
34.500000
 40
0.500000
 50
180.000000
 51
270.000000
  0
ARC
  8
0
 10
21.429853
 20
39.500000
 40
0.500000
 50
180.000000
 51
270.000000
  0
ARC
  8
0
 10
23.934853
 20
41.600006
 40
4.999875
 50
240.461227
 51
299.538757
  0
ARC
  8
0
 10
21.795227
 20
37.830391
 40
0.665373
 50
180.033829
 51
240.724457
  0
ARC
  8
0
 10
26.062004
 20
37.826103
 40
0.667861
 50
300.389099
 51
0.334137
  0
ARC
  8
0
 10
27.629852
 20
34.500000
 40
0.499998
 50
180.000000
 51
270.000214
  0
ARC
  8
0
 10
26.629852
 20
38.500000
 40
0.500002
 50
0.000437
 51
89.999779
  0
CIRCLE
  8
0
 10
22.924854
 20
64.504997
 40
2.250000
  0
ARC
  8
0
 10
22.924854
 20
64.504997
 40
2.557655
 50
6.736082
 51
353.263916
  0
CIRCLE
  8
0
 62
     4
 10
97.933167
 20
46.500000
 40
2.250000
  0
CIRCLE
  8
0
 62
     4
 10
86.933167
 20
64.500000
 40
2.250000
  0
CIRCLE
  8
0
 10
104.933167
 20
61.500000
 40
2.099999
  0
CIRCLE
  8
0
 10
15.933182
 20
61.500000
 40
2.099999
  0
TEXT
  8
0
 10
-269.492187
 20
-184.050003
 40
4.500000
  1
G110M20A
 50
0.000000
 41
1.052632
 51
0.000000
  7
STANDARD
  0
TEXT
  8
0
 10
-269.492187
 20
-176.050003
 40
4.500000
  1
G110M19A
 50
0.000000
 41
1.052632
 51
0.000000
  7
STANDARD
  0
TEXT
  8
0
 10
-269.492187
 20
-168.050003
 40
4.500000
  1
G110M18A
 50
0.000000
 41
1.052632
 51
0.000000
  7
STANDARD
  0
TEXT
  8
0
 10
-269.492187
 20
-160.050003
 40
4.500000
  1
G110M17A
 50
0.000000
 41
1.052632
 51
0.000000
  7
STANDARD
  0
TEXT
  8
0
 10
-269.492187
 20
-152.050003
 40
4.500000
  1
G110M16A
 50
0.000000
 41
1.052632
 51
0.000000
  7
STANDARD
  0
TEXT
  8
0
 10
-269.492187
 20
-144.050003
 40
4.500000
  1
G110M15A
 50
0.000000
 41
1.052632
 51
0.000000
  7
STANDARD
  0
TEXT
  8
0
 10
-269.492187
 20
-136.050003
 40
4.500000
  1
G110M14A
 50
0.000000
 41
1.052632
 51
0.000000
  7
STANDARD
  0
TEXT
  8
0
 10
-269.492187
 20
-128.050003
 40
4.500000
  1
G110M13A
 50
0.000000
 41
1.052632
 51
0.000000
  7
STANDARD
  0
TEXT
  8
0
 10
-269.492187
 20
-120.050003
 40
4.500000
  1
G110M12A
 50
0.000000
 41
1.052632
 51
0.000000
  7
STANDARD
  0
TEXT
  8
0
 10
-269.492187
 20
-112.050003
 40
4.500000
  1
G110M11A
 50
0.000000
 41
1.052632
 51
0.000000
  7
STANDARD
  0
TEXT
  8
0
 10
-269.492187
 20
-104.050003
 40
4.500000
  1
G110M10A
 50
0.000000
 41
1.052632
 51
0.000000
  7
STANDARD
  0
TEXT
  8
0
 10
-265.242187
 20
-96.050003
 40
4.500000
  1
G110M9A
 50
0.000000
 41
1.052632
 51
0.000000
  7
STANDARD
  0
TEXT
  8
0
 10
-265.242187
 20
-88.050003
 40
4.500000
  1
G110M8A
 50
0.000000
 41
1.052632
 51
0.000000
  7
STANDARD
  0
TEXT
  8
0
 10
-265.242187
 20
-80.050003
 40
4.500000
  1
G110M7A
 50
0.000000
 41
1.052632
 51
0.000000
  7
STANDARD
  0
TEXT
  8
0
 10
-265.242187
 20
-72.050003
 40
4.500000
  1
G110M6A
 50
0.000000
 41
1.052632
 51
0.000000
  7
STANDARD
  0
TEXT
  8
0
 10
-265.242187
 20
-64.050003
 40
4.500000
  1
G110M5A
 50
0.000000
 41
1.052632
 51
0.000000
  7
STANDARD
  0
TEXT
  8
0
 10
-265.242187
 20
-56.049999
 40
4.500000
  1
G110M4A
 50
0.000000
 41
1.052632
 51
0.000000
  7
STANDARD
  0
TEXT
  8
0
 10
-265.242187
 20
-48.049999
 40
4.500000
  1
G110M3A
 50
0.000000
 41
1.052632
 51
0.000000
  7
STANDARD
  0
TEXT
  8
0
 10
-261.907349
 20
-22.955858
 40
4.500000
  1
DIMENSION LIST
 50
0.000000
 41
1.052632
 51
0.000000
  7
STANDARD
  0
TEXT
  8
0
 10
-203.392654
 20
-184.050003
 40
4.500000
  1
329
 50
0.000000
 41
1.052632
 51
0.000000
  7
STANDARD
  0
TEXT
  8
0
 10
-226.892654
 20
-184.050003
 40
4.500000
  1
336
 50
0.000000
 41
1.052632
 51
0.000000
  7
STANDARD
  0
TEXT
  8
0
 10
-226.892654
 20
-176.050003
 40
4.500000
  1
320
 50
0.000000
 41
1.052632
 51
0.000000
  7
STANDARD
  0
TEXT
  8
0
 10
-203.392654
 20
-176.050003
 40
4.500000
  1
313
 50
0.000000
 41
1.052632
 51
0.000000
  7
STANDARD
  0
TEXT
  8
0
 10
-226.892654
 20
-168.050003
 40
4.500000
  1
304
 50
0.000000
 41
1.052632
 51
0.000000
  7
STANDARD
  0
TEXT
  8
0
 10
-203.392654
 20
-168.050003
 40
4.500000
  1
297
 50
0.000000
 41
1.052632
 51
0.000000
  7
STANDARD
  0
TEXT
  8
0
 10
-226.892654
 20
-160.050003
 40
4.500000
  1
288
 50
0.000000
 41
1.052632
 51
0.000000
  7
STANDARD
  0
TEXT
  8
0
 10
-203.392654
 20
-160.050003
 40
4.500000
  1
281
 50
0.000000
 41
1.052632
 51
0.000000
  7
STANDARD
  0
TEXT
  8
0
 10
-226.892654
 20
-152.050003
 40
4.500000
  1
272
 50
0.000000
 41
1.052632
 51
0.000000
  7
STANDARD
  0
TEXT
  8
0
 10
-203.392654
 20
-152.050003
 40
4.500000
  1
265
 50
0.000000
 41
1.052632
 51
0.000000
  7
STANDARD
  0
TEXT
  8
0
 10
-226.892654
 20
-144.050003
 40
4.500000
  1
256
 50
0.000000
 41
1.052632
 51
0.000000
  7
STANDARD
  0
TEXT
  8
0
 10
-203.392654
 20
-144.050003
 40
4.500000
  1
249
 50
0.000000
 41
1.052632
 51
0.000000
  7
STANDARD
  0
TEXT
  8
0
 10
-226.892654
 20
-136.050003
 40
4.500000
  1
240
 50
0.000000
 41
1.052632
 51
0.000000
  7
STANDARD
  0
TEXT
  8
0
 10
-203.392654
 20
-136.050003
 40
4.500000
  1
233
 50
0.000000
 41
1.052632
 51
0.000000
  7
STANDARD
  0
TEXT
  8
0
 10
-226.892654
 20
-128.050003
 40
4.500000
  1
224
 50
0.000000
 41
1.052632
 51
0.000000
  7
STANDARD
  0
TEXT
  8
0
 10
-203.392654
 20
-128.050003
 40
4.500000
  1
217
 50
0.000000
 41
1.052632
 51
0.000000
  7
STANDARD
  0
TEXT
  8
0
 10
-226.892654
 20
-120.050003
 40
4.500000
  1
208
 50
0.000000
 41
1.052632
 51
0.000000
  7
STANDARD
  0
TEXT
  8
0
 10
-203.392654
 20
-120.050003
 40
4.500000
  1
201
 50
0.000000
 41
1.052632
 51
0.000000
  7
STANDARD
  0
TEXT
  8
0
 10
-226.892654
 20
-112.050003
 40
4.500000
  1
192
 50
0.000000
 41
1.052632
 51
0.000000
  7
STANDARD
  0
TEXT
  8
0
 10
-203.392654
 20
-112.050003
 40
4.500000
  1
185
 50
0.000000
 41
1.052632
 51
0.000000
  7
STANDARD
  0
TEXT
  8
0
 10
-226.892654
 20
-104.050003
 40
4.500000
  1
176
 50
0.000000
 41
1.052632
 51
0.000000
  7
STANDARD
  0
TEXT
  8
0
 10
-203.392654
 20
-104.050003
 40
4.500000
  1
169
 50
0.000000
 41
1.052632
 51
0.000000
  7
STANDARD
  0
TEXT
  8
0
 10
-226.892654
 20
-96.050003
 40
4.500000
  1
160
 50
0.000000
 41
1.052632
 51
0.000000
  7
STANDARD
  0
TEXT
  8
0
 10
-203.392654
 20
-96.050003
 40
4.500000
  1
153
 50
0.000000
 41
1.052632
 51
0.000000
  7
STANDARD
  0
TEXT
  8
0
 10
-226.892654
 20
-88.050003
 40
4.500000
  1
144
 50
0.000000
 41
1.052632
 51
0.000000
  7
STANDARD
  0
TEXT
  8
0
 10
-203.392654
 20
-88.050003
 40
4.500000
  1
137
 50
0.000000
 41
1.052632
 51
0.000000
  7
STANDARD
  0
TEXT
  8
0
 10
-226.892654
 20
-80.050003
 40
4.500000
  1
128
 50
0.000000
 41
1.052632
 51
0.000000
  7
STANDARD
  0
TEXT
  8
0
 10
-203.392654
 20
-80.050003
 40
4.500000
  1
121
 50
0.000000
 41
1.052632
 51
0.000000
  7
STANDARD
  0
TEXT
  8
0
 10
-226.892654
 20
-72.050003
 40
4.500000
  1
112
 50
0.000000
 41
1.052632
 51
0.000000
  7
STANDARD
  0
TEXT
  8
0
 10
-203.392654
 20
-72.050003
 40
4.500000
  1
105
 50
0.000000
 41
1.052632
 51
0.000000
  7
STANDARD
  0
TEXT
  8
0
 10
-222.142654
 20
-64.050003
 40
4.500000
  1
96
 50
0.000000
 41
1.052632
 51
0.000000
  7
STANDARD
  0
TEXT
  8
0
 10
-198.642654
 20
-64.050003
 40
4.500000
  1
89
 50
0.000000
 41
1.052632
 51
0.000000
  7
STANDARD
  0
TEXT
  8
0
 10
-222.142654
 20
-56.049999
 40
4.500000
  1
80
 50
0.000000
 41
1.052632
 51
0.000000
  7
STANDARD
  0
TEXT
  8
0
 10
-198.642654
 20
-56.049999
 40
4.500000
  1
73
 50
0.000000
 41
1.052632
 51
0.000000
  7
STANDARD
  0
TEXT
  8
0
 10
-222.142654
 20
-48.049999
 40
4.500000
  1
64
 50
0.000000
 41
1.052632
 51
0.000000
  7
STANDARD
  0
TEXT
  8
0
 10
-198.642654
 20
-48.049999
 40
4.500000
  1
57
 50
0.000000
 41
1.052632
 51
0.000000
  7
STANDARD
  0
TEXT
  8
0
 10
-265.242187
 20
-40.049999
 40
4.500000
  1
G110M2A
 50
0.000000
 41
1.052632
 51
0.000000
  7
STANDARD
  0
TEXT
  8
0
 10
-222.142654
 20
-40.049999
 40
4.500000
  1
48
 50
0.000000
 41
1.052632
 51
0.000000
  7
STANDARD
  0
TEXT
  8
0
 10
-198.642654
 20
-40.049999
 40
4.500000
  1
41
 50
0.000000
 41
1.052632
 51
0.000000
  7
STANDARD
  0
TEXT
  8
0
 10
-222.392654
 20
-32.049999
 40
4.500000
  1
L
 50
0.000000
 41
1.052632
 51
0.000000
  7
STANDARD
  0
TEXT
  8
0
 10
-198.892654
 20
-32.049999
 40
4.500000
  1
P
 50
0.000000
 41
1.052632
 51
0.000000
  7
STANDARD
  0
TEXT
  8
0
 10
-258.492187
 20
-32.049999
 40
4.500000
  1
TYPE
 50
0.000000
 41
1.052632
 51
0.000000
  7
STANDARD
  0
TEXT
  8
0
 10
196.250259
 20
180.830002
 40
6.300000
  1
Ver. 1.0
 50
0.000000
 41
1.052632
 51
0.000000
  7
STANDARD
  0
TEXT
  8
0
 10
167.564651
 20
-192.100006
 40
9.000000
  1
KOGANEI CORP.
 50
0.000000
 41
1.052632
 51
0.000000
  7
STANDARD
  0
TEXT
  8
0
 10
-256.549713
 20
180.830002
 40
6.300000
  1
G110 SERIES
 50
0.000000
 41
1.052632
 51
0.000000
  7
STANDARD
  0
TEXT
  8
0
 10
-270.049713
 20
155.830002
 40
6.300000
  1
MODEL:G110M5A
 50
0.000000
 41
1.052632
 51
0.000000
  7
STANDARD
  0
TEXT
  8
0
 62
     2
 10
58.622856
 20
155.484482
 40
3.200000
  1
P
 50
0.000000
 41
1.052632
 51
0.000000
  7
STANDARD
  0
LINE
  8
0
 62
     2
 10
15.929853
 20
154.484482
 11
104.929855
 21
154.484482
  0
LINE
  8
0
 62
     2
 10
15.929853
 20
154.484482
 11
18.827631
 21
155.260941
  0
LINE
  8
0
 62
     2
 10
15.929853
 20
154.484482
 11
18.827631
 21
153.708023
  0
LINE
  8
0
 62
     2
 10
104.929855
 20
154.484482
 11
102.032082
 21
153.708023
  0
LINE
  8
0
 62
     2
 10
104.929855
 20
154.484482
 11
102.032082
 21
155.260941
  0
LINE
  8
0
 62
     2
 10
15.929853
 20
63.757206
 11
15.929853
 21
155.984482
  0
LINE
  8
0
 62
     2
 10
104.929855
 20
63.574612
 11
104.929855
 21
155.984482
  0
TEXT
  8
0
 62
     2
 10
58.622856
 20
164.544830
 40
3.200000
  1
L
 50
0.000000
 41
1.052632
 51
0.000000
  7
STANDARD
  0
LINE
  8
0
 62
     2
 10
12.429853
 20
163.544830
 11
108.429855
 21
163.544830
  0
LINE
  8
0
 62
     2
 10
12.429853
 20
163.544830
 11
15.327631
 21
164.321289
  0
LINE
  8
0
 62
     2
 10
12.429853
 20
163.544830
 11
15.327631
 21
162.768372
  0
LINE
  8
0
 62
     2
 10
108.429855
 20
163.544830
 11
105.532082
 21
162.768372
  0
LINE
  8
0
 62
     2
 10
108.429855
 20
163.544830
 11
105.532082
 21
164.321289
  0
LINE
  8
0
 62
     2
 10
12.429853
 20
82.000000
 11
12.429853
 21
165.044830
  0
LINE
  8
0
 62
     2
 10
108.429855
 20
82.000000
 11
108.429855
 21
165.044830
  0
LINE
  8
0
 62
     2
 10
28.429855
 20
-94.400002
 11
19.181786
 21
-78.381874
  0
LINE
  8
0
 62
     2
 10
19.181786
 20
-78.381874
 11
-31.009758
 21
-78.381874
  0
LINE
  8
0
 62
     2
 10
28.429855
 20
-94.400002
 11
27.653399
 21
-91.502228
  0
LINE
  8
0
 62
     2
 10
28.429855
 20
-94.400002
 11
26.308535
 21
-92.278679
  0
TEXT
  8
0
 62
     2
 10
-30.759758
 20
-77.381874
 40
3.200000
  1
ＧＡ１１０Ｅ１－ＰＳＬ　　ＧＡ１１０Ｅ１－１１－ＰＳＬ
 50
0.000000
 41
0.833333
 51
0.000000
  7
STANDARD
  0
LINE
  8
0
 62
     2
 10
44.429855
 20
-94.400002
 11
26.693474
 21
-63.679687
  0
LINE
  8
0
 62
     2
 10
26.693474
 20
-63.679687
 11
-17.063604
 21
-63.679687
  0
LINE
  8
0
 62
     2
 10
44.429855
 20
-94.400002
 11
43.653397
 21
-91.502228
  0
LINE
  8
0
 62
     2
 10
44.429855
 20
-94.400002
 11
42.308537
 21
-92.278679
  0
TEXT
  8
0
 62
     2
 10
-16.813604
 20
-62.679687
 40
3.200000
  1
ＧＡ１１０－４Ｅ１－ＰＳＬ
 50
0.000000
 41
0.833333
 51
0.000000
  7
STANDARD
  0
LINE
  8
0
 62
     2
 10
60.426529
 20
-94.400002
 11
78.162903
 21
-63.679695
  0
LINE
  8
0
 62
     2
 10
78.162903
 20
-63.679695
 11
124.182358
 21
-63.679691
  0
LINE
  8
0
 62
     2
 10
60.426529
 20
-94.400002
 11
62.547848
 21
-92.278679
  0
LINE
  8
0
 62
     2
 10
60.426529
 20
-94.400002
 11
61.202988
 21
-91.502228
  0
TEXT
  8
0
 62
     2
 10
81.918358
 20
-62.679691
 40
3.200000
  1
ＧＡ１１０－４Ｅ２－ＰＳＬ
 50
0.000000
 41
0.833333
 51
0.000000
  7
STANDARD
  0
LINE
  8
0
 62
     2
 10
76.426529
 20
-94.400002
 11
85.674591
 21
-78.381882
  0
LINE
  8
0
 62
     2
 10
85.674591
 20
-78.381882
 11
129.941330
 21
-78.381882
  0
LINE
  8
0
 62
     2
 10
76.426529
 20
-94.400002
 11
78.547852
 21
-92.278679
  0
LINE
  8
0
 62
     2
 10
76.426529
 20
-94.400002
 11
77.202988
 21
-91.502228
  0
TEXT
  8
0
 62
     2
 10
87.677322
 20
-77.381882
 40
3.200000
  1
ＧＡ１１３－４Ｅ２－ＰＳＬ
 50
0.000000
 41
0.833333
 51
0.000000
  7
STANDARD
  0
LINE
  8
0
 62
     2
 10
92.426529
 20
-125.700005
 11
110.713554
 21
-94.025940
  0
LINE
  8
0
 62
     2
 10
110.713554
 20
-94.025940
 11
124.482620
 21
-94.025940
  0
LINE
  8
0
 62
     2
 10
92.426529
 20
-125.700005
 11
94.547852
 21
-123.578682
  0
LINE
  8
0
 62
     2
 10
92.426529
 20
-125.700005
 11
93.202988
 21
-122.802231
  0
TEXT
  8
0
 62
     2
 10
114.218620
 20
-93.025940
 40
3.200000
  1
-BP
 50
0.000000
 41
1.052632
 51
0.000000
  7
STANDARD
  0
ENDSEC
  0
EOF
