  0
SECTION
  2
HEADER
  0
ENDSEC
  0
SECTION
  2
TABLES
  0
TABLE
  2
LTYPE
 70
     4
  0
LTYPE
  2
CONTINUOUS
 70
    64
  3
Solid line
 72
    65
 73
     0
 40
0.000000
  0
LTYPE
  2
DASHED
 70
    64
  3
__ __ __ __ __ __ __ __ __ __ __ __ __ __ __
 72
    65
 73
     2
 40
3.500000
 49
2.000000
 49
-1.500000
  0
LTYPE
  2
CENTER
 70
    64
  3
____ _ ____ _ ____ _ ____ _ ____ _ ____ _ ____
 72
    65
 73
     4
 40
17.500000
 49
13.000000
 49
-1.500000
 49
1.500000
 49
-1.500000
  0
LTYPE
  2
PHANTOM
 70
    64
  3
_____ _ _ _____ _ _ _____ _ _ _____ _ _ ____  
 72
    65
 73
     6
 40
15.500000
 49
8.000000
 49
-1.500000
 49
1.500000
 49
-1.500000
 49
1.500000
 49
-1.500000
  0
LTYPE
  2
DASHED1
 70
    64
  3
__ __ __ __ __ __ __ __ __ __ __ __ __ __ __
 72
    65
 73
     2
 40
1.500000
 49
1.000000
 49
-0.500000
  0
LTYPE
  2
DASHED2
 70
    64
  3
__ __ __ __ __ __ __ __ __ __ __ __ __ __ __
 72
    65
 73
     2
 40
3.500000
 49
2.500000
 49
-1.000000
  0
LTYPE
  2
DASHED3
 70
    64
  3
__ __ __ __ __ __ __ __ __ __ __ __ __ __ __
 72
    65
 73
     2
 40
6.000000
 49
4.000000
 49
-2.000000
  0
LTYPE
  2
DASHED4
 70
    64
  3
__ __ __ __ __ __ __ __ __ __ __ __ __ __ __
 72
    65
 73
     2
 40
12.000000
 49
10.000000
 49
-2.000000
  0
LTYPE
  2
DASHED5
 70
    64
  3
__ __ __ __ __ __ __ __ __ __ __ __ __ __ __
 72
    65
 73
     2
 40
17.000000
 49
15.000000
 49
-2.000000
  0
LTYPE
  2
DASHED6
 70
    64
  3
__ __ __ __ __ __ __ __ __ __ __ __ __ __ __
 72
    65
 73
     2
 40
29.000000
 49
27.000000
 49
-2.000000
  0
LTYPE
  2
PHANTOM1
 70
    64
  3
_____ _ _ _____ _ _ _____ _ _ _____ _ _ ____  
 72
    65
 73
     6
 40
31.000000
 49
25.000000
 49
-1.500000
 49
1.000000
 49
-1.000000
 49
1.000000
 49
-1.500000
  0
LTYPE
  2
PHANTOM2
 70
    64
  3
_____ _ _ _____ _ _ _____ _ _ _____ _ _ ____  
 72
    65
 73
     6
 40
36.000000
 49
27.000000
 49
-1.500000
 49
2.500000
 49
-1.000000
 49
2.500000
 49
-1.500000
  0
LTYPE
  2
PHANTOM3
 70
    64
  3
_____ _ _ _____ _ _ _____ _ _ _____ _ _ ____  
 72
    65
 73
     6
 40
78.000000
 49
64.000000
 49
-2.000000
 49
4.000000
 49
-2.000000
 49
4.000000
 49
-2.000000
  0
LTYPE
  2
CENTER1
 70
    64
  3
____ _ ____ _ ____ _ ____ _ ____ _ ____ _ ____
 72
    65
 73
     4
 40
19.000000
 49
14.000000
 49
-1.000000
 49
3.000000
 49
-1.000000
  0
LTYPE
  2
CENTER2
 70
    64
  3
____ _ ____ _ ____ _ ____ _ ____ _ ____ _ ____
 72
    65
 73
     4
 40
28.500000
 49
25.000000
 49
-1.000000
 49
1.500000
 49
-1.000000
  0
LTYPE
  2
CENTER3
 70
    64
  3
____ _ ____ _ ____ _ ____ _ ____ _ ____ _ ____
 72
    65
 73
     4
 40
31.500000
 49
27.000000
 49
-1.000000
 49
2.500000
 49
-1.000000
  0
LTYPE
  2
CENTER4
 70
    64
  3
____ _ ____ _ ____ _ ____ _ ____ _ ____ _ ____
 72
    65
 73
     4
 40
50.000000
 49
45.000000
 49
-1.000000
 49
3.000000
 49
-1.000000
  0
LTYPE
  2
CENTER5
 70
    64
  3
____ _ ____ _ ____ _ ____ _ ____ _ ____ _ ____
 72
    65
 73
     4
 40
100.000000
 49
92.000000
 49
-2.000000
 49
4.000000
 49
-2.000000
  0
LTYPE
  2
SBK1
 70
    64
  3
______ _ _ _ ______ _ _ _ ______ _ _ _ _____  
 72
    65
 73
     8
 40
60.500000
 49
45.000000
 49
-2.000000
 49
2.500000
 49
-2.000000
 49
2.500000
 49
-2.000000
 49
2.500000
 49
-2.000000
  0
LTYPE
  2
SBK2
 70
    64
  3
______ _ _ _ ______ _ _ _ ______ _ _ _ _____  
 72
    65
 73
     8
 40
84.000000
 49
64.000000
 49
-2.000000
 49
4.000000
 49
-2.000000
 49
4.000000
 49
-2.000000
 49
4.000000
 49
-2.000000
  0
LTYPE
  2
STCH
 70
    64
  3
__ __ __ __ __ __ __ __ __ __ __ __ __ __ __
 72
    65
 73
     2
 40
3.000000
 49
1.000000
 49
-2.000000
  0
LTYPE
  2
MTCH
 70
    64
  3
_____ _ _ _____ _ _ _____ _ _ _____ _ _ ____  
 72
    65
 73
     6
 40
80.000000
 49
66.000000
 49
-2.000000
 49
4.000000
 49
-2.000000
 49
4.000000
 49
-2.000000
  0
ENDTAB
  0
TABLE
  2
LAYER
 70
     1
  0
LAYER
  2
0
 70
     0
 62
     7
  6
CONTINUOUS
  0
ENDTAB
  0
TABLE
  2
STYLE
 70
     1
  0
STYLE
  2
STANDARD
 70
     0
 40
0.000000
 41
1.000000
 50
0.000000
 71
     0
 42
0.200000
  3
txt
  4
BIGFONT
  0
ENDTAB
  0
TABLE
  2
VIEW
 70
     0
  0
ENDTAB
  0
ENDSEC
  0
SECTION
  2
BLOCKS
  0
ENDSEC
  0
SECTION
  2
ENTITIES
  0
LINE
  8
0
 10
-19.596508
 20
-102.267212
 11
-20.096506
 21
-103.637207
  0
LINE
  8
0
 10
-20.096508
 20
-103.637207
 11
-20.096508
 21
-107.267204
  0
LINE
  8
0
 10
-20.096508
 20
-93.267204
 11
-20.096508
 21
-96.897202
  0
LINE
  8
0
 10
-19.596512
 20
-98.267204
 11
-20.096512
 21
-96.897202
  0
LINE
  8
0
 10
-19.596508
 20
-98.267204
 11
-19.596508
 21
-102.267204
  0
LINE
  8
0
 10
-20.096508
 20
-107.267204
 11
-20.096508
 21
-93.267204
  0
LINE
  8
0
 10
12.903492
 20
-95.267204
 11
12.703491
 21
-95.267204
  0
LINE
  8
0
 10
12.903492
 20
-105.267204
 11
12.703491
 21
-105.267204
  0
LINE
  8
0
 10
13.203491
 20
-104.967201
 11
13.203491
 21
-95.567207
  0
LINE
  8
0
 10
12.703491
 20
-93.167206
 11
12.703491
 21
-107.367203
  0
LINE
  8
0
 10
12.303493
 20
-102.017204
 11
4.403492
 21
-102.017204
  0
LINE
  8
0
 10
12.303493
 20
-103.633789
 11
4.403492
 21
-103.633789
  0
LINE
  8
0
 10
12.303493
 20
-98.517204
 11
4.403492
 21
-98.517204
  0
LINE
  8
0
 10
12.303493
 20
-96.900620
 11
4.403492
 21
-96.900620
  0
LINE
  8
0
 10
12.303493
 20
-107.767204
 11
3.403492
 21
-107.767204
  0
LINE
  8
0
 10
12.303493
 20
-92.767204
 11
3.403492
 21
-92.767204
  0
LINE
  8
0
 10
-16.036627
 20
-103.710526
 11
-18.154127
 21
-105.828026
  0
LINE
  8
0
 10
-18.154129
 20
-103.713036
 11
-16.039127
 21
-105.828041
  0
LINE
  8
0
 10
1.968491
 20
-94.707207
 11
-0.149010
 21
-96.824707
  0
LINE
  8
0
 10
-0.149012
 20
-94.709702
 11
1.965988
 21
-96.824707
  0
LINE
  8
0
 10
-19.596508
 20
-107.767204
 11
3.403492
 21
-107.767204
  0
LINE
  8
0
 10
-19.596508
 20
-92.767204
 11
3.403492
 21
-92.767204
  0
LINE
  8
0
 10
3.903492
 20
-93.267204
 11
3.903492
 21
-107.267204
  0
LINE
  8
0
 10
-19.596508
 20
-101.567207
 11
-17.096508
 21
-101.567207
  0
LINE
  8
0
 10
-13.896508
 20
-104.767204
 11
-13.896508
 21
-107.267204
  0
LINE
  8
0
 10
0.903492
 20
-98.967201
 11
3.403492
 21
-98.967201
  0
LINE
  8
0
 10
-2.296509
 20
-93.267204
 11
-2.296509
 21
-95.767204
  0
LINE
  8
0
  6
CENTER
 62
     2
 10
-22.686626
 20
-100.267204
 11
15.339424
 21
-100.267204
  0
LINE
  8
0
  6
CENTER
 62
     2
 10
-22.686626
 20
-94.767204
 11
-17.222588
 21
-94.767204
  0
LINE
  8
0
  6
CENTER
 62
     2
 10
-22.686626
 20
-105.767204
 11
-17.222588
 21
-105.767204
  0
LINE
  8
0
 10
-20.096508
 20
95.960052
 11
-20.096508
 21
81.760056
  0
LINE
  8
0
  6
CENTER
 62
     2
 10
-22.406507
 20
88.860054
 11
15.339424
 21
88.860054
  0
LINE
  8
0
 10
-19.596506
 20
94.860062
 11
-20.034485
 21
96.174004
  0
LINE
  8
0
 10
-19.596508
 20
87.360054
 11
-19.596508
 21
94.860054
  0
LINE
  8
0
 10
-18.996508
 20
87.360054
 11
-18.996508
 21
94.404160
  0
LINE
  8
0
 10
-19.696508
 20
96.360054
 11
12.303493
 21
96.360054
  0
LINE
  8
0
 10
-19.696508
 20
81.360054
 11
12.303493
 21
81.360054
  0
LINE
  8
0
 10
12.703491
 20
83.860054
 11
12.703491
 21
81.760056
  0
LINE
  8
0
 10
12.703491
 20
93.860054
 11
12.703491
 21
95.960052
  0
LINE
  8
0
 10
-14.096508
 20
81.360054
 11
-14.096508
 21
83.860054
  0
LINE
  8
0
 10
-20.096508
 20
87.360054
 11
-18.796509
 21
87.360054
  0
LINE
  8
0
 10
3.903492
 20
93.860054
 11
3.903492
 21
96.360054
  0
LINE
  8
0
 10
-2.096508
 20
93.860054
 11
-2.096508
 21
96.360054
  0
LINE
  8
0
 10
1.403492
 20
93.860062
 11
2.254290
 21
94.710854
  0
LINE
  8
0
 10
-18.447308
 20
83.009254
 11
-17.596508
 21
83.860054
  0
LINE
  8
0
 10
-0.447306
 20
94.710861
 11
0.403491
 21
93.860062
  0
LINE
  8
0
 10
-16.596508
 20
83.860054
 11
-15.745711
 21
83.009254
  0
LINE
  8
0
 10
12.703491
 20
94.110054
 11
3.903492
 21
94.110054
  0
LINE
  8
0
 10
12.703491
 20
83.610054
 11
-14.096508
 21
83.610054
  0
LINE
  8
0
 10
-2.096508
 20
94.110054
 11
-18.996508
 21
94.110054
  0
LINE
  8
0
 10
-14.096508
 20
82.860054
 11
12.703491
 21
82.860054
  0
LINE
  8
0
 10
-19.596508
 20
94.860054
 11
-2.096508
 21
94.860054
  0
LINE
  8
0
 10
3.903492
 20
94.860054
 11
12.703491
 21
94.860054
  0
LINE
  8
0
 62
     4
 10
-4.296508
 20
93.560051
 11
-4.296508
 21
93.860054
  0
LINE
  8
0
 62
     4
 10
-4.396508
 20
93.560051
 11
-4.396508
 21
93.860054
  0
LINE
  8
0
 62
     4
 10
1.003492
 20
86.360054
 11
1.003492
 21
84.160057
  0
LINE
  8
0
 62
     4
 10
0.003492
 20
86.360054
 11
0.003492
 21
85.960052
  0
LINE
  8
0
 62
     4
 10
0.803492
 20
91.360054
 11
0.803492
 21
86.360054
  0
LINE
  8
0
 62
     4
 10
2.003492
 20
91.360054
 11
2.003492
 21
86.360054
  0
LINE
  8
0
 62
     4
 10
-0.496508
 20
92.560051
 11
-0.496508
 21
85.160057
  0
LINE
  8
0
 62
     4
 10
-4.796508
 20
93.560051
 11
0.503492
 21
93.560051
  0
LINE
  8
0
 62
     4
 10
-4.796508
 20
84.160057
 11
0.503492
 21
84.160057
  0
LINE
  8
0
 62
     4
 10
-4.796508
 20
93.560051
 11
-4.796508
 21
84.160057
  0
LINE
  8
0
 62
     4
 10
-3.096508
 20
91.950058
 11
-3.596508
 21
91.950058
  0
LINE
  8
0
 62
     4
 10
-3.096508
 20
90.850052
 11
-3.596508
 21
90.850052
  0
LINE
  8
0
 62
     4
 10
-0.996508
 20
92.350052
 11
-0.996508
 21
90.450058
  0
LINE
  8
0
 62
     4
 10
-3.096508
 20
92.276054
 11
-3.096508
 21
90.526054
  0
LINE
  8
0
 62
     4
 10
-3.596508
 20
91.950058
 11
-3.596508
 21
90.850052
  0
LINE
  8
0
 62
     4
 10
0.503492
 20
87.610054
 11
-0.496508
 21
87.610054
  0
LINE
  8
0
 62
     4
 10
0.503492
 20
90.110054
 11
-0.496508
 21
90.110054
  0
LINE
  8
0
 62
     4
 10
0.503492
 20
93.560051
 11
0.503492
 21
92.560051
  0
LINE
  8
0
 62
     4
 10
-0.496508
 20
92.560051
 11
0.503492
 21
92.560051
  0
LINE
  8
0
 62
     4
 10
0.503492
 20
84.160057
 11
0.503492
 21
85.160057
  0
LINE
  8
0
 62
     4
 10
-0.496508
 20
85.160057
 11
0.503492
 21
85.160057
  0
LINE
  8
0
 62
     4
 10
-0.996508
 20
90.450050
 11
-2.884507
 21
90.326057
  0
LINE
  8
0
 62
     4
 10
-2.884508
 20
92.476051
 11
-0.996507
 21
92.350052
  0
LINE
  8
0
 62
     4
 10
-0.996508
 20
89.810051
 11
-0.996508
 21
87.910057
  0
LINE
  8
0
 62
     4
 10
-2.884508
 20
89.936058
 11
-0.996508
 21
89.810059
  0
LINE
  8
0
 62
     4
 10
-3.096508
 20
89.736053
 11
-3.096508
 21
87.986053
  0
LINE
  8
0
 62
     4
 10
-3.096508
 20
89.410057
 11
-3.596508
 21
89.410057
  0
LINE
  8
0
 62
     4
 10
-3.596508
 20
89.410057
 11
-3.596508
 21
88.310051
  0
LINE
  8
0
 62
     4
 10
-3.096508
 20
88.310051
 11
-3.596508
 21
88.310051
  0
LINE
  8
0
 62
     4
 10
-0.996508
 20
87.910057
 11
-2.884507
 21
87.786057
  0
LINE
  8
0
 62
     4
 10
-1.596508
 20
89.260056
 11
-2.396507
 21
89.260056
  0
LINE
  8
0
 62
     4
 10
-1.596508
 20
88.460052
 11
-1.596508
 21
89.260056
  0
LINE
  8
0
 62
     4
 10
-1.596508
 20
88.460052
 11
-2.396507
 21
88.460052
  0
LINE
  8
0
 62
     4
 10
-2.396507
 20
88.460052
 11
-2.396507
 21
89.260056
  0
LINE
  8
0
 62
     4
 10
-0.996508
 20
87.270058
 11
-0.996508
 21
85.370056
  0
LINE
  8
0
 62
     4
 10
-2.884508
 20
87.396057
 11
-0.996509
 21
87.270058
  0
LINE
  8
0
 62
     4
 10
-3.096508
 20
87.196053
 11
-3.096508
 21
85.446053
  0
LINE
  8
0
 62
     4
 10
-3.096508
 20
86.870056
 11
-3.596508
 21
86.870056
  0
LINE
  8
0
 62
     4
 10
-3.596508
 20
86.870056
 11
-3.596508
 21
85.770058
  0
LINE
  8
0
 62
     4
 10
-3.096508
 20
85.770058
 11
-3.596508
 21
85.770058
  0
LINE
  8
0
 62
     4
 10
-0.996509
 20
85.370056
 11
-2.884508
 21
85.246056
  0
LINE
  8
0
 62
     4
 10
2.003492
 20
91.360054
 11
-0.496508
 21
91.360054
  0
LINE
  8
0
 62
     4
 10
2.003492
 20
86.360054
 11
-0.496508
 21
86.360054
  0
LINE
  8
0
 62
     4
 10
0.503492
 20
91.760056
 11
0.503492
 21
85.960052
  0
LINE
  8
0
 62
     4
 10
0.003492
 20
85.960052
 11
1.003492
 21
85.960052
  0
LINE
  8
0
 62
     4
 10
0.003492
 20
91.760056
 11
1.003492
 21
91.760056
  0
LINE
  8
0
 62
     4
 10
0.003492
 20
91.760056
 11
0.003492
 21
91.360054
  0
LINE
  8
0
 62
     4
 10
1.003492
 20
93.560051
 11
1.003492
 21
91.360054
  0
LINE
  8
0
 62
     4
 10
13.203491
 20
84.160057
 11
13.203491
 21
93.560051
  0
LINE
  8
0
 62
     4
 10
-4.296508
 20
83.860054
 11
-4.296508
 21
84.160057
  0
LINE
  8
0
 62
     1
 10
8.203491
 20
87.360054
 11
13.203491
 21
87.360054
  0
LINE
  8
0
 62
     1
 10
8.203491
 20
90.360054
 11
8.203491
 21
87.360054
  0
LINE
  8
0
 62
     1
 10
8.203491
 20
90.360054
 11
13.203491
 21
90.360054
  0
LINE
  8
0
 62
     4
 10
-6.496508
 20
86.060051
 11
-7.996508
 21
86.060051
  0
LINE
  8
0
 62
     4
 10
-6.496508
 20
84.560051
 11
-7.996508
 21
84.560051
  0
LINE
  8
0
 62
     4
 10
-6.496508
 20
86.060051
 11
-6.496508
 21
84.560051
  0
LINE
  8
0
 62
     4
 10
-7.996508
 20
86.060051
 11
-7.996508
 21
84.560051
  0
LINE
  8
0
 62
     4
 10
-12.837322
 20
91.254425
 11
-12.396505
 21
91.510056
  0
LINE
  8
0
 62
     4
 10
-12.396511
 20
86.210052
 11
-12.837328
 21
86.465683
  0
LINE
  8
0
 62
     4
 10
-11.587326
 20
90.004425
 11
-11.146509
 21
90.260056
  0
LINE
  8
0
 62
     4
 10
-12.396509
 20
91.510056
 11
-11.146507
 21
90.260056
  0
LINE
  8
0
 62
     4
 10
-11.587321
 20
90.004425
 11
-12.837323
 21
91.254425
  0
LINE
  8
0
 62
     4
 10
-11.587327
 20
87.715683
 11
-11.146509
 21
87.460052
  0
LINE
  8
0
 62
     4
 10
-5.705690
 20
83.860054
 11
-5.705690
 21
93.860054
  0
LINE
  8
0
 62
     4
 10
-11.587321
 20
87.715683
 11
-12.837323
 21
86.465675
  0
LINE
  8
0
 62
     4
 10
-12.837326
 20
83.860054
 11
-12.837326
 21
86.465683
  0
LINE
  8
0
 62
     4
 10
-12.837326
 20
91.254425
 11
-12.837326
 21
93.860054
  0
LINE
  8
0
 62
     4
 10
-11.587325
 20
90.004425
 11
-11.587325
 21
87.715683
  0
LINE
  8
0
 62
     4
 10
-12.396508
 20
83.860054
 11
-12.396508
 21
86.210052
  0
LINE
  8
0
 62
     4
 10
-12.396506
 20
86.210052
 11
-11.146504
 21
87.460052
  0
LINE
  8
0
 62
     4
 10
-11.146508
 20
90.260056
 11
-11.146508
 21
87.460052
  0
LINE
  8
0
 62
     4
 10
-12.396508
 20
91.510056
 11
-12.396508
 21
93.860054
  0
LINE
  8
0
 62
     4
 10
-4.894587
 20
93.860054
 11
-4.894587
 21
83.860054
  0
LINE
  8
0
 62
     4
 10
-4.396508
 20
83.860054
 11
-4.396508
 21
84.160057
  0
LINE
  8
0
 62
     4
 10
-8.696508
 20
85.360054
 11
-8.696508
 21
83.860054
  0
LINE
  8
0
 62
     4
 10
-11.896508
 20
83.860054
 11
-11.896508
 21
85.360054
  0
LINE
  8
0
 62
     4
 10
-11.896508
 20
92.360054
 11
-11.896508
 21
93.860054
  0
LINE
  8
0
 62
     4
 10
-8.696508
 20
93.860054
 11
-8.696508
 21
92.360054
  0
LINE
  8
0
 62
     4
 10
12.903492
 20
93.860054
 11
-18.796509
 21
93.860054
  0
LINE
  8
0
  6
CENTER
 62
     2
 10
-8.546508
 20
86.360054
 11
-8.546508
 21
91.360054
  0
LINE
  8
0
 62
     4
 10
12.903492
 20
83.860054
 11
-18.796509
 21
83.860054
  0
LINE
  8
0
 62
     4
 10
-8.846508
 20
87.034538
 11
-8.846508
 21
90.685570
  0
LINE
  8
0
 62
     4
 10
-8.246508
 20
88.860054
 11
-8.246508
 21
90.685570
  0
LINE
  8
0
 62
     4
 10
-8.246508
 20
87.034538
 11
-8.246508
 21
88.860054
  0
LINE
  8
0
 62
     4
 10
-11.003612
 20
93.067162
 11
-9.589399
 21
91.652946
  0
LINE
  8
0
 62
     4
 10
-9.589400
 20
93.067162
 11
-11.003615
 21
91.652946
  0
LINE
  8
0
 62
     4
 10
-9.589400
 20
84.652946
 11
-11.003613
 21
86.067154
  0
LINE
  8
0
 62
     4
 10
-11.003613
 20
84.652946
 11
-9.589400
 21
86.067162
  0
LINE
  8
0
 62
     4
 10
-18.796509
 20
83.860054
 11
-18.796509
 21
93.860054
  0
LINE
  8
0
 10
-20.096508
 20
95.856728
 11
-20.096508
 21
81.856728
  0
LINE
  8
0
  6
CENTER
 62
     2
 10
-22.686626
 20
94.360054
 11
-17.222588
 21
94.360054
  0
LINE
  8
0
  6
CENTER
 62
     2
 10
-22.686626
 20
83.360054
 11
-17.222588
 21
83.360054
  0
LINE
  8
0
 10
114.403488
 20
-33.542530
 11
114.403488
 21
-43.959583
  0
LINE
  8
0
 10
99.403488
 20
-15.555076
 11
99.403488
 21
-43.959583
  0
LINE
  8
0
 10
103.908485
 20
-14.424583
 11
103.608490
 21
-14.424583
  0
LINE
  8
0
 10
103.628487
 20
-14.254583
 11
103.938492
 21
-14.254583
  0
LINE
  8
0
 10
103.628487
 20
-13.654583
 11
103.938492
 21
-13.654583
  0
LINE
  8
0
 10
114.628487
 20
-32.254585
 11
114.938492
 21
-32.254585
  0
LINE
  8
0
 10
114.908485
 20
-32.424583
 11
114.608490
 21
-32.424583
  0
LINE
  8
0
 10
114.628487
 20
-31.654583
 11
114.938492
 21
-31.654583
  0
LINE
  8
0
 10
110.838486
 20
-33.524586
 11
113.968491
 21
-30.394583
  0
LINE
  8
0
 10
111.448486
 20
-31.004580
 11
113.358490
 21
-32.914577
  0
LINE
  8
0
 10
100.448486
 20
-13.004581
 11
102.358490
 21
-14.914580
  0
LINE
  8
0
 10
99.838486
 20
-15.524583
 11
102.968491
 21
-12.394581
  0
LINE
  8
0
 62
     4
 10
104.943893
 20
0.940416
 11
108.863083
 21
0.940416
  0
LINE
  8
0
 62
     4
 10
104.943893
 20
1.740417
 11
108.863083
 21
1.740417
  0
LINE
  8
0
  6
CENTER
 62
     2
 10
103.903488
 20
-24.759583
 11
103.903488
 21
-31.159584
  0
LINE
  8
0
  6
CENTER
 62
     2
 10
100.703491
 20
-27.959583
 11
107.103485
 21
-27.959583
  0
LINE
  8
0
  6
CENTER
 62
     2
 10
109.903488
 20
-14.759583
 11
109.903488
 21
-21.159584
  0
LINE
  8
0
  6
CENTER
 62
     2
 10
106.703491
 20
-17.959583
 11
113.103485
 21
-17.959583
  0
LINE
  8
0
  6
CENTER
 62
     2
 10
109.903488
 20
1.340417
 11
103.903488
 21
1.340417
  0
LINE
  8
0
 62
     4
 10
104.763489
 20
55.470417
 11
103.963486
 21
55.470417
  0
LINE
  8
0
 62
     4
 10
105.078491
 20
50.470417
 11
103.648491
 21
50.470417
  0
LINE
  8
0
 62
     4
 10
103.963486
 20
50.470417
 11
103.963486
 21
55.470417
  0
LINE
  8
0
 62
     4
 10
104.763489
 20
50.470417
 11
104.763489
 21
55.470417
  0
LINE
  8
0
 62
     4
 10
103.648491
 20
47.646416
 11
103.648491
 21
50.470417
  0
LINE
  8
0
 62
     4
 10
105.078491
 20
47.265083
 11
105.078491
 21
50.470417
  0
LINE
  8
0
 62
     4
 10
110.158485
 20
45.900417
 11
110.158485
 21
50.470417
  0
LINE
  8
0
 62
     4
 10
108.728485
 20
46.280418
 11
108.728485
 21
50.470417
  0
LINE
  8
0
 62
     4
 10
109.043488
 20
50.470417
 11
109.043488
 21
55.470417
  0
LINE
  8
0
 62
     4
 10
109.843491
 20
50.470417
 11
109.843491
 21
55.470417
  0
LINE
  8
0
 62
     4
 10
108.728485
 20
50.470417
 11
110.158485
 21
50.470417
  0
LINE
  8
0
 62
     4
 10
109.043488
 20
55.470417
 11
109.843491
 21
55.470417
  0
LINE
  8
0
 62
     4
 10
108.728485
 20
40.040417
 11
108.728485
 21
45.040417
  0
LINE
  8
0
 62
     4
 10
110.158485
 20
40.040417
 11
110.158485
 21
44.670418
  0
LINE
  8
0
 62
     1
 10
112.483490
 20
45.290413
 11
101.385170
 21
48.249958
  0
LINE
  8
0
 62
     1
 10
112.483490
 20
44.050419
 11
101.385185
 21
47.009968
  0
LINE
  8
0
 62
     4
 10
103.648491
 20
40.040417
 11
103.648491
 21
46.406418
  0
LINE
  8
0
 62
     4
 10
105.078491
 20
40.040417
 11
105.078491
 21
46.025082
  0
LINE
  8
0
 62
     4
 10
111.003487
 20
35.040417
 11
111.003487
 21
34.940418
  0
LINE
  8
0
 62
     4
 10
102.803490
 20
35.040417
 11
102.803490
 21
34.940418
  0
LINE
  8
0
 62
     4
 10
109.403488
 20
35.040417
 11
111.603485
 21
35.040417
  0
LINE
  8
0
 62
     4
 10
102.203491
 20
35.040417
 11
104.403488
 21
35.040417
  0
LINE
  8
0
 10
99.403488
 20
-36.959583
 11
114.403488
 21
-36.959583
  0
LINE
  8
0
 62
     4
 10
109.403488
 20
34.940418
 11
111.903488
 21
34.940418
  0
LINE
  8
0
 62
     4
 10
109.403488
 20
31.406441
 11
104.403488
 21
31.406441
  0
LINE
  8
0
 62
     4
 10
111.603485
 20
35.040417
 11
111.603485
 21
40.040417
  0
LINE
  8
0
 62
     4
 10
109.403488
 20
30.540417
 11
109.403488
 21
39.040417
  0
LINE
  8
0
 62
     4
 10
110.503487
 20
35.040417
 11
110.503487
 21
40.040417
  0
LINE
  8
0
 62
     4
 10
103.303490
 20
35.040417
 11
103.303490
 21
40.040417
  0
LINE
  8
0
 62
     4
 10
109.403488
 20
38.040417
 11
104.403488
 21
38.040417
  0
LINE
  8
0
 62
     4
 10
109.403488
 20
38.329090
 11
104.403488
 21
38.329090
  0
LINE
  8
0
 62
     4
 10
104.403488
 20
30.540417
 11
104.403488
 21
39.040417
  0
LINE
  8
0
 62
     4
 10
102.203491
 20
35.040417
 11
102.203491
 21
40.040417
  0
LINE
  8
0
 62
     4
 10
104.403488
 20
39.040417
 11
109.403488
 21
39.040417
  0
LINE
  8
0
 62
     4
 10
102.203491
 20
40.040417
 11
111.603485
 21
40.040417
  0
LINE
  8
0
 62
     4
 10
104.403488
 20
30.540417
 11
109.403488
 21
30.540417
  0
LINE
  8
0
 62
     1
 10
108.403488
 20
26.440418
 11
108.403488
 21
29.440418
  0
LINE
  8
0
 62
     1
 10
105.403488
 20
26.440418
 11
105.403488
 21
29.440418
  0
LINE
  8
0
 62
     1
 10
108.403488
 20
26.440418
 11
105.403488
 21
26.440418
  0
LINE
  8
0
 62
     4
 10
109.803490
 20
29.440418
 11
109.803490
 21
34.940418
  0
LINE
  8
0
 62
     4
 10
104.003487
 20
29.440418
 11
104.003487
 21
34.940418
  0
LINE
  8
0
 62
     4
 10
101.903488
 20
34.940418
 11
104.403488
 21
34.940418
  0
LINE
  8
0
 62
     4
 10
101.903488
 20
9.840416
 11
101.903488
 21
34.940418
  0
LINE
  8
0
 62
     4
 10
111.903488
 20
9.840416
 11
111.903488
 21
34.940418
  0
LINE
  8
0
 62
     4
 10
111.903488
 20
11.040417
 11
101.903488
 21
11.040417
  0
LINE
  8
0
 62
     4
 10
111.603485
 20
29.440418
 11
102.203491
 21
29.440418
  0
LINE
  8
0
 62
     4
 10
101.903488
 20
10.740417
 11
111.903488
 21
10.740417
  0
LINE
  8
0
 10
101.353485
 20
10.340416
 11
100.853485
 21
10.340416
  0
LINE
  8
0
 10
110.125732
 20
1.090414
 11
108.797829
 21
-1.209587
  0
LINE
  8
0
 10
105.066887
 20
-1.309583
 11
103.681244
 21
1.090417
  0
LINE
  8
0
 10
108.364815
 20
-1.459583
 11
105.326691
 21
-1.459583
  0
LINE
  8
0
 10
101.653488
 20
9.840416
 11
101.653488
 21
10.040417
  0
LINE
  8
0
 10
112.153488
 20
9.840416
 11
112.153488
 21
10.040417
  0
LINE
  8
0
 10
112.903488
 20
10.340416
 11
112.453491
 21
10.340416
  0
LINE
  8
0
 10
114.403488
 20
8.840415
 11
112.903481
 21
10.340417
  0
LINE
  8
0
 10
100.903488
 20
10.340411
 11
99.403488
 21
8.840415
  0
LINE
  8
0
 10
99.403488
 20
8.840416
 11
99.403488
 21
-12.354092
  0
LINE
  8
0
 10
114.403488
 20
8.840416
 11
114.403488
 21
-30.366636
  0
LINE
  8
0
 10
103.248230
 20
1.340417
 11
99.403488
 21
1.340417
  0
LINE
  8
0
 10
110.558746
 20
1.340417
 11
114.403488
 21
1.340417
  0
LINE
  8
0
 10
99.403488
 20
-8.959583
 11
114.403488
 21
-8.959583
  0
LINE
  8
0
 10
101.653488
 20
9.840416
 11
112.153488
 21
9.840416
  0
LINE
  8
0
  6
CENTER
 62
     2
 10
106.903488
 20
57.815975
 11
106.903488
 21
-47.204113
  0
LINE
  8
0
 10
99.603485
 20
-39.459583
 11
105.103485
 21
-39.459583
  0
LINE
  8
0
 10
105.203491
 20
-40.629585
 11
105.203491
 21
-39.459583
  0
LINE
  8
0
 10
99.603485
 20
-40.629585
 11
99.603485
 21
-39.459583
  0
LINE
  8
0
 10
105.603485
 20
-39.959583
 11
105.603485
 21
-43.959583
  0
LINE
  8
0
 10
99.903488
 20
-44.459583
 11
113.903488
 21
-44.459583
  0
LINE
  8
0
  6
CENTER
 62
     2
 10
-125.955460
 20
-29.759583
 11
-125.955460
 21
-36.159584
  0
LINE
  8
0
  6
CENTER
 62
     2
 10
-129.155457
 20
-32.959583
 11
-122.755463
 21
-32.959583
  0
LINE
  8
0
  6
CENTER
 62
     2
 10
-132.923599
 20
-22.959583
 11
-124.693947
 21
-22.959583
  0
LINE
  8
0
  6
CENTER
 62
     2
 10
-131.955460
 20
-9.759583
 11
-131.955460
 21
-16.159584
  0
LINE
  8
0
  6
CENTER
 62
     2
 10
-135.155457
 20
-12.959583
 11
-128.755463
 21
-12.959583
  0
LINE
  8
0
 62
     4
 10
-125.700462
 20
45.900417
 11
-125.700462
 21
50.470417
  0
LINE
  8
0
 62
     4
 10
-127.130463
 20
46.280418
 11
-127.130463
 21
50.470417
  0
LINE
  8
0
 62
     4
 10
-126.815460
 20
50.470417
 11
-126.815460
 21
55.470417
  0
LINE
  8
0
 62
     4
 10
-126.015457
 20
50.470417
 11
-126.015457
 21
55.470417
  0
LINE
  8
0
 62
     4
 10
-127.130463
 20
50.470417
 11
-125.700462
 21
50.470417
  0
LINE
  8
0
 62
     4
 10
-126.815460
 20
55.470417
 11
-126.015457
 21
55.470417
  0
LINE
  8
0
 62
     4
 10
-127.130463
 20
40.040417
 11
-127.130463
 21
45.040417
  0
LINE
  8
0
 62
     4
 10
-125.700462
 20
40.040417
 11
-125.700462
 21
44.670418
  0
LINE
  8
0
 62
     4
 10
-131.095459
 20
55.470417
 11
-131.895462
 21
55.470417
  0
LINE
  8
0
 62
     4
 10
-130.780457
 20
50.470417
 11
-132.210464
 21
50.470417
  0
LINE
  8
0
 62
     4
 10
-131.895462
 20
50.470417
 11
-131.895462
 21
55.470417
  0
LINE
  8
0
 62
     4
 10
-131.095459
 20
50.470417
 11
-131.095459
 21
55.470417
  0
LINE
  8
0
 62
     4
 10
-132.210464
 20
47.646416
 11
-132.210464
 21
50.470417
  0
LINE
  8
0
 62
     4
 10
-130.780457
 20
47.265083
 11
-130.780457
 21
50.470417
  0
LINE
  8
0
 62
     1
 10
-123.375458
 20
45.290421
 11
-134.473770
 21
48.249973
  0
LINE
  8
0
 62
     1
 10
-123.375465
 20
44.050419
 11
-134.473785
 21
47.009968
  0
LINE
  8
0
 62
     4
 10
-132.210464
 20
40.040417
 11
-132.210464
 21
46.406418
  0
LINE
  8
0
 62
     4
 10
-130.780457
 20
40.040417
 11
-130.780457
 21
46.025082
  0
LINE
  8
0
  6
CENTER
 62
     2
 10
-128.955460
 20
57.815975
 11
-128.955460
 21
-46.891712
  0
LINE
  8
0
 10
-127.255463
 20
6.340416
 11
-127.255463
 21
7.882879
  0
LINE
  8
0
 10
-121.655457
 20
6.340416
 11
-121.655457
 21
7.882879
  0
LINE
  8
0
 10
-123.455460
 20
10.340416
 11
-122.955460
 21
10.340416
  0
LINE
  8
0
 10
-123.755463
 20
9.840416
 11
-123.755463
 21
10.040417
  0
LINE
  8
0
 10
-127.455460
 20
9.840416
 11
-123.755463
 21
9.840416
  0
LINE
  8
0
 10
-121.455460
 20
6.340416
 11
-127.455460
 21
6.340416
  0
LINE
  8
0
 10
-127.455460
 20
10.340416
 11
-127.455460
 21
6.340416
  0
LINE
  8
0
  6
CENTER
 62
     2
 10
-130.955460
 20
-0.259583
 11
-126.955460
 21
-0.259583
  0
LINE
  8
0
 10
-134.955460
 20
10.340416
 11
-127.455460
 21
10.340416
  0
LINE
  8
0
 10
-136.455460
 20
8.840415
 11
-134.955460
 21
10.340417
  0
LINE
  8
0
 10
-122.955460
 20
10.340417
 11
-121.455452
 21
8.840415
  0
LINE
  8
0
 10
-136.455460
 20
8.840416
 11
-136.455460
 21
-43.959583
  0
LINE
  8
0
 10
-121.455460
 20
8.840416
 11
-121.455460
 21
-43.959583
  0
LINE
  8
0
 10
-136.455460
 20
-8.959583
 11
-121.455460
 21
-8.959583
  0
LINE
  8
0
 62
     4
 10
-133.255463
 20
10.840416
 11
-133.255463
 21
12.340416
  0
LINE
  8
0
 62
     4
 10
-128.682129
 20
11.540417
 11
-128.682129
 21
10.540417
  0
LINE
  8
0
 62
     4
 10
-129.228790
 20
11.540417
 11
-129.228790
 21
10.540417
  0
LINE
  8
0
 62
     4
 10
-129.228790
 20
11.540417
 11
-131.655457
 21
11.540417
  0
LINE
  8
0
 62
     4
 10
-126.055458
 20
11.340416
 11
-126.055458
 21
10.540417
  0
LINE
  8
0
 62
     4
 10
-131.855453
 20
11.340416
 11
-131.855453
 21
10.540417
  0
LINE
  8
0
 62
     4
 10
-126.255463
 20
11.540417
 11
-128.682129
 21
11.540417
  0
LINE
  8
0
 62
     4
 10
-126.655457
 20
12.640417
 11
-126.655457
 21
11.540417
  0
LINE
  8
0
 62
     4
 10
-131.255463
 20
12.640417
 11
-131.255463
 21
11.540417
  0
LINE
  8
0
 62
     4
 10
-129.302124
 20
12.640417
 11
-129.302124
 21
11.540417
  0
LINE
  8
0
 62
     4
 10
-129.155457
 20
12.640417
 11
-129.155457
 21
10.540417
  0
LINE
  8
0
 62
     4
 10
-128.755463
 20
12.640417
 11
-128.755463
 21
10.540417
  0
LINE
  8
0
 62
     4
 10
-128.608795
 20
12.640417
 11
-128.608795
 21
11.540417
  0
LINE
  8
0
 62
     4
 10
-124.655457
 20
10.840416
 11
-124.655457
 21
12.340416
  0
LINE
  8
0
 62
     4
 10
-124.955460
 20
12.640417
 11
-132.955460
 21
12.640417
  0
LINE
  8
0
 62
     4
 10
-124.955460
 20
10.540417
 11
-132.955460
 21
10.540417
  0
LINE
  8
0
 62
     4
 10
-123.955460
 20
21.340416
 11
-133.955460
 21
21.340416
  0
LINE
  8
0
 62
     4
 10
-123.955460
 20
24.840416
 11
-133.955460
 21
24.840416
  0
LINE
  8
0
 62
     4
 10
-123.955460
 20
29.440418
 11
-133.955460
 21
29.440418
  0
LINE
  8
0
 62
     4
 10
-123.955460
 20
35.440418
 11
-133.955460
 21
35.440418
  0
LINE
  8
0
 62
     4
 10
-124.255463
 20
35.540417
 11
-133.655457
 21
35.540417
  0
LINE
  8
0
 62
     4
 10
-124.255463
 20
40.040417
 11
-133.655457
 21
40.040417
  0
LINE
  8
0
 62
     4
 10
-133.655457
 20
40.040417
 11
-133.655457
 21
35.540417
  0
LINE
  8
0
 62
     4
 10
-124.255463
 20
40.040417
 11
-124.255463
 21
35.540417
  0
LINE
  8
0
 62
     4
 10
-133.055466
 20
35.540417
 11
-133.055466
 21
35.440418
  0
LINE
  8
0
 62
     4
 10
-124.855461
 20
35.540417
 11
-124.855461
 21
35.440418
  0
LINE
  8
0
 62
     4
 10
-124.255463
 20
39.040417
 11
-133.655457
 21
39.040417
  0
LINE
  8
0
 62
     4
 10
-124.255463
 20
39.329090
 11
-133.655457
 21
39.329090
  0
LINE
  8
0
 62
     4
 10
-123.955460
 20
9.840416
 11
-123.955460
 21
35.440418
  0
LINE
  8
0
 62
     4
 10
-133.955460
 20
10.340416
 11
-133.955460
 21
35.440418
  0
LINE
  8
0
 10
-121.455460
 20
-36.959583
 11
-136.455460
 21
-36.959583
  0
LINE
  8
0
  6
CENTER
 62
     2
 10
-126.115463
 20
-13.959583
 11
-121.455460
 21
-13.959583
  0
LINE
  8
0
  6
CENTER
 62
     2
 10
-136.455460
 20
-31.959583
 11
-132.055466
 21
-31.959583
  0
LINE
  8
0
  6
CENTER
 62
     2
 10
-123.455460
 20
-11.619583
 11
-123.455460
 21
-16.389584
  0
LINE
  8
0
  6
CENTER
 62
     2
 10
-134.455460
 20
-29.559584
 11
-134.455460
 21
-34.449585
  0
LINE
  8
0
 10
-136.255463
 20
-40.629585
 11
-136.255463
 21
-39.459583
  0
LINE
  8
0
 10
-130.255463
 20
-39.959583
 11
-130.255463
 21
-43.959583
  0
LINE
  8
0
 10
-130.655457
 20
-40.629585
 11
-130.655457
 21
-39.459583
  0
LINE
  8
0
 10
-136.255463
 20
-39.459583
 11
-130.755463
 21
-39.459583
  0
LINE
  8
0
 10
-135.955460
 20
-44.459583
 11
-121.955460
 21
-44.459583
  0
LINE
  8
0
  6
CENTER
 10
-20.096508
 20
-11.459583
 11
-20.096508
 21
-16.459583
  0
LINE
  8
0
  6
CENTER
 62
     2
 10
-17.596508
 20
-13.959583
 11
-22.596508
 21
-13.959583
  0
LINE
  8
0
 10
1.503492
 20
-12.149584
 11
1.503492
 21
-15.779583
  0
LINE
  8
0
 10
-19.596508
 20
-44.459583
 11
3.403492
 21
-44.459583
  0
LINE
  8
0
 10
3.703491
 20
-40.629585
 11
3.703491
 21
-39.459583
  0
LINE
  8
0
 10
-1.896507
 20
-40.629585
 11
-1.896507
 21
-39.459583
  0
LINE
  8
0
 10
-2.296509
 20
-39.959583
 11
-2.296509
 21
-43.959583
  0
LINE
  8
0
 10
-1.796509
 20
-39.459583
 11
3.703491
 21
-39.459583
  0
LINE
  8
0
 10
0.903492
 20
-12.149584
 11
0.903492
 21
-15.779583
  0
LINE
  8
0
 10
0.903492
 20
-15.779583
 11
3.903492
 21
-15.779583
  0
LINE
  8
0
 10
0.903492
 20
-12.149584
 11
3.903492
 21
-12.149584
  0
LINE
  8
0
  6
CENTER
 62
     2
 10
-0.146507
 20
-13.959583
 11
4.893492
 21
-13.959583
  0
LINE
  8
0
  6
CENTER
 62
     2
 10
-18.596508
 20
-17.959583
 11
-11.936508
 21
-17.959583
  0
LINE
  8
0
  6
CENTER
 62
     2
 10
-18.266508
 20
-27.959583
 11
-11.596508
 21
-27.959583
  0
LINE
  8
0
  6
CENTER
 62
     2
 10
-15.096508
 20
-13.959583
 11
-15.096508
 21
-31.299583
  0
LINE
  8
0
 10
-20.096508
 20
-36.959583
 11
3.903492
 21
-36.959583
  0
LINE
  8
0
 62
     4
 10
13.203491
 20
9.840416
 11
12.703491
 21
9.840416
  0
LINE
  8
0
 10
3.903492
 20
-8.959583
 11
-20.096508
 21
-8.959583
  0
LINE
  8
0
 10
12.703491
 20
-1.059584
 11
12.703491
 21
10.340416
  0
LINE
  8
0
 10
12.303493
 20
-1.459583
 11
4.403492
 21
-1.459583
  0
LINE
  8
0
 62
     4
 10
-5.705690
 20
24.840416
 11
-4.894586
 21
29.440420
  0
LINE
  8
0
 62
     4
 10
-4.396508
 20
23.540417
 11
-4.396508
 21
29.440418
  0
LINE
  8
0
 62
     4
 10
-4.894587
 20
29.440418
 11
-4.396508
 21
29.440418
  0
LINE
  8
0
 62
     4
 10
-4.296508
 20
28.840416
 11
-4.396508
 21
28.840416
  0
LINE
  8
0
 62
     4
 10
11.703491
 20
23.540417
 11
11.703491
 21
11.040417
  0
LINE
  8
0
 62
     4
 10
-12.396508
 20
24.840416
 11
-5.705690
 21
24.840416
  0
LINE
  8
0
 62
     4
 10
11.703491
 20
23.540417
 11
-4.396508
 21
23.540417
  0
LINE
  8
0
 62
     4
 10
13.203491
 20
9.840416
 11
13.203491
 21
10.740417
  0
LINE
  8
0
 62
     4
 10
13.203491
 20
11.040417
 11
11.703491
 21
11.040417
  0
LINE
  8
0
 62
     4
 10
13.203491
 20
10.740416
 11
12.903491
 21
11.040416
  0
LINE
  8
0
 62
     4
 10
-18.796509
 20
21.340416
 11
-13.013653
 21
21.340416
  0
LINE
  8
0
 62
     4
 10
-11.896508
 20
23.840416
 11
-8.696508
 21
23.840416
  0
LINE
  8
0
 62
     4
 10
-11.796508
 20
23.940418
 11
-11.796508
 21
23.840416
  0
LINE
  8
0
 62
     4
 10
-11.896508
 20
24.840416
 11
-11.896508
 21
23.840416
  0
LINE
  8
0
 62
     4
 10
-13.013653
 20
21.340416
 11
-12.396508
 21
24.840416
  0
LINE
  8
0
 62
     4
 10
-11.296508
 20
24.440418
 11
-9.296508
 21
24.440418
  0
LINE
  8
0
 62
     4
 10
-8.796508
 20
23.940418
 11
-8.796508
 21
23.840416
  0
LINE
  8
0
 62
     4
 10
-8.696508
 20
24.840416
 11
-8.696508
 21
23.840416
  0
LINE
  8
0
 62
     4
 10
-18.096508
 20
20.640415
 11
-18.096508
 21
13.040417
  0
LINE
  8
0
 62
     4
 10
-17.296509
 20
20.640415
 11
-17.296509
 21
13.040417
  0
LINE
  8
0
 62
     4
 10
-17.296509
 20
20.640415
 11
-18.096508
 21
20.640415
  0
LINE
  8
0
 62
     4
 10
-18.096508
 20
13.040417
 11
-17.296509
 21
13.040417
  0
LINE
  8
0
 62
     4
 10
13.203491
 20
11.040417
 11
13.203491
 21
29.140415
  0
LINE
  8
0
 62
     4
 10
1.003492
 20
29.440418
 11
12.903492
 21
29.440418
  0
LINE
  8
0
 62
     4
 10
-4.296508
 20
34.940418
 11
-4.296508
 21
23.540417
  0
LINE
  8
0
 62
     4
 10
1.003492
 20
34.940418
 11
1.003492
 21
29.440418
  0
LINE
  8
0
 62
     4
 10
0.803247
 20
39.040417
 11
2.003492
 21
39.040417
  0
LINE
  8
0
 62
     4
 10
-4.296508
 20
39.040417
 11
-4.796508
 21
39.329094
  0
LINE
  8
0
 62
     4
 10
-4.796508
 20
39.329090
 11
-4.796508
 21
40.040417
  0
LINE
  8
0
 62
     4
 10
-3.596508
 20
34.940418
 11
-3.596508
 21
35.040417
  0
LINE
  8
0
 62
     4
 10
-4.796508
 20
40.040417
 11
0.503492
 21
40.040417
  0
LINE
  8
0
 62
     4
 10
0.803248
 20
39.040417
 11
0.503492
 21
37.340416
  0
LINE
  8
0
  6
PHANTOM
 62
     4
 10
0.503492
 20
35.840416
 11
0.503492
 21
37.339031
  0
LINE
  8
0
 62
     4
 10
0.503492
 20
34.940418
 11
0.503492
 21
40.040417
  0
LINE
  8
0
 62
     4
 10
0.503492
 20
35.040417
 11
-4.296508
 21
35.040417
  0
LINE
  8
0
 62
     4
 10
-4.296508
 20
35.040417
 11
-4.296508
 21
39.040417
  0
LINE
  8
0
 62
     4
 10
-4.296508
 20
34.940418
 11
1.003492
 21
34.940418
  0
LINE
  8
0
 62
     4
 10
2.003492
 20
38.329090
 11
2.003492
 21
39.040417
  0
LINE
  8
0
 62
     4
 10
1.503493
 20
38.040417
 11
2.003493
 21
38.329094
  0
LINE
  8
0
 62
     4
 10
1.003492
 20
30.640415
 11
1.503492
 21
31.506441
  0
LINE
  8
0
 62
     4
 10
1.503492
 20
31.506443
 11
1.503492
 21
38.040417
  0
LINE
  8
0
 10
12.303493
 20
1.340417
 11
4.303492
 21
1.340417
  0
LINE
  8
0
 10
-20.096508
 20
-43.959583
 11
-20.096508
 21
9.840416
  0
LINE
  8
0
 10
3.903492
 20
-43.959583
 11
3.903492
 21
0.940416
  0
LINE
  8
0
 10
-18.796509
 20
10.340416
 11
-19.596508
 21
10.340416
  0
LINE
  8
0
 10
-18.996508
 20
9.840416
 11
-14.096508
 21
9.840416
  0
LINE
  8
0
 10
-14.296508
 20
6.340416
 11
-14.296508
 21
7.882879
  0
LINE
  8
0
 10
-14.096508
 20
6.340416
 11
-14.096508
 21
10.340416
  0
LINE
  8
0
 10
-14.096508
 20
6.340416
 11
-20.096508
 21
6.340416
  0
LINE
  8
0
 10
-20.096508
 20
9.840418
 11
-19.596508
 21
10.340417
  0
LINE
  8
0
 10
12.703491
 20
10.340416
 11
-14.096508
 21
10.340416
  0
LINE
  8
0
 10
-18.996508
 20
10.340416
 11
-18.996508
 21
9.840416
  0
LINE
  8
0
 10
-19.896507
 20
6.340416
 11
-19.896507
 21
7.882879
  0
LINE
  8
0
 62
     4
 10
-18.796509
 20
9.840416
 11
-18.796509
 21
21.340416
  0
LINE
  8
0
 62
     4
 10
-1.281507
 20
40.040417
 11
-1.281507
 21
44.570415
  0
LINE
  8
0
 62
     4
 10
-2.711508
 20
40.040417
 11
-2.711508
 21
44.951752
  0
LINE
  8
0
 62
     1
 10
1.043491
 20
43.950413
 11
-4.956508
 21
45.550411
  0
LINE
  8
0
 62
     1
 10
1.043492
 20
45.190414
 11
-4.956508
 21
46.790417
  0
LINE
  8
0
 62
     4
 10
-1.281507
 20
45.810417
 11
-1.281507
 21
50.470417
  0
LINE
  8
0
 62
     4
 10
-2.711508
 20
46.191750
 11
-2.711508
 21
50.470417
  0
LINE
  8
0
 62
     4
 10
-2.396507
 20
50.470417
 11
-2.396507
 21
55.470417
  0
LINE
  8
0
 62
     4
 10
-1.596508
 20
50.470417
 11
-1.596508
 21
55.470417
  0
LINE
  8
0
 62
     4
 10
-2.711508
 20
50.470417
 11
-1.281507
 21
50.470417
  0
LINE
  8
0
 62
     4
 10
-2.396507
 20
55.470417
 11
-1.596508
 21
55.470417
  0
LINE
  8
0
  6
CENTER
 62
     2
 10
-22.596508
 20
-31.959583
 11
-17.596508
 21
-31.959583
  0
LINE
  8
0
 10
-194.250000
 20
132.600006
 11
194.800003
 21
132.600006
  0
LINE
  8
0
 10
194.800003
 20
132.600006
 11
194.800003
 21
-133.500000
  0
LINE
  8
0
 10
-194.250000
 20
132.600006
 11
-194.250000
 21
-133.500000
  0
LINE
  8
0
 10
-194.250000
 20
-133.500000
 11
194.800003
 21
-133.500000
  0
LINE
  8
0
 10
109.800003
 20
-118.500000
 11
109.800003
 21
-133.500000
  0
LINE
  8
0
 10
109.800003
 20
-118.500000
 11
194.800003
 21
-118.500000
  0
LINE
  8
0
 10
109.800003
 20
132.600006
 11
109.800003
 21
117.600006
  0
LINE
  8
0
 10
109.800003
 20
117.600006
 11
194.800003
 21
117.600006
  0
LINE
  8
0
 10
-194.250000
 20
117.600006
 11
-109.250000
 21
117.600006
  0
LINE
  8
0
 10
-109.250000
 20
132.600006
 11
-109.250000
 21
117.600006
  0
ARC
  8
0
 10
12.903492
 20
-104.967201
 40
0.300003
 50
270.000000
 51
0.000000
  0
ARC
  8
0
 10
12.903492
 20
-95.567207
 40
0.300000
 50
0.000000
 51
90.000000
  0
ARC
  8
0
 10
12.303493
 20
-107.367203
 40
0.400002
 50
270.000000
 51
0.000000
  0
ARC
  8
0
 10
12.303493
 20
-93.167206
 40
0.400000
 50
0.000000
 51
90.000000
  0
ARC
  8
0
 10
12.303493
 20
-103.233788
 40
0.400002
 50
270.000000
 51
0.000000
  0
ARC
  8
0
 10
12.303493
 20
-101.617203
 40
0.400002
 50
270.000000
 51
0.000000
  0
ARC
  8
0
 10
12.303493
 20
-97.300621
 40
0.400000
 50
0.000000
 51
90.000000
  0
ARC
  8
0
 10
12.303493
 20
-98.917206
 40
0.400000
 50
0.000000
 51
90.000000
  0
ARC
  8
0
 10
4.403492
 20
-96.400620
 40
0.500000
 50
180.000000
 51
270.000000
  0
ARC
  8
0
 10
4.403492
 20
-98.017204
 40
0.500000
 50
180.000000
 51
270.000000
  0
ARC
  8
0
 10
4.403492
 20
-104.133789
 40
0.500000
 50
90.000000
 51
180.000000
  0
ARC
  8
0
 10
4.403492
 20
-102.517204
 40
0.500000
 50
90.000000
 51
180.000000
  0
ARC
  8
0
 10
3.401766
 20
-93.268929
 40
0.501729
 50
0.196903
 51
89.802879
  0
ARC
  8
0
 10
3.405094
 20
-107.268806
 40
0.498400
 50
269.815857
 51
0.184185
  0
ARC
  8
0
 10
-17.098232
 20
-104.768929
 40
3.201725
 50
0.030856
 51
89.969147
  0
ARC
  8
0
 10
0.901770
 20
-95.768929
 40
3.198277
 50
179.969116
 51
270.030884
  0
ARC
  8
0
 10
-13.398231
 20
-107.268929
 40
0.498281
 50
179.801727
 51
270.198059
  0
ARC
  8
0
 10
-2.798233
 20
-93.268929
 40
0.501728
 50
0.196904
 51
89.803040
  0
ARC
  8
0
 10
3.401768
 20
-99.468925
 40
0.501728
 50
0.196904
 51
89.803040
  0
CIRCLE
  8
0
 10
0.903374
 20
-95.770531
 40
2.799999
  0
ARC
  8
0
 10
-19.598230
 20
-101.068924
 40
0.498281
 50
179.801727
 51
270.198059
  0
ARC
  8
0
 10
-19.598228
 20
-107.268929
 40
0.498283
 50
179.801727
 51
270.197815
  0
ARC
  8
0
 10
-19.594900
 20
-93.268814
 40
0.501612
 50
90.183662
 51
179.816116
  0
CIRCLE
  8
0
 10
-17.096626
 20
-104.770531
 40
2.799999
  0
ARC
  8
0
 10
0.903492
 20
93.360054
 40
2.800000
 50
10.286561
 51
169.713440
  0
ARC
  8
0
 10
-17.096508
 20
84.360054
 40
2.800001
 50
127.383163
 51
349.713440
  0
ARC
  8
0
 10
12.303493
 20
95.960052
 40
0.400000
 50
0.000000
 51
90.000000
  0
ARC
  8
0
 10
-19.696508
 20
95.960052
 40
0.400002
 50
90.000000
 51
180.000000
  0
ARC
  8
0
 10
-19.696508
 20
81.760056
 40
0.400000
 50
180.000000
 51
270.000000
  0
ARC
  8
0
 10
12.303493
 20
81.760056
 40
0.400002
 50
270.000000
 51
0.000000
  0
CIRCLE
  8
0
 62
     4
 10
-1.996508
 20
86.320053
 40
0.750000
  0
CIRCLE
  8
0
 62
     4
 10
-1.996508
 20
91.400055
 40
0.750000
  0
ARC
  8
0
 62
     4
 10
-2.895844
 20
92.275711
 40
0.200668
 50
86.761612
 51
179.901978
  0
ARC
  8
0
 62
     4
 10
-2.896843
 20
90.525337
 40
0.199667
 50
179.794205
 51
273.541779
  0
ARC
  8
0
 62
     4
 10
-2.895844
 20
89.735710
 40
0.200668
 50
86.761612
 51
179.901978
  0
ARC
  8
0
 62
     4
 10
-2.896843
 20
87.985336
 40
0.199667
 50
179.794205
 51
273.541779
  0
ARC
  8
0
 62
     4
 10
-2.895844
 20
87.195709
 40
0.200668
 50
86.761612
 51
179.901978
  0
ARC
  8
0
 62
     4
 10
-2.896843
 20
85.445343
 40
0.199667
 50
179.794205
 51
273.541779
  0
ARC
  8
0
 62
     4
 10
0.703491
 20
84.160057
 40
0.300003
 50
270.000000
 51
0.000000
  0
ARC
  8
0
 62
     4
 10
0.703491
 20
93.560051
 40
0.300000
 50
0.000000
 51
90.000000
  0
ARC
  8
0
 62
     4
 10
12.903492
 20
93.560051
 40
0.300000
 50
0.000000
 51
90.000000
  0
ARC
  8
0
 62
     4
 10
12.903492
 20
84.160057
 40
0.300003
 50
270.000000
 51
0.000000
  0
CIRCLE
  8
0
 62
     4
 10
-8.546508
 20
88.860054
 40
2.050000
  0
ARC
  8
0
 62
     4
 10
-10.296508
 20
92.360054
 40
1.600000
 50
180.000000
 51
0.000000
  0
ARC
  8
0
 62
     4
 10
-10.296508
 20
85.360054
 40
1.600000
 50
0.000000
 51
180.000000
  0
CIRCLE
  8
0
 62
     4
 10
-8.546508
 20
88.860054
 40
1.900000
  0
CIRCLE
  8
0
 62
     4
 10
-8.546508
 20
88.860054
 40
1.850000
  0
ARC
  8
0
 62
     4
 10
-8.546508
 20
88.860054
 40
0.800003
 50
292.024231
 51
67.975754
  0
ARC
  8
0
 62
     4
 10
-8.546508
 20
88.860054
 40
0.800003
 50
112.024246
 51
247.975754
  0
CIRCLE
  8
0
 62
     4
 10
-10.296508
 20
92.360054
 40
1.500000
  0
CIRCLE
  8
0
 62
     4
 10
-10.296508
 20
85.360054
 40
1.500000
  0
ARC
  8
0
 10
101.398491
 20
-13.954583
 40
2.557656
 50
6.736013
 51
353.264008
  0
ARC
  8
0
 10
112.398491
 20
-31.954584
 40
2.557656
 50
6.735992
 51
353.263977
  0
CIRCLE
  8
0
 10
112.398491
 20
-31.954584
 40
2.250000
  0
CIRCLE
  8
0
 10
101.398491
 20
-13.954583
 40
2.250000
  0
ARC
  8
0
 10
112.403488
 20
-31.959583
 40
2.700000
 50
42.205437
 51
317.794556
  0
ARC
  8
0
 10
101.403488
 20
-13.959583
 40
2.700000
 50
222.205444
 51
137.794556
  0
CIRCLE
  8
0
 10
103.903488
 20
-27.959583
 40
1.750000
  0
CIRCLE
  8
0
 62
     2
 10
103.903488
 20
-27.959583
 40
2.500000
  0
CIRCLE
  8
0
 10
109.903488
 20
-17.959583
 40
1.750000
  0
CIRCLE
  8
0
 62
     2
 10
109.903488
 20
-17.959583
 40
2.500000
  0
ARC
  8
0
 62
     4
 10
111.603485
 20
29.140415
 40
0.300003
 50
0.000000
 51
90.000000
  0
ARC
  8
0
 62
     4
 10
102.203491
 20
29.140415
 40
0.299999
 50
90.000000
 51
180.000000
  0
ARC
  8
0
 10
105.326691
 20
-1.159583
 40
0.300003
 50
209.999634
 51
270.000000
  0
ARC
  8
0
 10
103.248230
 20
0.840417
 40
0.500001
 50
29.999931
 51
90.000000
  0
ARC
  8
0
 10
108.364815
 20
-0.959583
 40
0.500000
 50
270.000000
 51
330.000061
  0
ARC
  8
0
 10
110.558746
 20
0.840417
 40
0.500000
 50
90.000000
 51
150.000076
  0
ARC
  8
0
 10
101.353485
 20
10.040417
 40
0.300003
 50
0.000000
 51
90.000000
  0
ARC
  8
0
 10
112.453491
 20
10.040417
 40
0.300000
 50
90.000000
 51
180.000000
  0
CIRCLE
  8
0
 10
106.903488
 20
1.340417
 40
2.000000
  0
ARC
  8
0
 10
99.903488
 20
-38.959583
 40
0.500000
 50
180.000000
 51
270.000000
  0
ARC
  8
0
 10
102.408485
 20
-36.859581
 40
4.999873
 50
240.461273
 51
299.538727
  0
ARC
  8
0
 10
100.268860
 20
-40.629192
 40
0.665375
 50
180.033829
 51
240.724731
  0
ARC
  8
0
 10
104.535637
 20
-40.633476
 40
0.667862
 50
300.389252
 51
0.334139
  0
ARC
  8
0
 10
105.103485
 20
-39.959587
 40
0.500000
 50
0.000437
 51
90.000000
  0
ARC
  8
0
 10
99.903488
 20
-43.959583
 40
0.500000
 50
180.000000
 51
270.000000
  0
ARC
  8
0
 10
106.103485
 20
-43.959587
 40
0.500000
 50
180.000000
 51
270.000000
  0
ARC
  8
0
 10
113.903488
 20
-43.959583
 40
0.500000
 50
270.000000
 51
0.000000
  0
CIRCLE
  8
0
 10
-134.455460
 20
-31.959583
 40
1.400000
  0
CIRCLE
  8
0
 10
-123.455460
 20
-13.959583
 40
1.400000
  0
CIRCLE
  8
0
 62
     2
 10
-125.955460
 20
-32.959583
 40
2.500000
  0
CIRCLE
  8
0
 10
-125.955460
 20
-32.959583
 40
1.750000
  0
CIRCLE
  8
0
 62
     2
 10
-128.955460
 20
-22.959583
 40
2.500000
  0
CIRCLE
  8
0
 10
-128.955460
 20
-22.959583
 40
1.750000
  0
CIRCLE
  8
0
 62
     2
 10
-131.955460
 20
-12.959583
 40
2.500000
  0
CIRCLE
  8
0
 10
-131.955460
 20
-12.959583
 40
1.750000
  0
ARC
  8
0
 10
-124.455460
 20
3.740417
 40
5.000001
 50
55.944172
 51
124.055824
  0
ARC
  8
0
 10
-123.455460
 20
10.040417
 40
0.300000
 50
90.000000
 51
180.000000
  0
CIRCLE
  8
0
 10
-128.955460
 20
-0.259583
 40
0.900000
  0
ARC
  8
0
 62
     4
 10
-131.655457
 20
11.340416
 40
0.200000
 50
90.000000
 51
180.000000
  0
ARC
  8
0
 62
     4
 10
-126.255463
 20
11.340416
 40
0.199997
 50
0.000000
 51
90.000000
  0
ARC
  8
0
 62
     4
 10
-124.955460
 20
10.840416
 40
0.300000
 50
270.000000
 51
0.000000
  0
ARC
  8
0
 62
     4
 10
-124.955460
 20
12.340416
 40
0.300003
 50
0.000000
 51
90.000000
  0
ARC
  8
0
 62
     4
 10
-132.955460
 20
10.840416
 40
0.300003
 50
180.000000
 51
270.000000
  0
ARC
  8
0
 62
     4
 10
-132.955460
 20
12.340416
 40
0.300000
 50
90.000000
 51
180.000000
  0
ARC
  8
0
 10
-130.755463
 20
-39.959587
 40
0.500000
 50
0.000437
 51
90.000000
  0
ARC
  8
0
 10
-129.755463
 20
-43.959587
 40
0.500000
 50
180.000000
 51
270.000000
  0
ARC
  8
0
 10
-131.323303
 20
-40.633476
 40
0.667858
 50
300.388672
 51
0.334139
  0
ARC
  8
0
 10
-135.590088
 20
-40.629192
 40
0.665375
 50
180.033829
 51
240.724167
  0
ARC
  8
0
 10
-133.450455
 20
-36.859581
 40
4.999873
 50
240.461273
 51
299.538727
  0
ARC
  8
0
 10
-135.955460
 20
-38.959583
 40
0.500000
 50
180.000000
 51
270.000000
  0
ARC
  8
0
 10
-135.955460
 20
-43.959583
 40
0.500000
 50
180.000000
 51
270.000000
  0
ARC
  8
0
 10
-121.955460
 20
-43.959583
 40
0.500000
 50
270.000000
 51
0.000000
  0
ARC
  8
0
 10
-2.796522
 20
-13.964583
 40
6.008218
 50
342.417053
 51
17.582947
  0
ARC
  8
0
 10
3.038116
 20
-40.629189
 40
0.665374
 50
299.275604
 51
359.966156
  0
ARC
  8
0
 10
-1.228668
 20
-40.633484
 40
0.667852
 50
179.665207
 51
239.611481
  0
ARC
  8
0
 10
0.898493
 20
-36.859577
 40
4.999878
 50
240.461258
 51
299.538757
  0
ARC
  8
0
 10
3.403490
 20
-38.959579
 40
0.500000
 50
270.000153
 51
0.000000
  0
ARC
  8
0
 10
-2.796516
 20
-43.959576
 40
0.500008
 50
270.000885
 51
359.999115
  0
ARC
  8
0
 10
-1.796516
 20
-39.959576
 40
0.499992
 50
89.999123
 51
180.000870
  0
ARC
  8
0
 10
3.403490
 20
-43.959579
 40
0.500000
 50
270.000153
 51
0.000000
  0
ARC
  8
0
 10
12.303493
 20
-1.059584
 40
0.400000
 50
270.000000
 51
0.000000
  0
ARC
  8
0
 10
4.403492
 20
-1.959583
 40
0.500000
 50
90.000000
 51
180.000000
  0
ARC
  8
0
 62
     4
 10
-11.296508
 20
23.940418
 40
0.500000
 50
90.000000
 51
180.000000
  0
ARC
  8
0
 62
     4
 10
-9.296508
 20
23.940418
 40
0.500000
 50
0.000000
 51
90.000000
  0
ARC
  8
0
 62
     4
 10
12.903492
 20
29.140415
 40
0.300000
 50
0.000000
 51
90.000000
  0
ARC
  8
0
 10
12.303493
 20
1.740417
 40
0.400000
 50
270.000000
 51
0.000000
  0
ARC
  8
0
 10
4.303492
 20
0.940416
 40
0.400000
 50
90.000000
 51
180.000015
  0
ARC
  8
0
 10
-17.096508
 20
3.740417
 40
5.000000
 50
55.944199
 51
124.055786
  0
CIRCLE
  8
0
 10
-15.096508
 20
-17.959583
 40
1.600000
  0
CIRCLE
  8
0
 10
-15.096508
 20
-27.959583
 40
1.600000
  0
ARC
  8
0
 10
-19.596506
 20
-43.959579
 40
0.500002
 50
180.000000
 51
269.999786
  0
TEXT
  8
0
 10
133.907150
 20
122.050003
 40
4.500000
  1
Ver. 1.1
 50
0.000000
 41
1.052632
 51
0.000000
  7
STANDARD
  0
TEXT
  8
0
 10
113.700287
 20
-130.669998
 40
6.300000
  1
KOGANEI CORP.
 50
0.000000
 41
1.052632
 51
0.000000
  7
STANDARD
  0
TEXT
  8
0
 10
-176.892654
 20
122.050003
 40
4.500000
  1
G110 SERIES
 50
0.000000
 41
1.052632
 51
0.000000
  7
STANDARD
  0
TEXT
  8
0
 10
-186.892654
 20
104.550003
 40
4.500000
  1
MODEL:G110-4E1-81-PSL
 50
0.000000
 41
1.052632
 51
0.000000
  7
STANDARD
  0
ENDSEC
  0
EOF
