  0
SECTION
  2
HEADER
  0
ENDSEC
  0
SECTION
  2
TABLES
  0
TABLE
  2
LTYPE
 70
     4
  0
LTYPE
  2
CONTINUOUS
 70
    64
  3
Solid line
 72
    65
 73
     0
 40
0.000000
  0
LTYPE
  2
DASHED
 70
    64
  3
__ __ __ __ __ __ __ __ __ __ __ __ __ __ __
 72
    65
 73
     2
 40
3.500000
 49
2.000000
 49
-1.500000
  0
LTYPE
  2
CENTER
 70
    64
  3
____ _ ____ _ ____ _ ____ _ ____ _ ____ _ ____
 72
    65
 73
     4
 40
17.500000
 49
13.000000
 49
-1.500000
 49
1.500000
 49
-1.500000
  0
LTYPE
  2
PHANTOM
 70
    64
  3
_____ _ _ _____ _ _ _____ _ _ _____ _ _ ____  
 72
    65
 73
     6
 40
15.500000
 49
8.000000
 49
-1.500000
 49
1.500000
 49
-1.500000
 49
1.500000
 49
-1.500000
  0
LTYPE
  2
DASHED1
 70
    64
  3
__ __ __ __ __ __ __ __ __ __ __ __ __ __ __
 72
    65
 73
     2
 40
1.500000
 49
1.000000
 49
-0.500000
  0
LTYPE
  2
DASHED2
 70
    64
  3
__ __ __ __ __ __ __ __ __ __ __ __ __ __ __
 72
    65
 73
     2
 40
3.500000
 49
2.500000
 49
-1.000000
  0
LTYPE
  2
DASHED3
 70
    64
  3
__ __ __ __ __ __ __ __ __ __ __ __ __ __ __
 72
    65
 73
     2
 40
6.000000
 49
4.000000
 49
-2.000000
  0
LTYPE
  2
DASHED4
 70
    64
  3
__ __ __ __ __ __ __ __ __ __ __ __ __ __ __
 72
    65
 73
     2
 40
12.000000
 49
10.000000
 49
-2.000000
  0
LTYPE
  2
DASHED5
 70
    64
  3
__ __ __ __ __ __ __ __ __ __ __ __ __ __ __
 72
    65
 73
     2
 40
17.000000
 49
15.000000
 49
-2.000000
  0
LTYPE
  2
DASHED6
 70
    64
  3
__ __ __ __ __ __ __ __ __ __ __ __ __ __ __
 72
    65
 73
     2
 40
29.000000
 49
27.000000
 49
-2.000000
  0
LTYPE
  2
PHANTOM1
 70
    64
  3
_____ _ _ _____ _ _ _____ _ _ _____ _ _ ____  
 72
    65
 73
     6
 40
31.000000
 49
25.000000
 49
-1.500000
 49
1.000000
 49
-1.000000
 49
1.000000
 49
-1.500000
  0
LTYPE
  2
PHANTOM2
 70
    64
  3
_____ _ _ _____ _ _ _____ _ _ _____ _ _ ____  
 72
    65
 73
     6
 40
36.000000
 49
27.000000
 49
-1.500000
 49
2.500000
 49
-1.000000
 49
2.500000
 49
-1.500000
  0
LTYPE
  2
PHANTOM3
 70
    64
  3
_____ _ _ _____ _ _ _____ _ _ _____ _ _ ____  
 72
    65
 73
     6
 40
78.000000
 49
64.000000
 49
-2.000000
 49
4.000000
 49
-2.000000
 49
4.000000
 49
-2.000000
  0
LTYPE
  2
CENTER1
 70
    64
  3
____ _ ____ _ ____ _ ____ _ ____ _ ____ _ ____
 72
    65
 73
     4
 40
19.000000
 49
14.000000
 49
-1.000000
 49
3.000000
 49
-1.000000
  0
LTYPE
  2
CENTER2
 70
    64
  3
____ _ ____ _ ____ _ ____ _ ____ _ ____ _ ____
 72
    65
 73
     4
 40
28.500000
 49
25.000000
 49
-1.000000
 49
1.500000
 49
-1.000000
  0
LTYPE
  2
CENTER3
 70
    64
  3
____ _ ____ _ ____ _ ____ _ ____ _ ____ _ ____
 72
    65
 73
     4
 40
31.500000
 49
27.000000
 49
-1.000000
 49
2.500000
 49
-1.000000
  0
LTYPE
  2
CENTER4
 70
    64
  3
____ _ ____ _ ____ _ ____ _ ____ _ ____ _ ____
 72
    65
 73
     4
 40
50.000000
 49
45.000000
 49
-1.000000
 49
3.000000
 49
-1.000000
  0
LTYPE
  2
CENTER5
 70
    64
  3
____ _ ____ _ ____ _ ____ _ ____ _ ____ _ ____
 72
    65
 73
     4
 40
100.000000
 49
92.000000
 49
-2.000000
 49
4.000000
 49
-2.000000
  0
LTYPE
  2
SBK1
 70
    64
  3
______ _ _ _ ______ _ _ _ ______ _ _ _ _____  
 72
    65
 73
     8
 40
60.500000
 49
45.000000
 49
-2.000000
 49
2.500000
 49
-2.000000
 49
2.500000
 49
-2.000000
 49
2.500000
 49
-2.000000
  0
LTYPE
  2
SBK2
 70
    64
  3
______ _ _ _ ______ _ _ _ ______ _ _ _ _____  
 72
    65
 73
     8
 40
84.000000
 49
64.000000
 49
-2.000000
 49
4.000000
 49
-2.000000
 49
4.000000
 49
-2.000000
 49
4.000000
 49
-2.000000
  0
LTYPE
  2
STCH
 70
    64
  3
__ __ __ __ __ __ __ __ __ __ __ __ __ __ __
 72
    65
 73
     2
 40
3.000000
 49
1.000000
 49
-2.000000
  0
LTYPE
  2
MTCH
 70
    64
  3
_____ _ _ _____ _ _ _____ _ _ _____ _ _ ____  
 72
    65
 73
     6
 40
80.000000
 49
66.000000
 49
-2.000000
 49
4.000000
 49
-2.000000
 49
4.000000
 49
-2.000000
  0
ENDTAB
  0
TABLE
  2
LAYER
 70
     1
  0
LAYER
  2
0
 70
     0
 62
     7
  6
CONTINUOUS
  0
ENDTAB
  0
TABLE
  2
STYLE
 70
     1
  0
STYLE
  2
STANDARD
 70
     0
 40
0.000000
 41
1.000000
 50
0.000000
 71
     0
 42
0.200000
  3
txt
  4
BIGFONT
  0
ENDTAB
  0
TABLE
  2
VIEW
 70
     0
  0
ENDTAB
  0
ENDSEC
  0
SECTION
  2
BLOCKS
  0
ENDSEC
  0
SECTION
  2
ENTITIES
  0
LINE
  8
0
 10
-20.096508
 20
97.481522
 11
-20.096508
 21
83.281525
  0
LINE
  8
0
  6
CENTER
 62
     2
 10
-22.406507
 20
90.381523
 11
15.339424
 21
90.381523
  0
LINE
  8
0
 10
-19.596506
 20
96.381523
 11
-20.034485
 21
97.695465
  0
LINE
  8
0
 10
-19.596508
 20
88.881523
 11
-19.596508
 21
96.381523
  0
LINE
  8
0
 10
-18.996508
 20
88.881523
 11
-18.996508
 21
95.925629
  0
LINE
  8
0
 10
-19.696508
 20
97.881523
 11
12.303493
 21
97.881523
  0
LINE
  8
0
 10
-19.696508
 20
82.881523
 11
12.303493
 21
82.881523
  0
LINE
  8
0
 10
12.703491
 20
85.381523
 11
12.703491
 21
83.281525
  0
LINE
  8
0
 10
12.703491
 20
95.381523
 11
12.703491
 21
97.481522
  0
LINE
  8
0
 10
-14.096508
 20
82.881523
 11
-14.096508
 21
85.381523
  0
LINE
  8
0
 10
-20.096508
 20
88.881523
 11
-18.796509
 21
88.881523
  0
LINE
  8
0
 10
3.903492
 20
95.381523
 11
3.903492
 21
97.881523
  0
LINE
  8
0
 10
-2.096508
 20
95.381523
 11
-2.096508
 21
97.881523
  0
LINE
  8
0
 10
1.403493
 20
95.381523
 11
2.254295
 21
96.232323
  0
LINE
  8
0
 10
-18.447309
 20
84.530724
 11
-17.596510
 21
85.381523
  0
LINE
  8
0
 10
-0.447311
 20
96.232323
 11
0.403492
 21
95.381523
  0
LINE
  8
0
 10
-16.596508
 20
85.381523
 11
-15.745707
 21
84.530724
  0
LINE
  8
0
 10
12.703491
 20
95.631523
 11
3.903492
 21
95.631523
  0
LINE
  8
0
 10
12.703491
 20
85.131523
 11
-14.096508
 21
85.131523
  0
LINE
  8
0
 10
-2.096508
 20
95.631523
 11
-18.996508
 21
95.631523
  0
LINE
  8
0
 10
-14.096508
 20
84.381523
 11
12.703491
 21
84.381523
  0
LINE
  8
0
 10
-19.596508
 20
96.381523
 11
-2.096508
 21
96.381523
  0
LINE
  8
0
 10
3.903492
 20
96.381523
 11
12.703491
 21
96.381523
  0
LINE
  8
0
 62
     4
 10
-4.296508
 20
95.081520
 11
-4.296508
 21
95.381523
  0
LINE
  8
0
 62
     4
 10
-4.396508
 20
95.081520
 11
-4.396508
 21
95.381523
  0
LINE
  8
0
 62
     4
 10
1.003492
 20
87.881523
 11
1.003492
 21
85.681526
  0
LINE
  8
0
 62
     4
 10
0.003492
 20
87.881523
 11
0.003492
 21
87.481522
  0
LINE
  8
0
 62
     4
 10
0.803492
 20
92.881523
 11
0.803492
 21
87.881523
  0
LINE
  8
0
 62
     4
 10
2.003492
 20
92.881523
 11
2.003492
 21
87.881523
  0
LINE
  8
0
 62
     4
 10
-0.496508
 20
94.081520
 11
-0.496508
 21
86.681526
  0
LINE
  8
0
 62
     4
 10
-4.796508
 20
95.081520
 11
0.503492
 21
95.081520
  0
LINE
  8
0
 62
     4
 10
-4.796508
 20
85.681526
 11
0.503492
 21
85.681526
  0
LINE
  8
0
 62
     4
 10
-4.796508
 20
95.081520
 11
-4.796508
 21
85.681526
  0
LINE
  8
0
 62
     4
 10
-3.096508
 20
93.471527
 11
-3.596508
 21
93.471527
  0
LINE
  8
0
 62
     4
 10
-3.096508
 20
92.371521
 11
-3.596508
 21
92.371521
  0
LINE
  8
0
 62
     4
 10
-0.996508
 20
93.871521
 11
-0.996508
 21
91.971527
  0
LINE
  8
0
 62
     4
 10
-3.096508
 20
93.797523
 11
-3.096508
 21
92.047523
  0
LINE
  8
0
 62
     4
 10
-3.596508
 20
93.471527
 11
-3.596508
 21
92.371521
  0
LINE
  8
0
 62
     4
 10
0.503492
 20
89.131523
 11
-0.496508
 21
89.131523
  0
LINE
  8
0
 62
     4
 10
0.503492
 20
91.631523
 11
-0.496508
 21
91.631523
  0
LINE
  8
0
 62
     4
 10
0.503492
 20
95.081520
 11
0.503492
 21
94.081520
  0
LINE
  8
0
 62
     4
 10
-0.496508
 20
94.081520
 11
0.503492
 21
94.081520
  0
LINE
  8
0
 62
     4
 10
0.503492
 20
85.681526
 11
0.503492
 21
86.681526
  0
LINE
  8
0
 62
     4
 10
-0.496508
 20
86.681526
 11
0.503492
 21
86.681526
  0
LINE
  8
0
 62
     4
 10
-0.996507
 20
91.971519
 11
-2.884507
 21
91.847527
  0
LINE
  8
0
 62
     4
 10
-2.884508
 20
93.997520
 11
-0.996508
 21
93.871521
  0
LINE
  8
0
 62
     4
 10
-0.996508
 20
91.331520
 11
-0.996508
 21
89.431526
  0
LINE
  8
0
 62
     4
 10
-2.884508
 20
91.457520
 11
-0.996508
 21
91.331520
  0
LINE
  8
0
 62
     4
 10
-3.096508
 20
91.257523
 11
-3.096508
 21
89.507523
  0
LINE
  8
0
 62
     4
 10
-3.096508
 20
90.931526
 11
-3.596508
 21
90.931526
  0
LINE
  8
0
 62
     4
 10
-3.596508
 20
90.931526
 11
-3.596508
 21
89.831520
  0
LINE
  8
0
 62
     4
 10
-3.096508
 20
89.831520
 11
-3.596508
 21
89.831520
  0
LINE
  8
0
 62
     4
 10
-0.996508
 20
89.431519
 11
-2.884507
 21
89.307518
  0
LINE
  8
0
 62
     4
 10
-1.596508
 20
90.781525
 11
-2.396507
 21
90.781525
  0
LINE
  8
0
 62
     4
 10
-1.596508
 20
89.981522
 11
-1.596508
 21
90.781525
  0
LINE
  8
0
 62
     4
 10
-1.596508
 20
89.981522
 11
-2.396507
 21
89.981522
  0
LINE
  8
0
 62
     4
 10
-2.396507
 20
89.981522
 11
-2.396507
 21
90.781525
  0
LINE
  8
0
 62
     4
 10
-0.996508
 20
88.791527
 11
-0.996508
 21
86.891525
  0
LINE
  8
0
 62
     4
 10
-2.884507
 20
88.917526
 11
-0.996509
 21
88.791527
  0
LINE
  8
0
 62
     4
 10
-3.096508
 20
88.717522
 11
-3.096508
 21
86.967522
  0
LINE
  8
0
 62
     4
 10
-3.096508
 20
88.391525
 11
-3.596508
 21
88.391525
  0
LINE
  8
0
 62
     4
 10
-3.596508
 20
88.391525
 11
-3.596508
 21
87.291527
  0
LINE
  8
0
 62
     4
 10
-3.096508
 20
87.291527
 11
-3.596508
 21
87.291527
  0
LINE
  8
0
 62
     4
 10
-0.996509
 20
86.891525
 11
-2.884508
 21
86.767525
  0
LINE
  8
0
 62
     4
 10
2.003492
 20
92.881523
 11
-0.496508
 21
92.881523
  0
LINE
  8
0
 62
     4
 10
2.003492
 20
87.881523
 11
-0.496508
 21
87.881523
  0
LINE
  8
0
 62
     4
 10
0.503492
 20
93.281525
 11
0.503492
 21
87.481522
  0
LINE
  8
0
 62
     4
 10
0.003492
 20
87.481522
 11
1.003492
 21
87.481522
  0
LINE
  8
0
 62
     4
 10
0.003492
 20
93.281525
 11
1.003492
 21
93.281525
  0
LINE
  8
0
 62
     4
 10
0.003492
 20
93.281525
 11
0.003492
 21
92.881523
  0
LINE
  8
0
 62
     4
 10
1.003492
 20
95.081520
 11
1.003492
 21
92.881523
  0
LINE
  8
0
 62
     4
 10
13.203491
 20
85.681526
 11
13.203491
 21
95.081520
  0
LINE
  8
0
 62
     4
 10
-4.296508
 20
85.381523
 11
-4.296508
 21
85.681526
  0
LINE
  8
0
 62
     1
 10
8.203491
 20
88.881523
 11
13.203491
 21
88.881523
  0
LINE
  8
0
 62
     1
 10
8.203491
 20
91.881523
 11
8.203491
 21
88.881523
  0
LINE
  8
0
 62
     1
 10
8.203491
 20
91.881523
 11
13.203491
 21
91.881523
  0
LINE
  8
0
 62
     4
 10
-6.496508
 20
87.581520
 11
-7.996508
 21
87.581520
  0
LINE
  8
0
 62
     4
 10
-6.496508
 20
86.081520
 11
-7.996508
 21
86.081520
  0
LINE
  8
0
 62
     4
 10
-6.496508
 20
87.581520
 11
-6.496508
 21
86.081520
  0
LINE
  8
0
 62
     4
 10
-7.996508
 20
87.581520
 11
-7.996508
 21
86.081520
  0
LINE
  8
0
 62
     4
 10
-12.837323
 20
92.775894
 11
-12.396506
 21
93.031525
  0
LINE
  8
0
 62
     4
 10
-12.396511
 20
87.731522
 11
-12.837329
 21
87.987152
  0
LINE
  8
0
 62
     4
 10
-11.587323
 20
91.525894
 11
-11.146506
 21
91.781525
  0
LINE
  8
0
 62
     4
 10
-12.396506
 20
93.031517
 11
-11.146510
 21
91.781525
  0
LINE
  8
0
 62
     4
 10
-11.587324
 20
91.525894
 11
-12.837326
 21
92.775894
  0
LINE
  8
0
 62
     4
 10
-11.587327
 20
89.237152
 11
-11.146510
 21
88.981522
  0
LINE
  8
0
 62
     4
 10
-5.705690
 20
85.381523
 11
-5.705690
 21
95.381523
  0
LINE
  8
0
 62
     4
 10
-11.587324
 20
89.237152
 11
-12.837323
 21
87.987152
  0
LINE
  8
0
 62
     4
 10
-12.837326
 20
85.381523
 11
-12.837326
 21
87.987152
  0
LINE
  8
0
 62
     4
 10
-12.837326
 20
92.775894
 11
-12.837326
 21
95.381523
  0
LINE
  8
0
 62
     4
 10
-11.587325
 20
91.525894
 11
-11.587325
 21
89.237152
  0
LINE
  8
0
 62
     4
 10
-12.396508
 20
85.381523
 11
-12.396508
 21
87.731522
  0
LINE
  8
0
 62
     4
 10
-12.396509
 20
87.731522
 11
-11.146507
 21
88.981522
  0
LINE
  8
0
 62
     4
 10
-11.146508
 20
91.781525
 11
-11.146508
 21
88.981522
  0
LINE
  8
0
 62
     4
 10
-12.396508
 20
93.031525
 11
-12.396508
 21
95.381523
  0
LINE
  8
0
 62
     4
 10
-4.894587
 20
95.381523
 11
-4.894587
 21
85.381523
  0
LINE
  8
0
 62
     4
 10
-4.396508
 20
85.381523
 11
-4.396508
 21
85.681526
  0
LINE
  8
0
 62
     4
 10
-8.696508
 20
86.881523
 11
-8.696508
 21
85.381523
  0
LINE
  8
0
 62
     4
 10
-11.896508
 20
85.381523
 11
-11.896508
 21
86.881523
  0
LINE
  8
0
 62
     4
 10
-11.896508
 20
93.881523
 11
-11.896508
 21
95.381523
  0
LINE
  8
0
 62
     4
 10
-8.696508
 20
95.381523
 11
-8.696508
 21
93.881523
  0
LINE
  8
0
 62
     4
 10
12.903492
 20
95.381523
 11
-18.796509
 21
95.381523
  0
LINE
  8
0
  6
CENTER
 62
     2
 10
-8.546508
 20
87.881523
 11
-8.546508
 21
92.881523
  0
LINE
  8
0
 62
     4
 10
12.903492
 20
85.381523
 11
-18.796509
 21
85.381523
  0
LINE
  8
0
 62
     4
 10
-8.846508
 20
88.556007
 11
-8.846508
 21
92.207039
  0
LINE
  8
0
 62
     4
 10
-8.246508
 20
90.381523
 11
-8.246508
 21
92.207039
  0
LINE
  8
0
 62
     4
 10
-8.246508
 20
88.556007
 11
-8.246508
 21
90.381523
  0
LINE
  8
0
 62
     4
 10
-11.003613
 20
94.588631
 11
-9.589401
 21
93.174416
  0
LINE
  8
0
 62
     4
 10
-9.589403
 20
94.588631
 11
-11.003616
 21
93.174416
  0
LINE
  8
0
 62
     4
 10
-9.589402
 20
86.174416
 11
-11.003615
 21
87.588631
  0
LINE
  8
0
 62
     4
 10
-11.003614
 20
86.174416
 11
-9.589401
 21
87.588631
  0
LINE
  8
0
 62
     4
 10
-18.796509
 20
85.381523
 11
-18.796509
 21
95.381523
  0
LINE
  8
0
 10
-20.096508
 20
97.378197
 11
-20.096508
 21
83.378197
  0
LINE
  8
0
  6
CENTER
 62
     2
 10
-22.686626
 20
95.881523
 11
-17.222588
 21
95.881523
  0
LINE
  8
0
  6
CENTER
 62
     2
 10
-22.686626
 20
84.881523
 11
-17.222588
 21
84.881523
  0
LINE
  8
0
 10
109.403488
 20
-26.792240
 11
109.403488
 21
-48.009293
  0
LINE
  8
0
 10
94.403488
 20
-8.866621
 11
94.403488
 21
-48.009293
  0
LINE
  8
0
 10
98.628487
 20
-6.904294
 11
98.938492
 21
-6.904294
  0
LINE
  8
0
 10
98.908485
 20
-7.674294
 11
98.608490
 21
-7.674294
  0
LINE
  8
0
 10
98.628487
 20
-7.504293
 11
98.938492
 21
-7.504293
  0
LINE
  8
0
 10
109.908485
 20
-25.674294
 11
109.608490
 21
-25.674294
  0
LINE
  8
0
 10
109.628487
 20
-25.504293
 11
109.938492
 21
-25.504293
  0
LINE
  8
0
 10
109.628487
 20
-24.904293
 11
109.938492
 21
-24.904293
  0
LINE
  8
0
 10
106.448486
 20
-24.254293
 11
108.358490
 21
-26.164291
  0
LINE
  8
0
 10
105.838486
 20
-26.774296
 11
108.968491
 21
-23.644297
  0
LINE
  8
0
 10
95.448486
 20
-6.254291
 11
97.358490
 21
-8.164289
  0
LINE
  8
0
 10
94.838486
 20
-8.774296
 11
97.968491
 21
-5.644297
  0
LINE
  8
0
  6
CENTER
 62
     2
 10
101.903488
 20
-96.984848
 11
101.903488
 21
64.566269
  0
LINE
  8
0
 10
96.653488
 20
16.590706
 11
107.153488
 21
16.590706
  0
LINE
  8
0
 10
94.403488
 20
-2.209293
 11
109.403488
 21
-2.209293
  0
LINE
  8
0
 10
105.558746
 20
8.090707
 11
109.403488
 21
8.090707
  0
LINE
  8
0
 10
98.248230
 20
8.090707
 11
94.403488
 21
8.090707
  0
LINE
  8
0
 10
109.403488
 20
15.590706
 11
109.403488
 21
-23.616346
  0
LINE
  8
0
 10
94.403488
 20
15.590706
 11
94.403488
 21
-5.551966
  0
LINE
  8
0
 10
95.903488
 20
17.090708
 11
94.403488
 21
15.590706
  0
LINE
  8
0
 10
109.403488
 20
15.590708
 11
107.903488
 21
17.090708
  0
LINE
  8
0
 10
107.903488
 20
17.090706
 11
107.453491
 21
17.090706
  0
LINE
  8
0
 10
107.153488
 20
16.590706
 11
107.153488
 21
16.790707
  0
LINE
  8
0
 10
96.653488
 20
16.590706
 11
96.653488
 21
16.790707
  0
LINE
  8
0
 10
103.364815
 20
5.290707
 11
100.326691
 21
5.290707
  0
LINE
  8
0
 10
100.066887
 20
5.440711
 11
98.681244
 21
7.840710
  0
LINE
  8
0
 10
105.125732
 20
7.840710
 11
103.797829
 21
5.540709
  0
LINE
  8
0
 10
96.353485
 20
17.090706
 11
95.853485
 21
17.090706
  0
LINE
  8
0
 62
     4
 10
96.903488
 20
17.490707
 11
106.903488
 21
17.490707
  0
LINE
  8
0
 62
     4
 10
106.603485
 20
36.190708
 11
97.203491
 21
36.190708
  0
LINE
  8
0
 62
     4
 10
106.903488
 20
17.790707
 11
96.903488
 21
17.790707
  0
LINE
  8
0
 62
     4
 10
106.903488
 20
16.590706
 11
106.903488
 21
41.690708
  0
LINE
  8
0
 62
     4
 10
96.903488
 20
16.590706
 11
96.903488
 21
41.690708
  0
LINE
  8
0
 62
     4
 10
96.903488
 20
41.690708
 11
99.403488
 21
41.690708
  0
LINE
  8
0
 62
     4
 10
99.003487
 20
36.190708
 11
99.003487
 21
41.690708
  0
LINE
  8
0
 62
     4
 10
104.803490
 20
36.190708
 11
104.803490
 21
41.690708
  0
LINE
  8
0
 62
     1
 10
103.403488
 20
33.190708
 11
100.403488
 21
33.190708
  0
LINE
  8
0
 62
     1
 10
100.403488
 20
33.190708
 11
100.403488
 21
36.190708
  0
LINE
  8
0
 62
     1
 10
103.403488
 20
33.190708
 11
103.403488
 21
36.190708
  0
LINE
  8
0
 62
     4
 10
99.403488
 20
37.290707
 11
104.403488
 21
37.290707
  0
LINE
  8
0
 62
     4
 10
97.203491
 20
46.790707
 11
106.603485
 21
46.790707
  0
LINE
  8
0
 62
     4
 10
99.403488
 20
45.790707
 11
104.403488
 21
45.790707
  0
LINE
  8
0
 62
     4
 10
97.203491
 20
41.790707
 11
97.203491
 21
46.790707
  0
LINE
  8
0
 62
     4
 10
99.403488
 20
37.290707
 11
99.403488
 21
45.790707
  0
LINE
  8
0
 62
     4
 10
104.403488
 20
45.079380
 11
99.403488
 21
45.079380
  0
LINE
  8
0
 62
     4
 10
104.403488
 20
44.790707
 11
99.403488
 21
44.790707
  0
LINE
  8
0
 62
     4
 10
98.303490
 20
41.790707
 11
98.303490
 21
46.790707
  0
LINE
  8
0
 62
     4
 10
105.503487
 20
41.790707
 11
105.503487
 21
46.790707
  0
LINE
  8
0
 62
     4
 10
104.403488
 20
37.290707
 11
104.403488
 21
45.790707
  0
LINE
  8
0
 62
     4
 10
106.603485
 20
41.790707
 11
106.603485
 21
46.790707
  0
LINE
  8
0
 62
     4
 10
104.403488
 20
38.156731
 11
99.403488
 21
38.156731
  0
LINE
  8
0
 62
     4
 10
104.403488
 20
41.690708
 11
106.903488
 21
41.690708
  0
LINE
  8
0
 62
     4
 10
104.403488
 20
-74.109299
 11
106.903488
 21
-74.109299
  0
LINE
  8
0
 62
     4
 10
104.403488
 20
-70.475319
 11
99.403488
 21
-70.475319
  0
LINE
  8
0
 62
     4
 10
106.603485
 20
-74.209290
 11
106.603485
 21
-79.209290
  0
LINE
  8
0
 62
     4
 10
104.403488
 20
-69.609299
 11
104.403488
 21
-78.209290
  0
LINE
  8
0
 62
     4
 10
105.503487
 20
-74.209290
 11
105.503487
 21
-79.209290
  0
LINE
  8
0
  6
PHANTOM
 62
     4
 10
101.903488
 20
-70.475319
 11
103.153488
 21
-70.475319
  0
LINE
  8
0
 62
     4
 10
98.303490
 20
-74.209290
 11
98.303490
 21
-79.209290
  0
LINE
  8
0
  6
PHANTOM
 62
     4
 10
101.903488
 20
-70.475319
 11
100.653488
 21
-70.475319
  0
LINE
  8
0
 62
     4
 10
104.403488
 20
-77.209290
 11
99.403488
 21
-77.209290
  0
LINE
  8
0
 62
     4
 10
104.403488
 20
-77.497971
 11
99.403488
 21
-77.497971
  0
LINE
  8
0
 62
     4
 10
99.403488
 20
-69.609299
 11
99.403488
 21
-78.209290
  0
LINE
  8
0
 62
     4
 10
97.203491
 20
-74.209290
 11
97.203491
 21
-79.209290
  0
LINE
  8
0
 62
     4
 10
99.403488
 20
-78.209290
 11
104.403488
 21
-78.209290
  0
LINE
  8
0
 62
     4
 10
97.203491
 20
-79.209290
 11
106.603485
 21
-79.209290
  0
LINE
  8
0
 62
     4
 10
99.403488
 20
-69.609299
 11
104.403488
 21
-69.609299
  0
LINE
  8
0
 62
     1
 10
103.403488
 20
-65.609299
 11
103.403488
 21
-68.609299
  0
LINE
  8
0
 62
     1
 10
100.403488
 20
-65.609299
 11
103.403488
 21
-65.609299
  0
LINE
  8
0
 62
     1
 10
100.403488
 20
-65.609299
 11
100.403488
 21
-68.609299
  0
LINE
  8
0
 62
     4
 10
104.803490
 20
-68.609299
 11
104.803490
 21
-74.109299
  0
LINE
  8
0
 62
     4
 10
99.003487
 20
-68.609299
 11
99.003487
 21
-74.109299
  0
LINE
  8
0
 62
     4
 10
96.903488
 20
-74.109299
 11
99.403488
 21
-74.109299
  0
LINE
  8
0
 62
     4
 10
96.903488
 20
-49.009293
 11
96.903488
 21
-74.109299
  0
LINE
  8
0
 62
     4
 10
106.903488
 20
-49.009293
 11
106.903488
 21
-74.109299
  0
LINE
  8
0
 62
     4
 10
106.903488
 20
-50.209293
 11
96.903488
 21
-50.209293
  0
LINE
  8
0
 62
     4
 10
106.603485
 20
-68.609299
 11
97.203491
 21
-68.609299
  0
LINE
  8
0
 62
     4
 10
96.903488
 20
-49.909294
 11
106.903488
 21
-49.909294
  0
LINE
  8
0
 10
96.353485
 20
-49.509293
 11
95.853485
 21
-49.509293
  0
LINE
  8
0
 10
105.125732
 20
-40.259296
 11
103.797829
 21
-37.959290
  0
LINE
  8
0
 10
100.066895
 20
-37.859295
 11
98.681252
 21
-40.259296
  0
LINE
  8
0
 10
103.364815
 20
-37.709293
 11
100.326691
 21
-37.709293
  0
LINE
  8
0
 10
96.653488
 20
-49.009293
 11
96.653488
 21
-49.209293
  0
LINE
  8
0
 10
107.153488
 20
-49.009293
 11
107.153488
 21
-49.209293
  0
LINE
  8
0
 10
107.903488
 20
-49.509293
 11
107.453491
 21
-49.509293
  0
LINE
  8
0
 10
109.403488
 20
-48.009296
 11
107.903488
 21
-49.509293
  0
LINE
  8
0
 10
95.903488
 20
-49.509293
 11
94.403488
 21
-48.009293
  0
LINE
  8
0
 10
98.248230
 20
-40.509293
 11
94.403488
 21
-40.509293
  0
LINE
  8
0
 10
105.558746
 20
-40.509293
 11
109.403488
 21
-40.509293
  0
LINE
  8
0
  6
CENTER
 62
     1
 10
105.008270
 20
-40.509293
 11
98.012337
 21
-40.509293
  0
LINE
  8
0
 10
96.653488
 20
-49.009293
 11
107.153488
 21
-49.009293
  0
LINE
  8
0
 10
94.403488
 20
-30.209293
 11
109.403488
 21
-30.209293
  0
LINE
  8
0
 62
     4
 10
97.203491
 20
41.790707
 11
99.403488
 21
41.790707
  0
LINE
  8
0
 62
     4
 10
104.403488
 20
41.790707
 11
106.603485
 21
41.790707
  0
LINE
  8
0
 62
     4
 10
97.803490
 20
41.790707
 11
97.803490
 21
41.690708
  0
LINE
  8
0
 62
     4
 10
106.003487
 20
41.790707
 11
106.003487
 21
41.690708
  0
LINE
  8
0
 62
     4
 10
97.203491
 20
-74.209290
 11
99.403488
 21
-74.209290
  0
LINE
  8
0
 62
     4
 10
104.403488
 20
-74.209290
 11
106.603485
 21
-74.209290
  0
LINE
  8
0
 62
     4
 10
97.803490
 20
-74.209290
 11
97.803490
 21
-74.109299
  0
LINE
  8
0
 62
     4
 10
106.003487
 20
-74.209290
 11
106.003487
 21
-74.109299
  0
LINE
  8
0
 62
     4
 10
100.078491
 20
46.790707
 11
100.078491
 21
52.775372
  0
LINE
  8
0
 62
     4
 10
98.648491
 20
46.790707
 11
98.648491
 21
53.156708
  0
LINE
  8
0
 62
     1
 10
107.483490
 20
50.800709
 11
96.385178
 21
53.760258
  0
LINE
  8
0
 62
     1
 10
107.483482
 20
52.040703
 11
96.385170
 21
55.000252
  0
LINE
  8
0
 62
     4
 10
105.158485
 20
46.790707
 11
105.158485
 21
51.420708
  0
LINE
  8
0
 62
     4
 10
103.728485
 20
46.790707
 11
103.728485
 21
51.790707
  0
LINE
  8
0
 62
     4
 10
104.043488
 20
62.220707
 11
104.843491
 21
62.220707
  0
LINE
  8
0
 62
     4
 10
103.728485
 20
57.220707
 11
105.158485
 21
57.220707
  0
LINE
  8
0
 62
     4
 10
104.843491
 20
57.220707
 11
104.843491
 21
62.220707
  0
LINE
  8
0
 62
     4
 10
104.043488
 20
57.220707
 11
104.043488
 21
62.220707
  0
LINE
  8
0
 62
     4
 10
103.728485
 20
53.030708
 11
103.728485
 21
57.220707
  0
LINE
  8
0
 62
     4
 10
105.158485
 20
52.650707
 11
105.158485
 21
57.220707
  0
LINE
  8
0
 62
     4
 10
100.078491
 20
54.015373
 11
100.078491
 21
57.220707
  0
LINE
  8
0
 62
     4
 10
98.648491
 20
54.396706
 11
98.648491
 21
57.220707
  0
LINE
  8
0
 62
     4
 10
99.763489
 20
57.220707
 11
99.763489
 21
62.220707
  0
LINE
  8
0
 62
     4
 10
98.963486
 20
57.220707
 11
98.963486
 21
62.220707
  0
LINE
  8
0
 62
     4
 10
100.078491
 20
57.220707
 11
98.648491
 21
57.220707
  0
LINE
  8
0
 62
     4
 10
99.763489
 20
62.220707
 11
98.963486
 21
62.220707
  0
LINE
  8
0
 62
     4
 10
103.728485
 20
-79.209290
 11
103.728485
 21
-85.193954
  0
LINE
  8
0
 62
     4
 10
105.158485
 20
-79.209290
 11
105.158485
 21
-85.575287
  0
LINE
  8
0
 62
     4
 10
98.648491
 20
-79.209290
 11
98.648491
 21
-83.839294
  0
LINE
  8
0
 62
     4
 10
100.078491
 20
-79.209290
 11
100.078491
 21
-84.209290
  0
LINE
  8
0
 62
     4
 10
104.043488
 20
-94.639297
 11
104.843491
 21
-94.639297
  0
LINE
  8
0
 62
     4
 10
103.728485
 20
-89.639297
 11
105.158485
 21
-89.639297
  0
LINE
  8
0
 62
     4
 10
104.843491
 20
-89.639297
 11
104.843491
 21
-94.639297
  0
LINE
  8
0
 62
     4
 10
104.043488
 20
-89.639297
 11
104.043488
 21
-94.639297
  0
LINE
  8
0
 62
     4
 10
105.158485
 20
-86.815292
 11
105.158485
 21
-89.639297
  0
LINE
  8
0
 62
     4
 10
103.728485
 20
-86.433960
 11
103.728485
 21
-89.639297
  0
LINE
  8
0
 62
     4
 10
98.648491
 20
-85.069290
 11
98.648491
 21
-89.639297
  0
LINE
  8
0
 62
     4
 10
100.078491
 20
-85.449295
 11
100.078491
 21
-89.639297
  0
LINE
  8
0
 62
     4
 10
99.763489
 20
-89.639297
 11
99.763489
 21
-94.639297
  0
LINE
  8
0
 62
     4
 10
98.963486
 20
-89.639297
 11
98.963486
 21
-94.639297
  0
LINE
  8
0
 62
     4
 10
100.078491
 20
-89.639297
 11
98.648491
 21
-89.639297
  0
LINE
  8
0
 62
     4
 10
99.763489
 20
-94.639297
 11
98.963486
 21
-94.639297
  0
LINE
  8
0
 62
     1
 10
96.323486
 20
-84.459290
 11
107.421799
 21
-87.418846
  0
LINE
  8
0
 62
     1
 10
96.323486
 20
-83.219299
 11
107.421806
 21
-86.178848
  0
LINE
  8
0
  6
CENTER
 62
     2
 10
104.903488
 20
8.090707
 11
98.903488
 21
8.090707
  0
LINE
  8
0
  6
CENTER
 62
     2
 10
101.703491
 20
-11.209293
 11
108.103485
 21
-11.209293
  0
LINE
  8
0
  6
CENTER
 62
     2
 10
104.903488
 20
-8.009294
 11
104.903488
 21
-14.409293
  0
LINE
  8
0
  6
CENTER
 62
     2
 10
95.703491
 20
-21.209293
 11
102.103485
 21
-21.209293
  0
LINE
  8
0
  6
CENTER
 62
     2
 10
98.903488
 20
-18.009293
 11
98.903488
 21
-24.409294
  0
LINE
  8
0
 62
     4
 10
99.943893
 20
8.490706
 11
103.863083
 21
8.490706
  0
LINE
  8
0
 62
     4
 10
99.943893
 20
7.690706
 11
103.863083
 21
7.690706
  0
LINE
  8
0
 62
     4
 10
99.943893
 20
-40.109295
 11
103.863083
 21
-40.109295
  0
LINE
  8
0
 62
     4
 10
99.943893
 20
-40.909294
 11
103.863083
 21
-40.909294
  0
LINE
  8
0
  6
CENTER
 62
     2
 10
-134.455460
 20
-22.809294
 11
-134.455460
 21
-27.699293
  0
LINE
  8
0
  6
CENTER
 62
     2
 10
-123.455460
 20
-4.869293
 11
-123.455460
 21
-9.639294
  0
LINE
  8
0
  6
CENTER
 62
     2
 10
-136.455460
 20
-25.209293
 11
-132.055466
 21
-25.209293
  0
LINE
  8
0
  6
CENTER
 62
     2
 10
-126.115463
 20
-7.209293
 11
-121.455460
 21
-7.209293
  0
LINE
  8
0
 10
-121.455460
 20
-30.209293
 11
-136.455460
 21
-30.209293
  0
LINE
  8
0
 62
     4
 10
-133.955460
 20
17.090706
 11
-133.955460
 21
42.190708
  0
LINE
  8
0
 62
     4
 10
-123.955460
 20
16.590706
 11
-123.955460
 21
42.190708
  0
LINE
  8
0
 62
     4
 10
-124.255463
 20
46.079380
 11
-133.655457
 21
46.079380
  0
LINE
  8
0
 62
     4
 10
-124.255463
 20
45.790707
 11
-133.655457
 21
45.790707
  0
LINE
  8
0
 62
     4
 10
-124.855461
 20
42.290707
 11
-124.855461
 21
42.190708
  0
LINE
  8
0
 62
     4
 10
-133.055466
 20
42.290707
 11
-133.055466
 21
42.190708
  0
LINE
  8
0
 62
     4
 10
-124.255463
 20
46.790707
 11
-124.255463
 21
42.290707
  0
LINE
  8
0
 62
     4
 10
-133.655457
 20
46.790707
 11
-133.655457
 21
42.290707
  0
LINE
  8
0
 62
     4
 10
-124.255463
 20
46.790707
 11
-133.655457
 21
46.790707
  0
LINE
  8
0
 62
     4
 10
-124.255463
 20
42.290707
 11
-133.655457
 21
42.290707
  0
LINE
  8
0
 62
     4
 10
-123.955460
 20
42.190708
 11
-133.955460
 21
42.190708
  0
LINE
  8
0
 62
     4
 10
-123.955460
 20
36.190708
 11
-133.955460
 21
36.190708
  0
LINE
  8
0
 62
     4
 10
-123.955460
 20
31.590706
 11
-133.955460
 21
31.590706
  0
LINE
  8
0
 62
     4
 10
-123.955460
 20
28.090706
 11
-133.955460
 21
28.090706
  0
LINE
  8
0
 62
     4
 10
-124.955460
 20
17.290707
 11
-132.955460
 21
17.290707
  0
LINE
  8
0
 62
     4
 10
-124.955460
 20
19.390707
 11
-132.955460
 21
19.390707
  0
LINE
  8
0
 62
     4
 10
-124.655457
 20
17.590706
 11
-124.655457
 21
19.090706
  0
LINE
  8
0
 62
     4
 10
-128.608795
 20
19.390707
 11
-128.608795
 21
18.290707
  0
LINE
  8
0
 62
     4
 10
-128.755463
 20
19.390707
 11
-128.755463
 21
17.290707
  0
LINE
  8
0
 62
     4
 10
-129.155457
 20
19.390707
 11
-129.155457
 21
17.290707
  0
LINE
  8
0
 62
     4
 10
-129.302124
 20
19.390707
 11
-129.302124
 21
18.290707
  0
LINE
  8
0
 62
     4
 10
-131.255463
 20
19.390707
 11
-131.255463
 21
18.290707
  0
LINE
  8
0
 62
     4
 10
-126.655457
 20
19.390707
 11
-126.655457
 21
18.290707
  0
LINE
  8
0
 62
     4
 10
-126.255463
 20
18.290707
 11
-128.682129
 21
18.290707
  0
LINE
  8
0
 62
     4
 10
-131.855453
 20
18.090706
 11
-131.855453
 21
17.290707
  0
LINE
  8
0
 62
     4
 10
-126.055458
 20
18.090706
 11
-126.055458
 21
17.290707
  0
LINE
  8
0
 62
     4
 10
-129.228790
 20
18.290707
 11
-131.655457
 21
18.290707
  0
LINE
  8
0
 62
     4
 10
-129.228790
 20
18.290707
 11
-129.228790
 21
17.290707
  0
LINE
  8
0
 62
     4
 10
-128.682129
 20
18.290707
 11
-128.682129
 21
17.290707
  0
LINE
  8
0
 62
     4
 10
-133.255463
 20
17.590706
 11
-133.255463
 21
19.090706
  0
LINE
  8
0
 10
-136.455460
 20
-2.209293
 11
-121.455460
 21
-2.209293
  0
LINE
  8
0
 10
-121.455460
 20
15.590706
 11
-121.455460
 21
-48.009296
  0
LINE
  8
0
 10
-136.455460
 20
15.590706
 11
-136.455460
 21
-48.009296
  0
LINE
  8
0
 10
-122.955460
 20
17.090704
 11
-121.455460
 21
15.590703
  0
LINE
  8
0
 10
-136.455460
 20
15.590712
 11
-134.955460
 21
17.090708
  0
LINE
  8
0
 10
-134.955460
 20
17.090706
 11
-127.455460
 21
17.090706
  0
LINE
  8
0
  6
CENTER
 62
     2
 10
-130.955460
 20
6.490706
 11
-126.955460
 21
6.490706
  0
LINE
  8
0
 10
-127.455460
 20
17.090706
 11
-127.455460
 21
13.090706
  0
LINE
  8
0
 10
-121.455460
 20
13.090706
 11
-127.455460
 21
13.090706
  0
LINE
  8
0
 10
-127.455460
 20
16.590706
 11
-123.755463
 21
16.590706
  0
LINE
  8
0
 10
-123.755463
 20
16.590706
 11
-123.755463
 21
16.790707
  0
LINE
  8
0
 10
-123.455460
 20
17.090706
 11
-122.955460
 21
17.090706
  0
LINE
  8
0
 10
-121.655457
 20
13.090706
 11
-121.655457
 21
14.633169
  0
LINE
  8
0
 10
-127.255463
 20
13.090706
 11
-127.255463
 21
14.633169
  0
LINE
  8
0
 10
-130.655457
 20
-45.509296
 11
-130.655457
 21
-47.051758
  0
LINE
  8
0
 10
-136.255463
 20
-45.509296
 11
-136.255463
 21
-47.051758
  0
LINE
  8
0
 10
-134.155457
 20
-49.009296
 11
-134.155457
 21
-49.209297
  0
LINE
  8
0
 10
-134.455460
 20
-49.509296
 11
-134.955460
 21
-49.509296
  0
LINE
  8
0
 10
-130.455460
 20
-49.009296
 11
-134.155457
 21
-49.009296
  0
LINE
  8
0
 10
-136.455460
 20
-45.509296
 11
-130.455460
 21
-45.509296
  0
LINE
  8
0
 10
-130.455460
 20
-49.509296
 11
-130.455460
 21
-45.509296
  0
LINE
  8
0
  6
CENTER
 62
     2
 10
-126.955460
 20
-38.909294
 11
-130.955460
 21
-38.909294
  0
LINE
  8
0
 10
-122.955460
 20
-49.509296
 11
-130.455460
 21
-49.509296
  0
LINE
  8
0
 10
-121.455460
 20
-48.009296
 11
-122.955460
 21
-49.509293
  0
LINE
  8
0
 10
-134.955460
 20
-49.509293
 11
-136.455460
 21
-48.009296
  0
LINE
  8
0
 62
     4
 10
-124.655457
 20
-50.009296
 11
-124.655457
 21
-51.509296
  0
LINE
  8
0
 62
     4
 10
-129.228790
 20
-50.709297
 11
-129.228790
 21
-49.709297
  0
LINE
  8
0
 62
     4
 10
-128.682129
 20
-50.709297
 11
-128.682129
 21
-49.709297
  0
LINE
  8
0
 62
     4
 10
-128.682129
 20
-50.709297
 11
-126.255463
 21
-50.709297
  0
LINE
  8
0
 62
     4
 10
-131.855453
 20
-50.509296
 11
-131.855453
 21
-49.709297
  0
LINE
  8
0
 62
     4
 10
-126.055458
 20
-50.509296
 11
-126.055458
 21
-49.709297
  0
LINE
  8
0
 62
     4
 10
-131.655457
 20
-50.709297
 11
-129.228790
 21
-50.709297
  0
LINE
  8
0
 62
     4
 10
-131.255463
 20
-51.809296
 11
-131.255463
 21
-50.709297
  0
LINE
  8
0
 62
     4
 10
-126.655457
 20
-51.809296
 11
-126.655457
 21
-50.709297
  0
LINE
  8
0
 62
     4
 10
-128.608795
 20
-51.809296
 11
-128.608795
 21
-50.709297
  0
LINE
  8
0
 62
     4
 10
-128.755463
 20
-51.809296
 11
-128.755463
 21
-49.709297
  0
LINE
  8
0
 62
     4
 10
-129.155457
 20
-51.809296
 11
-129.155457
 21
-49.709297
  0
LINE
  8
0
 62
     4
 10
-129.302124
 20
-51.809296
 11
-129.302124
 21
-50.709297
  0
LINE
  8
0
 62
     4
 10
-133.255463
 20
-50.009296
 11
-133.255463
 21
-51.509296
  0
LINE
  8
0
 62
     4
 10
-132.955460
 20
-51.809296
 11
-124.955460
 21
-51.809296
  0
LINE
  8
0
 62
     4
 10
-132.955460
 20
-49.709297
 11
-124.955460
 21
-49.709297
  0
LINE
  8
0
 62
     4
 10
-133.955460
 20
-60.509296
 11
-123.955460
 21
-60.509296
  0
LINE
  8
0
 62
     4
 10
-133.955460
 20
-64.009293
 11
-123.955460
 21
-64.009293
  0
LINE
  8
0
 62
     4
 10
-133.955460
 20
-68.609299
 11
-123.955460
 21
-68.609299
  0
LINE
  8
0
 62
     4
 10
-133.955460
 20
-74.609299
 11
-123.955460
 21
-74.609299
  0
LINE
  8
0
 62
     4
 10
-133.655457
 20
-74.709290
 11
-124.255463
 21
-74.709290
  0
LINE
  8
0
 62
     4
 10
-133.655457
 20
-79.209290
 11
-124.255463
 21
-79.209290
  0
LINE
  8
0
 62
     4
 10
-124.255463
 20
-79.209290
 11
-124.255463
 21
-74.709290
  0
LINE
  8
0
 62
     4
 10
-133.655457
 20
-79.209290
 11
-133.655457
 21
-74.709290
  0
LINE
  8
0
 62
     4
 10
-124.855461
 20
-74.709290
 11
-124.855461
 21
-74.609299
  0
LINE
  8
0
 62
     4
 10
-133.055466
 20
-74.709290
 11
-133.055466
 21
-74.609299
  0
LINE
  8
0
 62
     4
 10
-133.655457
 20
-78.209290
 11
-124.255463
 21
-78.209290
  0
LINE
  8
0
 62
     4
 10
-133.655457
 20
-78.497971
 11
-124.255463
 21
-78.497971
  0
LINE
  8
0
 62
     4
 10
-133.955460
 20
-49.009296
 11
-133.955460
 21
-74.609299
  0
LINE
  8
0
 62
     4
 10
-123.955460
 20
-49.509296
 11
-123.955460
 21
-74.609299
  0
LINE
  8
0
  6
CENTER
 62
     2
 10
-128.955460
 20
64.566269
 11
-128.955460
 21
-96.984848
  0
LINE
  8
0
 62
     4
 10
-130.780457
 20
46.790707
 11
-130.780457
 21
52.775372
  0
LINE
  8
0
 62
     4
 10
-132.210464
 20
46.790707
 11
-132.210464
 21
53.156708
  0
LINE
  8
0
 62
     1
 10
-123.375458
 20
50.800709
 11
-134.473770
 21
53.760258
  0
LINE
  8
0
 62
     1
 10
-123.375450
 20
52.040707
 11
-134.473755
 21
55.000259
  0
LINE
  8
0
 62
     4
 10
-130.780457
 20
54.015373
 11
-130.780457
 21
57.220707
  0
LINE
  8
0
 62
     4
 10
-132.210464
 20
54.396706
 11
-132.210464
 21
57.220707
  0
LINE
  8
0
 62
     4
 10
-131.095459
 20
57.220707
 11
-131.095459
 21
62.220707
  0
LINE
  8
0
 62
     4
 10
-131.895462
 20
57.220707
 11
-131.895462
 21
62.220707
  0
LINE
  8
0
 62
     4
 10
-130.780457
 20
57.220707
 11
-132.210464
 21
57.220707
  0
LINE
  8
0
 62
     4
 10
-131.095459
 20
62.220707
 11
-131.895462
 21
62.220707
  0
LINE
  8
0
 62
     4
 10
-125.700462
 20
46.790707
 11
-125.700462
 21
51.420708
  0
LINE
  8
0
 62
     4
 10
-127.130463
 20
46.790707
 11
-127.130463
 21
51.790707
  0
LINE
  8
0
 62
     4
 10
-126.815460
 20
62.220707
 11
-126.015457
 21
62.220707
  0
LINE
  8
0
 62
     4
 10
-127.130463
 20
57.220707
 11
-125.700462
 21
57.220707
  0
LINE
  8
0
 62
     4
 10
-126.015457
 20
57.220707
 11
-126.015457
 21
62.220707
  0
LINE
  8
0
 62
     4
 10
-126.815460
 20
57.220707
 11
-126.815460
 21
62.220707
  0
LINE
  8
0
 62
     4
 10
-127.130463
 20
53.030708
 11
-127.130463
 21
57.220707
  0
LINE
  8
0
 62
     4
 10
-125.700462
 20
52.650707
 11
-125.700462
 21
57.220707
  0
LINE
  8
0
 62
     4
 10
-127.130463
 20
-79.209290
 11
-127.130463
 21
-85.193970
  0
LINE
  8
0
 62
     4
 10
-125.700462
 20
-79.209290
 11
-125.700462
 21
-85.575302
  0
LINE
  8
0
 62
     4
 10
-132.210464
 20
-79.209290
 11
-132.210464
 21
-83.839294
  0
LINE
  8
0
 62
     4
 10
-130.780457
 20
-79.209290
 11
-130.780457
 21
-84.209290
  0
LINE
  8
0
 62
     4
 10
-132.210464
 20
-85.069290
 11
-132.210464
 21
-89.639297
  0
LINE
  8
0
 62
     4
 10
-130.780457
 20
-85.449295
 11
-130.780457
 21
-89.639297
  0
LINE
  8
0
 62
     4
 10
-131.095459
 20
-89.639297
 11
-131.095459
 21
-94.639297
  0
LINE
  8
0
 62
     4
 10
-131.895462
 20
-89.639297
 11
-131.895462
 21
-94.639297
  0
LINE
  8
0
 62
     4
 10
-130.780457
 20
-89.639297
 11
-132.210464
 21
-89.639297
  0
LINE
  8
0
 62
     4
 10
-131.095459
 20
-94.639297
 11
-131.895462
 21
-94.639297
  0
LINE
  8
0
 62
     4
 10
-126.815460
 20
-94.639297
 11
-126.015457
 21
-94.639297
  0
LINE
  8
0
 62
     4
 10
-127.130463
 20
-89.639297
 11
-125.700462
 21
-89.639297
  0
LINE
  8
0
 62
     4
 10
-126.015457
 20
-89.639297
 11
-126.015457
 21
-94.639297
  0
LINE
  8
0
 62
     4
 10
-126.815460
 20
-89.639297
 11
-126.815460
 21
-94.639297
  0
LINE
  8
0
 62
     4
 10
-125.700462
 20
-86.815292
 11
-125.700462
 21
-89.639297
  0
LINE
  8
0
 62
     4
 10
-127.130463
 20
-86.433960
 11
-127.130463
 21
-89.639297
  0
LINE
  8
0
 62
     1
 10
-134.535461
 20
-84.459297
 11
-123.437157
 21
-87.418846
  0
LINE
  8
0
 62
     1
 10
-134.535461
 20
-83.219299
 11
-123.437149
 21
-86.178856
  0
LINE
  8
0
  6
CENTER
 62
     2
 10
-135.155457
 20
-6.209293
 11
-128.755463
 21
-6.209293
  0
LINE
  8
0
  6
CENTER
 62
     2
 10
-131.955460
 20
-3.009294
 11
-131.955460
 21
-9.409293
  0
LINE
  8
0
  6
CENTER
 62
     2
 10
-132.887451
 20
-16.209293
 11
-124.741371
 21
-16.209293
  0
LINE
  8
0
  6
CENTER
 62
     2
 10
-129.155457
 20
-26.209293
 11
-122.755463
 21
-26.209293
  0
LINE
  8
0
  6
CENTER
 62
     2
 10
-125.955460
 20
-23.009293
 11
-125.955460
 21
-29.409294
  0
LINE
  8
0
 10
1.503492
 20
-5.399293
 11
1.503492
 21
-9.029293
  0
LINE
  8
0
 10
0.903492
 20
-5.399293
 11
0.903492
 21
-9.029293
  0
LINE
  8
0
 10
0.903492
 20
-9.029293
 11
3.903492
 21
-9.029293
  0
LINE
  8
0
 10
0.903492
 20
-5.399293
 11
3.903492
 21
-5.399293
  0
LINE
  8
0
  6
CENTER
 62
     2
 10
-0.146507
 20
-7.209293
 11
4.893492
 21
-7.209293
  0
LINE
  8
0
  6
CENTER
 62
     2
 10
-18.596508
 20
-11.209293
 11
-11.936508
 21
-11.209293
  0
LINE
  8
0
  6
CENTER
 62
     2
 10
-18.266508
 20
-21.209293
 11
-11.596508
 21
-21.209293
  0
LINE
  8
0
  6
CENTER
 62
     2
 10
-15.096508
 20
-7.209293
 11
-15.096508
 21
-24.549294
  0
LINE
  8
0
 10
-20.096508
 20
-30.209293
 11
3.903492
 21
-30.209293
  0
LINE
  8
0
 10
3.703491
 20
-45.509293
 11
3.703491
 21
-47.051758
  0
LINE
  8
0
 10
3.903492
 20
-45.509293
 11
3.903492
 21
-49.509293
  0
LINE
  8
0
 10
3.903492
 20
-45.509293
 11
-2.096508
 21
-45.509293
  0
LINE
  8
0
 62
     4
 10
13.203491
 20
16.590706
 11
12.703491
 21
16.590706
  0
LINE
  8
0
 10
3.903492
 20
-2.209293
 11
-20.096508
 21
-2.209293
  0
LINE
  8
0
 10
12.703491
 20
5.690706
 11
12.703491
 21
17.090706
  0
LINE
  8
0
 10
12.303493
 20
5.290707
 11
4.403492
 21
5.290707
  0
LINE
  8
0
 10
-20.096508
 20
-49.009293
 11
-19.596508
 21
-49.509293
  0
LINE
  8
0
 10
-19.596508
 20
-49.509293
 11
-2.096508
 21
-49.509293
  0
LINE
  8
0
 10
-1.896507
 20
-45.509293
 11
-1.896507
 21
-47.051758
  0
LINE
  8
0
 62
     4
 10
-5.705691
 20
31.590706
 11
-4.894587
 21
36.190708
  0
LINE
  8
0
 62
     4
 10
-4.396508
 20
30.290707
 11
-4.396508
 21
36.190708
  0
LINE
  8
0
 62
     4
 10
-4.894587
 20
36.190708
 11
-4.396508
 21
36.190708
  0
LINE
  8
0
 62
     4
 10
-4.296508
 20
35.590706
 11
-4.396508
 21
35.590706
  0
LINE
  8
0
 62
     4
 10
11.703491
 20
30.290707
 11
11.703491
 21
17.790707
  0
LINE
  8
0
 62
     4
 10
-12.396508
 20
31.590706
 11
-5.705690
 21
31.590706
  0
LINE
  8
0
 62
     4
 10
11.703491
 20
30.290707
 11
-4.396508
 21
30.290707
  0
LINE
  8
0
 62
     4
 10
13.203491
 20
16.590706
 11
13.203491
 21
17.490707
  0
LINE
  8
0
 62
     4
 10
13.203491
 20
17.790707
 11
11.703491
 21
17.790707
  0
LINE
  8
0
 62
     4
 10
13.203490
 20
17.490705
 11
12.903490
 21
17.790705
  0
LINE
  8
0
 62
     4
 10
-18.796509
 20
28.090706
 11
-13.013653
 21
28.090706
  0
LINE
  8
0
 62
     4
 10
-11.896508
 20
30.590706
 11
-8.696508
 21
30.590706
  0
LINE
  8
0
 62
     4
 10
-11.796508
 20
30.690708
 11
-11.796508
 21
30.590706
  0
LINE
  8
0
 62
     4
 10
-11.896508
 20
31.590706
 11
-11.896508
 21
30.590706
  0
LINE
  8
0
 62
     4
 10
-13.013653
 20
28.090704
 11
-12.396508
 21
31.590704
  0
LINE
  8
0
 62
     4
 10
-11.296508
 20
31.190708
 11
-9.296508
 21
31.190708
  0
LINE
  8
0
 62
     4
 10
-8.796508
 20
30.690708
 11
-8.796508
 21
30.590706
  0
LINE
  8
0
 62
     4
 10
-8.696508
 20
31.590706
 11
-8.696508
 21
30.590706
  0
LINE
  8
0
 62
     4
 10
-18.096508
 20
27.390705
 11
-18.096508
 21
19.790707
  0
LINE
  8
0
 62
     4
 10
-18.796509
 20
-49.509293
 11
-18.796509
 21
-60.509293
  0
LINE
  8
0
 62
     4
 10
-17.296509
 20
27.390705
 11
-17.296509
 21
19.790707
  0
LINE
  8
0
 62
     4
 10
-17.296509
 20
27.390705
 11
-18.096508
 21
27.390705
  0
LINE
  8
0
 62
     4
 10
-18.096508
 20
19.790707
 11
-17.296509
 21
19.790707
  0
LINE
  8
0
 62
     4
 10
13.203491
 20
17.790707
 11
13.203491
 21
35.890705
  0
LINE
  8
0
 62
     4
 10
1.003492
 20
36.190708
 11
12.903492
 21
36.190708
  0
LINE
  8
0
 62
     4
 10
-4.296508
 20
41.690708
 11
-4.296508
 21
30.290707
  0
LINE
  8
0
 62
     4
 10
1.003492
 20
41.690708
 11
1.003492
 21
36.190708
  0
LINE
  8
0
 62
     4
 10
0.803247
 20
45.790707
 11
2.003492
 21
45.790707
  0
LINE
  8
0
 62
     4
 10
-4.296507
 20
45.790707
 11
-4.796509
 21
46.079388
  0
LINE
  8
0
 62
     4
 10
-4.796508
 20
46.079380
 11
-4.796508
 21
46.790707
  0
LINE
  8
0
 62
     4
 10
-3.596508
 20
41.690708
 11
-3.596508
 21
41.790707
  0
LINE
  8
0
 62
     4
 10
-4.796508
 20
46.790707
 11
0.503492
 21
46.790707
  0
LINE
  8
0
 62
     4
 10
0.803248
 20
45.790707
 11
0.503492
 21
44.090702
  0
LINE
  8
0
  6
PHANTOM
 62
     4
 10
0.503492
 20
42.590706
 11
0.503492
 21
44.089321
  0
LINE
  8
0
 62
     4
 10
0.503492
 20
41.690708
 11
0.503492
 21
46.790707
  0
LINE
  8
0
 62
     4
 10
0.503492
 20
41.790707
 11
-4.296508
 21
41.790707
  0
LINE
  8
0
 62
     4
 10
-4.296508
 20
41.790707
 11
-4.296508
 21
45.790707
  0
LINE
  8
0
 62
     4
 10
-4.296508
 20
41.690708
 11
1.003492
 21
41.690708
  0
LINE
  8
0
 62
     4
 10
2.003492
 20
45.079380
 11
2.003492
 21
45.790707
  0
LINE
  8
0
 62
     4
 10
1.503494
 20
44.790707
 11
2.003493
 21
45.079384
  0
LINE
  8
0
 62
     4
 10
1.003492
 20
37.390705
 11
1.503493
 21
38.256733
  0
LINE
  8
0
 62
     4
 10
1.503492
 20
38.256733
 11
1.503492
 21
44.790707
  0
LINE
  8
0
 10
-2.096508
 20
-45.509293
 11
-2.096508
 21
-49.509293
  0
LINE
  8
0
 10
3.903492
 20
-49.009293
 11
-2.096508
 21
-49.009293
  0
LINE
  8
0
 10
3.903492
 20
-49.509293
 11
12.703491
 21
-49.509293
  0
LINE
  8
0
 10
12.303493
 20
8.090707
 11
4.303492
 21
8.090707
  0
LINE
  8
0
 10
-20.096508
 20
-49.009293
 11
-20.096508
 21
16.590706
  0
LINE
  8
0
 10
3.903492
 20
-40.109295
 11
3.903492
 21
7.690706
  0
LINE
  8
0
 10
-18.796509
 20
17.090706
 11
-19.596508
 21
17.090706
  0
LINE
  8
0
 10
-14.096508
 20
16.590706
 11
-18.996508
 21
16.590706
  0
LINE
  8
0
 10
12.303493
 20
-40.509293
 11
4.303492
 21
-40.509293
  0
LINE
  8
0
 10
-14.296508
 20
13.090706
 11
-14.296508
 21
14.633169
  0
LINE
  8
0
 10
-14.096508
 20
13.090706
 11
-14.096508
 21
17.090706
  0
LINE
  8
0
 10
-14.096508
 20
13.090706
 11
-20.096508
 21
13.090706
  0
LINE
  8
0
 62
     4
 10
13.203491
 20
-49.009293
 11
12.703491
 21
-49.009293
  0
LINE
  8
0
 10
12.703491
 20
-38.109291
 11
12.703491
 21
-49.509293
  0
LINE
  8
0
 10
12.303493
 20
-37.709293
 11
4.403492
 21
-37.709293
  0
LINE
  8
0
 10
-20.096508
 20
16.590708
 11
-19.596508
 21
17.090706
  0
LINE
  8
0
 10
12.703491
 20
17.090706
 11
-14.096508
 21
17.090706
  0
LINE
  8
0
 10
-18.996508
 20
17.090706
 11
-18.996508
 21
16.590706
  0
LINE
  8
0
 10
-19.896507
 20
13.090706
 11
-19.896507
 21
14.633169
  0
LINE
  8
0
 62
     4
 10
-5.705691
 20
-64.009293
 11
-4.894587
 21
-68.609291
  0
LINE
  8
0
 62
     4
 10
-4.396508
 20
-62.709293
 11
-4.396508
 21
-68.609299
  0
LINE
  8
0
 62
     4
 10
-4.894587
 20
-68.609299
 11
-4.396508
 21
-68.609299
  0
LINE
  8
0
 62
     4
 10
-4.296508
 20
-68.009293
 11
-4.396508
 21
-68.009293
  0
LINE
  8
0
 62
     4
 10
11.703491
 20
-62.709293
 11
11.703491
 21
-50.209293
  0
LINE
  8
0
 62
     4
 10
-12.396508
 20
-64.009293
 11
-5.705690
 21
-64.009293
  0
LINE
  8
0
 62
     4
 10
11.703491
 20
-62.709293
 11
-4.396508
 21
-62.709293
  0
LINE
  8
0
 62
     4
 10
13.203491
 20
-49.009293
 11
13.203491
 21
-49.909294
  0
LINE
  8
0
 62
     4
 10
13.203491
 20
-50.209293
 11
11.703491
 21
-50.209293
  0
LINE
  8
0
 62
     4
 10
13.203492
 20
-49.909294
 11
12.903493
 21
-50.209293
  0
LINE
  8
0
 62
     4
 10
-18.796509
 20
-60.509293
 11
-13.013653
 21
-60.509293
  0
LINE
  8
0
 62
     4
 10
-11.896508
 20
-63.009293
 11
-8.696508
 21
-63.009293
  0
LINE
  8
0
 62
     4
 10
-11.796508
 20
-63.109295
 11
-11.796508
 21
-63.009293
  0
LINE
  8
0
 62
     4
 10
-11.896508
 20
-64.009293
 11
-11.896508
 21
-63.009293
  0
LINE
  8
0
 62
     4
 10
-13.013652
 20
-60.509293
 11
-12.396507
 21
-64.009293
  0
LINE
  8
0
 62
     4
 10
-11.296508
 20
-63.609295
 11
-9.296508
 21
-63.609295
  0
LINE
  8
0
 62
     4
 10
-8.796508
 20
-63.109295
 11
-8.796508
 21
-63.009293
  0
LINE
  8
0
 62
     4
 10
-8.696508
 20
-64.009293
 11
-8.696508
 21
-63.009293
  0
LINE
  8
0
 62
     4
 10
-18.096508
 20
-59.809292
 11
-18.096508
 21
-52.209293
  0
LINE
  8
0
 62
     4
 10
-18.796509
 20
16.590706
 11
-18.796509
 21
28.090706
  0
LINE
  8
0
 62
     4
 10
-17.296509
 20
-59.809292
 11
-17.296509
 21
-52.209293
  0
LINE
  8
0
 62
     4
 10
-17.296509
 20
-59.809292
 11
-18.096508
 21
-59.809292
  0
LINE
  8
0
 62
     4
 10
-18.096508
 20
-52.209293
 11
-17.296509
 21
-52.209293
  0
LINE
  8
0
 62
     4
 10
13.203491
 20
-50.209293
 11
13.203491
 21
-68.309296
  0
LINE
  8
0
 62
     4
 10
1.003492
 20
-68.609299
 11
12.903492
 21
-68.609299
  0
LINE
  8
0
 62
     4
 10
-4.296508
 20
-74.109299
 11
-4.296508
 21
-62.709293
  0
LINE
  8
0
 62
     4
 10
1.003492
 20
-74.109299
 11
1.003492
 21
-68.609299
  0
LINE
  8
0
 62
     4
 10
0.803247
 20
-78.209290
 11
2.003492
 21
-78.209290
  0
LINE
  8
0
 62
     4
 10
-4.296512
 20
-78.209290
 11
-4.796513
 21
-78.497971
  0
LINE
  8
0
 62
     4
 10
-4.796508
 20
-78.497971
 11
-4.796508
 21
-79.209290
  0
LINE
  8
0
 62
     4
 10
-3.596508
 20
-74.109299
 11
-3.596508
 21
-74.209290
  0
LINE
  8
0
 62
     4
 10
-4.796508
 20
-79.209290
 11
0.503492
 21
-79.209290
  0
LINE
  8
0
 62
     4
 10
0.803247
 20
-78.209290
 11
0.503493
 21
-76.509300
  0
LINE
  8
0
  6
PHANTOM
 62
     4
 10
0.503492
 20
-75.009293
 11
0.503492
 21
-76.507904
  0
LINE
  8
0
 62
     4
 10
0.503492
 20
-74.109299
 11
0.503492
 21
-79.209290
  0
LINE
  8
0
 62
     4
 10
0.503492
 20
-74.209290
 11
-4.296508
 21
-74.209290
  0
LINE
  8
0
 62
     4
 10
-4.296508
 20
-74.209290
 11
-4.296508
 21
-78.209290
  0
LINE
  8
0
 62
     4
 10
-4.296508
 20
-74.109299
 11
1.003492
 21
-74.109299
  0
LINE
  8
0
 62
     4
 10
2.003492
 20
-77.497971
 11
2.003492
 21
-78.209290
  0
LINE
  8
0
 62
     4
 10
1.503493
 20
-77.209297
 11
2.003494
 21
-77.497971
  0
LINE
  8
0
 62
     4
 10
1.003496
 20
-69.809296
 11
1.503496
 21
-70.675316
  0
LINE
  8
0
 62
     4
 10
1.503492
 20
-70.675323
 11
1.503492
 21
-77.209290
  0
LINE
  8
0
 62
     4
 10
-1.281507
 20
46.790707
 11
-1.281507
 21
51.320705
  0
LINE
  8
0
 62
     4
 10
-2.711508
 20
46.790707
 11
-2.711508
 21
51.702042
  0
LINE
  8
0
 62
     1
 10
1.043492
 20
50.700706
 11
-4.956507
 21
52.300705
  0
LINE
  8
0
 62
     1
 10
1.043492
 20
51.940704
 11
-4.956508
 21
53.540707
  0
LINE
  8
0
 62
     4
 10
-1.281507
 20
52.560707
 11
-1.281507
 21
57.220707
  0
LINE
  8
0
 62
     4
 10
-2.711508
 20
52.942039
 11
-2.711508
 21
57.220707
  0
LINE
  8
0
 62
     4
 10
-2.396507
 20
57.220707
 11
-2.396507
 21
62.220707
  0
LINE
  8
0
 62
     4
 10
-1.596508
 20
57.220707
 11
-1.596508
 21
62.220707
  0
LINE
  8
0
 62
     4
 10
-2.711508
 20
57.220707
 11
-1.281507
 21
57.220707
  0
LINE
  8
0
 62
     4
 10
-2.396507
 20
62.220707
 11
-1.596508
 21
62.220707
  0
LINE
  8
0
 62
     4
 10
-2.711508
 20
-79.209290
 11
-2.711508
 21
-83.739288
  0
LINE
  8
0
 62
     4
 10
-1.281507
 20
-79.209290
 11
-1.281507
 21
-84.120621
  0
LINE
  8
0
 62
     4
 10
-1.596508
 20
-94.639297
 11
-2.396507
 21
-94.639297
  0
LINE
  8
0
 62
     4
 10
-1.281507
 20
-89.639297
 11
-2.711508
 21
-89.639297
  0
LINE
  8
0
 62
     4
 10
-2.396507
 20
-89.639297
 11
-2.396507
 21
-94.639297
  0
LINE
  8
0
 62
     4
 10
-1.596508
 20
-89.639297
 11
-1.596508
 21
-94.639297
  0
LINE
  8
0
 62
     4
 10
-1.281507
 20
-85.360626
 11
-1.281507
 21
-89.639297
  0
LINE
  8
0
 62
     4
 10
-2.711508
 20
-84.979294
 11
-2.711508
 21
-89.639297
  0
LINE
  8
0
 62
     1
 10
-5.036509
 20
-84.359291
 11
0.963491
 21
-85.959297
  0
LINE
  8
0
 62
     1
 10
-5.036511
 20
-83.119286
 11
0.963491
 21
-84.719292
  0
LINE
  8
0
  6
CENTER
 62
     2
 10
-17.596508
 20
-25.209293
 11
-22.596508
 21
-25.209293
  0
LINE
  8
0
  6
CENTER
 62
     2
 10
-17.596508
 20
-7.209293
 11
-22.596508
 21
-7.209293
  0
LINE
  8
0
 10
-194.250000
 20
132.600006
 11
194.800003
 21
132.600006
  0
LINE
  8
0
 10
194.800003
 20
132.600006
 11
194.800003
 21
-133.500000
  0
LINE
  8
0
 10
-194.250000
 20
132.600006
 11
-194.250000
 21
-133.500000
  0
LINE
  8
0
 10
-194.250000
 20
-133.500000
 11
194.800003
 21
-133.500000
  0
LINE
  8
0
 10
109.800003
 20
-118.500000
 11
109.800003
 21
-133.500000
  0
LINE
  8
0
 10
109.800003
 20
-118.500000
 11
194.800003
 21
-118.500000
  0
LINE
  8
0
 10
109.800003
 20
132.600006
 11
109.800003
 21
117.600006
  0
LINE
  8
0
 10
109.800003
 20
117.600006
 11
194.800003
 21
117.600006
  0
LINE
  8
0
 10
-194.250000
 20
117.600006
 11
-109.250000
 21
117.600006
  0
LINE
  8
0
 10
-109.250000
 20
132.600006
 11
-109.250000
 21
117.600006
  0
ARC
  8
0
 10
0.903492
 20
94.881523
 40
2.800000
 50
10.286561
 51
169.713440
  0
ARC
  8
0
 10
-17.096508
 20
85.881523
 40
2.800001
 50
127.383163
 51
349.713440
  0
ARC
  8
0
 10
12.303493
 20
97.481522
 40
0.400000
 50
0.000000
 51
90.000000
  0
ARC
  8
0
 10
-19.696508
 20
97.481522
 40
0.400002
 50
90.000000
 51
180.000000
  0
ARC
  8
0
 10
-19.696508
 20
83.281525
 40
0.400000
 50
180.000000
 51
270.000000
  0
ARC
  8
0
 10
12.303493
 20
83.281525
 40
0.400002
 50
270.000000
 51
0.000000
  0
CIRCLE
  8
0
 62
     4
 10
-1.996508
 20
87.841522
 40
0.750000
  0
CIRCLE
  8
0
 62
     4
 10
-1.996508
 20
92.921524
 40
0.750000
  0
ARC
  8
0
 62
     4
 10
-2.895844
 20
93.797180
 40
0.200668
 50
86.761612
 51
179.901978
  0
ARC
  8
0
 62
     4
 10
-2.896843
 20
92.046806
 40
0.199667
 50
179.794205
 51
273.541779
  0
ARC
  8
0
 62
     4
 10
-2.895844
 20
91.257179
 40
0.200668
 50
86.761612
 51
179.901978
  0
ARC
  8
0
 62
     4
 10
-2.896843
 20
89.506805
 40
0.199667
 50
179.794205
 51
273.541779
  0
ARC
  8
0
 62
     4
 10
-2.895844
 20
88.717178
 40
0.200668
 50
86.761612
 51
179.901978
  0
ARC
  8
0
 62
     4
 10
-2.896843
 20
86.966812
 40
0.199667
 50
179.794205
 51
273.541779
  0
ARC
  8
0
 62
     4
 10
0.703491
 20
85.681526
 40
0.300003
 50
270.000000
 51
0.000000
  0
ARC
  8
0
 62
     4
 10
0.703491
 20
95.081520
 40
0.300000
 50
0.000000
 51
90.000000
  0
ARC
  8
0
 62
     4
 10
12.903492
 20
95.081520
 40
0.300000
 50
0.000000
 51
90.000000
  0
ARC
  8
0
 62
     4
 10
12.903492
 20
85.681526
 40
0.300003
 50
270.000000
 51
0.000000
  0
CIRCLE
  8
0
 62
     4
 10
-8.546508
 20
90.381523
 40
2.050000
  0
ARC
  8
0
 62
     4
 10
-10.296508
 20
93.881523
 40
1.600000
 50
180.000000
 51
0.000000
  0
ARC
  8
0
 62
     4
 10
-10.296508
 20
86.881523
 40
1.600000
 50
0.000000
 51
180.000000
  0
CIRCLE
  8
0
 62
     4
 10
-8.546508
 20
90.381523
 40
1.900000
  0
CIRCLE
  8
0
 62
     4
 10
-8.546508
 20
90.381523
 40
1.850000
  0
ARC
  8
0
 62
     4
 10
-8.546508
 20
90.381523
 40
0.800003
 50
292.024231
 51
67.975754
  0
ARC
  8
0
 62
     4
 10
-8.546508
 20
90.381523
 40
0.800003
 50
112.024246
 51
247.975754
  0
CIRCLE
  8
0
 62
     4
 10
-10.296508
 20
93.881523
 40
1.500000
  0
CIRCLE
  8
0
 62
     4
 10
-10.296508
 20
86.881523
 40
1.500000
  0
ARC
  8
0
 10
107.398491
 20
-25.204294
 40
2.557656
 50
6.735992
 51
353.264008
  0
CIRCLE
  8
0
 10
107.398491
 20
-25.204294
 40
2.250000
  0
CIRCLE
  8
0
 10
96.406799
 20
-7.209293
 40
2.599999
  0
CIRCLE
  8
0
 10
96.398491
 20
-7.204293
 40
2.250000
  0
CIRCLE
  8
0
 10
101.903488
 20
8.090707
 40
2.000000
  0
ARC
  8
0
 10
107.453491
 20
16.790707
 40
0.299999
 50
90.000000
 51
180.000000
  0
ARC
  8
0
 10
96.353485
 20
16.790707
 40
0.300003
 50
0.000000
 51
90.000000
  0
ARC
  8
0
 10
105.558746
 20
7.590707
 40
0.500000
 50
90.000000
 51
150.000076
  0
ARC
  8
0
 10
103.364815
 20
5.790707
 40
0.500000
 50
270.000000
 51
330.000061
  0
ARC
  8
0
 10
98.248230
 20
7.590707
 40
0.500001
 50
29.999931
 51
90.000000
  0
ARC
  8
0
 10
100.326691
 20
5.590707
 40
0.300003
 50
209.999649
 51
270.000000
  0
ARC
  8
0
 62
     4
 10
97.203491
 20
35.890705
 40
0.299999
 50
90.000000
 51
180.000000
  0
ARC
  8
0
 62
     4
 10
106.603485
 20
35.890705
 40
0.300003
 50
0.000000
 51
90.000000
  0
ARC
  8
0
 62
     4
 10
106.603485
 20
-68.309296
 40
0.300003
 50
270.000000
 51
0.000000
  0
ARC
  8
0
 62
     4
 10
97.203491
 20
-68.309296
 40
0.300003
 50
180.000000
 51
270.000000
  0
ARC
  8
0
 10
100.326691
 20
-38.009293
 40
0.299999
 50
90.000000
 51
150.000107
  0
ARC
  8
0
 10
98.248230
 20
-40.009293
 40
0.500000
 50
270.000000
 51
330.000061
  0
ARC
  8
0
 10
103.364815
 20
-38.209293
 40
0.500001
 50
29.999931
 51
90.000000
  0
ARC
  8
0
 10
105.558746
 20
-40.009293
 40
0.500001
 50
209.999924
 51
270.000000
  0
ARC
  8
0
 10
96.353485
 20
-49.209293
 40
0.299999
 50
270.000000
 51
0.000000
  0
ARC
  8
0
 10
107.453491
 20
-49.209293
 40
0.300003
 50
180.000000
 51
270.000000
  0
CIRCLE
  8
0
 10
101.903488
 20
-40.509293
 40
2.000000
  0
CIRCLE
  8
0
 10
104.903488
 20
-11.209293
 40
2.500000
  0
CIRCLE
  8
0
 10
104.903488
 20
-11.209293
 40
1.750000
  0
CIRCLE
  8
0
 10
98.903488
 20
-21.209293
 40
2.500000
  0
CIRCLE
  8
0
 10
98.903488
 20
-21.209293
 40
1.750000
  0
ARC
  8
0
 10
96.403488
 20
-7.209293
 40
2.700000
 50
222.205444
 51
137.794556
  0
ARC
  8
0
 10
107.403488
 20
-25.209293
 40
2.700000
 50
42.205437
 51
317.794556
  0
ARC
  8
0
 62
     4
 10
-132.955460
 20
19.090706
 40
0.299999
 50
90.000000
 51
180.000000
  0
ARC
  8
0
 62
     4
 10
-132.955460
 20
17.590706
 40
0.300003
 50
180.000000
 51
270.000000
  0
ARC
  8
0
 62
     4
 10
-124.955460
 20
19.090706
 40
0.300003
 50
0.000000
 51
90.000000
  0
ARC
  8
0
 62
     4
 10
-124.955460
 20
17.590706
 40
0.299999
 50
270.000000
 51
0.000000
  0
ARC
  8
0
 62
     4
 10
-126.255463
 20
18.090706
 40
0.199997
 50
0.000000
 51
90.000000
  0
ARC
  8
0
 62
     4
 10
-131.655457
 20
18.090706
 40
0.200001
 50
90.000000
 51
180.000000
  0
CIRCLE
  8
0
 10
-128.955460
 20
6.490706
 40
0.900000
  0
ARC
  8
0
 10
-123.455460
 20
16.790707
 40
0.299999
 50
90.000000
 51
180.000000
  0
ARC
  8
0
 10
-124.455460
 20
10.490707
 40
5.000001
 50
55.944172
 51
124.055824
  0
ARC
  8
0
 10
-133.455460
 20
-42.909298
 40
5.000002
 50
235.944183
 51
304.055817
  0
ARC
  8
0
 10
-134.455460
 20
-49.209297
 40
0.299999
 50
270.000000
 51
0.000000
  0
CIRCLE
  8
0
 10
-128.955460
 20
-38.909294
 40
0.900000
  0
ARC
  8
0
 62
     4
 10
-126.255463
 20
-50.509296
 40
0.200001
 50
270.000000
 51
0.000000
  0
ARC
  8
0
 62
     4
 10
-131.655457
 20
-50.509296
 40
0.199997
 50
180.000000
 51
270.000000
  0
ARC
  8
0
 62
     4
 10
-132.955460
 20
-50.009296
 40
0.299999
 50
90.000000
 51
180.000000
  0
ARC
  8
0
 62
     4
 10
-132.955460
 20
-51.509296
 40
0.300003
 50
180.000000
 51
270.000000
  0
ARC
  8
0
 62
     4
 10
-124.955460
 20
-50.009296
 40
0.300003
 50
0.000000
 51
90.000000
  0
ARC
  8
0
 62
     4
 10
-124.955460
 20
-51.509296
 40
0.299999
 50
270.000000
 51
0.000000
  0
CIRCLE
  8
0
 10
-131.955460
 20
-6.209293
 40
1.750000
  0
CIRCLE
  8
0
 10
-131.955460
 20
-6.209293
 40
2.500000
  0
CIRCLE
  8
0
 10
-128.955460
 20
-16.209293
 40
1.750000
  0
CIRCLE
  8
0
 10
-128.955460
 20
-16.209293
 40
2.500000
  0
CIRCLE
  8
0
 10
-125.955460
 20
-26.209293
 40
1.750000
  0
CIRCLE
  8
0
 10
-125.955460
 20
-26.209293
 40
2.500000
  0
CIRCLE
  8
0
 10
-123.455460
 20
-7.209293
 40
1.400000
  0
CIRCLE
  8
0
 10
-134.455460
 20
-25.209293
 40
1.400000
  0
ARC
  8
0
 10
-2.796522
 20
-7.214293
 40
6.008218
 50
342.417053
 51
17.582951
  0
ARC
  8
0
 10
12.303493
 20
5.690706
 40
0.400000
 50
270.000000
 51
0.000000
  0
ARC
  8
0
 10
4.403492
 20
4.790707
 40
0.500000
 50
90.000000
 51
180.000000
  0
ARC
  8
0
 10
0.903492
 20
-42.909294
 40
5.000000
 50
235.944214
 51
304.055786
  0
ARC
  8
0
 62
     4
 10
-11.296508
 20
30.690708
 40
0.500000
 50
90.000000
 51
180.000000
  0
ARC
  8
0
 62
     4
 10
-9.296508
 20
30.690708
 40
0.500000
 50
0.000000
 51
90.000000
  0
ARC
  8
0
 62
     4
 10
12.903492
 20
35.890705
 40
0.300000
 50
0.000000
 51
90.000000
  0
ARC
  8
0
 10
12.303493
 20
8.490706
 40
0.400000
 50
270.000000
 51
0.000000
  0
ARC
  8
0
 10
4.303492
 20
7.690706
 40
0.400000
 50
90.000000
 51
180.000000
  0
ARC
  8
0
 10
4.303492
 20
-40.109295
 40
0.400000
 50
180.000000
 51
270.000000
  0
ARC
  8
0
 10
12.303493
 20
-40.909294
 40
0.400000
 50
0.000000
 51
90.000000
  0
ARC
  8
0
 10
12.303493
 20
-38.109291
 40
0.400000
 50
0.000000
 51
90.000000
  0
ARC
  8
0
 10
4.403492
 20
-37.209293
 40
0.500000
 50
180.000000
 51
270.000000
  0
ARC
  8
0
 10
-17.096508
 20
10.490707
 40
5.000000
 50
55.944199
 51
124.055786
  0
ARC
  8
0
 62
     4
 10
-11.296508
 20
-63.109295
 40
0.500000
 50
180.000000
 51
270.000000
  0
ARC
  8
0
 62
     4
 10
-9.296508
 20
-63.109295
 40
0.500000
 50
270.000000
 51
0.000000
  0
ARC
  8
0
 62
     4
 10
12.903492
 20
-68.309296
 40
0.300003
 50
270.000000
 51
0.000000
  0
CIRCLE
  8
0
 10
-15.096508
 20
-11.209293
 40
1.600000
  0
CIRCLE
  8
0
 10
-15.096508
 20
-21.209293
 40
1.600000
  0
TEXT
  8
0
 10
133.907150
 20
122.050003
 40
4.500000
  1
Ver. 1.1
 50
0.000000
 41
1.052632
 51
0.000000
  7
STANDARD
  0
TEXT
  8
0
 10
113.700287
 20
-130.669998
 40
6.300000
  1
KOGANEI CORP.
 50
0.000000
 41
1.052632
 51
0.000000
  7
STANDARD
  0
TEXT
  8
0
 10
-176.892654
 20
122.050003
 40
4.500000
  1
G110 SERIES
 50
0.000000
 41
1.052632
 51
0.000000
  7
STANDARD
  0
TEXT
  8
0
 10
-186.892654
 20
104.550003
 40
4.500000
  1
MODEL:G110-4E2-81-PSL
 50
0.000000
 41
1.052632
 51
0.000000
  7
STANDARD
  0
LINE
  8
0
 10
-128.055466
 20
-56.213413
 11
-127.857376
 21
-56.015327
  0
ENDSEC
  0
EOF
