  0
SECTION
  2
HEADER
  0
ENDSEC
  0
SECTION
  2
TABLES
  0
TABLE
  2
LTYPE
 70
     4
  0
LTYPE
  2
CONTINUOUS
 70
    64
  3
Solid line
 72
    65
 73
     0
 40
0.000000
  0
LTYPE
  2
DASHED
 70
    64
  3
__ __ __ __ __ __ __ __ __ __ __ __ __ __ __
 72
    65
 73
     2
 40
3.500000
 49
2.000000
 49
-1.500000
  0
LTYPE
  2
CENTER
 70
    64
  3
____ _ ____ _ ____ _ ____ _ ____ _ ____ _ ____
 72
    65
 73
     4
 40
17.500000
 49
13.000000
 49
-1.500000
 49
1.500000
 49
-1.500000
  0
LTYPE
  2
PHANTOM
 70
    64
  3
_____ _ _ _____ _ _ _____ _ _ _____ _ _ ____  
 72
    65
 73
     6
 40
15.500000
 49
8.000000
 49
-1.500000
 49
1.500000
 49
-1.500000
 49
1.500000
 49
-1.500000
  0
LTYPE
  2
DASHED1
 70
    64
  3
__ __ __ __ __ __ __ __ __ __ __ __ __ __ __
 72
    65
 73
     2
 40
1.500000
 49
1.000000
 49
-0.500000
  0
LTYPE
  2
DASHED2
 70
    64
  3
__ __ __ __ __ __ __ __ __ __ __ __ __ __ __
 72
    65
 73
     2
 40
3.500000
 49
2.500000
 49
-1.000000
  0
LTYPE
  2
DASHED3
 70
    64
  3
__ __ __ __ __ __ __ __ __ __ __ __ __ __ __
 72
    65
 73
     2
 40
6.000000
 49
4.000000
 49
-2.000000
  0
LTYPE
  2
DASHED4
 70
    64
  3
__ __ __ __ __ __ __ __ __ __ __ __ __ __ __
 72
    65
 73
     2
 40
12.000000
 49
10.000000
 49
-2.000000
  0
LTYPE
  2
DASHED5
 70
    64
  3
__ __ __ __ __ __ __ __ __ __ __ __ __ __ __
 72
    65
 73
     2
 40
17.000000
 49
15.000000
 49
-2.000000
  0
LTYPE
  2
DASHED6
 70
    64
  3
__ __ __ __ __ __ __ __ __ __ __ __ __ __ __
 72
    65
 73
     2
 40
29.000000
 49
27.000000
 49
-2.000000
  0
LTYPE
  2
PHANTOM1
 70
    64
  3
_____ _ _ _____ _ _ _____ _ _ _____ _ _ ____  
 72
    65
 73
     6
 40
31.000000
 49
25.000000
 49
-1.500000
 49
1.000000
 49
-1.000000
 49
1.000000
 49
-1.500000
  0
LTYPE
  2
PHANTOM2
 70
    64
  3
_____ _ _ _____ _ _ _____ _ _ _____ _ _ ____  
 72
    65
 73
     6
 40
36.000000
 49
27.000000
 49
-1.500000
 49
2.500000
 49
-1.000000
 49
2.500000
 49
-1.500000
  0
LTYPE
  2
PHANTOM3
 70
    64
  3
_____ _ _ _____ _ _ _____ _ _ _____ _ _ ____  
 72
    65
 73
     6
 40
78.000000
 49
64.000000
 49
-2.000000
 49
4.000000
 49
-2.000000
 49
4.000000
 49
-2.000000
  0
LTYPE
  2
CENTER1
 70
    64
  3
____ _ ____ _ ____ _ ____ _ ____ _ ____ _ ____
 72
    65
 73
     4
 40
19.000000
 49
14.000000
 49
-1.000000
 49
3.000000
 49
-1.000000
  0
LTYPE
  2
CENTER2
 70
    64
  3
____ _ ____ _ ____ _ ____ _ ____ _ ____ _ ____
 72
    65
 73
     4
 40
28.500000
 49
25.000000
 49
-1.000000
 49
1.500000
 49
-1.000000
  0
LTYPE
  2
CENTER3
 70
    64
  3
____ _ ____ _ ____ _ ____ _ ____ _ ____ _ ____
 72
    65
 73
     4
 40
31.500000
 49
27.000000
 49
-1.000000
 49
2.500000
 49
-1.000000
  0
LTYPE
  2
CENTER4
 70
    64
  3
____ _ ____ _ ____ _ ____ _ ____ _ ____ _ ____
 72
    65
 73
     4
 40
50.000000
 49
45.000000
 49
-1.000000
 49
3.000000
 49
-1.000000
  0
LTYPE
  2
CENTER5
 70
    64
  3
____ _ ____ _ ____ _ ____ _ ____ _ ____ _ ____
 72
    65
 73
     4
 40
100.000000
 49
92.000000
 49
-2.000000
 49
4.000000
 49
-2.000000
  0
LTYPE
  2
SBK1
 70
    64
  3
______ _ _ _ ______ _ _ _ ______ _ _ _ _____  
 72
    65
 73
     8
 40
60.500000
 49
45.000000
 49
-2.000000
 49
2.500000
 49
-2.000000
 49
2.500000
 49
-2.000000
 49
2.500000
 49
-2.000000
  0
LTYPE
  2
SBK2
 70
    64
  3
______ _ _ _ ______ _ _ _ ______ _ _ _ _____  
 72
    65
 73
     8
 40
84.000000
 49
64.000000
 49
-2.000000
 49
4.000000
 49
-2.000000
 49
4.000000
 49
-2.000000
 49
4.000000
 49
-2.000000
  0
LTYPE
  2
STCH
 70
    64
  3
__ __ __ __ __ __ __ __ __ __ __ __ __ __ __
 72
    65
 73
     2
 40
3.000000
 49
1.000000
 49
-2.000000
  0
LTYPE
  2
MTCH
 70
    64
  3
_____ _ _ _____ _ _ _____ _ _ _____ _ _ ____  
 72
    65
 73
     6
 40
80.000000
 49
66.000000
 49
-2.000000
 49
4.000000
 49
-2.000000
 49
4.000000
 49
-2.000000
  0
ENDTAB
  0
TABLE
  2
LAYER
 70
     1
  0
LAYER
  2
0
 70
     0
 62
     7
  6
CONTINUOUS
  0
ENDTAB
  0
TABLE
  2
STYLE
 70
     1
  0
STYLE
  2
STANDARD
 70
     0
 40
0.000000
 41
1.000000
 50
0.000000
 71
     0
 42
0.200000
  3
txt
  4
BIGFONT
  0
ENDTAB
  0
TABLE
  2
VIEW
 70
     0
  0
ENDTAB
  0
ENDSEC
  0
SECTION
  2
BLOCKS
  0
ENDSEC
  0
SECTION
  2
ENTITIES
  0
LINE
  8
0
 10
-15.096509
 20
107.288620
 11
-15.096509
 21
93.088623
  0
LINE
  8
0
  6
CENTER
 62
     2
 10
-17.406509
 20
100.188622
 11
20.339424
 21
100.188622
  0
LINE
  8
0
 10
-14.596509
 20
106.188622
 11
-15.034487
 21
107.502563
  0
LINE
  8
0
 10
-14.596509
 20
98.688622
 11
-14.596509
 21
106.188622
  0
LINE
  8
0
 10
-13.996509
 20
98.688622
 11
-13.996509
 21
105.732727
  0
LINE
  8
0
 10
-14.696509
 20
107.688622
 11
17.303493
 21
107.688622
  0
LINE
  8
0
 10
-14.696509
 20
92.688622
 11
17.303493
 21
92.688622
  0
LINE
  8
0
 10
17.703491
 20
95.188622
 11
17.703491
 21
93.088623
  0
LINE
  8
0
 10
17.703491
 20
105.188622
 11
17.703491
 21
107.288620
  0
LINE
  8
0
 10
-9.096509
 20
92.688622
 11
-9.096509
 21
95.188622
  0
LINE
  8
0
 10
-15.096509
 20
98.688622
 11
-13.796509
 21
98.688622
  0
LINE
  8
0
 10
8.903491
 20
105.188622
 11
8.903491
 21
107.688622
  0
LINE
  8
0
 10
2.903491
 20
105.188622
 11
2.903491
 21
107.688622
  0
LINE
  8
0
 10
6.403488
 20
105.188622
 11
7.254291
 21
106.039429
  0
LINE
  8
0
 10
-13.447309
 20
94.337822
 11
-12.596510
 21
95.188622
  0
LINE
  8
0
 10
4.552695
 20
106.039429
 11
5.403497
 21
105.188622
  0
LINE
  8
0
 10
-11.596509
 20
95.188622
 11
-10.745707
 21
94.337822
  0
LINE
  8
0
 10
17.703491
 20
105.438622
 11
8.903491
 21
105.438622
  0
LINE
  8
0
 10
17.703491
 20
94.938622
 11
-9.096509
 21
94.938622
  0
LINE
  8
0
 10
2.903491
 20
105.438622
 11
-13.996509
 21
105.438622
  0
LINE
  8
0
 10
-9.096509
 20
94.188622
 11
17.703491
 21
94.188622
  0
LINE
  8
0
 10
-14.596509
 20
106.188622
 11
2.903491
 21
106.188622
  0
LINE
  8
0
 10
8.903491
 20
106.188622
 11
17.703491
 21
106.188622
  0
LINE
  8
0
 62
     4
 10
0.703491
 20
104.888618
 11
0.703491
 21
105.188622
  0
LINE
  8
0
 62
     4
 10
0.603491
 20
104.888618
 11
0.603491
 21
105.188622
  0
LINE
  8
0
 62
     4
 10
6.003491
 20
97.688622
 11
6.003491
 21
95.488625
  0
LINE
  8
0
 62
     4
 10
5.003491
 20
97.688622
 11
5.003491
 21
97.288620
  0
LINE
  8
0
 62
     4
 10
5.803491
 20
102.688622
 11
5.803491
 21
97.688622
  0
LINE
  8
0
 62
     4
 10
7.003491
 20
102.688622
 11
7.003491
 21
97.688622
  0
LINE
  8
0
 62
     4
 10
4.503491
 20
103.888618
 11
4.503491
 21
96.488625
  0
LINE
  8
0
 62
     4
 10
0.203491
 20
104.888618
 11
5.503491
 21
104.888618
  0
LINE
  8
0
 62
     4
 10
0.203491
 20
95.488625
 11
5.503491
 21
95.488625
  0
LINE
  8
0
 62
     4
 10
0.203491
 20
104.888618
 11
0.203491
 21
95.488625
  0
LINE
  8
0
 62
     4
 10
1.903491
 20
103.278625
 11
1.403491
 21
103.278625
  0
LINE
  8
0
 62
     4
 10
1.903491
 20
102.178619
 11
1.403491
 21
102.178619
  0
LINE
  8
0
 62
     4
 10
4.003491
 20
103.678619
 11
4.003491
 21
101.778625
  0
LINE
  8
0
 62
     4
 10
1.903491
 20
103.604622
 11
1.903491
 21
101.854622
  0
LINE
  8
0
 62
     4
 10
1.403491
 20
103.278625
 11
1.403491
 21
102.178619
  0
LINE
  8
0
 62
     4
 10
5.503491
 20
98.938622
 11
4.503491
 21
98.938622
  0
LINE
  8
0
 62
     4
 10
5.503491
 20
101.438622
 11
4.503491
 21
101.438622
  0
LINE
  8
0
 62
     4
 10
5.503491
 20
104.888618
 11
5.503491
 21
103.888618
  0
LINE
  8
0
 62
     4
 10
4.503491
 20
103.888618
 11
5.503491
 21
103.888618
  0
LINE
  8
0
 62
     4
 10
5.503491
 20
95.488625
 11
5.503491
 21
96.488625
  0
LINE
  8
0
 62
     4
 10
4.503491
 20
96.488625
 11
5.503491
 21
96.488625
  0
LINE
  8
0
 62
     4
 10
4.003492
 20
101.778618
 11
2.115493
 21
101.654625
  0
LINE
  8
0
 62
     4
 10
2.115491
 20
103.804619
 11
4.003491
 21
103.678619
  0
LINE
  8
0
 62
     4
 10
4.003491
 20
101.138618
 11
4.003491
 21
99.238625
  0
LINE
  8
0
 62
     4
 10
2.115491
 20
101.264626
 11
4.003491
 21
101.138626
  0
LINE
  8
0
 62
     4
 10
1.903491
 20
101.064621
 11
1.903491
 21
99.314621
  0
LINE
  8
0
 62
     4
 10
1.903491
 20
100.738625
 11
1.403491
 21
100.738625
  0
LINE
  8
0
 62
     4
 10
1.403491
 20
100.738625
 11
1.403491
 21
99.638618
  0
LINE
  8
0
 62
     4
 10
1.903491
 20
99.638618
 11
1.403491
 21
99.638618
  0
LINE
  8
0
 62
     4
 10
4.003490
 20
99.238625
 11
2.115491
 21
99.114624
  0
LINE
  8
0
 62
     4
 10
3.403491
 20
100.588623
 11
2.603492
 21
100.588623
  0
LINE
  8
0
 62
     4
 10
3.403491
 20
99.788620
 11
3.403491
 21
100.588623
  0
LINE
  8
0
 62
     4
 10
3.403491
 20
99.788620
 11
2.603492
 21
99.788620
  0
LINE
  8
0
 62
     4
 10
2.603492
 20
99.788620
 11
2.603492
 21
100.588623
  0
LINE
  8
0
 62
     4
 10
4.003491
 20
98.598625
 11
4.003491
 21
96.698624
  0
LINE
  8
0
 62
     4
 10
2.115492
 20
98.724625
 11
4.003490
 21
98.598625
  0
LINE
  8
0
 62
     4
 10
1.903491
 20
98.524620
 11
1.903491
 21
96.774620
  0
LINE
  8
0
 62
     4
 10
1.903491
 20
98.198624
 11
1.403491
 21
98.198624
  0
LINE
  8
0
 62
     4
 10
1.403491
 20
98.198624
 11
1.403491
 21
97.098625
  0
LINE
  8
0
 62
     4
 10
1.903491
 20
97.098625
 11
1.403491
 21
97.098625
  0
LINE
  8
0
 62
     4
 10
4.003490
 20
96.698624
 11
2.115491
 21
96.574623
  0
LINE
  8
0
 62
     4
 10
7.003491
 20
102.688622
 11
4.503491
 21
102.688622
  0
LINE
  8
0
 62
     4
 10
7.003491
 20
97.688622
 11
4.503491
 21
97.688622
  0
LINE
  8
0
 62
     4
 10
5.503491
 20
103.088623
 11
5.503491
 21
97.288620
  0
LINE
  8
0
 62
     4
 10
5.003491
 20
97.288620
 11
6.003491
 21
97.288620
  0
LINE
  8
0
 62
     4
 10
5.003491
 20
103.088623
 11
6.003491
 21
103.088623
  0
LINE
  8
0
 62
     4
 10
5.003491
 20
103.088623
 11
5.003491
 21
102.688622
  0
LINE
  8
0
 62
     4
 10
6.003491
 20
104.888618
 11
6.003491
 21
102.688622
  0
LINE
  8
0
 62
     4
 10
18.203491
 20
95.488625
 11
18.203491
 21
104.888618
  0
LINE
  8
0
 62
     4
 10
0.703491
 20
95.188622
 11
0.703491
 21
95.488625
  0
LINE
  8
0
 62
     1
 10
13.203490
 20
98.688622
 11
18.203491
 21
98.688622
  0
LINE
  8
0
 62
     1
 10
13.203490
 20
101.688622
 11
13.203490
 21
98.688622
  0
LINE
  8
0
 62
     1
 10
13.203490
 20
101.688622
 11
18.203491
 21
101.688622
  0
LINE
  8
0
 62
     4
 10
-1.496509
 20
97.388618
 11
-2.996509
 21
97.388618
  0
LINE
  8
0
 62
     4
 10
-1.496509
 20
95.888618
 11
-2.996509
 21
95.888618
  0
LINE
  8
0
 62
     4
 10
-1.496509
 20
97.388618
 11
-1.496509
 21
95.888618
  0
LINE
  8
0
 62
     4
 10
-2.996509
 20
97.388618
 11
-2.996509
 21
95.888618
  0
LINE
  8
0
 62
     4
 10
-7.837329
 20
102.582993
 11
-7.396512
 21
102.838623
  0
LINE
  8
0
 62
     4
 10
-7.396514
 20
97.538620
 11
-7.837331
 21
97.794250
  0
LINE
  8
0
 62
     4
 10
-6.587322
 20
101.332993
 11
-6.146505
 21
101.588623
  0
LINE
  8
0
 62
     4
 10
-7.396508
 20
102.838623
 11
-6.146506
 21
101.588623
  0
LINE
  8
0
 62
     4
 10
-6.587327
 20
101.332985
 11
-7.837328
 21
102.582993
  0
LINE
  8
0
 62
     4
 10
-6.587329
 20
99.044250
 11
-6.146512
 21
98.788620
  0
LINE
  8
0
 62
     4
 10
-0.705691
 20
95.188622
 11
-0.705691
 21
105.188622
  0
LINE
  8
0
 62
     4
 10
-6.587327
 20
99.044243
 11
-7.837326
 21
97.794250
  0
LINE
  8
0
 62
     4
 10
-7.837327
 20
95.188622
 11
-7.837327
 21
97.794250
  0
LINE
  8
0
 62
     4
 10
-7.837327
 20
102.582993
 11
-7.837327
 21
105.188622
  0
LINE
  8
0
 62
     4
 10
-6.587326
 20
101.332993
 11
-6.587326
 21
99.044250
  0
LINE
  8
0
 62
     4
 10
-7.396509
 20
95.188622
 11
-7.396509
 21
97.538620
  0
LINE
  8
0
 62
     4
 10
-7.396509
 20
97.538620
 11
-6.146508
 21
98.788620
  0
LINE
  8
0
 62
     4
 10
-6.146509
 20
101.588623
 11
-6.146509
 21
98.788620
  0
LINE
  8
0
 62
     4
 10
-7.396509
 20
102.838623
 11
-7.396509
 21
105.188622
  0
LINE
  8
0
 62
     4
 10
0.105412
 20
105.188622
 11
0.105412
 21
95.188622
  0
LINE
  8
0
 62
     4
 10
0.603491
 20
95.188622
 11
0.603491
 21
95.488625
  0
LINE
  8
0
 62
     4
 10
-3.696509
 20
96.688622
 11
-3.696509
 21
95.188622
  0
LINE
  8
0
 62
     4
 10
-6.896509
 20
95.188622
 11
-6.896509
 21
96.688622
  0
LINE
  8
0
 62
     4
 10
-6.896509
 20
103.688622
 11
-6.896509
 21
105.188622
  0
LINE
  8
0
 62
     4
 10
-3.696509
 20
105.188622
 11
-3.696509
 21
103.688622
  0
LINE
  8
0
 62
     4
 10
17.903492
 20
105.188622
 11
-13.796509
 21
105.188622
  0
LINE
  8
0
  6
CENTER
 62
     2
 10
-3.546509
 20
97.688622
 11
-3.546509
 21
102.688622
  0
LINE
  8
0
 62
     4
 10
17.903492
 20
95.188622
 11
-13.796509
 21
95.188622
  0
LINE
  8
0
 62
     4
 10
-3.846509
 20
98.363106
 11
-3.846509
 21
102.014137
  0
LINE
  8
0
 62
     4
 10
-3.246509
 20
100.188622
 11
-3.246509
 21
102.014137
  0
LINE
  8
0
 62
     4
 10
-3.246509
 20
98.363106
 11
-3.246509
 21
100.188622
  0
LINE
  8
0
 62
     4
 10
-6.003615
 20
104.395729
 11
-4.589403
 21
102.981514
  0
LINE
  8
0
 62
     4
 10
-4.589402
 20
104.395729
 11
-6.003615
 21
102.981514
  0
LINE
  8
0
 62
     4
 10
-4.589402
 20
95.981506
 11
-6.003614
 21
97.395721
  0
LINE
  8
0
 62
     4
 10
-6.003615
 20
95.981514
 11
-4.589403
 21
97.395729
  0
LINE
  8
0
 62
     4
 10
-13.796509
 20
95.188622
 11
-13.796509
 21
105.188622
  0
LINE
  8
0
 10
-15.096509
 20
107.185295
 11
-15.096509
 21
93.185295
  0
LINE
  8
0
  6
CENTER
 62
     2
 10
-17.686628
 20
105.688622
 11
-12.222589
 21
105.688622
  0
LINE
  8
0
  6
CENTER
 62
     2
 10
-17.686628
 20
94.688622
 11
-12.222589
 21
94.688622
  0
LINE
  8
0
 62
     4
 10
99.943893
 20
-46.809292
 11
103.863083
 21
-46.809292
  0
LINE
  8
0
 62
     4
 10
99.943893
 20
-46.009293
 11
103.863083
 21
-46.009293
  0
LINE
  8
0
 62
     4
 10
103.863083
 20
15.690706
 11
99.943893
 21
15.690706
  0
LINE
  8
0
 62
     4
 10
103.863083
 20
16.490707
 11
99.943893
 21
16.490707
  0
LINE
  8
0
  6
CENTER
 62
     2
 10
98.903488
 20
-10.009294
 11
98.903488
 21
-16.409294
  0
LINE
  8
0
  6
CENTER
 62
     2
 10
95.703491
 20
-13.209293
 11
102.103485
 21
-13.209293
  0
LINE
  8
0
  6
CENTER
 62
     2
 10
104.903488
 20
-0.009293
 11
104.903488
 21
-6.409293
  0
LINE
  8
0
  6
CENTER
 62
     2
 10
101.703491
 20
-3.209293
 11
108.103485
 21
-3.209293
  0
LINE
  8
0
  6
CENTER
 62
     2
 10
104.903488
 20
16.090708
 11
98.903488
 21
16.090708
  0
LINE
  8
0
 62
     1
 10
96.323494
 20
-89.119293
 11
107.421799
 21
-92.078842
  0
LINE
  8
0
 62
     1
 10
96.323486
 20
-90.359291
 11
107.421799
 21
-93.318840
  0
LINE
  8
0
 62
     4
 10
99.763489
 20
-100.539291
 11
98.963486
 21
-100.539291
  0
LINE
  8
0
 62
     4
 10
100.078491
 20
-95.539291
 11
98.648491
 21
-95.539291
  0
LINE
  8
0
 62
     4
 10
98.963486
 20
-95.539291
 11
98.963486
 21
-100.539291
  0
LINE
  8
0
 62
     4
 10
99.763489
 20
-95.539291
 11
99.763489
 21
-100.539291
  0
LINE
  8
0
 62
     4
 10
100.078491
 20
-91.349289
 11
100.078491
 21
-95.539291
  0
LINE
  8
0
 62
     4
 10
98.648491
 20
-90.969292
 11
98.648491
 21
-95.539291
  0
LINE
  8
0
 62
     4
 10
103.728485
 20
-92.333954
 11
103.728485
 21
-95.539291
  0
LINE
  8
0
 62
     4
 10
105.158485
 20
-92.715286
 11
105.158485
 21
-95.539291
  0
LINE
  8
0
 62
     4
 10
104.043488
 20
-95.539291
 11
104.043488
 21
-100.539291
  0
LINE
  8
0
 62
     4
 10
104.843491
 20
-95.539291
 11
104.843491
 21
-100.539291
  0
LINE
  8
0
 62
     4
 10
103.728485
 20
-95.539291
 11
105.158485
 21
-95.539291
  0
LINE
  8
0
 62
     4
 10
104.043488
 20
-100.539291
 11
104.843491
 21
-100.539291
  0
LINE
  8
0
 62
     4
 10
100.078491
 20
-85.109291
 11
100.078491
 21
-90.109291
  0
LINE
  8
0
 62
     4
 10
98.648491
 20
-85.109291
 11
98.648491
 21
-89.739288
  0
LINE
  8
0
 62
     4
 10
105.158485
 20
-85.109291
 11
105.158485
 21
-91.475288
  0
LINE
  8
0
 62
     4
 10
103.728485
 20
-85.109291
 11
103.728485
 21
-91.093956
  0
LINE
  8
0
 62
     4
 10
99.763489
 20
70.220711
 11
98.963486
 21
70.220711
  0
LINE
  8
0
 62
     4
 10
100.078491
 20
65.220711
 11
98.648491
 21
65.220711
  0
LINE
  8
0
 62
     4
 10
98.963486
 20
65.220711
 11
98.963486
 21
70.220711
  0
LINE
  8
0
 62
     4
 10
99.763489
 20
65.220711
 11
99.763489
 21
70.220711
  0
LINE
  8
0
 62
     4
 10
98.648491
 20
62.396706
 11
98.648491
 21
65.220711
  0
LINE
  8
0
 62
     4
 10
100.078491
 20
62.015373
 11
100.078491
 21
65.220711
  0
LINE
  8
0
 62
     4
 10
105.158485
 20
60.650707
 11
105.158485
 21
65.220711
  0
LINE
  8
0
 62
     4
 10
103.728485
 20
61.030708
 11
103.728485
 21
65.220711
  0
LINE
  8
0
 62
     4
 10
104.043488
 20
65.220711
 11
104.043488
 21
70.220711
  0
LINE
  8
0
 62
     4
 10
104.843491
 20
65.220711
 11
104.843491
 21
70.220711
  0
LINE
  8
0
 62
     4
 10
103.728485
 20
65.220711
 11
105.158485
 21
65.220711
  0
LINE
  8
0
 62
     4
 10
104.043488
 20
70.220711
 11
104.843491
 21
70.220711
  0
LINE
  8
0
 62
     4
 10
103.728485
 20
54.790707
 11
103.728485
 21
59.790707
  0
LINE
  8
0
 62
     4
 10
105.158485
 20
54.790707
 11
105.158485
 21
59.420708
  0
LINE
  8
0
 62
     1
 10
107.483490
 20
60.040703
 11
96.385170
 21
63.000252
  0
LINE
  8
0
 62
     1
 10
107.483498
 20
58.800709
 11
96.385178
 21
61.760262
  0
LINE
  8
0
 62
     4
 10
98.648491
 20
54.790707
 11
98.648491
 21
61.156708
  0
LINE
  8
0
 62
     4
 10
100.078491
 20
54.790707
 11
100.078491
 21
60.775372
  0
LINE
  8
0
 62
     4
 10
106.003487
 20
-80.109291
 11
106.003487
 21
-80.009293
  0
LINE
  8
0
 62
     4
 10
97.803490
 20
-80.109291
 11
97.803490
 21
-80.009293
  0
LINE
  8
0
 62
     4
 10
104.403488
 20
-80.109291
 11
106.603485
 21
-80.109291
  0
LINE
  8
0
 62
     4
 10
97.203491
 20
-80.109291
 11
99.403488
 21
-80.109291
  0
LINE
  8
0
 62
     4
 10
106.003487
 20
49.790707
 11
106.003487
 21
49.690708
  0
LINE
  8
0
 62
     4
 10
97.803490
 20
49.790707
 11
97.803490
 21
49.690708
  0
LINE
  8
0
 62
     4
 10
104.403488
 20
49.790707
 11
106.603485
 21
49.790707
  0
LINE
  8
0
 62
     4
 10
97.203491
 20
49.790707
 11
99.403488
 21
49.790707
  0
LINE
  8
0
 10
94.403488
 20
-22.209293
 11
109.403488
 21
-22.209293
  0
LINE
  8
0
 10
96.653488
 20
-54.909294
 11
107.153488
 21
-54.909294
  0
LINE
  8
0
  6
CENTER
 62
     2
 10
105.008270
 20
-46.409294
 11
98.012337
 21
-46.409294
  0
LINE
  8
0
 10
105.558746
 20
-46.409294
 11
109.403488
 21
-46.409294
  0
LINE
  8
0
 10
98.248230
 20
-46.409294
 11
94.403488
 21
-46.409294
  0
LINE
  8
0
 10
95.903488
 20
-55.409290
 11
94.403488
 21
-53.909286
  0
LINE
  8
0
 10
109.403488
 20
-53.909294
 11
107.903488
 21
-55.409294
  0
LINE
  8
0
 10
107.903488
 20
-55.409294
 11
107.453491
 21
-55.409294
  0
LINE
  8
0
 10
107.153488
 20
-54.909294
 11
107.153488
 21
-55.109295
  0
LINE
  8
0
 10
96.653488
 20
-54.909294
 11
96.653488
 21
-55.109295
  0
LINE
  8
0
 10
103.364815
 20
-43.609295
 11
100.326691
 21
-43.609295
  0
LINE
  8
0
 10
100.066887
 20
-43.759296
 11
98.681244
 21
-46.159298
  0
LINE
  8
0
 10
105.125732
 20
-46.159294
 11
103.797829
 21
-43.859295
  0
LINE
  8
0
 10
96.353485
 20
-55.409294
 11
95.853485
 21
-55.409294
  0
LINE
  8
0
 62
     4
 10
96.903488
 20
-55.809292
 11
106.903488
 21
-55.809292
  0
LINE
  8
0
 62
     4
 10
106.603485
 20
-74.509293
 11
97.203491
 21
-74.509293
  0
LINE
  8
0
 62
     4
 10
106.903488
 20
-56.109295
 11
96.903488
 21
-56.109295
  0
LINE
  8
0
 62
     4
 10
106.903488
 20
-54.909294
 11
106.903488
 21
-80.009293
  0
LINE
  8
0
 62
     4
 10
96.903488
 20
-54.909294
 11
96.903488
 21
-80.009293
  0
LINE
  8
0
 62
     4
 10
96.903488
 20
-80.009293
 11
99.403488
 21
-80.009293
  0
LINE
  8
0
 62
     4
 10
99.003487
 20
-74.509293
 11
99.003487
 21
-80.009293
  0
LINE
  8
0
 62
     4
 10
104.803490
 20
-74.509293
 11
104.803490
 21
-80.009293
  0
LINE
  8
0
 62
     1
 10
103.403488
 20
-71.509293
 11
100.403488
 21
-71.509293
  0
LINE
  8
0
 62
     1
 10
100.403488
 20
-71.509293
 11
100.403488
 21
-74.509293
  0
LINE
  8
0
 62
     1
 10
103.403488
 20
-71.509293
 11
103.403488
 21
-74.509293
  0
LINE
  8
0
 62
     4
 10
99.403488
 20
-75.509293
 11
104.403488
 21
-75.509293
  0
LINE
  8
0
 62
     4
 10
97.203491
 20
-85.109291
 11
106.603485
 21
-85.109291
  0
LINE
  8
0
 62
     4
 10
99.403488
 20
-84.109291
 11
104.403488
 21
-84.109291
  0
LINE
  8
0
 62
     4
 10
97.203491
 20
-80.109291
 11
97.203491
 21
-85.109291
  0
LINE
  8
0
 62
     4
 10
99.403488
 20
-75.509293
 11
99.403488
 21
-84.109291
  0
LINE
  8
0
 62
     4
 10
104.403488
 20
-83.397964
 11
99.403488
 21
-83.397964
  0
LINE
  8
0
 62
     4
 10
104.403488
 20
-83.109291
 11
99.403488
 21
-83.109291
  0
LINE
  8
0
  6
PHANTOM
 62
     4
 10
101.903488
 20
-76.375313
 11
100.653488
 21
-76.375313
  0
LINE
  8
0
 62
     4
 10
98.303490
 20
-80.109291
 11
98.303490
 21
-85.109291
  0
LINE
  8
0
  6
PHANTOM
 62
     4
 10
101.903488
 20
-76.375313
 11
103.153488
 21
-76.375313
  0
LINE
  8
0
 62
     4
 10
105.503487
 20
-80.109291
 11
105.503487
 21
-85.109291
  0
LINE
  8
0
 62
     4
 10
104.403488
 20
-75.509293
 11
104.403488
 21
-84.109291
  0
LINE
  8
0
 62
     4
 10
106.603485
 20
-80.109291
 11
106.603485
 21
-85.109291
  0
LINE
  8
0
 62
     4
 10
104.403488
 20
-76.375313
 11
99.403488
 21
-76.375313
  0
LINE
  8
0
 62
     4
 10
104.403488
 20
-80.009293
 11
106.903488
 21
-80.009293
  0
LINE
  8
0
 62
     4
 10
104.403488
 20
49.690708
 11
106.903488
 21
49.690708
  0
LINE
  8
0
 62
     4
 10
104.403488
 20
46.156731
 11
99.403488
 21
46.156731
  0
LINE
  8
0
 62
     4
 10
106.603485
 20
49.790707
 11
106.603485
 21
54.790707
  0
LINE
  8
0
 62
     4
 10
104.403488
 20
45.290707
 11
104.403488
 21
53.790707
  0
LINE
  8
0
 62
     4
 10
105.503487
 20
49.790707
 11
105.503487
 21
54.790707
  0
LINE
  8
0
 62
     4
 10
98.303490
 20
49.790707
 11
98.303490
 21
54.790707
  0
LINE
  8
0
 62
     4
 10
104.403488
 20
52.790707
 11
99.403488
 21
52.790707
  0
LINE
  8
0
 62
     4
 10
104.403488
 20
53.079380
 11
99.403488
 21
53.079380
  0
LINE
  8
0
 62
     4
 10
99.403488
 20
45.290707
 11
99.403488
 21
53.790707
  0
LINE
  8
0
 62
     4
 10
97.203491
 20
49.790707
 11
97.203491
 21
54.790707
  0
LINE
  8
0
 62
     4
 10
99.403488
 20
53.790707
 11
104.403488
 21
53.790707
  0
LINE
  8
0
 62
     4
 10
97.203491
 20
54.790707
 11
106.603485
 21
54.790707
  0
LINE
  8
0
 62
     4
 10
99.403488
 20
45.290707
 11
104.403488
 21
45.290707
  0
LINE
  8
0
 62
     1
 10
103.403488
 20
41.190708
 11
103.403488
 21
44.190708
  0
LINE
  8
0
 62
     4
 10
101.903488
 20
41.190708
 11
103.403488
 21
41.190708
  0
LINE
  8
0
 62
     1
 10
100.403488
 20
41.190708
 11
100.403488
 21
44.190708
  0
LINE
  8
0
 62
     1
 10
101.903488
 20
41.190708
 11
100.403488
 21
41.190708
  0
LINE
  8
0
 62
     4
 10
104.803490
 20
44.190708
 11
104.803490
 21
49.690708
  0
LINE
  8
0
 62
     4
 10
99.003487
 20
44.190708
 11
99.003487
 21
49.690708
  0
LINE
  8
0
 62
     4
 10
96.903488
 20
49.690708
 11
99.403488
 21
49.690708
  0
LINE
  8
0
 62
     4
 10
96.903488
 20
24.590706
 11
96.903488
 21
49.690708
  0
LINE
  8
0
 62
     4
 10
106.903488
 20
24.590706
 11
106.903488
 21
49.690708
  0
LINE
  8
0
 62
     4
 10
106.903488
 20
25.790707
 11
96.903488
 21
25.790707
  0
LINE
  8
0
 62
     4
 10
106.603485
 20
44.190708
 11
97.203491
 21
44.190708
  0
LINE
  8
0
 62
     4
 10
96.903488
 20
25.490707
 11
106.903488
 21
25.490707
  0
LINE
  8
0
 10
96.353485
 20
25.090706
 11
95.853485
 21
25.090706
  0
LINE
  8
0
 10
105.125732
 20
15.840706
 11
103.797829
 21
13.540709
  0
LINE
  8
0
 10
100.066887
 20
13.440711
 11
98.681244
 21
15.840711
  0
LINE
  8
0
 10
103.364815
 20
13.290707
 11
100.326691
 21
13.290707
  0
LINE
  8
0
 10
96.653488
 20
24.590706
 11
96.653488
 21
24.790707
  0
LINE
  8
0
 10
107.153488
 20
24.590706
 11
107.153488
 21
24.790707
  0
LINE
  8
0
 10
107.903488
 20
25.090706
 11
107.453491
 21
25.090706
  0
LINE
  8
0
 10
109.403496
 20
23.590708
 11
107.903496
 21
25.090712
  0
LINE
  8
0
 10
95.903488
 20
25.090708
 11
94.403488
 21
23.590706
  0
LINE
  8
0
 10
94.403488
 20
23.590706
 11
94.403488
 21
2.396199
  0
LINE
  8
0
 10
109.403488
 20
23.590706
 11
109.403488
 21
-15.616346
  0
LINE
  8
0
 10
98.248230
 20
16.090708
 11
94.403488
 21
16.090708
  0
LINE
  8
0
 10
105.558746
 20
16.090708
 11
109.403488
 21
16.090708
  0
LINE
  8
0
 10
94.403488
 20
5.790707
 11
109.403488
 21
5.790707
  0
LINE
  8
0
 10
96.653488
 20
24.590706
 11
107.153488
 21
24.590706
  0
LINE
  8
0
 10
94.403488
 20
-36.109295
 11
109.403488
 21
-36.109295
  0
LINE
  8
0
  6
CENTER
 62
     2
 10
101.903488
 20
-102.884842
 11
101.903488
 21
72.566269
  0
LINE
  8
0
 10
99.943893
 20
15.690706
 11
103.863083
 21
15.690706
  0
LINE
  8
0
 10
99.943893
 20
16.490707
 11
103.863083
 21
16.490707
  0
LINE
  8
0
 10
95.448486
 20
1.745708
 11
97.358498
 21
-0.164296
  0
LINE
  8
0
 10
94.838486
 20
-0.774294
 11
97.968491
 21
2.355705
  0
LINE
  8
0
 10
106.448486
 20
-16.254290
 11
108.358490
 21
-18.164289
  0
LINE
  8
0
 10
105.838486
 20
-18.774294
 11
108.968491
 21
-15.644294
  0
LINE
  8
0
 10
109.908485
 20
-17.674294
 11
109.608490
 21
-17.674294
  0
LINE
  8
0
 10
109.628487
 20
-17.504293
 11
109.938492
 21
-17.504293
  0
LINE
  8
0
 10
109.628487
 20
-16.904293
 11
109.938492
 21
-16.904293
  0
LINE
  8
0
 10
98.908485
 20
0.325707
 11
98.608490
 21
0.325707
  0
LINE
  8
0
 10
98.628487
 20
0.495707
 11
98.938492
 21
0.495707
  0
LINE
  8
0
 10
98.628487
 20
1.095707
 11
98.938492
 21
1.095707
  0
LINE
  8
0
 10
94.403488
 20
-0.804785
 11
94.403488
 21
-53.909294
  0
LINE
  8
0
 10
109.403488
 20
-18.792240
 11
109.403488
 21
-53.909294
  0
LINE
  8
0
  6
CENTER
 62
     2
 10
-105.955460
 20
-15.009294
 11
-105.955460
 21
-21.409294
  0
LINE
  8
0
  6
CENTER
 62
     2
 10
-109.155457
 20
-18.209293
 11
-102.755463
 21
-18.209293
  0
LINE
  8
0
  6
CENTER
 62
     2
 10
-111.955460
 20
4.990706
 11
-111.955460
 21
-1.409293
  0
LINE
  8
0
  6
CENTER
 62
     2
 10
-115.155457
 20
1.790707
 11
-108.755463
 21
1.790707
  0
LINE
  8
0
 62
     1
 10
-114.535461
 20
-89.119301
 11
-103.437157
 21
-92.078850
  0
LINE
  8
0
 62
     1
 10
-114.535461
 20
-90.359306
 11
-103.437157
 21
-93.318855
  0
LINE
  8
0
 62
     4
 10
-107.130463
 20
-92.333961
 11
-107.130463
 21
-95.539291
  0
LINE
  8
0
 62
     4
 10
-105.700462
 20
-92.715294
 11
-105.700462
 21
-95.539291
  0
LINE
  8
0
 62
     4
 10
-106.815460
 20
-95.539291
 11
-106.815460
 21
-100.539291
  0
LINE
  8
0
 62
     4
 10
-106.015457
 20
-95.539291
 11
-106.015457
 21
-100.539291
  0
LINE
  8
0
 62
     4
 10
-107.130463
 20
-95.539291
 11
-105.700462
 21
-95.539291
  0
LINE
  8
0
 62
     4
 10
-106.815460
 20
-100.539291
 11
-106.015457
 21
-100.539291
  0
LINE
  8
0
 62
     4
 10
-111.095459
 20
-100.539291
 11
-111.895462
 21
-100.539291
  0
LINE
  8
0
 62
     4
 10
-110.780457
 20
-95.539291
 11
-112.210457
 21
-95.539291
  0
LINE
  8
0
 62
     4
 10
-111.895462
 20
-95.539291
 11
-111.895462
 21
-100.539291
  0
LINE
  8
0
 62
     4
 10
-111.095459
 20
-95.539291
 11
-111.095459
 21
-100.539291
  0
LINE
  8
0
 62
     4
 10
-110.780457
 20
-91.349289
 11
-110.780457
 21
-95.539291
  0
LINE
  8
0
 62
     4
 10
-112.210457
 20
-90.969292
 11
-112.210457
 21
-95.539291
  0
LINE
  8
0
 62
     4
 10
-110.780457
 20
-85.109291
 11
-110.780457
 21
-90.109291
  0
LINE
  8
0
 62
     4
 10
-112.210457
 20
-85.109291
 11
-112.210457
 21
-89.739296
  0
LINE
  8
0
 62
     4
 10
-105.700462
 20
-85.109291
 11
-105.700462
 21
-91.475296
  0
LINE
  8
0
 62
     4
 10
-107.130463
 20
-85.109291
 11
-107.130463
 21
-91.093956
  0
LINE
  8
0
 62
     4
 10
-105.700462
 20
60.650707
 11
-105.700462
 21
65.220711
  0
LINE
  8
0
 62
     4
 10
-107.130463
 20
61.030708
 11
-107.130463
 21
65.220711
  0
LINE
  8
0
 62
     4
 10
-106.815460
 20
65.220711
 11
-106.815460
 21
70.220711
  0
LINE
  8
0
 62
     4
 10
-106.015457
 20
65.220711
 11
-106.015457
 21
70.220711
  0
LINE
  8
0
 62
     4
 10
-107.130463
 20
65.220711
 11
-105.700462
 21
65.220711
  0
LINE
  8
0
 62
     4
 10
-106.815460
 20
70.220711
 11
-106.015457
 21
70.220711
  0
LINE
  8
0
 62
     4
 10
-107.130463
 20
54.790707
 11
-107.130463
 21
59.790707
  0
LINE
  8
0
 62
     4
 10
-105.700462
 20
54.790707
 11
-105.700462
 21
59.420708
  0
LINE
  8
0
 62
     4
 10
-111.095459
 20
70.220711
 11
-111.895462
 21
70.220711
  0
LINE
  8
0
 62
     4
 10
-110.780457
 20
65.220711
 11
-112.210457
 21
65.220711
  0
LINE
  8
0
 62
     4
 10
-111.895462
 20
65.220711
 11
-111.895462
 21
70.220711
  0
LINE
  8
0
 62
     4
 10
-111.095459
 20
65.220711
 11
-111.095459
 21
70.220711
  0
LINE
  8
0
 62
     4
 10
-112.210457
 20
62.396706
 11
-112.210457
 21
65.220711
  0
LINE
  8
0
 62
     4
 10
-110.780457
 20
62.015373
 11
-110.780457
 21
65.220711
  0
LINE
  8
0
 62
     1
 10
-103.375450
 20
60.040707
 11
-114.473770
 21
63.000259
  0
LINE
  8
0
 62
     1
 10
-103.375458
 20
58.800709
 11
-114.473770
 21
61.760258
  0
LINE
  8
0
 62
     4
 10
-112.210457
 20
54.790707
 11
-112.210457
 21
61.156708
  0
LINE
  8
0
 62
     4
 10
-110.780457
 20
54.790707
 11
-110.780457
 21
60.775372
  0
LINE
  8
0
 10
-101.455460
 20
-36.109295
 11
-116.455460
 21
-36.109295
  0
LINE
  8
0
 62
     4
 10
-103.955460
 20
-55.409298
 11
-103.955460
 21
-80.509293
  0
LINE
  8
0
 62
     4
 10
-113.955460
 20
-54.909298
 11
-113.955460
 21
-80.509293
  0
LINE
  8
0
 62
     4
 10
-113.655457
 20
-84.397964
 11
-104.255463
 21
-84.397964
  0
LINE
  8
0
 62
     4
 10
-113.655457
 20
-84.109291
 11
-104.255463
 21
-84.109291
  0
LINE
  8
0
 62
     4
 10
-113.055458
 20
-80.609291
 11
-113.055458
 21
-80.509293
  0
LINE
  8
0
 62
     4
 10
-104.855461
 20
-80.609291
 11
-104.855461
 21
-80.509293
  0
LINE
  8
0
 62
     4
 10
-113.655457
 20
-85.109291
 11
-113.655457
 21
-80.609291
  0
LINE
  8
0
 62
     4
 10
-104.255463
 20
-85.109291
 11
-104.255463
 21
-80.609291
  0
LINE
  8
0
 62
     4
 10
-113.655457
 20
-85.109291
 11
-104.255463
 21
-85.109291
  0
LINE
  8
0
 62
     4
 10
-113.655457
 20
-80.609291
 11
-104.255463
 21
-80.609291
  0
LINE
  8
0
 62
     4
 10
-113.955460
 20
-80.509293
 11
-103.955460
 21
-80.509293
  0
LINE
  8
0
 62
     4
 10
-113.955460
 20
-74.509293
 11
-103.955460
 21
-74.509293
  0
LINE
  8
0
 62
     4
 10
-113.955460
 20
-69.909294
 11
-103.955460
 21
-69.909294
  0
LINE
  8
0
 62
     4
 10
-113.955460
 20
-66.409294
 11
-103.955460
 21
-66.409294
  0
LINE
  8
0
 62
     4
 10
-112.955460
 20
-55.609295
 11
-104.955460
 21
-55.609295
  0
LINE
  8
0
 62
     4
 10
-112.955460
 20
-57.709297
 11
-104.955460
 21
-57.709297
  0
LINE
  8
0
 62
     4
 10
-113.255463
 20
-55.909298
 11
-113.255463
 21
-57.409298
  0
LINE
  8
0
 62
     4
 10
-109.302124
 20
-57.709297
 11
-109.302124
 21
-56.609295
  0
LINE
  8
0
 62
     4
 10
-109.155457
 20
-57.709297
 11
-109.155457
 21
-55.609295
  0
LINE
  8
0
 62
     4
 10
-108.755463
 20
-57.709297
 11
-108.755463
 21
-55.609295
  0
LINE
  8
0
 62
     4
 10
-108.608795
 20
-57.709297
 11
-108.608795
 21
-56.609295
  0
LINE
  8
0
 62
     4
 10
-106.655457
 20
-57.709297
 11
-106.655457
 21
-56.609295
  0
LINE
  8
0
 62
     4
 10
-111.255463
 20
-57.709297
 11
-111.255463
 21
-56.609295
  0
LINE
  8
0
 62
     4
 10
-111.655457
 20
-56.609295
 11
-109.228790
 21
-56.609295
  0
LINE
  8
0
 62
     4
 10
-106.055458
 20
-56.409298
 11
-106.055458
 21
-55.609295
  0
LINE
  8
0
 62
     4
 10
-111.855461
 20
-56.409298
 11
-111.855461
 21
-55.609295
  0
LINE
  8
0
 62
     4
 10
-108.682129
 20
-56.609295
 11
-106.255463
 21
-56.609295
  0
LINE
  8
0
 62
     4
 10
-108.682129
 20
-56.609295
 11
-108.682129
 21
-55.609295
  0
LINE
  8
0
 62
     4
 10
-109.228790
 20
-56.609295
 11
-109.228790
 21
-55.609295
  0
LINE
  8
0
 62
     4
 10
-104.655457
 20
-55.909298
 11
-104.655457
 21
-57.409298
  0
LINE
  8
0
 10
-114.955460
 20
-55.409294
 11
-116.455452
 21
-53.909294
  0
LINE
  8
0
 10
-101.455460
 20
-53.909298
 11
-102.955460
 21
-55.409294
  0
LINE
  8
0
 10
-102.955460
 20
-55.409298
 11
-110.455460
 21
-55.409298
  0
LINE
  8
0
  6
CENTER
 62
     2
 10
-106.955460
 20
-44.809296
 11
-110.955460
 21
-44.809296
  0
LINE
  8
0
 10
-110.455460
 20
-55.409298
 11
-110.455460
 21
-51.409298
  0
LINE
  8
0
 10
-116.455460
 20
-51.409298
 11
-110.455460
 21
-51.409298
  0
LINE
  8
0
 10
-110.455460
 20
-54.909298
 11
-114.155457
 21
-54.909298
  0
LINE
  8
0
 10
-114.455460
 20
-55.409298
 11
-114.955460
 21
-55.409298
  0
LINE
  8
0
 10
-114.155457
 20
-54.909298
 11
-114.155457
 21
-55.109295
  0
LINE
  8
0
 10
-116.255463
 20
-51.409298
 11
-116.255463
 21
-52.951759
  0
LINE
  8
0
 10
-110.655457
 20
-51.409298
 11
-110.655457
 21
-52.951759
  0
LINE
  8
0
 10
-107.255463
 20
21.090706
 11
-107.255463
 21
22.633169
  0
LINE
  8
0
 10
-101.655457
 20
21.090706
 11
-101.655457
 21
22.633169
  0
LINE
  8
0
 10
-103.455460
 20
25.090706
 11
-102.955460
 21
25.090706
  0
LINE
  8
0
 10
-103.755463
 20
24.590706
 11
-103.755463
 21
24.790707
  0
LINE
  8
0
 10
-107.455460
 20
24.590706
 11
-103.755463
 21
24.590706
  0
LINE
  8
0
 10
-101.455460
 20
21.090706
 11
-107.455460
 21
21.090706
  0
LINE
  8
0
 10
-107.455460
 20
25.090706
 11
-107.455460
 21
21.090706
  0
LINE
  8
0
  6
CENTER
 62
     2
 10
-110.955460
 20
14.490706
 11
-106.955460
 21
14.490706
  0
LINE
  8
0
 10
-114.955460
 20
25.090706
 11
-107.455460
 21
25.090706
  0
LINE
  8
0
 10
-116.455467
 20
23.590704
 11
-114.955460
 21
25.090710
  0
LINE
  8
0
 10
-102.955460
 20
25.090706
 11
-101.455460
 21
23.590704
  0
LINE
  8
0
 10
-116.455460
 20
23.590706
 11
-116.455460
 21
-53.909298
  0
LINE
  8
0
 10
-101.455460
 20
23.590706
 11
-101.455460
 21
-53.909298
  0
LINE
  8
0
 10
-116.455460
 20
5.790707
 11
-101.455460
 21
5.790707
  0
LINE
  8
0
 62
     4
 10
-113.255463
 20
25.590706
 11
-113.255463
 21
27.090706
  0
LINE
  8
0
 62
     4
 10
-108.682129
 20
26.290707
 11
-108.682129
 21
25.290707
  0
LINE
  8
0
 62
     4
 10
-109.228790
 20
26.290707
 11
-109.228790
 21
25.290707
  0
LINE
  8
0
 62
     4
 10
-109.228790
 20
26.290707
 11
-111.655457
 21
26.290707
  0
LINE
  8
0
 62
     4
 10
-106.055458
 20
26.090706
 11
-106.055458
 21
25.290707
  0
LINE
  8
0
 62
     4
 10
-111.855461
 20
26.090706
 11
-111.855461
 21
25.290707
  0
LINE
  8
0
 62
     4
 10
-106.255463
 20
26.290707
 11
-108.682129
 21
26.290707
  0
LINE
  8
0
 62
     4
 10
-106.655457
 20
27.390707
 11
-106.655457
 21
26.290707
  0
LINE
  8
0
 62
     4
 10
-111.255463
 20
27.390707
 11
-111.255463
 21
26.290707
  0
LINE
  8
0
 62
     4
 10
-109.302124
 20
27.390707
 11
-109.302124
 21
26.290707
  0
LINE
  8
0
 62
     4
 10
-109.155457
 20
27.390707
 11
-109.155457
 21
25.290707
  0
LINE
  8
0
 62
     4
 10
-108.755463
 20
27.390707
 11
-108.755463
 21
25.290707
  0
LINE
  8
0
 62
     4
 10
-108.608795
 20
27.390707
 11
-108.608795
 21
26.290707
  0
LINE
  8
0
 62
     4
 10
-104.655457
 20
25.590706
 11
-104.655457
 21
27.090706
  0
LINE
  8
0
 62
     4
 10
-104.955460
 20
27.390707
 11
-112.955460
 21
27.390707
  0
LINE
  8
0
 62
     4
 10
-104.955460
 20
25.290707
 11
-112.955460
 21
25.290707
  0
LINE
  8
0
 62
     4
 10
-103.955460
 20
36.090706
 11
-113.955460
 21
36.090706
  0
LINE
  8
0
 62
     4
 10
-103.955460
 20
39.590706
 11
-113.955460
 21
39.590706
  0
LINE
  8
0
 62
     4
 10
-103.955460
 20
44.190708
 11
-113.955460
 21
44.190708
  0
LINE
  8
0
 62
     4
 10
-103.955460
 20
50.190708
 11
-113.955460
 21
50.190708
  0
LINE
  8
0
 62
     4
 10
-104.255463
 20
50.290707
 11
-113.655457
 21
50.290707
  0
LINE
  8
0
 62
     4
 10
-104.255463
 20
54.790707
 11
-113.655457
 21
54.790707
  0
LINE
  8
0
 62
     4
 10
-113.655457
 20
54.790707
 11
-113.655457
 21
50.290707
  0
LINE
  8
0
 62
     4
 10
-104.255463
 20
54.790707
 11
-104.255463
 21
50.290707
  0
LINE
  8
0
 62
     4
 10
-113.055458
 20
50.290707
 11
-113.055458
 21
50.190708
  0
LINE
  8
0
 62
     4
 10
-104.855461
 20
50.290707
 11
-104.855461
 21
50.190708
  0
LINE
  8
0
 62
     4
 10
-104.255463
 20
53.790707
 11
-113.655457
 21
53.790707
  0
LINE
  8
0
 62
     4
 10
-104.255463
 20
54.079380
 11
-113.655457
 21
54.079380
  0
LINE
  8
0
 62
     4
 10
-103.955460
 20
24.590706
 11
-103.955460
 21
50.190708
  0
LINE
  8
0
 62
     4
 10
-113.955460
 20
25.090706
 11
-113.955460
 21
50.190708
  0
LINE
  8
0
 10
-101.455460
 20
-22.209293
 11
-116.455460
 21
-22.209293
  0
LINE
  8
0
  6
CENTER
 62
     2
 10
-106.115463
 20
0.790707
 11
-101.455460
 21
0.790707
  0
LINE
  8
0
  6
CENTER
 62
     2
 10
-116.455460
 20
-17.209293
 11
-112.055458
 21
-17.209293
  0
LINE
  8
0
  6
CENTER
 62
     2
 10
-103.455460
 20
3.130707
 11
-103.455460
 21
-1.639293
  0
LINE
  8
0
  6
CENTER
 62
     2
 10
-114.455460
 20
-14.809294
 11
-114.455460
 21
-19.699293
  0
LINE
  8
0
  6
CENTER
 62
     2
 10
-108.955460
 20
72.566269
 11
-108.955460
 21
-102.884850
  0
LINE
  8
0
 10
6.503491
 20
2.600707
 11
6.503491
 21
-1.029293
  0
LINE
  8
0
 62
     1
 10
-0.036510
 20
-89.019295
 11
5.963490
 21
-90.619293
  0
LINE
  8
0
 62
     1
 10
-0.036508
 20
-90.259293
 11
5.963490
 21
-91.859291
  0
LINE
  8
0
 62
     4
 10
2.288491
 20
-90.879288
 11
2.288491
 21
-95.439293
  0
LINE
  8
0
 62
     4
 10
3.718492
 20
-91.260620
 11
3.718492
 21
-95.439293
  0
LINE
  8
0
 62
     4
 10
3.403491
 20
-95.439293
 11
3.403491
 21
-100.439293
  0
LINE
  8
0
 62
     4
 10
2.603492
 20
-95.439293
 11
2.603492
 21
-100.439293
  0
LINE
  8
0
 62
     4
 10
3.718492
 20
-95.439293
 11
2.288491
 21
-95.439293
  0
LINE
  8
0
 62
     4
 10
3.403491
 20
-100.439293
 11
2.603492
 21
-100.439293
  0
LINE
  8
0
 62
     4
 10
3.718492
 20
-85.109291
 11
3.718492
 21
-90.020622
  0
LINE
  8
0
 62
     4
 10
2.288491
 20
-85.109291
 11
2.288491
 21
-89.639290
  0
LINE
  8
0
 62
     4
 10
2.603492
 20
70.120712
 11
3.403491
 21
70.120712
  0
LINE
  8
0
 62
     4
 10
2.288491
 20
65.120712
 11
3.718492
 21
65.120712
  0
LINE
  8
0
 62
     4
 10
3.403491
 20
65.120712
 11
3.403491
 21
70.120712
  0
LINE
  8
0
 62
     4
 10
2.603492
 20
65.120712
 11
2.603492
 21
70.120712
  0
LINE
  8
0
 62
     4
 10
2.288491
 20
60.942039
 11
2.288491
 21
65.120712
  0
LINE
  8
0
 62
     4
 10
3.718492
 20
60.560707
 11
3.718492
 21
65.120712
  0
LINE
  8
0
 62
     1
 10
6.043492
 20
59.940708
 11
0.043492
 21
61.540707
  0
LINE
  8
0
 62
     1
 10
6.043491
 20
58.700703
 11
0.043491
 21
60.300701
  0
LINE
  8
0
 62
     4
 10
2.288491
 20
54.790707
 11
2.288491
 21
59.702042
  0
LINE
  8
0
 62
     4
 10
3.718492
 20
54.790707
 11
3.718492
 21
59.320705
  0
LINE
  8
0
 10
-15.096509
 20
-36.109295
 11
8.903491
 21
-36.109295
  0
LINE
  8
0
 62
     4
 10
6.503491
 20
-76.575317
 11
6.503491
 21
-83.109291
  0
LINE
  8
0
 62
     4
 10
6.003495
 20
-75.709290
 11
6.503494
 21
-76.575317
  0
LINE
  8
0
 62
     4
 10
6.503489
 20
-83.109291
 11
7.003490
 21
-83.397964
  0
LINE
  8
0
 62
     4
 10
7.003491
 20
-83.397964
 11
7.003491
 21
-84.109291
  0
LINE
  8
0
 62
     4
 10
0.703491
 20
-80.009293
 11
6.003491
 21
-80.009293
  0
LINE
  8
0
 62
     4
 10
0.703491
 20
-80.109291
 11
0.703491
 21
-84.109291
  0
LINE
  8
0
 62
     4
 10
5.503491
 20
-80.109291
 11
0.703491
 21
-80.109291
  0
LINE
  8
0
 62
     4
 10
5.503491
 20
-80.009293
 11
5.503491
 21
-85.109291
  0
LINE
  8
0
  6
PHANTOM
 62
     4
 10
5.503491
 20
-80.909286
 11
5.503491
 21
-82.407906
  0
LINE
  8
0
 62
     4
 10
5.803246
 20
-84.109291
 11
5.503491
 21
-82.409294
  0
LINE
  8
0
 62
     4
 10
0.203491
 20
-85.109291
 11
5.503491
 21
-85.109291
  0
LINE
  8
0
 62
     4
 10
1.403491
 20
-80.009293
 11
1.403491
 21
-80.109291
  0
LINE
  8
0
 62
     4
 10
0.203491
 20
-84.397964
 11
0.203491
 21
-85.109291
  0
LINE
  8
0
 62
     4
 10
0.703496
 20
-84.109299
 11
0.203495
 21
-84.397972
  0
LINE
  8
0
 62
     4
 10
5.803246
 20
-84.109291
 11
7.003491
 21
-84.109291
  0
LINE
  8
0
 62
     4
 10
6.003491
 20
-80.009293
 11
6.003491
 21
-74.509293
  0
LINE
  8
0
 62
     4
 10
0.703491
 20
-80.009293
 11
0.703491
 21
-68.609291
  0
LINE
  8
0
 62
     4
 10
6.003491
 20
-74.509293
 11
17.903492
 21
-74.509293
  0
LINE
  8
0
 62
     4
 10
18.203491
 20
-56.109295
 11
18.203491
 21
-74.209290
  0
LINE
  8
0
 62
     4
 10
-13.096509
 20
-58.109295
 11
-12.296509
 21
-58.109295
  0
LINE
  8
0
 62
     4
 10
-12.296509
 20
-65.709290
 11
-13.096509
 21
-65.709290
  0
LINE
  8
0
 62
     4
 10
-12.296509
 20
-65.709290
 11
-12.296509
 21
-58.109295
  0
LINE
  8
0
 62
     4
 10
-13.796509
 20
24.590706
 11
-13.796509
 21
36.090706
  0
LINE
  8
0
 62
     4
 10
-13.096509
 20
-65.709290
 11
-13.096509
 21
-58.109295
  0
LINE
  8
0
 62
     4
 10
-3.696509
 20
-69.909286
 11
-3.696509
 21
-68.909286
  0
LINE
  8
0
 62
     4
 10
-3.796509
 20
-69.009293
 11
-3.796509
 21
-68.909286
  0
LINE
  8
0
 62
     4
 10
-6.296509
 20
-69.509293
 11
-4.296509
 21
-69.509293
  0
LINE
  8
0
 62
     4
 10
-8.013652
 20
-66.409294
 11
-7.396508
 21
-69.909294
  0
LINE
  8
0
 62
     4
 10
-6.896509
 20
-69.909286
 11
-6.896509
 21
-68.909286
  0
LINE
  8
0
 62
     4
 10
-6.796509
 20
-69.009293
 11
-6.796509
 21
-68.909286
  0
LINE
  8
0
 62
     4
 10
-6.896509
 20
-68.909286
 11
-3.696509
 21
-68.909286
  0
LINE
  8
0
 62
     4
 10
-13.796509
 20
-66.409286
 11
-8.013653
 21
-66.409286
  0
LINE
  8
0
 62
     4
 10
18.203489
 20
-55.809296
 11
17.903490
 21
-56.109295
  0
LINE
  8
0
 62
     4
 10
18.203491
 20
-56.109295
 11
16.703491
 21
-56.109295
  0
LINE
  8
0
 62
     4
 10
18.203491
 20
-54.909294
 11
18.203491
 21
-55.809292
  0
LINE
  8
0
 62
     4
 10
16.703491
 20
-68.609291
 11
0.603491
 21
-68.609291
  0
LINE
  8
0
 62
     4
 10
-7.396509
 20
-69.909286
 11
-0.705691
 21
-69.909286
  0
LINE
  8
0
 62
     4
 10
16.703491
 20
-68.609291
 11
16.703491
 21
-56.109295
  0
LINE
  8
0
 62
     4
 10
0.703491
 20
-73.909286
 11
0.603491
 21
-73.909286
  0
LINE
  8
0
 62
     4
 10
0.105412
 20
-74.509293
 11
0.603491
 21
-74.509293
  0
LINE
  8
0
 62
     4
 10
0.603491
 20
-68.609291
 11
0.603491
 21
-74.509293
  0
LINE
  8
0
 62
     4
 10
-0.705693
 20
-69.909294
 11
0.105412
 21
-74.509300
  0
LINE
  8
0
 10
-14.896509
 20
21.090706
 11
-14.896509
 21
22.633169
  0
LINE
  8
0
 10
-13.996509
 20
25.090706
 11
-13.996509
 21
24.590706
  0
LINE
  8
0
 10
17.703491
 20
25.090706
 11
-9.096509
 21
25.090706
  0
LINE
  8
0
 10
-15.096509
 20
24.590708
 11
-14.596510
 21
25.090706
  0
LINE
  8
0
 10
17.303493
 20
-43.609295
 11
9.403491
 21
-43.609295
  0
LINE
  8
0
 10
17.703491
 20
-44.009293
 11
17.703491
 21
-55.409294
  0
LINE
  8
0
 62
     4
 10
18.203491
 20
-54.909294
 11
17.703491
 21
-54.909294
  0
LINE
  8
0
 10
-9.096509
 20
21.090706
 11
-15.096509
 21
21.090706
  0
LINE
  8
0
 10
-9.096509
 20
21.090706
 11
-9.096509
 21
25.090706
  0
LINE
  8
0
 10
-9.296509
 20
21.090706
 11
-9.296509
 21
22.633169
  0
LINE
  8
0
 10
17.303493
 20
-46.409294
 11
9.303491
 21
-46.409294
  0
LINE
  8
0
 10
-9.096509
 20
24.590706
 11
-13.996509
 21
24.590706
  0
LINE
  8
0
 10
-13.796509
 20
25.090706
 11
-14.596509
 21
25.090706
  0
LINE
  8
0
 10
8.903491
 20
-46.009293
 11
8.903491
 21
15.690706
  0
LINE
  8
0
 10
-15.096509
 20
-54.909294
 11
-15.096509
 21
24.590706
  0
LINE
  8
0
 10
17.303493
 20
16.090708
 11
9.303491
 21
16.090708
  0
LINE
  8
0
 10
8.903491
 20
-55.409294
 11
17.703491
 21
-55.409294
  0
LINE
  8
0
 10
8.903491
 20
-54.909294
 11
2.903491
 21
-54.909294
  0
LINE
  8
0
 10
2.903491
 20
-51.409294
 11
2.903491
 21
-55.409294
  0
LINE
  8
0
 62
     4
 10
6.503491
 20
46.256733
 11
6.503491
 21
52.790707
  0
LINE
  8
0
 62
     4
 10
6.003492
 20
45.390705
 11
6.503491
 21
46.256733
  0
LINE
  8
0
 62
     4
 10
6.503493
 20
52.790710
 11
7.003491
 21
53.079384
  0
LINE
  8
0
 62
     4
 10
7.003491
 20
53.079380
 11
7.003491
 21
53.790707
  0
LINE
  8
0
 62
     4
 10
0.703491
 20
49.690708
 11
6.003491
 21
49.690708
  0
LINE
  8
0
 62
     4
 10
0.703491
 20
49.790707
 11
0.703491
 21
53.790707
  0
LINE
  8
0
 62
     4
 10
5.503491
 20
49.790707
 11
0.703491
 21
49.790707
  0
LINE
  8
0
 62
     4
 10
5.503491
 20
49.690708
 11
5.503491
 21
54.790707
  0
LINE
  8
0
  6
PHANTOM
 62
     4
 10
5.503491
 20
50.590706
 11
5.503491
 21
52.089321
  0
LINE
  8
0
 62
     4
 10
5.803247
 20
53.790710
 11
5.503491
 21
52.090706
  0
LINE
  8
0
 62
     4
 10
0.203491
 20
54.790707
 11
5.503491
 21
54.790707
  0
LINE
  8
0
 62
     4
 10
1.403491
 20
49.690708
 11
1.403491
 21
49.790707
  0
LINE
  8
0
 62
     4
 10
0.203491
 20
54.079380
 11
0.203491
 21
54.790707
  0
LINE
  8
0
 62
     4
 10
0.703495
 20
53.790707
 11
0.203494
 21
54.079384
  0
LINE
  8
0
 62
     4
 10
5.803246
 20
53.790707
 11
7.003491
 21
53.790707
  0
LINE
  8
0
 62
     4
 10
6.003491
 20
49.690708
 11
6.003491
 21
44.190708
  0
LINE
  8
0
 62
     4
 10
0.703491
 20
49.690708
 11
0.703491
 21
38.290707
  0
LINE
  8
0
 62
     4
 10
6.003491
 20
44.190708
 11
17.903492
 21
44.190708
  0
LINE
  8
0
 62
     4
 10
18.203491
 20
25.790707
 11
18.203491
 21
43.890705
  0
LINE
  8
0
 62
     4
 10
-13.096509
 20
27.790707
 11
-12.296509
 21
27.790707
  0
LINE
  8
0
 62
     4
 10
-12.296509
 20
35.390705
 11
-13.096509
 21
35.390705
  0
LINE
  8
0
 62
     4
 10
-12.296509
 20
35.390705
 11
-12.296509
 21
27.790707
  0
LINE
  8
0
 62
     4
 10
-13.796509
 20
-55.409294
 11
-13.796509
 21
-66.409286
  0
LINE
  8
0
 62
     4
 10
-13.096509
 20
35.390705
 11
-13.096509
 21
27.790707
  0
LINE
  8
0
 62
     4
 10
-3.696509
 20
39.590706
 11
-3.696509
 21
38.590706
  0
LINE
  8
0
 62
     4
 10
-3.796509
 20
38.690708
 11
-3.796509
 21
38.590706
  0
LINE
  8
0
 62
     4
 10
-6.296509
 20
39.190708
 11
-4.296509
 21
39.190708
  0
LINE
  8
0
 62
     4
 10
-8.013653
 20
36.090702
 11
-7.396509
 21
39.590702
  0
LINE
  8
0
 62
     4
 10
-6.896509
 20
39.590706
 11
-6.896509
 21
38.590706
  0
LINE
  8
0
 62
     4
 10
-6.796509
 20
38.690708
 11
-6.796509
 21
38.590706
  0
LINE
  8
0
 62
     4
 10
-6.896509
 20
38.590706
 11
-3.696509
 21
38.590706
  0
LINE
  8
0
 62
     4
 10
-13.796509
 20
36.090706
 11
-8.013653
 21
36.090706
  0
LINE
  8
0
 62
     4
 10
18.203489
 20
25.490704
 11
17.903490
 21
25.790705
  0
LINE
  8
0
 62
     4
 10
18.203491
 20
25.790707
 11
16.703491
 21
25.790707
  0
LINE
  8
0
 62
     4
 10
18.203491
 20
24.590706
 11
18.203491
 21
25.490707
  0
LINE
  8
0
 62
     4
 10
16.703491
 20
38.290707
 11
0.603491
 21
38.290707
  0
LINE
  8
0
 62
     4
 10
-7.396509
 20
39.590706
 11
-0.705691
 21
39.590706
  0
LINE
  8
0
 62
     4
 10
16.703491
 20
38.290707
 11
16.703491
 21
25.790707
  0
LINE
  8
0
 62
     4
 10
0.703491
 20
43.590706
 11
0.603491
 21
43.590706
  0
LINE
  8
0
 62
     4
 10
0.105412
 20
44.190708
 11
0.603491
 21
44.190708
  0
LINE
  8
0
 62
     4
 10
0.603491
 20
38.290707
 11
0.603491
 21
44.190708
  0
LINE
  8
0
 62
     4
 10
-0.705692
 20
39.590706
 11
0.105413
 21
44.190712
  0
LINE
  8
0
 10
3.103492
 20
-51.409294
 11
3.103492
 21
-52.951756
  0
LINE
  8
0
 10
-14.596509
 20
-55.409294
 11
2.903491
 21
-55.409294
  0
LINE
  8
0
 10
-15.096510
 20
-54.909298
 11
-14.596511
 21
-55.409298
  0
LINE
  8
0
 10
17.303493
 20
13.290707
 11
9.403491
 21
13.290707
  0
LINE
  8
0
 10
17.703491
 20
13.690706
 11
17.703491
 21
25.090706
  0
LINE
  8
0
 10
8.903491
 20
5.790707
 11
-15.096509
 21
5.790707
  0
LINE
  8
0
 62
     4
 10
18.203491
 20
24.590706
 11
17.703491
 21
24.590706
  0
LINE
  8
0
 10
8.903491
 20
-51.409294
 11
2.903491
 21
-51.409294
  0
LINE
  8
0
 10
8.903491
 20
-51.409294
 11
8.903491
 21
-55.409294
  0
LINE
  8
0
 10
8.703490
 20
-51.409294
 11
8.703490
 21
-52.951756
  0
LINE
  8
0
 10
-15.096509
 20
-22.209293
 11
8.903491
 21
-22.209293
  0
LINE
  8
0
  6
CENTER
 62
     2
 10
-10.096509
 20
0.790707
 11
-10.096509
 21
-16.549294
  0
LINE
  8
0
  6
CENTER
 62
     2
 10
-13.266509
 20
-13.209293
 11
-6.596509
 21
-13.209293
  0
LINE
  8
0
  6
CENTER
 62
     2
 10
-13.596509
 20
-3.209293
 11
-6.936509
 21
-3.209293
  0
LINE
  8
0
  6
CENTER
 62
     2
 10
4.853492
 20
0.790707
 11
9.893491
 21
0.790707
  0
LINE
  8
0
 10
5.903491
 20
2.600707
 11
8.903491
 21
2.600707
  0
LINE
  8
0
 10
5.903491
 20
-1.029293
 11
8.903491
 21
-1.029293
  0
LINE
  8
0
 10
5.903491
 20
2.600707
 11
5.903491
 21
-1.029293
  0
LINE
  8
0
  6
CENTER
 62
     2
 10
-12.596509
 20
0.790707
 11
-17.596508
 21
0.790707
  0
LINE
  8
0
  6
CENTER
 62
     2
 10
-12.596509
 20
-17.209293
 11
-17.596508
 21
-17.209293
  0
LINE
  8
0
 10
-194.250000
 20
132.600006
 11
194.800003
 21
132.600006
  0
LINE
  8
0
 10
194.800003
 20
132.600006
 11
194.800003
 21
-133.500000
  0
LINE
  8
0
 10
-194.250000
 20
132.600006
 11
-194.250000
 21
-133.500000
  0
LINE
  8
0
 10
-194.250000
 20
-133.500000
 11
194.800003
 21
-133.500000
  0
LINE
  8
0
 10
109.800003
 20
-118.500000
 11
109.800003
 21
-133.500000
  0
LINE
  8
0
 10
109.800003
 20
-118.500000
 11
194.800003
 21
-118.500000
  0
LINE
  8
0
 10
109.800003
 20
132.600006
 11
109.800003
 21
117.600006
  0
LINE
  8
0
 10
109.800003
 20
117.600006
 11
194.800003
 21
117.600006
  0
LINE
  8
0
 10
-194.250000
 20
117.600006
 11
-109.250000
 21
117.600006
  0
LINE
  8
0
 10
-109.250000
 20
132.600006
 11
-109.250000
 21
117.600006
  0
ARC
  8
0
 10
5.903491
 20
104.688622
 40
2.800000
 50
10.286561
 51
169.713440
  0
ARC
  8
0
 10
-12.096509
 20
95.688622
 40
2.800001
 50
127.383179
 51
349.713440
  0
ARC
  8
0
 10
17.303493
 20
107.288620
 40
0.400000
 50
0.000000
 51
90.000000
  0
ARC
  8
0
 10
-14.696509
 20
107.288620
 40
0.400002
 50
90.000000
 51
180.000000
  0
ARC
  8
0
 10
-14.696509
 20
93.088623
 40
0.400000
 50
180.000000
 51
270.000000
  0
ARC
  8
0
 10
17.303493
 20
93.088623
 40
0.400002
 50
270.000000
 51
0.000000
  0
CIRCLE
  8
0
 62
     4
 10
3.003491
 20
97.648621
 40
0.750000
  0
CIRCLE
  8
0
 62
     4
 10
3.003491
 20
102.728622
 40
0.750000
  0
ARC
  8
0
 62
     4
 10
2.104156
 20
103.604279
 40
0.200668
 50
86.761612
 51
179.901978
  0
ARC
  8
0
 62
     4
 10
2.103156
 20
101.853905
 40
0.199666
 50
179.794205
 51
273.541779
  0
ARC
  8
0
 62
     4
 10
2.104156
 20
101.064278
 40
0.200668
 50
86.761612
 51
179.901978
  0
ARC
  8
0
 62
     4
 10
2.103156
 20
99.313904
 40
0.199666
 50
179.794205
 51
273.541779
  0
ARC
  8
0
 62
     4
 10
2.104156
 20
98.524277
 40
0.200668
 50
86.761612
 51
179.901978
  0
ARC
  8
0
 62
     4
 10
2.103156
 20
96.773911
 40
0.199666
 50
179.794205
 51
273.541779
  0
ARC
  8
0
 62
     4
 10
5.703490
 20
95.488625
 40
0.300003
 50
270.000000
 51
0.000000
  0
ARC
  8
0
 62
     4
 10
5.703490
 20
104.888618
 40
0.300000
 50
0.000000
 51
90.000000
  0
ARC
  8
0
 62
     4
 10
17.903492
 20
104.888618
 40
0.299999
 50
0.000000
 51
90.000000
  0
ARC
  8
0
 62
     4
 10
17.903492
 20
95.488625
 40
0.300003
 50
270.000000
 51
0.000000
  0
CIRCLE
  8
0
 62
     4
 10
-3.546509
 20
100.188622
 40
2.050000
  0
ARC
  8
0
 62
     4
 10
-5.296509
 20
103.688622
 40
1.600000
 50
180.000000
 51
0.000000
  0
ARC
  8
0
 62
     4
 10
-5.296509
 20
96.688622
 40
1.600000
 50
0.000000
 51
180.000000
  0
CIRCLE
  8
0
 62
     4
 10
-3.546509
 20
100.188622
 40
1.900000
  0
CIRCLE
  8
0
 62
     4
 10
-3.546509
 20
100.188622
 40
1.850000
  0
ARC
  8
0
 62
     4
 10
-3.546509
 20
100.188622
 40
0.800003
 50
292.024231
 51
67.975777
  0
ARC
  8
0
 62
     4
 10
-3.546509
 20
100.188622
 40
0.800003
 50
112.024223
 51
247.975769
  0
CIRCLE
  8
0
 62
     4
 10
-5.296509
 20
103.688622
 40
1.500000
  0
CIRCLE
  8
0
 62
     4
 10
-5.296509
 20
96.688622
 40
1.500000
  0
ARC
  8
0
 10
107.403488
 20
-17.209293
 40
2.700000
 50
42.205452
 51
317.794556
  0
ARC
  8
0
 10
96.403488
 20
0.790707
 40
2.700000
 50
222.205444
 51
137.794556
  0
CIRCLE
  8
0
 10
98.903488
 20
-13.209293
 40
1.750000
  0
CIRCLE
  8
0
 62
     2
 10
98.903488
 20
-13.209293
 40
2.500000
  0
CIRCLE
  8
0
 10
104.903488
 20
-3.209293
 40
1.750000
  0
CIRCLE
  8
0
 62
     2
 10
104.903488
 20
-3.209293
 40
2.500000
  0
CIRCLE
  8
0
 10
101.903488
 20
-46.409294
 40
2.000000
  0
ARC
  8
0
 10
107.453491
 20
-55.109295
 40
0.300003
 50
180.000000
 51
270.000000
  0
ARC
  8
0
 10
96.353485
 20
-55.109295
 40
0.299999
 50
270.000000
 51
0.000000
  0
ARC
  8
0
 10
105.558746
 20
-45.909294
 40
0.500001
 50
209.999924
 51
270.000000
  0
ARC
  8
0
 10
103.364815
 20
-44.109295
 40
0.500001
 50
29.999931
 51
90.000000
  0
ARC
  8
0
 10
98.248230
 20
-45.909294
 40
0.500000
 50
270.000000
 51
330.000061
  0
ARC
  8
0
 10
100.326691
 20
-43.909294
 40
0.299999
 50
90.000000
 51
150.000107
  0
ARC
  8
0
 62
     4
 10
97.203491
 20
-74.209290
 40
0.300003
 50
180.000000
 51
270.000000
  0
ARC
  8
0
 62
     4
 10
106.603485
 20
-74.209290
 40
0.300003
 50
270.000000
 51
0.000000
  0
ARC
  8
0
 62
     4
 10
106.603485
 20
43.890705
 40
0.300003
 50
0.000000
 51
90.000000
  0
ARC
  8
0
 62
     4
 10
97.203491
 20
43.890705
 40
0.299999
 50
90.000000
 51
180.000000
  0
ARC
  8
0
 10
100.326691
 20
13.590707
 40
0.300003
 50
209.999573
 51
270.000000
  0
ARC
  8
0
 10
98.248230
 20
15.590707
 40
0.500001
 50
29.999931
 51
90.000000
  0
ARC
  8
0
 10
103.364815
 20
13.790707
 40
0.500000
 50
270.000000
 51
330.000061
  0
ARC
  8
0
 10
105.558746
 20
15.590707
 40
0.499999
 50
90.000000
 51
150.000076
  0
ARC
  8
0
 10
96.353485
 20
24.790707
 40
0.300003
 50
0.000000
 51
90.000000
  0
ARC
  8
0
 10
107.453491
 20
24.790707
 40
0.299999
 50
90.000000
 51
180.000000
  0
CIRCLE
  8
0
 10
101.903488
 20
16.090708
 40
2.000000
  0
CIRCLE
  8
0
 10
96.398491
 20
0.795707
 40
2.250000
  0
ARC
  8
0
 10
96.398491
 20
0.795707
 40
2.557656
 50
6.736009
 51
353.264008
  0
CIRCLE
  8
0
 10
107.398491
 20
-17.204294
 40
2.250000
  0
ARC
  8
0
 10
107.398491
 20
-17.204294
 40
2.557656
 50
6.735992
 51
353.264008
  0
CIRCLE
  8
0
 10
-114.455460
 20
-17.209293
 40
1.400000
  0
CIRCLE
  8
0
 10
-103.455460
 20
0.790707
 40
1.400000
  0
CIRCLE
  8
0
 62
     2
 10
-105.955460
 20
-18.209293
 40
2.500000
  0
CIRCLE
  8
0
 10
-105.955460
 20
-18.209293
 40
1.750000
  0
CIRCLE
  8
0
 62
     2
 10
-108.955460
 20
-8.209293
 40
2.500000
  0
CIRCLE
  8
0
 10
-108.955460
 20
-8.209293
 40
1.750000
  0
CIRCLE
  8
0
 62
     2
 10
-111.955460
 20
1.790707
 40
2.500000
  0
CIRCLE
  8
0
 10
-111.955460
 20
1.790707
 40
1.750000
  0
ARC
  8
0
 62
     4
 10
-104.955460
 20
-57.409298
 40
0.299999
 50
270.000000
 51
0.000000
  0
ARC
  8
0
 62
     4
 10
-104.955460
 20
-55.909298
 40
0.300003
 50
0.000000
 51
90.000000
  0
ARC
  8
0
 62
     4
 10
-112.955460
 20
-57.409298
 40
0.300003
 50
180.000000
 51
270.000000
  0
ARC
  8
0
 62
     4
 10
-112.955460
 20
-55.909298
 40
0.299999
 50
90.000000
 51
180.000000
  0
ARC
  8
0
 62
     4
 10
-111.655457
 20
-56.409298
 40
0.199997
 50
180.000000
 51
270.000000
  0
ARC
  8
0
 62
     4
 10
-106.255463
 20
-56.409298
 40
0.200001
 50
270.000000
 51
0.000000
  0
CIRCLE
  8
0
 10
-108.955460
 20
-44.809296
 40
0.900000
  0
ARC
  8
0
 10
-114.455460
 20
-55.109295
 40
0.299999
 50
270.000000
 51
0.000000
  0
ARC
  8
0
 10
-113.455460
 20
-48.809296
 40
5.000002
 50
235.944183
 51
304.055817
  0
ARC
  8
0
 10
-104.455460
 20
18.490707
 40
5.000002
 50
55.944176
 51
124.055824
  0
ARC
  8
0
 10
-103.455460
 20
24.790707
 40
0.299999
 50
90.000000
 51
180.000000
  0
CIRCLE
  8
0
 10
-108.955460
 20
14.490706
 40
0.900000
  0
ARC
  8
0
 62
     4
 10
-111.655457
 20
26.090706
 40
0.200001
 50
90.000000
 51
180.000000
  0
ARC
  8
0
 62
     4
 10
-106.255463
 20
26.090706
 40
0.199997
 50
0.000000
 51
90.000000
  0
ARC
  8
0
 62
     4
 10
-104.955460
 20
25.590706
 40
0.299999
 50
270.000000
 51
0.000000
  0
ARC
  8
0
 62
     4
 10
-104.955460
 20
27.090706
 40
0.300003
 50
0.000000
 51
90.000000
  0
ARC
  8
0
 62
     4
 10
-112.955460
 20
25.590706
 40
0.300003
 50
180.000000
 51
270.000000
  0
ARC
  8
0
 62
     4
 10
-112.955460
 20
27.090706
 40
0.299999
 50
90.000000
 51
180.000000
  0
ARC
  8
0
 10
2.203477
 20
0.785707
 40
6.008218
 50
342.417053
 51
17.582947
  0
CIRCLE
  8
0
 10
-10.096509
 20
-13.209293
 40
1.600000
  0
CIRCLE
  8
0
 10
-10.096509
 20
-3.209293
 40
1.600000
  0
ARC
  8
0
 62
     4
 10
17.903492
 20
-74.209290
 40
0.300003
 50
270.000000
 51
0.000000
  0
ARC
  8
0
 62
     4
 10
-4.296509
 20
-69.009293
 40
0.500000
 50
270.000000
 51
0.000000
  0
ARC
  8
0
 62
     4
 10
-6.296509
 20
-69.009293
 40
0.500000
 50
180.000000
 51
270.000000
  0
ARC
  8
0
 10
-12.096509
 20
18.490707
 40
5.000000
 50
55.944206
 51
124.055794
  0
ARC
  8
0
 10
9.403491
 20
-43.109295
 40
0.500000
 50
180.000000
 51
270.000000
  0
ARC
  8
0
 10
17.303493
 20
-44.009293
 40
0.400000
 50
0.000000
 51
90.000000
  0
ARC
  8
0
 10
17.303493
 20
-46.809292
 40
0.400000
 50
0.000000
 51
90.000000
  0
ARC
  8
0
 10
9.303491
 20
-46.009293
 40
0.400000
 50
180.000000
 51
270.000000
  0
ARC
  8
0
 10
9.303491
 20
15.690706
 40
0.400000
 50
90.000000
 51
180.000000
  0
ARC
  8
0
 10
17.303493
 20
16.490707
 40
0.400000
 50
270.000000
 51
0.000000
  0
ARC
  8
0
 62
     4
 10
17.903492
 20
43.890705
 40
0.299999
 50
0.000000
 51
90.000000
  0
ARC
  8
0
 62
     4
 10
-4.296509
 20
38.690708
 40
0.500000
 50
0.000000
 51
90.000000
  0
ARC
  8
0
 62
     4
 10
-6.296509
 20
38.690708
 40
0.500000
 50
90.000000
 51
180.000000
  0
ARC
  8
0
 10
5.903491
 20
-48.809292
 40
5.000000
 50
235.944214
 51
304.055786
  0
ARC
  8
0
 10
9.403491
 20
12.790707
 40
0.500000
 50
90.000000
 51
180.000000
  0
ARC
  8
0
 10
17.303493
 20
13.690706
 40
0.400000
 50
270.000000
 51
0.000000
  0
TEXT
  8
0
 10
133.907150
 20
122.050003
 40
4.500000
  1
Ver. 1.0
 50
0.000000
 41
1.052632
 51
0.000000
  7
STANDARD
  0
TEXT
  8
0
 10
113.700287
 20
-130.669998
 40
6.300000
  1
KOGANEI CORP.
 50
0.000000
 41
1.052632
 51
0.000000
  7
STANDARD
  0
TEXT
  8
0
 10
-176.892654
 20
122.050003
 40
4.500000
  1
G110 SERIES
 50
0.000000
 41
1.052632
 51
0.000000
  7
STANDARD
  0
TEXT
  8
0
 10
-186.892654
 20
104.550003
 40
4.500000
  1
MODEL:G113-4E2-PSL
 50
0.000000
 41
1.052632
 51
0.000000
  7
STANDARD
  0
ENDSEC
  0
EOF
