  0
SECTION
  2
HEADER
  0
ENDSEC
  0
SECTION
  2
TABLES
  0
TABLE
  2
LTYPE
 70
     4
  0
LTYPE
  2
CONTINUOUS
 70
    64
  3
Solid line
 72
    65
 73
     0
 40
0.000000
  0
LTYPE
  2
DASHED
 70
    64
  3
__ __ __ __ __ __ __ __ __ __ __ __ __ __ __
 72
    65
 73
     2
 40
3.500000
 49
2.000000
 49
-1.500000
  0
LTYPE
  2
CENTER
 70
    64
  3
____ _ ____ _ ____ _ ____ _ ____ _ ____ _ ____
 72
    65
 73
     4
 40
17.500000
 49
13.000000
 49
-1.500000
 49
1.500000
 49
-1.500000
  0
LTYPE
  2
PHANTOM
 70
    64
  3
_____ _ _ _____ _ _ _____ _ _ _____ _ _ ____  
 72
    65
 73
     6
 40
15.500000
 49
8.000000
 49
-1.500000
 49
1.500000
 49
-1.500000
 49
1.500000
 49
-1.500000
  0
LTYPE
  2
DASHED1
 70
    64
  3
__ __ __ __ __ __ __ __ __ __ __ __ __ __ __
 72
    65
 73
     2
 40
1.500000
 49
1.000000
 49
-0.500000
  0
LTYPE
  2
DASHED2
 70
    64
  3
__ __ __ __ __ __ __ __ __ __ __ __ __ __ __
 72
    65
 73
     2
 40
3.500000
 49
2.500000
 49
-1.000000
  0
LTYPE
  2
DASHED3
 70
    64
  3
__ __ __ __ __ __ __ __ __ __ __ __ __ __ __
 72
    65
 73
     2
 40
6.000000
 49
4.000000
 49
-2.000000
  0
LTYPE
  2
DASHED4
 70
    64
  3
__ __ __ __ __ __ __ __ __ __ __ __ __ __ __
 72
    65
 73
     2
 40
12.000000
 49
10.000000
 49
-2.000000
  0
LTYPE
  2
DASHED5
 70
    64
  3
__ __ __ __ __ __ __ __ __ __ __ __ __ __ __
 72
    65
 73
     2
 40
17.000000
 49
15.000000
 49
-2.000000
  0
LTYPE
  2
DASHED6
 70
    64
  3
__ __ __ __ __ __ __ __ __ __ __ __ __ __ __
 72
    65
 73
     2
 40
29.000000
 49
27.000000
 49
-2.000000
  0
LTYPE
  2
PHANTOM1
 70
    64
  3
_____ _ _ _____ _ _ _____ _ _ _____ _ _ ____  
 72
    65
 73
     6
 40
31.000000
 49
25.000000
 49
-1.500000
 49
1.000000
 49
-1.000000
 49
1.000000
 49
-1.500000
  0
LTYPE
  2
PHANTOM2
 70
    64
  3
_____ _ _ _____ _ _ _____ _ _ _____ _ _ ____  
 72
    65
 73
     6
 40
36.000000
 49
27.000000
 49
-1.500000
 49
2.500000
 49
-1.000000
 49
2.500000
 49
-1.500000
  0
LTYPE
  2
PHANTOM3
 70
    64
  3
_____ _ _ _____ _ _ _____ _ _ _____ _ _ ____  
 72
    65
 73
     6
 40
78.000000
 49
64.000000
 49
-2.000000
 49
4.000000
 49
-2.000000
 49
4.000000
 49
-2.000000
  0
LTYPE
  2
CENTER1
 70
    64
  3
____ _ ____ _ ____ _ ____ _ ____ _ ____ _ ____
 72
    65
 73
     4
 40
19.000000
 49
14.000000
 49
-1.000000
 49
3.000000
 49
-1.000000
  0
LTYPE
  2
CENTER2
 70
    64
  3
____ _ ____ _ ____ _ ____ _ ____ _ ____ _ ____
 72
    65
 73
     4
 40
28.500000
 49
25.000000
 49
-1.000000
 49
1.500000
 49
-1.000000
  0
LTYPE
  2
CENTER3
 70
    64
  3
____ _ ____ _ ____ _ ____ _ ____ _ ____ _ ____
 72
    65
 73
     4
 40
31.500000
 49
27.000000
 49
-1.000000
 49
2.500000
 49
-1.000000
  0
LTYPE
  2
CENTER4
 70
    64
  3
____ _ ____ _ ____ _ ____ _ ____ _ ____ _ ____
 72
    65
 73
     4
 40
50.000000
 49
45.000000
 49
-1.000000
 49
3.000000
 49
-1.000000
  0
LTYPE
  2
CENTER5
 70
    64
  3
____ _ ____ _ ____ _ ____ _ ____ _ ____ _ ____
 72
    65
 73
     4
 40
100.000000
 49
92.000000
 49
-2.000000
 49
4.000000
 49
-2.000000
  0
LTYPE
  2
SBK1
 70
    64
  3
______ _ _ _ ______ _ _ _ ______ _ _ _ _____  
 72
    65
 73
     8
 40
60.500000
 49
45.000000
 49
-2.000000
 49
2.500000
 49
-2.000000
 49
2.500000
 49
-2.000000
 49
2.500000
 49
-2.000000
  0
LTYPE
  2
SBK2
 70
    64
  3
______ _ _ _ ______ _ _ _ ______ _ _ _ _____  
 72
    65
 73
     8
 40
84.000000
 49
64.000000
 49
-2.000000
 49
4.000000
 49
-2.000000
 49
4.000000
 49
-2.000000
 49
4.000000
 49
-2.000000
  0
LTYPE
  2
STCH
 70
    64
  3
__ __ __ __ __ __ __ __ __ __ __ __ __ __ __
 72
    65
 73
     2
 40
3.000000
 49
1.000000
 49
-2.000000
  0
LTYPE
  2
MTCH
 70
    64
  3
_____ _ _ _____ _ _ _____ _ _ _____ _ _ ____  
 72
    65
 73
     6
 40
80.000000
 49
66.000000
 49
-2.000000
 49
4.000000
 49
-2.000000
 49
4.000000
 49
-2.000000
  0
ENDTAB
  0
TABLE
  2
LAYER
 70
     1
  0
LAYER
  2
0
 70
     0
 62
     7
  6
CONTINUOUS
  0
ENDTAB
  0
TABLE
  2
STYLE
 70
     1
  0
STYLE
  2
STANDARD
 70
     0
 40
0.000000
 41
1.000000
 50
0.000000
 71
     0
 42
0.200000
  3
txt
  4
BIGFONT
  0
ENDTAB
  0
TABLE
  2
VIEW
 70
     0
  0
ENDTAB
  0
ENDSEC
  0
SECTION
  2
BLOCKS
  0
ENDSEC
  0
SECTION
  2
ENTITIES
  0
POINT
  8
0
 10
146.122269
 20
-171.386841
  0
POINT
  8
0
 10
37.122265
 20
62.020966
  0
POINT
  8
0
 10
-118.515785
 20
62.020966
  0
POINT
  8
0
 10
146.122269
 20
62.020966
  0
POINT
  8
0
 10
37.122265
 20
62.020966
  0
POINT
  8
0
 10
-44.215782
 20
62.020966
  0
POINT
  8
0
 10
-118.515785
 20
62.020966
  0
POINT
  8
0
 10
146.122269
 20
-171.386841
  0
POINT
  8
0
 10
37.122265
 20
-171.386841
  0
POINT
  8
0
 10
37.122265
 20
-171.386841
  0
LINE
  8
0
 62
     4
 10
129.122269
 20
-129.886841
 11
130.492264
 21
-130.386841
  0
LINE
  8
0
 62
     4
 10
136.122269
 20
-130.386841
 11
130.492264
 21
-130.386841
  0
LINE
  8
0
 10
135.622269
 20
-130.386841
 11
135.622269
 21
-131.386841
  0
LINE
  8
0
 10
118.622269
 20
-131.386841
 11
135.622269
 21
-131.386841
  0
LINE
  8
0
 62
     4
 10
118.622269
 20
-130.386841
 11
118.622269
 21
-131.386841
  0
LINE
  8
0
 62
     4
 10
123.752258
 20
-130.386841
 11
118.622269
 21
-130.386841
  0
LINE
  8
0
 62
     4
 10
123.752274
 20
-130.386856
 11
125.122269
 21
-129.886856
  0
LINE
  8
0
 62
     4
 10
129.122269
 20
-129.886841
 11
125.122269
 21
-129.886841
  0
LINE
  8
0
 10
53.122265
 20
-129.886841
 11
54.492264
 21
-130.386841
  0
LINE
  8
0
 10
59.622265
 20
-130.386841
 11
54.492264
 21
-130.386841
  0
LINE
  8
0
 10
59.622265
 20
-130.386841
 11
59.622265
 21
-131.386841
  0
LINE
  8
0
 10
42.622265
 20
-131.386841
 11
59.622265
 21
-131.386841
  0
LINE
  8
0
 10
42.622265
 20
-130.386841
 11
42.622265
 21
-131.386841
  0
LINE
  8
0
 10
47.752266
 20
-130.386841
 11
42.622265
 21
-130.386841
  0
LINE
  8
0
 10
47.752262
 20
-130.386826
 11
49.122261
 21
-129.886826
  0
LINE
  8
0
 10
53.122265
 20
-129.886841
 11
49.122265
 21
-129.886841
  0
LINE
  8
0
 10
72.122261
 20
-129.886841
 11
73.492271
 21
-130.386841
  0
LINE
  8
0
 10
78.622269
 20
-130.386841
 11
73.492264
 21
-130.386841
  0
LINE
  8
0
 10
78.622269
 20
-130.386841
 11
78.622269
 21
-131.386841
  0
LINE
  8
0
 10
61.622265
 20
-131.386841
 11
78.622269
 21
-131.386841
  0
LINE
  8
0
 10
61.622265
 20
-130.386841
 11
61.622265
 21
-131.386841
  0
LINE
  8
0
 10
66.752266
 20
-130.386841
 11
61.622265
 21
-130.386841
  0
LINE
  8
0
 10
66.752266
 20
-130.386841
 11
68.122269
 21
-129.886841
  0
LINE
  8
0
 10
72.122269
 20
-129.886841
 11
68.122269
 21
-129.886841
  0
LINE
  8
0
 10
47.677040
 20
-144.911835
 11
47.677040
 21
-147.861847
  0
LINE
  8
0
 10
47.677040
 20
-147.861847
 11
45.122265
 21
-149.336838
  0
LINE
  8
0
 10
45.122265
 20
-149.336838
 11
42.567490
 21
-147.861847
  0
LINE
  8
0
 10
42.567490
 20
-147.861847
 11
42.567490
 21
-144.911835
  0
LINE
  8
0
 10
42.567490
 20
-144.911835
 11
45.122265
 21
-143.436844
  0
LINE
  8
0
 10
45.122269
 20
-143.436844
 11
47.677044
 21
-144.911835
  0
LINE
  8
0
  6
CENTER
 62
     2
 10
129.122269
 20
-169.386841
 11
129.122269
 21
-157.386841
  0
LINE
  8
0
  6
CENTER
 62
     2
 10
121.122269
 20
-152.386841
 11
121.122269
 21
-140.386841
  0
LINE
  8
0
  6
CENTER
 62
     2
 10
110.122269
 20
-169.386841
 11
110.122269
 21
-157.386841
  0
LINE
  8
0
  6
CENTER
 62
     2
 10
102.122269
 20
-152.386841
 11
102.122269
 21
-140.386841
  0
LINE
  8
0
  6
CENTER
 62
     2
 10
91.122269
 20
-169.386841
 11
91.122269
 21
-157.386841
  0
LINE
  8
0
  6
CENTER
 62
     2
 10
83.122269
 20
-152.386841
 11
83.122269
 21
-140.386841
  0
LINE
  8
0
  6
CENTER
 62
     2
 10
72.122269
 20
-169.386841
 11
72.122269
 21
-157.386841
  0
LINE
  8
0
  6
CENTER
 62
     2
 10
64.122269
 20
-152.386841
 11
64.122269
 21
-140.386841
  0
LINE
  8
0
  6
CENTER
 62
     2
 10
53.122265
 20
-169.386841
 11
53.122265
 21
-157.386841
  0
LINE
  8
0
  6
CENTER
 62
     2
 10
45.122265
 20
-152.386841
 11
45.122265
 21
-140.386841
  0
LINE
  8
0
  6
CENTER
 62
     2
 10
39.122265
 20
-146.386841
 11
130.314743
 21
-146.386841
  0
LINE
  8
0
 62
     2
 10
47.053753
 20
-163.386841
 11
135.122269
 21
-163.386841
  0
LINE
  8
0
 10
32.122265
 20
-171.386841
 11
146.122269
 21
-171.386841
  0
LINE
  8
0
 10
61.622265
 20
-109.586838
 11
64.122269
 21
-109.586838
  0
LINE
  8
0
 10
67.322266
 20
-106.386841
 11
67.322266
 21
-103.886841
  0
LINE
  8
0
 10
72.922264
 20
-129.886841
 11
72.922264
 21
-127.386841
  0
LINE
  8
0
 10
76.122269
 20
-124.186844
 11
78.622269
 21
-124.186844
  0
LINE
  8
0
 10
61.622265
 20
-103.386841
 11
78.622269
 21
-103.386841
  0
LINE
  8
0
 10
61.122265
 20
-129.886841
 11
61.122265
 21
-103.886841
  0
LINE
  8
0
 10
79.122269
 20
-129.886841
 11
79.122269
 21
-103.886841
  0
LINE
  8
0
 10
63.054768
 20
-107.449341
 11
65.179764
 21
-105.324341
  0
LINE
  8
0
 10
63.029465
 20
-105.353989
 11
65.177261
 21
-107.451843
  0
LINE
  8
0
 10
75.029465
 20
-126.319458
 11
77.177261
 21
-128.417313
  0
LINE
  8
0
 10
75.054756
 20
-128.414810
 11
77.179756
 21
-126.289803
  0
LINE
  8
0
 10
61.122265
 20
-97.986839
 11
61.122265
 21
-103.886841
  0
LINE
  8
0
 10
79.122269
 20
-97.986839
 11
79.122269
 21
-103.886841
  0
LINE
  8
0
 10
73.488846
 20
-97.986839
 11
73.488846
 21
-102.886841
  0
LINE
  8
0
 10
66.755684
 20
-97.986839
 11
66.755684
 21
-102.886841
  0
LINE
  8
0
 10
68.372269
 20
-97.986839
 11
68.372269
 21
-102.886841
  0
LINE
  8
0
 10
71.872269
 20
-97.986839
 11
71.872269
 21
-102.886841
  0
LINE
  8
0
 10
61.522263
 20
-97.586838
 11
78.722260
 21
-97.586838
  0
LINE
  8
0
 10
65.122269
 20
-97.386841
 11
65.122269
 21
-97.586838
  0
LINE
  8
0
 10
75.122269
 20
-97.386841
 11
75.122269
 21
-97.586838
  0
LINE
  8
0
 10
74.822266
 20
-97.086838
 11
65.422264
 21
-97.086838
  0
LINE
  8
0
  6
CENTER
 62
     2
 10
70.122269
 20
-132.386841
 11
70.122269
 21
-94.950790
  0
LINE
  8
0
 10
55.822266
 20
-97.086838
 11
46.422264
 21
-97.086838
  0
LINE
  8
0
 10
56.122265
 20
-97.386841
 11
56.122265
 21
-97.586838
  0
LINE
  8
0
 10
46.122265
 20
-97.386841
 11
46.122265
 21
-97.586838
  0
LINE
  8
0
 10
42.522266
 20
-97.586838
 11
59.722267
 21
-97.586838
  0
LINE
  8
0
 10
52.872265
 20
-97.986839
 11
52.872265
 21
-102.886841
  0
LINE
  8
0
 10
49.372265
 20
-97.986839
 11
49.372265
 21
-102.886841
  0
LINE
  8
0
 10
47.755684
 20
-97.986839
 11
47.755684
 21
-102.886841
  0
LINE
  8
0
 10
54.488846
 20
-97.986839
 11
54.488846
 21
-102.886841
  0
LINE
  8
0
 10
60.122265
 20
-97.986839
 11
60.122265
 21
-103.886841
  0
LINE
  8
0
 10
42.122265
 20
-97.986839
 11
42.122265
 21
-103.886841
  0
LINE
  8
0
  6
CENTER
 62
     2
 10
108.122269
 20
-132.386841
 11
108.122269
 21
-94.950790
  0
LINE
  8
0
 62
     4
 10
103.122269
 20
-97.386841
 11
103.122269
 21
-129.086838
  0
LINE
  8
0
 62
     4
 10
113.122269
 20
-97.386841
 11
113.122269
 21
-129.086838
  0
LINE
  8
0
 62
     4
 10
112.329361
 20
-121.293938
 11
110.915161
 21
-119.879738
  0
LINE
  8
0
 62
     4
 10
112.329369
 20
-119.879738
 11
110.915161
 21
-121.293945
  0
LINE
  8
0
 62
     4
 10
103.915161
 20
-119.879730
 11
105.329376
 21
-121.293945
  0
LINE
  8
0
 62
     4
 10
103.915161
 20
-121.293945
 11
105.329376
 21
-119.879730
  0
LINE
  8
0
 62
     4
 10
109.947784
 20
-118.536842
 11
106.296753
 21
-118.536842
  0
LINE
  8
0
 62
     4
 10
109.947784
 20
-119.136841
 11
106.296753
 21
-119.136841
  0
LINE
  8
0
  6
CENTER
 62
     2
 10
110.622269
 20
-118.836838
 11
105.622269
 21
-118.836838
  0
LINE
  8
0
 62
     4
 10
103.122269
 20
-118.986839
 11
104.622269
 21
-118.986839
  0
LINE
  8
0
 62
     4
 10
104.622269
 20
-122.186844
 11
103.122269
 21
-122.186844
  0
LINE
  8
0
 62
     4
 10
113.122269
 20
-122.186844
 11
111.622269
 21
-122.186844
  0
LINE
  8
0
 62
     4
 10
111.622269
 20
-118.986839
 11
113.122269
 21
-118.986839
  0
LINE
  8
0
 62
     4
 10
113.122269
 20
-114.686844
 11
112.822266
 21
-114.686844
  0
LINE
  8
0
 62
     4
 10
103.122269
 20
-115.184921
 11
113.122269
 21
-115.184921
  0
LINE
  8
0
 62
     4
 10
105.472260
 20
-122.686844
 11
103.122269
 21
-122.686844
  0
LINE
  8
0
 62
     4
 10
106.722260
 20
-121.436844
 11
109.522263
 21
-121.436844
  0
LINE
  8
0
 62
     4
 10
110.772263
 20
-122.686844
 11
109.522255
 21
-121.436836
  0
LINE
  8
0
 62
     4
 10
113.122269
 20
-122.686844
 11
110.772263
 21
-122.686844
  0
LINE
  8
0
 62
     4
 10
106.977890
 20
-121.877655
 11
109.266632
 21
-121.877655
  0
LINE
  8
0
 62
     4
 10
105.727890
 20
-123.127655
 11
103.122269
 21
-123.127655
  0
LINE
  8
0
 62
     4
 10
113.122269
 20
-123.127655
 11
110.516632
 21
-123.127655
  0
LINE
  8
0
 62
     4
 10
109.266624
 20
-121.877655
 11
110.516632
 21
-123.127663
  0
LINE
  8
0
 62
     4
 10
113.122269
 20
-115.996025
 11
103.122269
 21
-115.996025
  0
LINE
  8
0
 62
     4
 10
109.266647
 20
-121.877663
 11
109.522278
 21
-121.436844
  0
LINE
  8
0
 62
     4
 10
106.977898
 20
-121.877655
 11
105.727898
 21
-123.127655
  0
LINE
  8
0
 62
     4
 10
105.472260
 20
-122.686836
 11
106.722267
 21
-121.436836
  0
LINE
  8
0
 62
     4
 10
106.977905
 20
-121.877663
 11
106.722267
 21
-121.436836
  0
LINE
  8
0
 62
     4
 10
110.772263
 20
-122.686844
 11
110.516632
 21
-123.127663
  0
LINE
  8
0
 62
     4
 10
105.727890
 20
-123.127655
 11
105.472267
 21
-122.686844
  0
LINE
  8
0
 62
     4
 10
110.922272
 20
-118.286842
 11
112.422272
 21
-118.286842
  0
LINE
  8
0
 62
     4
 10
110.922272
 20
-116.786842
 11
112.422272
 21
-116.786842
  0
LINE
  8
0
 62
     4
 10
112.422272
 20
-116.786842
 11
112.422272
 21
-118.286842
  0
LINE
  8
0
 62
     4
 10
110.922272
 20
-116.786842
 11
110.922272
 21
-118.286842
  0
LINE
  8
0
 62
     1
 10
106.622269
 20
-102.086838
 11
106.622269
 21
-97.086838
  0
LINE
  8
0
 62
     1
 10
106.622269
 20
-102.086838
 11
109.622269
 21
-102.086838
  0
LINE
  8
0
 62
     1
 10
109.622269
 20
-102.086838
 11
109.622269
 21
-97.086838
  0
LINE
  8
0
 62
     4
 10
113.122269
 20
-114.586838
 11
112.822266
 21
-114.586838
  0
LINE
  8
0
 62
     4
 10
112.822266
 20
-97.086838
 11
103.422272
 21
-97.086838
  0
LINE
  8
0
 62
     4
 10
103.422272
 20
-109.286842
 11
105.622269
 21
-109.286842
  0
LINE
  8
0
 62
     4
 10
105.222260
 20
-110.286842
 11
105.622269
 21
-110.286842
  0
LINE
  8
0
 62
     4
 10
105.222260
 20
-110.286842
 11
105.222260
 21
-109.286842
  0
LINE
  8
0
 62
     4
 10
111.022263
 20
-110.286842
 11
111.022263
 21
-109.286842
  0
LINE
  8
0
 62
     4
 10
105.222260
 20
-109.786842
 11
111.022263
 21
-109.786842
  0
LINE
  8
0
 62
     4
 10
110.622269
 20
-108.286842
 11
110.622269
 21
-110.786842
  0
LINE
  8
0
 62
     4
 10
105.622269
 20
-108.286842
 11
105.622269
 21
-110.786842
  0
LINE
  8
0
 62
     4
 10
111.612274
 20
-111.286842
 11
111.736267
 21
-113.174843
  0
LINE
  8
0
 62
     4
 10
111.212265
 20
-113.386841
 11
111.212265
 21
-113.886841
  0
LINE
  8
0
 62
     4
 10
110.112259
 20
-113.886841
 11
111.212265
 21
-113.886841
  0
LINE
  8
0
 62
     4
 10
110.112259
 20
-113.386841
 11
110.112259
 21
-113.886841
  0
LINE
  8
0
 62
     4
 10
109.786270
 20
-113.386841
 11
111.536270
 21
-113.386841
  0
LINE
  8
0
 62
     4
 10
109.586266
 20
-113.174843
 11
109.712265
 21
-111.286842
  0
LINE
  8
0
 62
     4
 10
109.712265
 20
-111.286842
 11
111.612259
 21
-111.286842
  0
LINE
  8
0
 62
     4
 10
108.522263
 20
-112.686844
 11
107.722260
 21
-112.686844
  0
LINE
  8
0
 62
     4
 10
108.522263
 20
-111.886841
 11
108.522263
 21
-112.686844
  0
LINE
  8
0
 62
     4
 10
108.522263
 20
-111.886841
 11
107.722260
 21
-111.886841
  0
LINE
  8
0
 62
     4
 10
107.722260
 20
-111.886841
 11
107.722260
 21
-112.686844
  0
LINE
  8
0
 62
     4
 10
109.072266
 20
-111.286835
 11
109.196266
 21
-113.174843
  0
LINE
  8
0
 62
     4
 10
108.672272
 20
-113.386841
 11
108.672272
 21
-113.886841
  0
LINE
  8
0
 62
     4
 10
107.572266
 20
-113.886841
 11
108.672272
 21
-113.886841
  0
LINE
  8
0
 62
     4
 10
107.572266
 20
-113.386841
 11
107.572266
 21
-113.886841
  0
LINE
  8
0
 62
     4
 10
107.246262
 20
-113.386841
 11
108.996262
 21
-113.386841
  0
LINE
  8
0
 62
     4
 10
107.046257
 20
-113.174843
 11
107.172264
 21
-111.286835
  0
LINE
  8
0
 62
     4
 10
107.172272
 20
-111.286842
 11
109.072266
 21
-111.286842
  0
LINE
  8
0
 62
     4
 10
104.506264
 20
-113.174835
 11
104.632263
 21
-111.286835
  0
LINE
  8
0
 62
     4
 10
106.532265
 20
-111.286842
 11
106.656265
 21
-113.174843
  0
LINE
  8
0
 62
     4
 10
111.822266
 20
-110.786842
 11
111.822266
 21
-109.786842
  0
LINE
  8
0
 62
     4
 10
112.822266
 20
-109.786842
 11
111.822266
 21
-109.786842
  0
LINE
  8
0
 62
     4
 10
104.422272
 20
-110.786842
 11
104.422272
 21
-109.786842
  0
LINE
  8
0
 62
     4
 10
103.422272
 20
-109.786842
 11
104.422272
 21
-109.786842
  0
LINE
  8
0
 62
     4
 10
106.872269
 20
-109.786842
 11
106.872269
 21
-110.786842
  0
LINE
  8
0
 62
     4
 10
109.372269
 20
-109.786842
 11
109.372269
 21
-110.786842
  0
LINE
  8
0
 62
     4
 10
105.032272
 20
-113.886841
 11
106.132263
 21
-113.886841
  0
LINE
  8
0
 62
     4
 10
104.706268
 20
-113.386841
 11
106.456268
 21
-113.386841
  0
LINE
  8
0
 62
     4
 10
104.632263
 20
-111.286842
 11
106.532272
 21
-111.286842
  0
LINE
  8
0
 62
     4
 10
106.132263
 20
-113.386841
 11
106.132263
 21
-113.886841
  0
LINE
  8
0
 62
     4
 10
105.032272
 20
-113.386841
 11
105.032272
 21
-113.886841
  0
LINE
  8
0
 62
     4
 10
103.422272
 20
-115.086838
 11
112.822266
 21
-115.086838
  0
LINE
  8
0
 62
     4
 10
112.822266
 20
-115.086838
 11
112.822266
 21
-109.786842
  0
LINE
  8
0
 62
     4
 10
103.422272
 20
-115.086838
 11
103.422272
 21
-109.786842
  0
LINE
  8
0
 62
     4
 10
104.422272
 20
-110.786842
 11
111.822266
 21
-110.786842
  0
LINE
  8
0
 62
     4
 10
105.622269
 20
-108.286842
 11
110.622269
 21
-108.286842
  0
LINE
  8
0
 62
     4
 10
105.622269
 20
-109.486839
 11
110.622269
 21
-109.486839
  0
LINE
  8
0
 62
     4
 10
110.622269
 20
-110.286842
 11
111.022263
 21
-110.286842
  0
LINE
  8
0
 62
     4
 10
110.622269
 20
-109.286842
 11
112.822266
 21
-109.286842
  0
LINE
  8
0
 62
     4
 10
103.422272
 20
-114.686844
 11
103.122269
 21
-114.686844
  0
LINE
  8
0
 62
     4
 10
103.422272
 20
-114.586838
 11
103.122269
 21
-114.586838
  0
LINE
  8
0
 62
     4
 10
113.122269
 20
-129.086838
 11
103.122269
 21
-129.086838
  0
LINE
  8
0
 10
113.372269
 20
-124.482101
 11
113.372269
 21
-97.586838
  0
LINE
  8
0
 10
102.872269
 20
-129.286835
 11
102.872269
 21
-112.291580
  0
LINE
  8
0
 10
117.122269
 20
-130.386841
 11
99.122269
 21
-130.386841
  0
LINE
  8
0
 10
117.122269
 20
-97.586838
 11
113.122269
 21
-97.586838
  0
LINE
  8
0
 10
117.122269
 20
-130.386841
 11
117.122269
 21
-97.586838
  0
LINE
  8
0
 10
99.122269
 20
-130.386841
 11
99.122269
 21
-97.586838
  0
LINE
  8
0
 10
102.122269
 20
-129.586838
 11
102.122269
 21
-112.386841
  0
LINE
  8
0
 10
111.122269
 20
-129.886841
 11
102.422272
 21
-129.886841
  0
LINE
  8
0
 10
102.122269
 20
-106.386841
 11
99.122269
 21
-106.386841
  0
LINE
  8
0
 10
102.122269
 20
-112.386841
 11
99.122269
 21
-112.386841
  0
LINE
  8
0
 10
114.122269
 20
-124.386841
 11
117.122269
 21
-124.386841
  0
LINE
  8
0
 10
111.122269
 20
-129.086838
 11
111.122269
 21
-130.386841
  0
LINE
  8
0
 10
102.122269
 20
-106.386841
 11
102.122269
 21
-97.586838
  0
LINE
  8
0
 10
102.872269
 20
-106.482101
 11
102.872269
 21
-97.586838
  0
LINE
  8
0
 10
114.122269
 20
-124.386841
 11
114.122269
 21
-97.586838
  0
LINE
  8
0
 10
103.122269
 20
-97.586838
 11
99.122269
 21
-97.586838
  0
LINE
  8
0
 10
111.122269
 20
-129.286835
 11
102.495499
 21
-129.286835
  0
LINE
  8
0
 10
100.708046
 20
-107.972626
 11
103.122261
 21
-110.386841
  0
LINE
  8
0
 10
100.708046
 20
-110.801056
 11
103.122261
 21
-108.386841
  0
LINE
  8
0
 10
113.122269
 20
-126.386848
 11
115.536469
 21
-128.801056
  0
LINE
  8
0
 10
113.122253
 20
-128.386841
 11
115.536469
 21
-125.972618
  0
LINE
  8
0
 10
94.122269
 20
-128.386841
 11
96.536476
 21
-125.972618
  0
LINE
  8
0
 10
94.122261
 20
-126.386841
 11
96.536476
 21
-128.801056
  0
LINE
  8
0
 10
81.708054
 20
-110.801056
 11
84.122269
 21
-108.386841
  0
LINE
  8
0
 10
81.708054
 20
-107.972626
 11
84.122253
 21
-110.386833
  0
LINE
  8
0
 10
92.122269
 20
-129.286835
 11
83.495499
 21
-129.286835
  0
LINE
  8
0
 10
84.122269
 20
-97.586838
 11
80.122269
 21
-97.586838
  0
LINE
  8
0
 10
95.122269
 20
-124.386841
 11
95.122269
 21
-97.586838
  0
LINE
  8
0
 10
83.872269
 20
-106.482101
 11
83.872269
 21
-97.586838
  0
LINE
  8
0
 10
83.122269
 20
-106.386841
 11
83.122269
 21
-97.586838
  0
LINE
  8
0
 10
92.122269
 20
-129.086838
 11
92.122269
 21
-130.386841
  0
LINE
  8
0
 10
95.122269
 20
-124.386841
 11
98.122269
 21
-124.386841
  0
LINE
  8
0
 10
83.122269
 20
-112.386841
 11
80.122269
 21
-112.386841
  0
LINE
  8
0
 10
83.122269
 20
-106.386841
 11
80.122269
 21
-106.386841
  0
LINE
  8
0
 10
92.122269
 20
-129.886841
 11
83.422264
 21
-129.886841
  0
LINE
  8
0
 10
83.122269
 20
-129.586838
 11
83.122269
 21
-112.386841
  0
LINE
  8
0
 10
80.122269
 20
-130.386841
 11
80.122269
 21
-97.586838
  0
LINE
  8
0
 10
98.122269
 20
-130.386841
 11
98.122269
 21
-97.586838
  0
LINE
  8
0
 10
98.122269
 20
-97.586838
 11
94.122269
 21
-97.586838
  0
LINE
  8
0
 10
98.122269
 20
-130.386841
 11
80.122269
 21
-130.386841
  0
LINE
  8
0
 10
83.872269
 20
-129.286835
 11
83.872269
 21
-112.291580
  0
LINE
  8
0
 10
94.372269
 20
-124.482101
 11
94.372269
 21
-97.586838
  0
LINE
  8
0
 62
     4
 10
94.122269
 20
-129.086838
 11
84.122269
 21
-129.086838
  0
LINE
  8
0
 62
     4
 10
84.422264
 20
-114.586838
 11
84.122269
 21
-114.586838
  0
LINE
  8
0
 62
     4
 10
84.422264
 20
-114.686844
 11
84.122269
 21
-114.686844
  0
LINE
  8
0
 62
     4
 10
91.622269
 20
-109.286842
 11
93.822266
 21
-109.286842
  0
LINE
  8
0
 62
     4
 10
91.622269
 20
-110.286842
 11
92.022263
 21
-110.286842
  0
LINE
  8
0
 62
     4
 10
86.622269
 20
-109.486839
 11
91.622269
 21
-109.486839
  0
LINE
  8
0
 62
     4
 10
86.622269
 20
-108.286842
 11
91.622269
 21
-108.286842
  0
LINE
  8
0
 62
     4
 10
85.422264
 20
-110.786842
 11
92.822266
 21
-110.786842
  0
LINE
  8
0
 62
     4
 10
84.422264
 20
-115.086838
 11
84.422264
 21
-109.786842
  0
LINE
  8
0
 62
     4
 10
93.822266
 20
-115.086838
 11
93.822266
 21
-109.786842
  0
LINE
  8
0
 62
     4
 10
84.422264
 20
-115.086838
 11
93.822266
 21
-115.086838
  0
LINE
  8
0
 62
     4
 10
86.032265
 20
-113.386841
 11
86.032265
 21
-113.886841
  0
LINE
  8
0
 62
     4
 10
87.132263
 20
-113.386841
 11
87.132263
 21
-113.886841
  0
LINE
  8
0
 62
     4
 10
85.632263
 20
-111.286842
 11
87.532265
 21
-111.286842
  0
LINE
  8
0
 62
     4
 10
85.706268
 20
-113.386841
 11
87.456268
 21
-113.386841
  0
LINE
  8
0
 62
     4
 10
86.032265
 20
-113.886841
 11
87.132263
 21
-113.886841
  0
LINE
  8
0
 62
     4
 10
90.372269
 20
-109.786842
 11
90.372269
 21
-110.786842
  0
LINE
  8
0
 62
     4
 10
87.872269
 20
-109.786842
 11
87.872269
 21
-110.786842
  0
LINE
  8
0
 62
     4
 10
84.422264
 20
-109.786842
 11
85.422264
 21
-109.786842
  0
LINE
  8
0
 62
     4
 10
85.422264
 20
-110.786842
 11
85.422264
 21
-109.786842
  0
LINE
  8
0
 62
     4
 10
93.822266
 20
-109.786842
 11
92.822266
 21
-109.786842
  0
LINE
  8
0
 62
     4
 10
92.822266
 20
-110.786842
 11
92.822266
 21
-109.786842
  0
LINE
  8
0
 62
     4
 10
87.532265
 20
-111.286835
 11
87.656265
 21
-113.174835
  0
LINE
  8
0
 62
     4
 10
85.506264
 20
-113.174843
 11
85.632263
 21
-111.286842
  0
LINE
  8
0
 62
     4
 10
88.172264
 20
-111.286842
 11
90.072266
 21
-111.286842
  0
LINE
  8
0
 62
     4
 10
88.046265
 20
-113.174843
 11
88.172264
 21
-111.286842
  0
LINE
  8
0
 62
     4
 10
88.246262
 20
-113.386841
 11
89.996262
 21
-113.386841
  0
LINE
  8
0
 62
     4
 10
88.572266
 20
-113.386841
 11
88.572266
 21
-113.886841
  0
LINE
  8
0
 62
     4
 10
88.572266
 20
-113.886841
 11
89.672264
 21
-113.886841
  0
LINE
  8
0
 62
     4
 10
89.672264
 20
-113.386841
 11
89.672264
 21
-113.886841
  0
LINE
  8
0
 62
     4
 10
90.072266
 20
-111.286842
 11
90.196266
 21
-113.174843
  0
LINE
  8
0
 62
     4
 10
88.722260
 20
-111.886841
 11
88.722260
 21
-112.686844
  0
LINE
  8
0
 62
     4
 10
89.522263
 20
-111.886841
 11
88.722260
 21
-111.886841
  0
LINE
  8
0
 62
     4
 10
89.522263
 20
-111.886841
 11
89.522263
 21
-112.686844
  0
LINE
  8
0
 62
     4
 10
89.522263
 20
-112.686844
 11
88.722260
 21
-112.686844
  0
LINE
  8
0
 62
     4
 10
90.712265
 20
-111.286842
 11
92.612267
 21
-111.286842
  0
LINE
  8
0
 62
     4
 10
90.586266
 20
-113.174843
 11
90.712265
 21
-111.286842
  0
LINE
  8
0
 62
     4
 10
90.786270
 20
-113.386841
 11
92.536270
 21
-113.386841
  0
LINE
  8
0
 62
     4
 10
91.112267
 20
-113.386841
 11
91.112267
 21
-113.886841
  0
LINE
  8
0
 62
     4
 10
91.112267
 20
-113.886841
 11
92.212265
 21
-113.886841
  0
LINE
  8
0
 62
     4
 10
92.212265
 20
-113.386841
 11
92.212265
 21
-113.886841
  0
LINE
  8
0
 62
     4
 10
92.612267
 20
-111.286842
 11
92.736267
 21
-113.174843
  0
LINE
  8
0
 62
     4
 10
86.622269
 20
-108.286842
 11
86.622269
 21
-110.786842
  0
LINE
  8
0
 62
     4
 10
91.622269
 20
-108.286842
 11
91.622269
 21
-110.786842
  0
LINE
  8
0
 62
     4
 10
86.222260
 20
-109.786842
 11
92.022263
 21
-109.786842
  0
LINE
  8
0
 62
     4
 10
92.022263
 20
-110.286842
 11
92.022263
 21
-109.286842
  0
LINE
  8
0
 62
     4
 10
86.222260
 20
-110.286842
 11
86.222260
 21
-109.286842
  0
LINE
  8
0
 62
     4
 10
86.222260
 20
-110.286842
 11
86.622269
 21
-110.286842
  0
LINE
  8
0
 62
     4
 10
84.422264
 20
-109.286842
 11
86.622269
 21
-109.286842
  0
LINE
  8
0
 62
     4
 10
93.822266
 20
-97.086838
 11
84.422264
 21
-97.086838
  0
LINE
  8
0
 62
     4
 10
94.122269
 20
-114.586838
 11
93.822266
 21
-114.586838
  0
LINE
  8
0
 62
     1
 10
90.622269
 20
-102.086838
 11
90.622269
 21
-97.086838
  0
LINE
  8
0
 62
     1
 10
87.622269
 20
-102.086838
 11
90.622269
 21
-102.086838
  0
LINE
  8
0
 62
     1
 10
87.622269
 20
-102.086838
 11
87.622269
 21
-97.086838
  0
LINE
  8
0
 62
     4
 10
91.922264
 20
-116.786842
 11
91.922264
 21
-118.286842
  0
LINE
  8
0
 62
     4
 10
93.422264
 20
-116.786842
 11
93.422264
 21
-118.286842
  0
LINE
  8
0
 62
     4
 10
91.922264
 20
-116.786842
 11
93.422264
 21
-116.786842
  0
LINE
  8
0
 62
     4
 10
91.922264
 20
-118.286842
 11
93.422264
 21
-118.286842
  0
LINE
  8
0
 62
     4
 10
86.727905
 20
-123.127663
 11
86.472267
 21
-122.686844
  0
LINE
  8
0
 62
     4
 10
91.772270
 20
-122.686836
 11
91.516640
 21
-123.127655
  0
LINE
  8
0
 62
     4
 10
87.977890
 20
-121.877655
 11
87.722267
 21
-121.436844
  0
LINE
  8
0
 62
     4
 10
86.472267
 20
-122.686844
 11
87.722275
 21
-121.436844
  0
LINE
  8
0
 62
     4
 10
87.977890
 20
-121.877663
 11
86.727898
 21
-123.127655
  0
LINE
  8
0
 62
     4
 10
90.266632
 20
-121.877655
 11
90.522263
 21
-121.436844
  0
LINE
  8
0
 62
     4
 10
94.122269
 20
-115.996025
 11
84.122269
 21
-115.996025
  0
LINE
  8
0
 62
     4
 10
90.266624
 20
-121.877663
 11
91.516632
 21
-123.127663
  0
LINE
  8
0
 62
     4
 10
94.122269
 20
-123.127655
 11
91.516632
 21
-123.127655
  0
LINE
  8
0
 62
     4
 10
86.727890
 20
-123.127655
 11
84.122269
 21
-123.127655
  0
LINE
  8
0
 62
     4
 10
87.977890
 20
-121.877655
 11
90.266632
 21
-121.877655
  0
LINE
  8
0
 62
     4
 10
94.122269
 20
-122.686844
 11
91.772263
 21
-122.686844
  0
LINE
  8
0
 62
     4
 10
91.772263
 20
-122.686844
 11
90.522255
 21
-121.436836
  0
LINE
  8
0
 62
     4
 10
87.722260
 20
-121.436844
 11
90.522263
 21
-121.436844
  0
LINE
  8
0
 62
     4
 10
86.472260
 20
-122.686844
 11
84.122269
 21
-122.686844
  0
LINE
  8
0
 62
     4
 10
84.122269
 20
-115.184921
 11
94.122269
 21
-115.184921
  0
LINE
  8
0
 62
     4
 10
94.122269
 20
-114.686844
 11
93.822266
 21
-114.686844
  0
LINE
  8
0
 62
     4
 10
92.622269
 20
-118.986839
 11
94.122269
 21
-118.986839
  0
LINE
  8
0
 62
     4
 10
94.122269
 20
-122.186844
 11
92.622269
 21
-122.186844
  0
LINE
  8
0
 62
     4
 10
85.622269
 20
-122.186844
 11
84.122269
 21
-122.186844
  0
LINE
  8
0
 62
     4
 10
84.122269
 20
-118.986839
 11
85.622269
 21
-118.986839
  0
LINE
  8
0
  6
CENTER
 62
     2
 10
91.622269
 20
-118.836838
 11
86.622269
 21
-118.836838
  0
LINE
  8
0
 62
     4
 10
90.947777
 20
-119.136841
 11
87.296753
 21
-119.136841
  0
LINE
  8
0
 62
     4
 10
90.947777
 20
-118.536842
 11
87.296753
 21
-118.536842
  0
LINE
  8
0
 62
     4
 10
84.915161
 20
-121.293945
 11
86.329376
 21
-119.879730
  0
LINE
  8
0
 62
     4
 10
84.915161
 20
-119.879730
 11
86.329376
 21
-121.293945
  0
LINE
  8
0
 62
     4
 10
93.329369
 20
-119.879730
 11
91.915161
 21
-121.293945
  0
LINE
  8
0
 62
     4
 10
93.329369
 20
-121.293945
 11
91.915161
 21
-119.879730
  0
LINE
  8
0
 62
     4
 10
94.122269
 20
-97.386841
 11
94.122269
 21
-129.086838
  0
LINE
  8
0
 62
     4
 10
84.122269
 20
-97.386841
 11
84.122269
 21
-129.086838
  0
LINE
  8
0
  6
CENTER
 62
     2
 10
89.122269
 20
-132.386841
 11
89.122269
 21
-94.950790
  0
LINE
  8
0
 10
56.054756
 20
-128.414810
 11
58.179756
 21
-126.289803
  0
LINE
  8
0
 10
56.029461
 20
-126.319458
 11
58.177261
 21
-128.417297
  0
LINE
  8
0
 10
44.029469
 20
-105.353989
 11
46.177265
 21
-107.451843
  0
LINE
  8
0
 10
44.054771
 20
-107.449341
 11
46.179771
 21
-105.324348
  0
LINE
  8
0
 10
60.122265
 20
-129.886841
 11
60.122265
 21
-103.886841
  0
LINE
  8
0
 10
42.122265
 20
-129.886841
 11
42.122265
 21
-103.886841
  0
LINE
  8
0
 10
42.622265
 20
-103.386841
 11
59.622265
 21
-103.386841
  0
LINE
  8
0
 10
57.122265
 20
-124.186844
 11
59.622265
 21
-124.186844
  0
LINE
  8
0
 10
53.922264
 20
-129.886841
 11
53.922264
 21
-127.386841
  0
LINE
  8
0
 10
48.322266
 20
-106.386841
 11
48.322266
 21
-103.886841
  0
LINE
  8
0
 10
42.622265
 20
-109.586838
 11
45.122265
 21
-109.586838
  0
LINE
  8
0
  6
CENTER
 62
     2
 10
51.122265
 20
-132.386841
 11
51.122265
 21
-94.950790
  0
LINE
  8
0
 10
116.622269
 20
-130.386841
 11
116.622269
 21
-131.386841
  0
LINE
  8
0
 10
99.622269
 20
-131.386841
 11
116.622269
 21
-131.386841
  0
LINE
  8
0
 10
99.622269
 20
-130.386841
 11
99.622269
 21
-131.386841
  0
LINE
  8
0
 10
99.622269
 20
-130.386841
 11
116.622269
 21
-130.386841
  0
LINE
  8
0
 10
97.622269
 20
-130.386841
 11
97.622269
 21
-131.386841
  0
LINE
  8
0
 10
80.622269
 20
-131.386841
 11
97.622269
 21
-131.386841
  0
LINE
  8
0
 10
80.622269
 20
-130.386841
 11
80.622269
 21
-131.386841
  0
LINE
  8
0
 10
80.622269
 20
-130.386841
 11
97.622269
 21
-130.386841
  0
LINE
  8
0
 62
     4
 10
118.122269
 20
-127.186844
 11
136.622269
 21
-127.186844
  0
LINE
  8
0
 62
     4
 10
118.122269
 20
-130.386841
 11
118.622269
 21
-130.386841
  0
LINE
  8
0
 62
     4
 10
136.122269
 20
-127.186844
 11
136.122269
 21
-130.386841
  0
LINE
  8
0
 62
     4
 10
118.122269
 20
-127.186844
 11
118.122269
 21
-130.386841
  0
LINE
  8
0
  6
CENTER
 62
     2
 10
127.122269
 20
-124.331818
 11
127.122269
 21
-132.386841
  0
LINE
  8
0
 10
146.122269
 20
-131.386841
 11
146.122269
 21
-171.386841
  0
LINE
  8
0
 10
32.122265
 20
-131.386841
 11
146.122269
 21
-131.386841
  0
LINE
  8
0
 10
32.122265
 20
-131.386841
 11
32.122265
 21
-171.386841
  0
LINE
  8
0
  6
CENTER
 62
     2
 10
37.122265
 20
-176.292908
 11
37.122265
 21
-166.339920
  0
LINE
  8
0
  6
CENTER
 62
     2
 10
141.122269
 20
-176.292908
 11
141.122269
 21
-166.339920
  0
LINE
  8
0
 62
     4
 10
130.622269
 20
-126.686844
 11
136.622269
 21
-126.686844
  0
LINE
  8
0
 62
     4
 10
136.622269
 20
-127.186844
 11
136.622269
 21
-126.686844
  0
LINE
  8
0
 62
     4
 10
136.422272
 20
-125.516846
 11
136.422272
 21
-126.686844
  0
LINE
  8
0
 62
     4
 10
130.622269
 20
-127.186844
 11
130.622269
 21
-126.686844
  0
LINE
  8
0
 62
     4
 10
130.822266
 20
-125.516846
 11
130.822266
 21
-126.686844
  0
LINE
  8
0
 62
     4
 10
123.622269
 20
-126.686844
 11
117.622269
 21
-126.686844
  0
LINE
  8
0
 62
     4
 10
123.622269
 20
-127.186844
 11
123.622269
 21
-126.686844
  0
LINE
  8
0
 62
     4
 10
123.422272
 20
-125.516846
 11
123.422272
 21
-126.686844
  0
LINE
  8
0
 62
     4
 10
117.622269
 20
-127.186844
 11
117.622269
 21
-126.686844
  0
LINE
  8
0
 62
     4
 10
117.822266
 20
-125.516846
 11
117.822266
 21
-126.686844
  0
LINE
  8
0
 62
     4
 10
136.122269
 20
-127.186844
 11
117.622269
 21
-127.186844
  0
LINE
  8
0
  6
CENTER
 62
     2
 10
-121.715782
 20
42.020966
 11
-114.155693
 21
42.020966
  0
LINE
  8
0
 62
     4
 10
-59.815784
 20
-44.709038
 11
-59.815784
 21
-49.709038
  0
LINE
  8
0
 62
     4
 10
-59.015785
 20
-34.279037
 11
-59.015785
 21
-39.513031
  0
LINE
  8
0
 62
     4
 10
-58.700787
 20
-34.279037
 11
-60.130787
 21
-34.279037
  0
LINE
  8
0
  6
CENTER
 62
     2
 10
-110.637825
 20
52.020966
 11
-93.068054
 21
52.020966
  0
LINE
  8
0
 10
-77.015785
 20
22.620964
 11
-51.015785
 21
22.620964
  0
LINE
  8
0
 10
-56.715786
 20
25.520966
 11
-56.715786
 21
23.120964
  0
LINE
  8
0
 10
-56.315784
 20
24.840965
 11
-56.315784
 21
26.020966
  0
LINE
  8
0
 10
-50.715782
 20
24.840965
 11
-50.715782
 21
26.020966
  0
LINE
  8
0
 10
-56.215786
 20
26.020966
 11
-50.715782
 21
26.020966
  0
LINE
  8
0
 62
     4
 10
-58.700787
 20
-34.279037
 11
-56.915787
 21
-34.279037
  0
LINE
  8
0
 62
     4
 10
-60.130787
 20
-29.279037
 11
-61.715786
 21
-29.279037
  0
LINE
  8
0
 62
     4
 10
-58.700787
 20
-29.179031
 11
-56.415787
 21
-29.179031
  0
LINE
  8
0
 62
     4
 10
-61.815784
 20
-20.379036
 11
-61.815784
 21
-23.679031
  0
LINE
  8
0
 62
     4
 10
-61.715786
 20
-17.779037
 11
-61.815784
 21
-17.779037
  0
LINE
  8
0
 10
-77.515785
 20
-4.079033
 11
-77.515785
 21
31.020966
  0
LINE
  8
0
 10
-50.515785
 20
31.020966
 11
-50.515785
 21
18.720966
  0
LINE
  8
0
 10
-50.515785
 20
9.320965
 11
-44.715782
 21
9.320965
  0
LINE
  8
0
 10
-50.715782
 20
15.520966
 11
-50.715782
 21
13.978504
  0
LINE
  8
0
 10
-50.515785
 20
15.520966
 11
-50.515785
 21
9.320965
  0
LINE
  8
0
 10
-50.515785
 20
15.520966
 11
-56.515785
 21
15.520966
  0
LINE
  8
0
 10
-56.315784
 20
15.520966
 11
-56.315784
 21
13.978504
  0
LINE
  8
0
 10
-56.515785
 20
15.520966
 11
-56.515785
 21
9.320965
  0
LINE
  8
0
 10
-50.515785
 20
9.820965
 11
-56.515785
 21
9.820965
  0
LINE
  8
0
 10
-45.115784
 20
18.320965
 11
-50.115784
 21
18.320965
  0
LINE
  8
0
 62
     4
 10
-55.915787
 20
-11.845062
 11
-55.915787
 21
-18.379036
  0
LINE
  8
0
 62
     4
 10
-56.415783
 20
-10.979031
 11
-55.915783
 21
-11.845057
  0
LINE
  8
0
 62
     4
 10
-55.915779
 20
-18.379034
 11
-55.415783
 21
-18.667707
  0
LINE
  8
0
 62
     4
 10
-55.415787
 20
-18.667709
 11
-55.415787
 21
-19.379036
  0
LINE
  8
0
 62
     4
 10
-61.715786
 20
-15.279037
 11
-56.415787
 21
-15.279037
  0
LINE
  8
0
 62
     4
 10
-61.715786
 20
-15.379036
 11
-61.715786
 21
-19.379036
  0
LINE
  8
0
 62
     4
 10
-56.915787
 20
-15.379036
 11
-61.715786
 21
-15.379036
  0
LINE
  8
0
 62
     4
 10
-56.915787
 20
-15.279037
 11
-56.915787
 21
-20.379036
  0
LINE
  8
0
  6
PHANTOM
 62
     4
 10
-56.915787
 20
-16.179031
 11
-56.915787
 21
-17.677650
  0
LINE
  8
0
 62
     4
 10
-56.616028
 20
-19.379036
 11
-56.915783
 21
-17.679033
  0
LINE
  8
0
 62
     4
 10
-62.215786
 20
-20.379036
 11
-56.915787
 21
-20.379036
  0
LINE
  8
0
 62
     4
 10
-61.015785
 20
-15.279037
 11
-61.015785
 21
-15.379036
  0
LINE
  8
0
 62
     4
 10
-62.215786
 20
-19.667709
 11
-62.215786
 21
-20.379036
  0
LINE
  8
0
 62
     4
 10
-61.715782
 20
-19.379036
 11
-62.215782
 21
-19.667711
  0
LINE
  8
0
 62
     4
 10
-56.616028
 20
-19.379036
 11
-55.415787
 21
-19.379036
  0
LINE
  8
0
 62
     4
 10
-56.415787
 20
-15.279037
 11
-56.415787
 21
-9.779037
  0
LINE
  8
0
 62
     4
 10
-61.715786
 20
-15.279037
 11
-61.715786
 21
-3.879036
  0
LINE
  8
0
 62
     4
 10
-56.415787
 20
-9.779037
 11
-44.515785
 21
-9.779037
  0
LINE
  8
0
 62
     4
 10
-44.215782
 20
-23.379036
 11
-44.215782
 21
9.820965
  0
LINE
  8
0
 62
     4
 10
-75.515785
 20
6.620964
 11
-74.715790
 21
6.620964
  0
LINE
  8
0
 62
     4
 10
-74.715790
 20
-0.979034
 11
-75.515785
 21
-0.979034
  0
LINE
  8
0
 62
     4
 10
-74.715790
 20
-0.979034
 11
-74.715790
 21
6.620964
  0
LINE
  8
0
 62
     4
 10
-76.215790
 20
9.320965
 11
-76.215790
 21
-1.679035
  0
LINE
  8
0
 62
     4
 10
-75.515785
 20
-0.979034
 11
-75.515785
 21
6.620964
  0
LINE
  8
0
 62
     4
 10
-66.115784
 20
-5.179031
 11
-66.115784
 21
-4.179031
  0
LINE
  8
0
 62
     4
 10
-66.215790
 20
-4.279037
 11
-66.215790
 21
-4.179031
  0
LINE
  8
0
 62
     4
 10
-68.715790
 20
-4.779037
 11
-66.715790
 21
-4.779037
  0
LINE
  8
0
 62
     4
 10
-70.432930
 20
-1.679036
 11
-69.815781
 21
-5.179036
  0
LINE
  8
0
 62
     4
 10
-69.315781
 20
-5.179031
 11
-69.315781
 21
-4.179031
  0
LINE
  8
0
 62
     4
 10
-69.215790
 20
-4.279037
 11
-69.215790
 21
-4.179031
  0
LINE
  8
0
 62
     4
 10
-69.315781
 20
-4.179031
 11
-66.115784
 21
-4.179031
  0
LINE
  8
0
 62
     4
 10
-76.215790
 20
-1.679035
 11
-70.432930
 21
-1.679035
  0
LINE
  8
0
 62
     4
 10
-44.215786
 20
8.920965
 11
-44.515785
 21
8.620966
  0
LINE
  8
0
 62
     4
 10
-44.215782
 20
8.620964
 11
-45.715782
 21
8.620964
  0
LINE
  8
0
 62
     4
 10
-45.715782
 20
-3.879036
 11
-61.815784
 21
-3.879036
  0
LINE
  8
0
 62
     4
 10
-69.815781
 20
-5.179031
 11
-63.124969
 21
-5.179031
  0
LINE
  8
0
 62
     4
 10
-45.715782
 20
-3.879036
 11
-45.715782
 21
8.620964
  0
LINE
  8
0
 62
     4
 10
-61.715786
 20
-9.179031
 11
-61.815784
 21
-9.179031
  0
LINE
  8
0
 62
     4
 10
-62.313862
 20
-9.779037
 11
-61.815784
 21
-9.779037
  0
LINE
  8
0
 62
     4
 10
-61.815784
 20
-3.879036
 11
-61.815784
 21
-9.779037
  0
LINE
  8
0
 62
     4
 10
-63.124966
 20
-5.179030
 11
-62.313862
 21
-9.779035
  0
LINE
  8
0
 10
-45.115784
 20
21.120964
 11
-50.015785
 21
21.120964
  0
LINE
  8
0
 10
-77.015785
 20
9.320965
 11
-56.515785
 21
9.320965
  0
LINE
  8
0
 10
-77.515785
 20
9.820966
 11
-77.015785
 21
9.320965
  0
LINE
  8
0
 10
-44.715782
 20
20.720966
 11
-44.715782
 21
9.320965
  0
LINE
  8
0
 10
-44.215782
 20
9.820965
 11
-44.715782
 21
9.820965
  0
LINE
  8
0
 62
     4
 10
-60.130787
 20
-38.974121
 11
-60.130787
 21
-20.379036
  0
LINE
  8
0
 62
     4
 10
-58.700787
 20
-39.665283
 11
-58.700787
 21
-20.379036
  0
LINE
  8
0
 62
     4
 10
-59.015785
 20
-49.709038
 11
-59.815784
 21
-49.709038
  0
LINE
  8
0
 62
     4
 10
-58.700787
 20
-44.709038
 11
-60.130787
 21
-44.709038
  0
LINE
  8
0
 62
     4
 10
-59.815784
 20
-34.279037
 11
-59.815784
 21
-39.126366
  0
LINE
  8
0
 62
     4
 10
-59.015785
 20
-44.709038
 11
-59.015785
 21
-49.709038
  0
LINE
  8
0
 62
     4
 10
-58.700787
 20
-40.905281
 11
-58.700787
 21
-44.709038
  0
LINE
  8
0
 62
     4
 10
-60.130787
 20
-40.214119
 11
-60.130787
 21
-44.709038
  0
LINE
  8
0
 62
     1
 10
-56.375786
 20
-42.029037
 11
-62.375790
 21
-39.129036
  0
LINE
  8
0
 62
     1
 10
-56.375790
 20
-40.789032
 11
-62.375786
 21
-37.889038
  0
LINE
  8
0
 10
-77.515785
 20
-4.079035
 11
-77.015785
 21
-4.579033
  0
LINE
  8
0
 10
-77.015785
 20
-4.579033
 11
-69.921585
 21
-4.579033
  0
LINE
  8
0
 62
     4
 10
-63.124969
 20
-19.079031
 11
-62.313866
 21
-23.679035
  0
LINE
  8
0
 62
     4
 10
-61.815784
 20
-17.779037
 11
-61.815784
 21
-19.436768
  0
LINE
  8
0
 62
     4
 10
-62.313862
 20
-23.679031
 11
-61.815784
 21
-23.679031
  0
LINE
  8
0
 62
     4
 10
-61.715786
 20
-23.079033
 11
-61.815784
 21
-23.079033
  0
LINE
  8
0
 62
     4
 10
-45.715782
 20
-17.779037
 11
-45.715782
 21
-9.779037
  0
LINE
  8
0
 62
     4
 10
-69.815781
 20
-19.079033
 11
-63.124969
 21
-19.079033
  0
LINE
  8
0
 62
     4
 10
-45.715782
 20
-17.779037
 11
-55.915787
 21
-17.779037
  0
LINE
  8
0
 62
     4
 10
-76.215790
 20
-15.579033
 11
-70.432930
 21
-15.579033
  0
LINE
  8
0
 62
     4
 10
-69.315781
 20
-18.079033
 11
-66.115784
 21
-18.079033
  0
LINE
  8
0
 62
     4
 10
-69.215790
 20
-18.179031
 11
-69.215790
 21
-18.079033
  0
LINE
  8
0
 62
     4
 10
-69.315781
 20
-19.079033
 11
-69.315781
 21
-18.079033
  0
LINE
  8
0
 62
     4
 10
-70.432930
 20
-15.579036
 11
-69.815788
 21
-19.079037
  0
LINE
  8
0
 62
     4
 10
-68.715790
 20
-18.679031
 11
-66.715790
 21
-18.679031
  0
LINE
  8
0
 62
     4
 10
-66.215790
 20
-18.179031
 11
-66.215790
 21
-18.079033
  0
LINE
  8
0
 62
     4
 10
-66.115784
 20
-19.079033
 11
-66.115784
 21
-18.079033
  0
LINE
  8
0
 62
     4
 10
-75.515785
 20
-14.879036
 11
-75.515785
 21
-7.279037
  0
LINE
  8
0
 62
     4
 10
-76.215790
 20
-4.579033
 11
-76.215790
 21
-15.579033
  0
LINE
  8
0
 62
     4
 10
-74.715790
 20
-14.879036
 11
-74.715790
 21
-7.279037
  0
LINE
  8
0
 62
     4
 10
-74.715790
 20
-14.879036
 11
-75.515785
 21
-14.879036
  0
LINE
  8
0
 62
     4
 10
-75.515785
 20
-7.279037
 11
-74.715790
 21
-7.279037
  0
LINE
  8
0
 62
     4
 10
-56.415787
 20
-23.679031
 11
-44.515785
 21
-23.679031
  0
LINE
  8
0
 62
     4
 10
-61.715786
 20
-29.179031
 11
-61.715786
 21
-20.379036
  0
LINE
  8
0
 62
     4
 10
-56.415787
 20
-29.179031
 11
-56.415787
 21
-23.679031
  0
LINE
  8
0
 62
     4
 10
-56.616028
 20
-33.279037
 11
-55.415787
 21
-33.279037
  0
LINE
  8
0
 62
     4
 10
-61.715786
 20
-33.279034
 11
-62.215782
 21
-33.567703
  0
LINE
  8
0
 62
     4
 10
-62.215786
 20
-33.567711
 11
-62.215786
 21
-34.279037
  0
LINE
  8
0
 62
     4
 10
-61.015785
 20
-29.179031
 11
-61.015785
 21
-29.279037
  0
LINE
  8
0
 62
     4
 10
-62.215786
 20
-34.279037
 11
-60.130787
 21
-34.279037
  0
LINE
  8
0
 62
     4
 10
-56.616032
 20
-33.279034
 11
-56.915787
 21
-31.579033
  0
LINE
  8
0
  6
PHANTOM
 62
     4
 10
-56.915787
 20
-30.079033
 11
-56.915787
 21
-31.577652
  0
LINE
  8
0
 62
     4
 10
-56.915787
 20
-29.179031
 11
-56.915787
 21
-34.279037
  0
LINE
  8
0
 62
     4
 10
-56.915787
 20
-29.279037
 11
-58.700787
 21
-29.279037
  0
LINE
  8
0
 62
     4
 10
-61.715786
 20
-29.279037
 11
-61.715786
 21
-33.279037
  0
LINE
  8
0
 62
     4
 10
-61.715786
 20
-29.179031
 11
-60.130787
 21
-29.179031
  0
LINE
  8
0
 62
     4
 10
-55.415787
 20
-32.567711
 11
-55.415787
 21
-33.279037
  0
LINE
  8
0
 62
     4
 10
-55.915787
 20
-32.279034
 11
-55.415783
 21
-32.567711
  0
LINE
  8
0
 62
     4
 10
-56.415779
 20
-24.879034
 11
-55.915779
 21
-25.745060
  0
LINE
  8
0
 62
     4
 10
-55.915787
 20
-25.745056
 11
-55.915787
 21
-32.279037
  0
LINE
  8
0
 10
-76.215790
 20
94.720963
 11
-77.015785
 21
94.720963
  0
LINE
  8
0
 10
-118.515785
 20
89.020966
 11
-118.515785
 21
20.520966
  0
LINE
  8
0
 10
-118.015778
 20
20.020964
 11
-118.515785
 21
19.520964
  0
LINE
  8
0
 10
-118.015785
 20
20.020967
 11
-118.515785
 21
20.520969
  0
LINE
  8
0
 10
-118.515785
 20
19.520966
 11
-118.515785
 21
15.020966
  0
LINE
  8
0
 10
-78.515785
 20
89.020966
 11
-78.515785
 21
86.520966
  0
LINE
  8
0
  6
CENTER
 62
     2
 10
-102.015785
 20
80.210968
 11
-102.015785
 21
23.910965
  0
LINE
  8
0
  6
CENTER
 62
     2
 10
-84.515785
 20
86.630966
 11
-84.515785
 21
79.410965
  0
LINE
  8
0
  6
CENTER
 62
     2
 10
-88.125786
 20
83.020966
 11
-81.115784
 21
83.020966
  0
LINE
  8
0
  6
CENTER
 62
     2
 10
-88.125786
 20
21.020966
 11
-80.685783
 21
21.020966
  0
LINE
  8
0
  6
CENTER
 62
     2
 10
-84.515785
 20
25.180965
 11
-84.515785
 21
17.210964
  0
LINE
  8
0
 10
-78.515785
 20
79.520966
 11
-78.515785
 21
73.020966
  0
LINE
  8
0
 10
-78.515785
 20
17.520966
 11
-78.515785
 21
15.020966
  0
LINE
  8
0
 10
-78.515785
 20
31.020966
 11
-78.515785
 21
24.520966
  0
LINE
  8
0
  6
CENTER
 62
     2
 10
-110.285004
 20
32.020966
 11
-93.068054
 21
32.020966
  0
LINE
  8
0
  6
CENTER
 62
     2
 10
-110.637825
 20
72.020966
 11
-93.068054
 21
72.020966
  0
LINE
  8
0
 10
-118.515785
 20
89.020966
 11
-78.515785
 21
89.020966
  0
LINE
  8
0
 10
-118.515785
 20
15.020966
 11
-78.515785
 21
15.020966
  0
LINE
  8
0
 10
-77.515785
 20
23.120964
 11
-77.515785
 21
24.520966
  0
LINE
  8
0
 10
-78.515785
 20
24.520966
 11
-77.515785
 21
24.520966
  0
LINE
  8
0
 10
-78.515785
 20
17.520966
 11
-78.515785
 21
24.520966
  0
LINE
  8
0
 10
-78.515785
 20
17.520966
 11
-77.515785
 21
17.520966
  0
LINE
  8
0
 10
-77.015785
 20
19.020966
 11
-77.015785
 21
22.620964
  0
LINE
  8
0
 10
-77.515785
 20
17.520964
 11
-77.015785
 21
19.020964
  0
LINE
  8
0
 10
-77.515785
 20
79.520966
 11
-77.515785
 21
86.520966
  0
LINE
  8
0
 10
-78.515785
 20
86.520966
 11
-77.515785
 21
86.520966
  0
LINE
  8
0
 10
-78.515785
 20
79.520966
 11
-78.515785
 21
86.520966
  0
LINE
  8
0
 10
-78.515785
 20
79.520966
 11
-77.515785
 21
79.520966
  0
LINE
  8
0
 10
-77.515785
 20
31.020966
 11
-77.515785
 21
73.020966
  0
LINE
  8
0
 10
-77.515785
 20
73.020966
 11
-78.515785
 21
73.020966
  0
LINE
  8
0
 10
-78.515785
 20
31.020966
 11
-78.515785
 21
73.020966
  0
LINE
  8
0
 10
-78.515785
 20
31.020966
 11
-77.515785
 21
31.020966
  0
LINE
  8
0
 10
-76.515785
 20
94.720963
 11
-76.515785
 21
94.220963
  0
LINE
  8
0
 10
-71.515785
 20
94.220963
 11
-76.515785
 21
94.220963
  0
LINE
  8
0
 10
-71.715790
 20
88.520966
 11
-71.715790
 21
90.063431
  0
LINE
  8
0
 10
-77.315781
 20
88.520966
 11
-77.315781
 21
90.063431
  0
LINE
  8
0
 10
-71.515785
 20
88.520966
 11
-77.515785
 21
88.520966
  0
LINE
  8
0
 10
-71.515785
 20
88.520966
 11
-71.515785
 21
94.720963
  0
LINE
  8
0
 62
     4
 10
-59.015785
 20
139.850967
 11
-59.815784
 21
139.850967
  0
LINE
  8
0
 62
     4
 10
-58.700787
 20
134.850967
 11
-60.130787
 21
134.850967
  0
LINE
  8
0
 62
     4
 10
-59.815784
 20
134.850967
 11
-59.815784
 21
139.850967
  0
LINE
  8
0
 62
     4
 10
-59.015785
 20
134.850967
 11
-59.015785
 21
139.850967
  0
LINE
  8
0
 62
     4
 10
-58.700787
 20
130.668976
 11
-58.700787
 21
134.850967
  0
LINE
  8
0
 62
     4
 10
-60.130787
 20
131.240967
 11
-60.130787
 21
134.850967
  0
LINE
  8
0
 62
     1
 10
-62.455784
 20
132.170975
 11
-56.455788
 21
129.770966
  0
LINE
  8
0
 62
     1
 10
-62.455784
 20
130.930969
 11
-56.455780
 21
128.530960
  0
LINE
  8
0
 62
     4
 10
-58.700787
 20
124.420967
 11
-58.700787
 21
129.428955
  0
LINE
  8
0
 62
     4
 10
-60.130787
 20
124.420967
 11
-60.130787
 21
130.000977
  0
LINE
  8
0
 10
-77.515785
 20
31.020966
 11
-50.515785
 21
31.020966
  0
LINE
  8
0
 10
-77.515785
 20
73.020966
 11
-50.515785
 21
73.020966
  0
LINE
  8
0
 10
-53.515785
 20
38.670967
 11
-50.515785
 21
38.670967
  0
LINE
  8
0
 10
-53.515785
 20
35.360966
 11
-50.515785
 21
35.360966
  0
LINE
  8
0
 10
-53.515785
 20
38.670967
 11
-53.515785
 21
35.360966
  0
LINE
  8
0
 10
-77.515785
 20
73.020966
 11
-77.515785
 21
31.020966
  0
LINE
  8
0
 10
-50.515785
 20
73.020966
 11
-50.515785
 21
31.020966
  0
LINE
  8
0
 62
     4
 10
-44.215782
 20
94.220963
 11
-44.715782
 21
94.220963
  0
LINE
  8
0
 10
-44.715782
 20
83.320969
 11
-44.715782
 21
94.720963
  0
LINE
  8
0
 10
-77.515785
 20
94.220963
 11
-77.015785
 21
94.720963
  0
LINE
  8
0
 10
-45.115784
 20
82.920967
 11
-50.015785
 21
82.920967
  0
LINE
  8
0
 62
     4
 10
-63.124966
 20
109.220955
 11
-62.313862
 21
113.820961
  0
LINE
  8
0
 62
     4
 10
-61.815784
 20
107.920967
 11
-61.815784
 21
113.820969
  0
LINE
  8
0
 62
     4
 10
-62.313862
 20
113.820969
 11
-61.815784
 21
113.820969
  0
LINE
  8
0
 62
     4
 10
-61.715786
 20
113.220963
 11
-61.815784
 21
113.220963
  0
LINE
  8
0
 62
     4
 10
-45.715782
 20
107.920967
 11
-45.715782
 21
95.420967
  0
LINE
  8
0
 62
     4
 10
-69.815781
 20
109.220963
 11
-63.124969
 21
109.220963
  0
LINE
  8
0
 62
     4
 10
-45.715782
 20
107.920967
 11
-61.815784
 21
107.920967
  0
LINE
  8
0
 62
     4
 10
-44.215782
 20
94.220963
 11
-44.215782
 21
95.120964
  0
LINE
  8
0
 62
     4
 10
-44.215782
 20
95.420967
 11
-45.715782
 21
95.420967
  0
LINE
  8
0
 62
     4
 10
-44.215790
 20
95.120972
 11
-44.515785
 21
95.420967
  0
LINE
  8
0
 62
     4
 10
-76.215790
 20
105.720963
 11
-70.432930
 21
105.720963
  0
LINE
  8
0
 62
     4
 10
-69.315781
 20
108.220963
 11
-66.115784
 21
108.220963
  0
LINE
  8
0
 62
     4
 10
-69.215790
 20
108.320969
 11
-69.215790
 21
108.220963
  0
LINE
  8
0
 62
     4
 10
-69.315781
 20
109.220963
 11
-69.315781
 21
108.220963
  0
LINE
  8
0
 62
     4
 10
-70.432930
 20
105.720963
 11
-69.815788
 21
109.220963
  0
LINE
  8
0
 62
     4
 10
-68.715790
 20
108.820969
 11
-66.715790
 21
108.820969
  0
LINE
  8
0
 62
     4
 10
-66.215790
 20
108.320969
 11
-66.215790
 21
108.220963
  0
LINE
  8
0
 62
     4
 10
-66.115784
 20
109.220963
 11
-66.115784
 21
108.220963
  0
LINE
  8
0
 62
     4
 10
-75.515785
 20
105.020966
 11
-75.515785
 21
97.420967
  0
LINE
  8
0
 62
     4
 10
-76.215790
 20
94.220963
 11
-76.215790
 21
105.720963
  0
LINE
  8
0
 62
     4
 10
-74.715790
 20
105.020966
 11
-74.715790
 21
97.420967
  0
LINE
  8
0
 62
     4
 10
-74.715790
 20
105.020966
 11
-75.515785
 21
105.020966
  0
LINE
  8
0
 62
     4
 10
-75.515785
 20
97.420967
 11
-74.715790
 21
97.420967
  0
LINE
  8
0
 62
     4
 10
-44.215782
 20
95.420967
 11
-44.215782
 21
113.520966
  0
LINE
  8
0
 62
     4
 10
-56.415787
 20
113.820969
 11
-44.515785
 21
113.820969
  0
LINE
  8
0
 62
     4
 10
-61.715786
 20
119.320969
 11
-61.715786
 21
107.920967
  0
LINE
  8
0
 62
     4
 10
-56.415787
 20
119.320969
 11
-56.415787
 21
113.820969
  0
LINE
  8
0
 62
     4
 10
-56.616028
 20
123.420967
 11
-55.415787
 21
123.420967
  0
LINE
  8
0
 62
     4
 10
-61.715786
 20
123.420967
 11
-62.215790
 21
123.709641
  0
LINE
  8
0
 62
     4
 10
-62.215786
 20
123.709641
 11
-62.215786
 21
124.420967
  0
LINE
  8
0
 62
     4
 10
-61.015785
 20
119.320969
 11
-61.015785
 21
119.420967
  0
LINE
  8
0
 62
     4
 10
-62.215786
 20
124.420967
 11
-56.915787
 21
124.420967
  0
LINE
  8
0
 62
     4
 10
-56.616028
 20
123.420967
 11
-56.915783
 21
121.720970
  0
LINE
  8
0
  6
PHANTOM
 62
     4
 10
-56.915787
 20
120.220963
 11
-56.915787
 21
121.719582
  0
LINE
  8
0
 62
     4
 10
-56.915787
 20
119.320969
 11
-56.915787
 21
124.420967
  0
LINE
  8
0
 62
     4
 10
-56.915787
 20
119.420967
 11
-61.715786
 21
119.420967
  0
LINE
  8
0
 62
     4
 10
-61.715786
 20
119.420967
 11
-61.715786
 21
123.420967
  0
LINE
  8
0
 62
     4
 10
-61.715786
 20
119.320969
 11
-56.415787
 21
119.320969
  0
LINE
  8
0
 62
     4
 10
-55.415787
 20
122.709641
 11
-55.415787
 21
123.420967
  0
LINE
  8
0
 62
     4
 10
-55.915783
 20
122.420967
 11
-55.415787
 21
122.709641
  0
LINE
  8
0
 62
     4
 10
-56.415779
 20
115.020958
 11
-55.915779
 21
115.886993
  0
LINE
  8
0
 62
     4
 10
-55.915787
 20
115.886993
 11
-55.915787
 21
122.420967
  0
LINE
  8
0
 10
-71.515785
 20
94.720963
 11
-44.715782
 21
94.720963
  0
LINE
  8
0
 10
-45.115784
 20
85.720963
 11
-50.115784
 21
85.720963
  0
LINE
  8
0
 10
-50.515785
 20
73.020966
 11
-50.515785
 21
85.320969
  0
LINE
  8
0
 10
-77.515785
 20
73.020966
 11
-77.515785
 21
94.220963
  0
LINE
  8
0
 10
-52.815788
 20
38.670967
 11
-52.815788
 21
35.360966
  0
LINE
  8
0
  6
CENTER
 62
     2
 10
-121.715782
 20
62.020966
 11
-114.155693
 21
62.020966
  0
LINE
  8
0
  6
CENTER
 62
     2
 10
-84.761833
 20
67.020966
 11
-72.770546
 21
67.020966
  0
LINE
  8
0
  6
CENTER
 62
     2
 10
-84.761833
 20
37.020966
 11
-72.770546
 21
37.020966
  0
LINE
  8
0
  6
CENTER
 62
     2
 10
108.122269
 20
128.024231
 11
108.122269
 21
-38.254593
  0
LINE
  8
0
  6
CENTER
 62
     2
 10
48.122265
 20
85.720963
 11
54.122265
 21
85.720963
  0
LINE
  8
0
  6
CENTER
 62
     2
 10
67.122269
 20
85.720963
 11
73.122269
 21
85.720963
  0
LINE
  8
0
  6
CENTER
 62
     2
 10
86.122269
 20
85.720963
 11
92.122269
 21
85.720963
  0
LINE
  8
0
  6
CENTER
 62
     2
 10
105.122269
 20
85.720963
 11
111.122269
 21
85.720963
  0
LINE
  8
0
 62
     2
 10
86.122269
 20
18.320965
 11
92.122269
 21
18.320965
  0
LINE
  8
0
 62
     2
 10
105.122269
 20
4.420967
 11
111.122269
 21
4.420967
  0
LINE
  8
0
 10
67.012268
 20
22.620964
 11
73.232269
 21
22.620964
  0
LINE
  8
0
 10
48.012264
 20
22.620964
 11
54.232265
 21
22.620964
  0
LINE
  8
0
 62
     4
 10
118.122269
 20
18.020966
 11
136.122269
 21
18.020966
  0
LINE
  8
0
 62
     4
 10
118.122269
 20
86.020966
 11
136.122269
 21
86.020966
  0
LINE
  8
0
 10
80.122269
 20
15.020966
 11
32.122265
 21
15.020966
  0
LINE
  8
0
 10
99.122269
 20
15.020966
 11
98.122269
 21
15.020966
  0
LINE
  8
0
 10
99.122269
 20
89.020966
 11
98.122269
 21
89.020966
  0
LINE
  8
0
 10
80.122269
 20
89.020966
 11
79.122269
 21
89.020966
  0
LINE
  8
0
 10
61.122265
 20
89.020966
 11
60.122265
 21
89.020966
  0
LINE
  8
0
 10
42.122265
 20
89.020966
 11
32.122265
 21
89.020966
  0
LINE
  8
0
 10
146.122269
 20
15.020966
 11
117.122269
 21
15.020966
  0
LINE
  8
0
 10
146.122269
 20
89.020966
 11
117.122269
 21
89.020966
  0
LINE
  8
0
 62
     4
 10
118.122269
 20
35.362656
 11
118.122269
 21
18.020966
  0
LINE
  8
0
 62
     4
 10
136.122269
 20
65.362656
 11
136.122269
 21
18.020966
  0
LINE
  8
0
 62
     4
 10
118.642365
 20
35.041065
 11
122.602165
 21
39.000866
  0
LINE
  8
0
 62
     4
 10
119.208046
 20
38.435181
 11
122.036476
 21
35.606750
  0
LINE
  8
0
 62
     4
 10
132.208054
 20
68.435181
 11
135.036484
 21
65.606750
  0
LINE
  8
0
 62
     4
 10
131.642365
 20
65.041061
 11
135.602158
 21
69.000862
  0
LINE
  8
0
 10
117.122269
 20
65.760017
 11
117.122269
 21
31.020966
  0
LINE
  8
0
 10
99.122269
 20
35.760017
 11
99.122269
 21
31.020966
  0
LINE
  8
0
 10
98.122269
 20
65.760017
 11
98.122269
 21
31.020966
  0
LINE
  8
0
 10
80.122269
 20
35.760017
 11
80.122269
 21
31.020966
  0
LINE
  8
0
 10
79.122269
 20
65.760017
 11
79.122269
 21
23.120964
  0
LINE
  8
0
 10
61.122265
 20
35.760017
 11
61.122265
 21
23.120964
  0
LINE
  8
0
 10
60.122265
 20
65.360962
 11
60.122265
 21
23.120964
  0
LINE
  8
0
 10
42.122265
 20
35.760017
 11
42.122265
 21
23.120964
  0
LINE
  8
0
 10
99.642365
 20
35.041061
 11
103.602165
 21
39.000862
  0
LINE
  8
0
 10
100.208054
 20
38.435181
 11
103.036476
 21
35.606747
  0
LINE
  8
0
 10
113.208054
 20
68.435181
 11
116.036484
 21
65.606750
  0
LINE
  8
0
 10
112.642372
 20
65.041069
 11
116.602165
 21
69.000870
  0
LINE
  8
0
 10
80.642365
 20
35.041065
 11
84.602165
 21
39.000866
  0
LINE
  8
0
 10
81.208054
 20
38.435181
 11
84.036476
 21
35.606750
  0
LINE
  8
0
 10
94.208046
 20
68.435181
 11
97.036476
 21
65.606750
  0
LINE
  8
0
 10
93.642372
 20
65.041069
 11
97.602173
 21
69.000862
  0
LINE
  8
0
 10
61.642365
 20
35.041061
 11
65.602165
 21
39.000858
  0
LINE
  8
0
 10
62.208050
 20
38.435177
 11
65.036476
 21
35.606750
  0
LINE
  8
0
 10
75.208054
 20
68.435181
 11
78.036476
 21
65.606750
  0
LINE
  8
0
 10
74.642365
 20
65.041069
 11
78.602165
 21
69.000862
  0
LINE
  8
0
 62
     4
 10
136.122269
 20
86.020966
 11
136.122269
 21
68.679276
  0
LINE
  8
0
 62
     4
 10
118.122269
 20
86.020966
 11
118.122269
 21
38.679276
  0
LINE
  8
0
  6
CENTER
 62
     2
 10
127.122269
 20
88.429535
 11
127.122269
 21
16.069721
  0
LINE
  8
0
 10
113.372269
 20
-4.079033
 11
102.872269
 21
-4.079033
  0
LINE
  8
0
 10
104.524750
 20
4.420967
 11
99.122269
 21
4.420967
  0
LINE
  8
0
 10
111.719788
 20
4.420967
 11
117.122269
 21
4.420967
  0
LINE
  8
0
 10
114.122261
 20
-4.579033
 11
117.122269
 21
-1.579030
  0
LINE
  8
0
 10
99.122269
 20
-1.579036
 11
102.122261
 21
-4.579031
  0
LINE
  8
0
 10
102.122269
 20
-4.579033
 11
102.572266
 21
-4.579033
  0
LINE
  8
0
 10
102.872269
 20
-4.079033
 11
102.872269
 21
-4.279037
  0
LINE
  8
0
 10
113.372269
 20
-4.079033
 11
113.372269
 21
-4.279037
  0
LINE
  8
0
 10
106.603210
 20
7.220966
 11
109.641327
 21
7.220966
  0
LINE
  8
0
 10
109.987732
 20
7.020963
 11
111.373375
 21
4.620967
  0
LINE
  8
0
 10
104.871147
 20
4.620965
 11
106.256790
 21
7.020965
  0
LINE
  8
0
 10
113.672272
 20
-4.579033
 11
114.122269
 21
-4.579033
  0
LINE
  8
0
 62
     4
 10
113.122269
 20
-4.979034
 11
103.122269
 21
-4.979034
  0
LINE
  8
0
 62
     4
 10
103.422272
 20
-23.679031
 11
112.822266
 21
-23.679031
  0
LINE
  8
0
 62
     4
 10
103.122269
 20
-5.279037
 11
113.122269
 21
-5.279037
  0
LINE
  8
0
 62
     4
 10
103.122269
 20
-4.079033
 11
103.122269
 21
-29.179031
  0
LINE
  8
0
 62
     4
 10
113.122269
 20
-4.079033
 11
113.122269
 21
-29.179031
  0
LINE
  8
0
 62
     4
 10
113.122269
 20
-29.179031
 11
110.622269
 21
-29.179031
  0
LINE
  8
0
 62
     4
 10
111.022263
 20
-23.679031
 11
111.022263
 21
-29.179031
  0
LINE
  8
0
 62
     4
 10
105.222260
 20
-23.679031
 11
105.222260
 21
-29.179031
  0
LINE
  8
0
 62
     1
 10
106.622269
 20
-20.679031
 11
109.622269
 21
-20.679031
  0
LINE
  8
0
 62
     1
 10
109.622269
 20
-20.679031
 11
109.622269
 21
-23.679031
  0
LINE
  8
0
 62
     1
 10
106.622269
 20
-20.679031
 11
106.622269
 21
-23.679031
  0
LINE
  8
0
 62
     4
 10
110.622269
 20
-24.779037
 11
105.622269
 21
-24.779037
  0
LINE
  8
0
 62
     4
 10
112.822266
 20
-34.279037
 11
103.422272
 21
-34.279037
  0
LINE
  8
0
 62
     4
 10
110.622269
 20
-33.279037
 11
105.622269
 21
-33.279037
  0
LINE
  8
0
 62
     4
 10
112.822266
 20
-29.279037
 11
112.822266
 21
-34.279037
  0
LINE
  8
0
 62
     4
 10
110.622269
 20
-24.779037
 11
110.622269
 21
-33.279037
  0
LINE
  8
0
 62
     4
 10
105.622269
 20
-32.567711
 11
110.622269
 21
-32.567711
  0
LINE
  8
0
 62
     4
 10
105.622269
 20
-32.279037
 11
110.622269
 21
-32.279037
  0
LINE
  8
0
 62
     4
 10
111.722260
 20
-29.279037
 11
111.722260
 21
-34.279037
  0
LINE
  8
0
 62
     4
 10
104.522263
 20
-29.279037
 11
104.522263
 21
-34.279037
  0
LINE
  8
0
 62
     4
 10
105.622269
 20
-24.779037
 11
105.622269
 21
-33.279037
  0
LINE
  8
0
 62
     4
 10
103.422272
 20
-29.279037
 11
103.422272
 21
-34.279037
  0
LINE
  8
0
 62
     4
 10
105.622269
 20
-29.179031
 11
103.122269
 21
-29.179031
  0
LINE
  8
0
 62
     4
 10
105.622269
 20
-25.645058
 11
110.622269
 21
-25.645058
  0
LINE
  8
0
 62
     4
 10
112.822266
 20
-29.279037
 11
110.622269
 21
-29.279037
  0
LINE
  8
0
 62
     4
 10
105.622269
 20
-29.279037
 11
103.422272
 21
-29.279037
  0
LINE
  8
0
 62
     4
 10
112.222260
 20
-29.279037
 11
112.222260
 21
-29.179031
  0
LINE
  8
0
 62
     4
 10
104.022263
 20
-29.279037
 11
104.022263
 21
-29.179031
  0
LINE
  8
0
 62
     4
 10
106.297272
 20
-34.279037
 11
106.297272
 21
-39.390366
  0
LINE
  8
0
 62
     4
 10
104.867264
 20
-34.279037
 11
104.867264
 21
-39.009033
  0
LINE
  8
0
 62
     1
 10
102.542267
 20
-38.389038
 11
113.640572
 21
-41.348587
  0
LINE
  8
0
 62
     1
 10
102.542259
 20
-39.629032
 11
113.640579
 21
-42.588581
  0
LINE
  8
0
 62
     4
 10
106.297272
 20
-40.630371
 11
106.297272
 21
-44.809036
  0
LINE
  8
0
 62
     4
 10
104.867264
 20
-40.249031
 11
104.867264
 21
-44.809036
  0
LINE
  8
0
 62
     4
 10
105.982269
 20
-44.809036
 11
105.982269
 21
-49.809036
  0
LINE
  8
0
 62
     4
 10
105.182266
 20
-44.809036
 11
105.182266
 21
-49.809036
  0
LINE
  8
0
 62
     4
 10
106.297272
 20
-44.809036
 11
104.867264
 21
-44.809036
  0
LINE
  8
0
 62
     4
 10
111.377258
 20
-34.279037
 11
111.377258
 21
-40.745033
  0
LINE
  8
0
 62
     4
 10
109.947266
 20
-34.279037
 11
109.947266
 21
-40.363701
  0
LINE
  8
0
 62
     4
 10
109.947266
 20
-44.809036
 11
111.377258
 21
-44.809036
  0
LINE
  8
0
 62
     4
 10
111.062271
 20
-44.809036
 11
111.062271
 21
-49.809036
  0
LINE
  8
0
 62
     4
 10
110.262268
 20
-44.809036
 11
110.262268
 21
-49.809036
  0
LINE
  8
0
 62
     4
 10
109.947266
 20
-41.603699
 11
109.947266
 21
-44.809036
  0
LINE
  8
0
 62
     4
 10
111.377258
 20
-41.985031
 11
111.377258
 21
-44.809036
  0
LINE
  8
0
 10
117.122269
 20
-1.579033
 11
117.122269
 21
31.020966
  0
LINE
  8
0
 10
99.122269
 20
-1.579033
 11
99.122269
 21
31.020966
  0
LINE
  8
0
 62
     4
 10
111.377258
 20
130.380966
 11
111.377258
 21
134.950958
  0
LINE
  8
0
 62
     4
 10
109.947266
 20
130.760956
 11
109.947266
 21
134.950958
  0
LINE
  8
0
 62
     4
 10
110.262268
 20
134.950958
 11
110.262268
 21
139.950958
  0
LINE
  8
0
 62
     4
 10
111.062271
 20
134.950958
 11
111.062271
 21
139.950958
  0
LINE
  8
0
 62
     4
 10
109.947266
 20
134.950958
 11
111.377258
 21
134.950958
  0
LINE
  8
0
 62
     4
 10
110.262268
 20
139.950958
 11
111.062271
 21
139.950958
  0
LINE
  8
0
 62
     4
 10
109.947266
 20
124.420967
 11
109.947266
 21
129.520966
  0
LINE
  8
0
 62
     4
 10
111.377258
 20
124.420967
 11
111.377258
 21
129.150970
  0
LINE
  8
0
 62
     4
 10
105.982269
 20
139.950958
 11
105.182266
 21
139.950958
  0
LINE
  8
0
 62
     4
 10
106.297272
 20
134.950958
 11
104.867264
 21
134.950958
  0
LINE
  8
0
 62
     4
 10
105.182266
 20
134.950958
 11
105.182266
 21
139.950958
  0
LINE
  8
0
 62
     4
 10
105.982269
 20
134.950958
 11
105.982269
 21
139.950958
  0
LINE
  8
0
 62
     4
 10
104.867264
 20
132.126968
 11
104.867264
 21
134.950958
  0
LINE
  8
0
 62
     4
 10
106.297272
 20
131.745636
 11
106.297272
 21
134.950958
  0
LINE
  8
0
 62
     1
 10
113.702263
 20
129.770981
 11
102.603958
 21
132.730515
  0
LINE
  8
0
 62
     1
 10
113.702263
 20
128.530960
 11
102.603951
 21
131.490524
  0
LINE
  8
0
 62
     4
 10
104.867264
 20
124.420967
 11
104.867264
 21
130.886963
  0
LINE
  8
0
 62
     4
 10
106.297272
 20
124.420967
 11
106.297272
 21
130.505630
  0
LINE
  8
0
 62
     4
 10
104.022263
 20
119.420967
 11
104.022263
 21
119.320969
  0
LINE
  8
0
 62
     4
 10
112.222260
 20
119.420967
 11
112.222260
 21
119.320969
  0
LINE
  8
0
 62
     4
 10
105.622269
 20
119.420967
 11
103.422272
 21
119.420967
  0
LINE
  8
0
 62
     4
 10
112.822266
 20
119.420967
 11
110.622269
 21
119.420967
  0
LINE
  8
0
 62
     4
 10
105.622269
 20
115.786987
 11
110.622269
 21
115.786987
  0
LINE
  8
0
 62
     4
 10
105.622269
 20
119.320969
 11
103.122269
 21
119.320969
  0
LINE
  8
0
 62
     4
 10
103.422272
 20
119.420967
 11
103.422272
 21
124.420967
  0
LINE
  8
0
 62
     4
 10
105.622269
 20
114.920967
 11
105.622269
 21
123.420967
  0
LINE
  8
0
 62
     4
 10
104.522263
 20
119.420967
 11
104.522263
 21
124.420967
  0
LINE
  8
0
 62
     4
 10
111.722260
 20
119.420967
 11
111.722260
 21
124.420967
  0
LINE
  8
0
 62
     4
 10
105.622269
 20
122.420967
 11
110.622269
 21
122.420967
  0
LINE
  8
0
 62
     4
 10
105.622269
 20
122.709641
 11
110.622269
 21
122.709641
  0
LINE
  8
0
 62
     4
 10
110.622269
 20
114.920967
 11
110.622269
 21
123.420967
  0
LINE
  8
0
 62
     4
 10
112.822266
 20
119.420967
 11
112.822266
 21
124.420967
  0
LINE
  8
0
 62
     4
 10
110.622269
 20
123.420967
 11
105.622269
 21
123.420967
  0
LINE
  8
0
 62
     4
 10
112.822266
 20
124.420967
 11
103.422272
 21
124.420967
  0
LINE
  8
0
 62
     4
 10
110.622269
 20
114.920967
 11
105.622269
 21
114.920967
  0
LINE
  8
0
 62
     1
 10
106.622269
 20
110.820969
 11
106.622269
 21
113.820969
  0
LINE
  8
0
 62
     1
 10
109.622269
 20
110.820969
 11
106.622269
 21
110.820969
  0
LINE
  8
0
 62
     1
 10
109.622269
 20
110.820969
 11
109.622269
 21
113.820969
  0
LINE
  8
0
 62
     4
 10
105.222260
 20
113.820969
 11
105.222260
 21
119.320969
  0
LINE
  8
0
 62
     4
 10
111.022263
 20
113.820969
 11
111.022263
 21
119.320969
  0
LINE
  8
0
 62
     4
 10
113.122269
 20
119.320969
 11
110.622269
 21
119.320969
  0
LINE
  8
0
 62
     4
 10
113.122269
 20
94.220963
 11
113.122269
 21
119.320969
  0
LINE
  8
0
 62
     4
 10
103.122269
 20
94.220963
 11
103.122269
 21
119.320969
  0
LINE
  8
0
 62
     4
 10
103.122269
 20
95.420967
 11
113.122269
 21
95.420967
  0
LINE
  8
0
 62
     4
 10
103.422272
 20
113.820969
 11
112.822266
 21
113.820969
  0
LINE
  8
0
 62
     4
 10
113.122269
 20
95.120964
 11
103.122269
 21
95.120964
  0
LINE
  8
0
 10
113.672272
 20
94.720963
 11
114.122269
 21
94.720963
  0
LINE
  8
0
 10
104.871155
 20
85.520966
 11
106.256790
 21
83.120964
  0
LINE
  8
0
 10
109.987732
 20
83.120964
 11
111.373375
 21
85.520966
  0
LINE
  8
0
 10
106.603210
 20
82.920967
 11
109.641327
 21
82.920967
  0
LINE
  8
0
 10
113.372269
 20
94.220963
 11
113.372269
 21
94.420967
  0
LINE
  8
0
 10
102.872269
 20
94.220963
 11
102.872269
 21
94.420967
  0
LINE
  8
0
 10
102.122269
 20
94.720963
 11
102.572266
 21
94.720963
  0
LINE
  8
0
 10
99.122253
 20
91.720955
 11
102.122269
 21
94.720970
  0
LINE
  8
0
 10
114.122253
 20
94.720955
 11
117.122253
 21
91.720955
  0
LINE
  8
0
 10
117.122269
 20
91.720963
 11
117.122269
 21
73.020966
  0
LINE
  8
0
 10
99.122269
 20
91.720963
 11
99.122269
 21
73.020966
  0
LINE
  8
0
 10
111.719788
 20
85.720963
 11
117.122269
 21
85.720963
  0
LINE
  8
0
 10
104.524750
 20
85.720963
 11
99.122269
 21
85.720963
  0
LINE
  8
0
 10
117.122269
 20
73.020966
 11
99.122269
 21
73.020966
  0
LINE
  8
0
 10
113.372269
 20
94.220963
 11
102.872269
 21
94.220963
  0
LINE
  8
0
 10
117.122269
 20
73.020966
 11
117.122269
 21
68.281914
  0
LINE
  8
0
 10
99.122269
 20
73.020966
 11
99.122269
 21
38.281914
  0
LINE
  8
0
 10
99.122269
 20
31.020966
 11
117.122269
 21
31.020966
  0
LINE
  8
0
 10
99.122269
 20
17.120964
 11
117.122269
 21
17.120964
  0
LINE
  8
0
  6
CENTER
 62
     2
 10
89.122269
 20
128.024231
 11
89.122269
 21
-23.474907
  0
LINE
  8
0
 10
80.122269
 20
31.020966
 11
98.122269
 21
31.020966
  0
LINE
  8
0
 10
80.122269
 20
73.020966
 11
80.122269
 21
38.281914
  0
LINE
  8
0
 10
98.122269
 20
73.020966
 11
98.122269
 21
68.281914
  0
LINE
  8
0
 10
94.372269
 20
94.220963
 11
83.872269
 21
94.220963
  0
LINE
  8
0
 10
98.122269
 20
73.020966
 11
80.122269
 21
73.020966
  0
LINE
  8
0
 10
85.524742
 20
85.720963
 11
80.122269
 21
85.720963
  0
LINE
  8
0
 10
92.719788
 20
85.720963
 11
98.122269
 21
85.720963
  0
LINE
  8
0
 10
80.122269
 20
91.720963
 11
80.122269
 21
73.020966
  0
LINE
  8
0
 10
98.122269
 20
91.720963
 11
98.122269
 21
73.020966
  0
LINE
  8
0
 10
95.122253
 20
94.720955
 11
98.122253
 21
91.720955
  0
LINE
  8
0
 10
80.122253
 20
91.720963
 11
83.122261
 21
94.720963
  0
LINE
  8
0
 10
83.122269
 20
94.720963
 11
83.572266
 21
94.720963
  0
LINE
  8
0
 10
83.872269
 20
94.220963
 11
83.872269
 21
94.420967
  0
LINE
  8
0
 10
94.372269
 20
94.220963
 11
94.372269
 21
94.420967
  0
LINE
  8
0
 10
87.603210
 20
82.920967
 11
90.641327
 21
82.920967
  0
LINE
  8
0
 10
90.987732
 20
83.120964
 11
92.373375
 21
85.520958
  0
LINE
  8
0
 10
85.871155
 20
85.520966
 11
87.256798
 21
83.120964
  0
LINE
  8
0
 10
94.672264
 20
94.720963
 11
95.122269
 21
94.720963
  0
LINE
  8
0
 62
     4
 10
94.122269
 20
95.120964
 11
84.122269
 21
95.120964
  0
LINE
  8
0
 62
     4
 10
84.422264
 20
113.820969
 11
93.822266
 21
113.820969
  0
LINE
  8
0
 62
     4
 10
84.122269
 20
95.420967
 11
94.122269
 21
95.420967
  0
LINE
  8
0
 62
     4
 10
84.122269
 20
94.220963
 11
84.122269
 21
119.320969
  0
LINE
  8
0
 62
     4
 10
94.122269
 20
94.220963
 11
94.122269
 21
119.320969
  0
LINE
  8
0
 62
     4
 10
94.122269
 20
119.320969
 11
91.622269
 21
119.320969
  0
LINE
  8
0
 62
     4
 10
92.022263
 20
113.820969
 11
92.022263
 21
119.320969
  0
LINE
  8
0
 62
     4
 10
86.222260
 20
113.820969
 11
86.222260
 21
119.320969
  0
LINE
  8
0
 62
     1
 10
90.622269
 20
110.820969
 11
90.622269
 21
113.820969
  0
LINE
  8
0
 62
     1
 10
90.622269
 20
110.820969
 11
87.622269
 21
110.820969
  0
LINE
  8
0
 62
     1
 10
87.622269
 20
110.820969
 11
87.622269
 21
113.820969
  0
LINE
  8
0
 62
     4
 10
91.622269
 20
114.920967
 11
86.622269
 21
114.920967
  0
LINE
  8
0
 62
     4
 10
93.822266
 20
124.420967
 11
84.422264
 21
124.420967
  0
LINE
  8
0
 62
     4
 10
91.622269
 20
123.420967
 11
86.622269
 21
123.420967
  0
LINE
  8
0
 62
     4
 10
93.822266
 20
119.420967
 11
93.822266
 21
124.420967
  0
LINE
  8
0
 62
     4
 10
91.622269
 20
114.920967
 11
91.622269
 21
123.420967
  0
LINE
  8
0
 62
     4
 10
86.622269
 20
122.709641
 11
91.622269
 21
122.709641
  0
LINE
  8
0
 62
     4
 10
86.622269
 20
122.420967
 11
91.622269
 21
122.420967
  0
LINE
  8
0
 62
     4
 10
92.722260
 20
119.420967
 11
92.722260
 21
124.420967
  0
LINE
  8
0
 62
     4
 10
85.522263
 20
119.420967
 11
85.522263
 21
124.420967
  0
LINE
  8
0
 62
     4
 10
86.622269
 20
114.920967
 11
86.622269
 21
123.420967
  0
LINE
  8
0
 62
     4
 10
84.422264
 20
119.420967
 11
84.422264
 21
124.420967
  0
LINE
  8
0
 62
     4
 10
86.622269
 20
119.320969
 11
84.122269
 21
119.320969
  0
LINE
  8
0
 62
     4
 10
86.622269
 20
115.786987
 11
91.622269
 21
115.786987
  0
LINE
  8
0
 62
     4
 10
93.822266
 20
119.420967
 11
91.622269
 21
119.420967
  0
LINE
  8
0
 62
     4
 10
86.622269
 20
119.420967
 11
84.422264
 21
119.420967
  0
LINE
  8
0
 62
     4
 10
93.222260
 20
119.420967
 11
93.222260
 21
119.320969
  0
LINE
  8
0
 62
     4
 10
85.022263
 20
119.420967
 11
85.022263
 21
119.320969
  0
LINE
  8
0
 62
     4
 10
87.297264
 20
124.420967
 11
87.297264
 21
130.505630
  0
LINE
  8
0
 62
     4
 10
85.867264
 20
124.420967
 11
85.867264
 21
130.886963
  0
LINE
  8
0
 62
     1
 10
94.702263
 20
128.530960
 11
83.603951
 21
131.490509
  0
LINE
  8
0
 62
     1
 10
94.702263
 20
129.770966
 11
83.603951
 21
132.730515
  0
LINE
  8
0
 62
     4
 10
87.297264
 20
131.745636
 11
87.297264
 21
134.950958
  0
LINE
  8
0
 62
     4
 10
85.867264
 20
132.126968
 11
85.867264
 21
134.950958
  0
LINE
  8
0
 62
     4
 10
86.982269
 20
134.950958
 11
86.982269
 21
139.950958
  0
LINE
  8
0
 62
     4
 10
86.182266
 20
134.950958
 11
86.182266
 21
139.950958
  0
LINE
  8
0
 62
     4
 10
87.297264
 20
134.950958
 11
85.867264
 21
134.950958
  0
LINE
  8
0
 62
     4
 10
86.982269
 20
139.950958
 11
86.182266
 21
139.950958
  0
LINE
  8
0
 62
     4
 10
92.377266
 20
124.420967
 11
92.377266
 21
129.150970
  0
LINE
  8
0
 62
     4
 10
90.947266
 20
124.420967
 11
90.947266
 21
129.520966
  0
LINE
  8
0
 62
     4
 10
91.262268
 20
139.950958
 11
92.062263
 21
139.950958
  0
LINE
  8
0
 62
     4
 10
90.947266
 20
134.950958
 11
92.377266
 21
134.950958
  0
LINE
  8
0
 62
     4
 10
92.062263
 20
134.950958
 11
92.062263
 21
139.950958
  0
LINE
  8
0
 62
     4
 10
91.262268
 20
134.950958
 11
91.262268
 21
139.950958
  0
LINE
  8
0
 62
     4
 10
90.947266
 20
130.760956
 11
90.947266
 21
134.950958
  0
LINE
  8
0
 62
     4
 10
92.377266
 20
130.380966
 11
92.377266
 21
134.950958
  0
LINE
  8
0
 10
80.122269
 20
12.320965
 11
80.122269
 21
31.020966
  0
LINE
  8
0
 10
98.122269
 20
12.320965
 11
98.122269
 21
31.020966
  0
LINE
  8
0
 62
     4
 10
92.377266
 20
-28.085037
 11
92.377266
 21
-30.909035
  0
LINE
  8
0
 62
     4
 10
90.947266
 20
-27.703705
 11
90.947266
 21
-30.909035
  0
LINE
  8
0
 62
     4
 10
91.262268
 20
-30.909035
 11
91.262268
 21
-35.909035
  0
LINE
  8
0
 62
     4
 10
92.062263
 20
-30.909035
 11
92.062263
 21
-35.909035
  0
LINE
  8
0
 62
     4
 10
90.947266
 20
-30.909035
 11
92.377266
 21
-30.909035
  0
LINE
  8
0
 62
     4
 10
91.262268
 20
-35.909035
 11
92.062263
 21
-35.909035
  0
LINE
  8
0
 62
     4
 10
90.947266
 20
-20.379036
 11
90.947266
 21
-26.463699
  0
LINE
  8
0
 62
     4
 10
92.377266
 20
-20.379036
 11
92.377266
 21
-26.845032
  0
LINE
  8
0
 62
     4
 10
86.982269
 20
-35.909035
 11
86.182266
 21
-35.909035
  0
LINE
  8
0
 62
     4
 10
87.297264
 20
-30.909035
 11
85.867264
 21
-30.909035
  0
LINE
  8
0
 62
     4
 10
86.182266
 20
-30.909035
 11
86.182266
 21
-35.909035
  0
LINE
  8
0
 62
     4
 10
86.982269
 20
-30.909035
 11
86.982269
 21
-35.909035
  0
LINE
  8
0
 62
     4
 10
85.867264
 20
-26.349037
 11
85.867264
 21
-30.909035
  0
LINE
  8
0
 62
     4
 10
87.297264
 20
-26.730370
 11
87.297264
 21
-30.909035
  0
LINE
  8
0
 62
     1
 10
83.542267
 20
-25.729033
 11
94.640579
 21
-28.688585
  0
LINE
  8
0
 62
     1
 10
83.542267
 20
-24.489029
 11
94.640579
 21
-27.448582
  0
LINE
  8
0
 62
     4
 10
85.867264
 20
-20.379036
 11
85.867264
 21
-25.109032
  0
LINE
  8
0
 62
     4
 10
87.297264
 20
-20.379036
 11
87.297264
 21
-25.490364
  0
LINE
  8
0
 62
     4
 10
85.022263
 20
-15.379036
 11
85.022263
 21
-15.279037
  0
LINE
  8
0
 62
     4
 10
93.222260
 20
-15.379036
 11
93.222260
 21
-15.279037
  0
LINE
  8
0
 62
     4
 10
86.622269
 20
-15.379036
 11
84.422264
 21
-15.379036
  0
LINE
  8
0
 62
     4
 10
93.822266
 20
-15.379036
 11
91.622269
 21
-15.379036
  0
LINE
  8
0
 62
     4
 10
86.622269
 20
-11.745056
 11
91.622269
 21
-11.745056
  0
LINE
  8
0
 62
     4
 10
86.622269
 20
-15.279037
 11
84.122269
 21
-15.279037
  0
LINE
  8
0
 62
     4
 10
84.422264
 20
-15.379036
 11
84.422264
 21
-20.379036
  0
LINE
  8
0
 62
     4
 10
86.622269
 20
-10.879036
 11
86.622269
 21
-19.379036
  0
LINE
  8
0
 62
     4
 10
85.522263
 20
-15.379036
 11
85.522263
 21
-20.379036
  0
LINE
  8
0
 62
     4
 10
92.722260
 20
-15.379036
 11
92.722260
 21
-20.379036
  0
LINE
  8
0
 62
     4
 10
86.622269
 20
-18.379036
 11
91.622269
 21
-18.379036
  0
LINE
  8
0
 62
     4
 10
86.622269
 20
-18.667709
 11
91.622269
 21
-18.667709
  0
LINE
  8
0
 62
     4
 10
91.622269
 20
-10.879036
 11
91.622269
 21
-19.379036
  0
LINE
  8
0
 62
     4
 10
93.822266
 20
-15.379036
 11
93.822266
 21
-20.379036
  0
LINE
  8
0
 62
     4
 10
91.622269
 20
-19.379036
 11
86.622269
 21
-19.379036
  0
LINE
  8
0
 62
     4
 10
93.822266
 20
-20.379036
 11
84.422264
 21
-20.379036
  0
LINE
  8
0
 62
     4
 10
91.622269
 20
-10.879036
 11
86.622269
 21
-10.879036
  0
LINE
  8
0
 62
     1
 10
87.622269
 20
-6.779037
 11
87.622269
 21
-9.779037
  0
LINE
  8
0
 62
     1
 10
90.622269
 20
-6.779037
 11
90.622269
 21
-9.779037
  0
LINE
  8
0
 62
     1
 10
87.622269
 20
-6.779037
 11
90.622269
 21
-6.779037
  0
LINE
  8
0
 62
     4
 10
86.222260
 20
-9.779037
 11
86.222260
 21
-15.279037
  0
LINE
  8
0
 62
     4
 10
92.022263
 20
-9.779037
 11
92.022263
 21
-15.279037
  0
LINE
  8
0
 62
     4
 10
94.122269
 20
-15.279037
 11
91.622269
 21
-15.279037
  0
LINE
  8
0
 62
     4
 10
94.122269
 20
9.820965
 11
94.122269
 21
-15.279037
  0
LINE
  8
0
 62
     4
 10
84.122269
 20
9.820965
 11
84.122269
 21
-15.279037
  0
LINE
  8
0
 62
     4
 10
84.122269
 20
8.620964
 11
94.122269
 21
8.620964
  0
LINE
  8
0
 62
     4
 10
84.422264
 20
-9.779037
 11
93.822266
 21
-9.779037
  0
LINE
  8
0
 62
     4
 10
94.122269
 20
8.920967
 11
84.122269
 21
8.920967
  0
LINE
  8
0
 10
94.672264
 20
9.320965
 11
95.122269
 21
9.320965
  0
LINE
  8
0
 10
85.871155
 20
18.520960
 11
87.256798
 21
20.920963
  0
LINE
  8
0
 10
90.987732
 20
20.920967
 11
92.373375
 21
18.520966
  0
LINE
  8
0
 10
87.603210
 20
21.120964
 11
90.641327
 21
21.120964
  0
LINE
  8
0
 10
94.372269
 20
9.820965
 11
94.372269
 21
9.620964
  0
LINE
  8
0
 10
83.872269
 20
9.820965
 11
83.872269
 21
9.620964
  0
LINE
  8
0
 10
83.122269
 20
9.320965
 11
83.572266
 21
9.320965
  0
LINE
  8
0
 10
80.122261
 20
12.320968
 11
83.122269
 21
9.320965
  0
LINE
  8
0
 10
95.122261
 20
9.320968
 11
98.122261
 21
12.320966
  0
LINE
  8
0
 10
92.719788
 20
18.320965
 11
98.122269
 21
18.320965
  0
LINE
  8
0
 10
85.524742
 20
18.320965
 11
80.122269
 21
18.320965
  0
LINE
  8
0
 10
94.372269
 20
9.820965
 11
83.872269
 21
9.820965
  0
LINE
  8
0
  6
CENTER
 62
     2
 10
70.122269
 20
128.024231
 11
70.122269
 21
18.356194
  0
LINE
  8
0
 10
61.122265
 20
31.020966
 11
79.122269
 21
31.020966
  0
LINE
  8
0
 10
61.122265
 20
73.020966
 11
61.122265
 21
38.281914
  0
LINE
  8
0
 10
79.122269
 20
73.020966
 11
79.122269
 21
68.281914
  0
LINE
  8
0
 10
75.372269
 20
94.220963
 11
64.872269
 21
94.220963
  0
LINE
  8
0
 10
79.122269
 20
73.020966
 11
61.122265
 21
73.020966
  0
LINE
  8
0
 10
66.524742
 20
85.720963
 11
61.122265
 21
85.720963
  0
LINE
  8
0
 10
73.719788
 20
85.720963
 11
79.122269
 21
85.720963
  0
LINE
  8
0
 10
61.122265
 20
91.720963
 11
61.122265
 21
73.020966
  0
LINE
  8
0
 10
79.122269
 20
91.720963
 11
79.122269
 21
73.020966
  0
LINE
  8
0
 10
76.122261
 20
94.720963
 11
79.122261
 21
91.720963
  0
LINE
  8
0
 10
61.122265
 20
91.720963
 11
64.122269
 21
94.720970
  0
LINE
  8
0
 10
64.122269
 20
94.720963
 11
64.572266
 21
94.720963
  0
LINE
  8
0
 10
64.872269
 20
94.220963
 11
64.872269
 21
94.420967
  0
LINE
  8
0
 10
75.372269
 20
94.220963
 11
75.372269
 21
94.420967
  0
LINE
  8
0
 10
68.603203
 20
82.920967
 11
71.641327
 21
82.920967
  0
LINE
  8
0
 10
71.987732
 20
83.120964
 11
73.373375
 21
85.520958
  0
LINE
  8
0
 10
66.871155
 20
85.520966
 11
68.256798
 21
83.120964
  0
LINE
  8
0
 10
75.672264
 20
94.720963
 11
76.122269
 21
94.720963
  0
LINE
  8
0
 62
     4
 10
75.122269
 20
95.120964
 11
65.122269
 21
95.120964
  0
LINE
  8
0
 62
     4
 10
65.422264
 20
113.820969
 11
74.822266
 21
113.820969
  0
LINE
  8
0
 62
     4
 10
65.122269
 20
95.420967
 11
75.122269
 21
95.420967
  0
LINE
  8
0
 62
     4
 10
65.122269
 20
94.220963
 11
65.122269
 21
119.320969
  0
LINE
  8
0
 62
     4
 10
75.122269
 20
94.220963
 11
75.122269
 21
119.320969
  0
LINE
  8
0
 62
     4
 10
75.122269
 20
119.320969
 11
72.622269
 21
119.320969
  0
LINE
  8
0
 62
     4
 10
73.022263
 20
113.820969
 11
73.022263
 21
119.320969
  0
LINE
  8
0
 62
     4
 10
67.222267
 20
113.820969
 11
67.222267
 21
119.320969
  0
LINE
  8
0
 62
     1
 10
71.622269
 20
110.820969
 11
71.622269
 21
113.820969
  0
LINE
  8
0
 62
     1
 10
71.622269
 20
110.820969
 11
68.622269
 21
110.820969
  0
LINE
  8
0
 62
     1
 10
68.622269
 20
110.820969
 11
68.622269
 21
113.820969
  0
LINE
  8
0
 62
     4
 10
72.622269
 20
114.920967
 11
67.622269
 21
114.920967
  0
LINE
  8
0
 62
     4
 10
74.822266
 20
124.420967
 11
65.422264
 21
124.420967
  0
LINE
  8
0
 62
     4
 10
72.622269
 20
123.420967
 11
67.622269
 21
123.420967
  0
LINE
  8
0
 62
     4
 10
74.822266
 20
119.420967
 11
74.822266
 21
124.420967
  0
LINE
  8
0
 62
     4
 10
72.622269
 20
114.920967
 11
72.622269
 21
123.420967
  0
LINE
  8
0
 62
     4
 10
67.622269
 20
122.709641
 11
72.622269
 21
122.709641
  0
LINE
  8
0
 62
     4
 10
67.622269
 20
122.420967
 11
72.622269
 21
122.420967
  0
LINE
  8
0
 62
     4
 10
73.722260
 20
119.420967
 11
73.722260
 21
124.420967
  0
LINE
  8
0
 62
     4
 10
66.522263
 20
119.420967
 11
66.522263
 21
124.420967
  0
LINE
  8
0
 62
     4
 10
67.622269
 20
114.920967
 11
67.622269
 21
123.420967
  0
LINE
  8
0
 62
     4
 10
65.422264
 20
119.420967
 11
65.422264
 21
124.420967
  0
LINE
  8
0
 62
     4
 10
67.622269
 20
119.320969
 11
65.122269
 21
119.320969
  0
LINE
  8
0
 62
     4
 10
67.622269
 20
115.786987
 11
72.622269
 21
115.786987
  0
LINE
  8
0
 10
67.322266
 20
25.520966
 11
67.322266
 21
23.120964
  0
LINE
  8
0
 10
61.622265
 20
22.620964
 11
78.622269
 21
22.620964
  0
LINE
  8
0
 10
61.322266
 20
26.020966
 11
66.822266
 21
26.020966
  0
LINE
  8
0
 10
61.322266
 20
24.840965
 11
61.322266
 21
26.020966
  0
LINE
  8
0
 10
66.922264
 20
24.840965
 11
66.922264
 21
26.020966
  0
LINE
  8
0
 62
     4
 10
74.822266
 20
119.420967
 11
72.622269
 21
119.420967
  0
LINE
  8
0
 62
     4
 10
67.622269
 20
119.420967
 11
65.422264
 21
119.420967
  0
LINE
  8
0
 62
     4
 10
74.222260
 20
119.420967
 11
74.222260
 21
119.320969
  0
LINE
  8
0
 62
     4
 10
66.022263
 20
119.420967
 11
66.022263
 21
119.320969
  0
LINE
  8
0
 62
     4
 10
68.297264
 20
124.420967
 11
68.297264
 21
130.505630
  0
LINE
  8
0
 62
     4
 10
66.867264
 20
124.420967
 11
66.867264
 21
130.886963
  0
LINE
  8
0
 62
     1
 10
75.702263
 20
128.530960
 11
64.603951
 21
131.490509
  0
LINE
  8
0
 62
     1
 10
75.702263
 20
129.770966
 11
64.603951
 21
132.730515
  0
LINE
  8
0
 62
     4
 10
68.297264
 20
131.745636
 11
68.297264
 21
134.950958
  0
LINE
  8
0
 62
     4
 10
66.867264
 20
132.126968
 11
66.867264
 21
134.950958
  0
LINE
  8
0
 62
     4
 10
67.982269
 20
134.950958
 11
67.982269
 21
139.950958
  0
LINE
  8
0
 62
     4
 10
67.182266
 20
134.950958
 11
67.182266
 21
139.950958
  0
LINE
  8
0
 62
     4
 10
68.297264
 20
134.950958
 11
66.867264
 21
134.950958
  0
LINE
  8
0
 62
     4
 10
67.982269
 20
139.950958
 11
67.182266
 21
139.950958
  0
LINE
  8
0
 62
     4
 10
73.377266
 20
124.420967
 11
73.377266
 21
129.150970
  0
LINE
  8
0
 62
     4
 10
71.947266
 20
124.420967
 11
71.947266
 21
129.520966
  0
LINE
  8
0
 62
     4
 10
72.262268
 20
139.950958
 11
73.062263
 21
139.950958
  0
LINE
  8
0
 62
     4
 10
71.947266
 20
134.950958
 11
73.377266
 21
134.950958
  0
LINE
  8
0
 62
     4
 10
73.062263
 20
134.950958
 11
73.062263
 21
139.950958
  0
LINE
  8
0
 62
     4
 10
72.262268
 20
134.950958
 11
72.262268
 21
139.950958
  0
LINE
  8
0
 62
     4
 10
71.947266
 20
130.760956
 11
71.947266
 21
134.950958
  0
LINE
  8
0
 62
     4
 10
73.377266
 20
130.380966
 11
73.377266
 21
134.950958
  0
LINE
  8
0
  6
CENTER
 62
     2
 10
51.122265
 20
128.024231
 11
51.122265
 21
18.356194
  0
LINE
  8
0
 10
42.122265
 20
31.020966
 11
60.122265
 21
31.020966
  0
LINE
  8
0
 10
42.122265
 20
73.020966
 11
42.122265
 21
38.281914
  0
LINE
  8
0
 10
60.122265
 20
73.020966
 11
60.122265
 21
68.281914
  0
LINE
  8
0
 10
56.372265
 20
94.220963
 11
45.872265
 21
94.220963
  0
LINE
  8
0
 10
60.122265
 20
73.020966
 11
42.122265
 21
73.020966
  0
LINE
  8
0
 10
47.524742
 20
85.720963
 11
42.122265
 21
85.720963
  0
LINE
  8
0
 10
54.719788
 20
85.720963
 11
60.122265
 21
85.720963
  0
LINE
  8
0
 10
42.122265
 20
91.720963
 11
42.122265
 21
73.020966
  0
LINE
  8
0
 10
60.122265
 20
91.720963
 11
60.122265
 21
73.020966
  0
LINE
  8
0
 10
57.122265
 20
94.720963
 11
60.122265
 21
91.720963
  0
LINE
  8
0
 10
42.122265
 20
91.720963
 11
45.122265
 21
94.720963
  0
LINE
  8
0
 10
45.122265
 20
94.720963
 11
45.572266
 21
94.720963
  0
LINE
  8
0
 10
45.872265
 20
94.220963
 11
45.872265
 21
94.420967
  0
LINE
  8
0
 10
56.372265
 20
94.220963
 11
56.372265
 21
94.420967
  0
LINE
  8
0
 10
49.603203
 20
82.920967
 11
52.641327
 21
82.920967
  0
LINE
  8
0
 10
52.987736
 20
83.120956
 11
54.373375
 21
85.520966
  0
LINE
  8
0
 10
47.871151
 20
85.520966
 11
49.256790
 21
83.120956
  0
LINE
  8
0
 10
56.672264
 20
94.720963
 11
57.122265
 21
94.720963
  0
LINE
  8
0
 62
     4
 10
56.122265
 20
95.120964
 11
46.122265
 21
95.120964
  0
LINE
  8
0
 62
     4
 10
46.422264
 20
113.820969
 11
55.822266
 21
113.820969
  0
LINE
  8
0
 62
     4
 10
46.122265
 20
95.420967
 11
56.122265
 21
95.420967
  0
LINE
  8
0
 62
     4
 10
46.122265
 20
94.220963
 11
46.122265
 21
119.320969
  0
LINE
  8
0
 62
     4
 10
56.122265
 20
94.220963
 11
56.122265
 21
119.320969
  0
LINE
  8
0
 62
     4
 10
56.122265
 20
119.320969
 11
53.622265
 21
119.320969
  0
LINE
  8
0
 62
     4
 10
54.022263
 20
113.820969
 11
54.022263
 21
119.320969
  0
LINE
  8
0
 62
     4
 10
48.222267
 20
113.820969
 11
48.222267
 21
119.320969
  0
LINE
  8
0
 62
     1
 10
52.622265
 20
110.820969
 11
52.622265
 21
113.820969
  0
LINE
  8
0
 62
     1
 10
52.622265
 20
110.820969
 11
49.622265
 21
110.820969
  0
LINE
  8
0
 62
     1
 10
49.622265
 20
110.820969
 11
49.622265
 21
113.820969
  0
LINE
  8
0
 62
     4
 10
53.622265
 20
114.920967
 11
48.622265
 21
114.920967
  0
LINE
  8
0
 62
     4
 10
55.822266
 20
124.420967
 11
46.422264
 21
124.420967
  0
LINE
  8
0
 62
     4
 10
53.622265
 20
123.420967
 11
48.622265
 21
123.420967
  0
LINE
  8
0
 62
     4
 10
55.822266
 20
119.420967
 11
55.822266
 21
124.420967
  0
LINE
  8
0
 62
     4
 10
53.622265
 20
114.920967
 11
53.622265
 21
123.420967
  0
LINE
  8
0
 62
     4
 10
48.622265
 20
122.709641
 11
53.622265
 21
122.709641
  0
LINE
  8
0
 62
     4
 10
48.622265
 20
122.420967
 11
53.622265
 21
122.420967
  0
LINE
  8
0
 62
     4
 10
54.722267
 20
119.420967
 11
54.722267
 21
124.420967
  0
LINE
  8
0
 62
     4
 10
47.522263
 20
119.420967
 11
47.522263
 21
124.420967
  0
LINE
  8
0
 62
     4
 10
48.622265
 20
114.920967
 11
48.622265
 21
123.420967
  0
LINE
  8
0
 62
     4
 10
46.422264
 20
119.420967
 11
46.422264
 21
124.420967
  0
LINE
  8
0
 62
     4
 10
48.622265
 20
119.320969
 11
46.122265
 21
119.320969
  0
LINE
  8
0
 62
     4
 10
48.622265
 20
115.786987
 11
53.622265
 21
115.786987
  0
LINE
  8
0
 10
48.322266
 20
25.520966
 11
48.322266
 21
23.120964
  0
LINE
  8
0
 10
42.622265
 20
22.620964
 11
59.622265
 21
22.620964
  0
LINE
  8
0
 10
42.322266
 20
26.020966
 11
47.822266
 21
26.020966
  0
LINE
  8
0
 10
42.322266
 20
24.840965
 11
42.322266
 21
26.020966
  0
LINE
  8
0
 10
47.922264
 20
24.840965
 11
47.922264
 21
26.020966
  0
LINE
  8
0
 62
     4
 10
55.822266
 20
119.420967
 11
53.622265
 21
119.420967
  0
LINE
  8
0
 62
     4
 10
48.622265
 20
119.420967
 11
46.422264
 21
119.420967
  0
LINE
  8
0
 62
     4
 10
55.222267
 20
119.420967
 11
55.222267
 21
119.320969
  0
LINE
  8
0
 62
     4
 10
47.022263
 20
119.420967
 11
47.022263
 21
119.320969
  0
LINE
  8
0
 62
     4
 10
49.297264
 20
124.420967
 11
49.297264
 21
130.505630
  0
LINE
  8
0
 62
     4
 10
47.867264
 20
124.420967
 11
47.867264
 21
130.886963
  0
LINE
  8
0
 62
     1
 10
56.702267
 20
128.530960
 11
45.603951
 21
131.490509
  0
LINE
  8
0
 62
     1
 10
56.702267
 20
129.770966
 11
45.603951
 21
132.730515
  0
LINE
  8
0
 62
     4
 10
49.297264
 20
131.745636
 11
49.297264
 21
134.950958
  0
LINE
  8
0
 62
     4
 10
47.867264
 20
132.126968
 11
47.867264
 21
134.950958
  0
LINE
  8
0
 62
     4
 10
48.982265
 20
134.950958
 11
48.982265
 21
139.950958
  0
LINE
  8
0
 62
     4
 10
48.182266
 20
134.950958
 11
48.182266
 21
139.950958
  0
LINE
  8
0
 62
     4
 10
49.297264
 20
134.950958
 11
47.867264
 21
134.950958
  0
LINE
  8
0
 62
     4
 10
48.982265
 20
139.950958
 11
48.182266
 21
139.950958
  0
LINE
  8
0
 62
     4
 10
54.377266
 20
124.420967
 11
54.377266
 21
129.150970
  0
LINE
  8
0
 62
     4
 10
52.947266
 20
124.420967
 11
52.947266
 21
129.520966
  0
LINE
  8
0
 62
     4
 10
53.262264
 20
139.950958
 11
54.062263
 21
139.950958
  0
LINE
  8
0
 62
     4
 10
52.947266
 20
134.950958
 11
54.377266
 21
134.950958
  0
LINE
  8
0
 62
     4
 10
54.062263
 20
134.950958
 11
54.062263
 21
139.950958
  0
LINE
  8
0
 62
     4
 10
53.262264
 20
134.950958
 11
53.262264
 21
139.950958
  0
LINE
  8
0
 62
     4
 10
52.947266
 20
130.760956
 11
52.947266
 21
134.950958
  0
LINE
  8
0
 62
     4
 10
54.377266
 20
130.380966
 11
54.377266
 21
134.950958
  0
LINE
  8
0
 10
56.208054
 20
68.435181
 11
59.036480
 21
65.606750
  0
LINE
  8
0
 10
55.642368
 20
65.041069
 11
59.602169
 21
69.000862
  0
LINE
  8
0
 10
42.642365
 20
35.041069
 11
46.602161
 21
39.000866
  0
LINE
  8
0
 10
43.208046
 20
38.435181
 11
46.036476
 21
35.606750
  0
LINE
  8
0
  6
CENTER
 62
     2
 10
33.622265
 20
42.020966
 11
40.622265
 21
42.020966
  0
LINE
  8
0
  6
CENTER
 62
     2
 10
37.122265
 20
45.520966
 11
37.122265
 21
38.520966
  0
LINE
  8
0
  6
CENTER
 62
     2
 10
37.122265
 20
65.520966
 11
37.122265
 21
58.520966
  0
LINE
  8
0
  6
CENTER
 62
     2
 10
33.622265
 20
62.020966
 11
40.622265
 21
62.020966
  0
LINE
  8
0
 10
146.122269
 20
89.020966
 11
146.122269
 21
15.020966
  0
LINE
  8
0
  6
CENTER
 62
     2
 10
141.122269
 20
65.520966
 11
141.122269
 21
58.520966
  0
LINE
  8
0
  6
CENTER
 62
     2
 10
141.122269
 20
45.520966
 11
141.122269
 21
38.520966
  0
LINE
  8
0
  6
CENTER
 62
     2
 10
137.622269
 20
42.020966
 11
144.622269
 21
42.020966
  0
LINE
  8
0
  6
CENTER
 62
     2
 10
137.622269
 20
62.020966
 11
144.622269
 21
62.020966
  0
LINE
  8
0
 10
32.122265
 20
89.020966
 11
32.122265
 21
15.020966
  0
LINE
  8
0
 62
     4
 10
110.262268
 20
-49.809036
 11
111.062271
 21
-49.809036
  0
LINE
  8
0
 62
     4
 10
105.982269
 20
-49.809036
 11
105.182266
 21
-49.809036
  0
LINE
  8
0
 10
-159.250000
 20
15.000000
 11
-159.250000
 21
-185.000000
  0
LINE
  8
0
 10
-271.250000
 20
-185.000000
 11
-159.250000
 21
-185.000000
  0
LINE
  8
0
 10
-271.250000
 20
-175.000000
 11
-159.250000
 21
-175.000000
  0
LINE
  8
0
 10
-271.250000
 20
-165.000000
 11
-159.250000
 21
-165.000000
  0
LINE
  8
0
 10
-271.250000
 20
-155.000000
 11
-159.250000
 21
-155.000000
  0
LINE
  8
0
 10
-271.250000
 20
-145.000000
 11
-159.250000
 21
-145.000000
  0
LINE
  8
0
 10
-271.250000
 20
-135.000000
 11
-159.250000
 21
-135.000000
  0
LINE
  8
0
 10
-271.250000
 20
-125.000000
 11
-159.250000
 21
-125.000000
  0
LINE
  8
0
 10
-271.250000
 20
-115.000000
 11
-159.250000
 21
-115.000000
  0
LINE
  8
0
 10
-271.250000
 20
-105.000000
 11
-159.250000
 21
-105.000000
  0
LINE
  8
0
 10
-271.250000
 20
-95.000000
 11
-159.250000
 21
-95.000000
  0
LINE
  8
0
 10
-271.250000
 20
-85.000000
 11
-159.250000
 21
-85.000000
  0
LINE
  8
0
 10
-271.250000
 20
-75.000000
 11
-159.250000
 21
-75.000000
  0
LINE
  8
0
 10
-271.250000
 20
-65.000000
 11
-159.250000
 21
-65.000000
  0
LINE
  8
0
 10
-271.250000
 20
-55.000000
 11
-159.250000
 21
-55.000000
  0
LINE
  8
0
 10
-271.250000
 20
-45.000000
 11
-159.250000
 21
-45.000000
  0
LINE
  8
0
 10
-271.250000
 20
-35.000000
 11
-159.250000
 21
-35.000000
  0
LINE
  8
0
 10
-271.250000
 20
-25.000000
 11
-159.250000
 21
-25.000000
  0
LINE
  8
0
 10
-271.250000
 20
-15.000000
 11
-159.250000
 21
-15.000000
  0
LINE
  8
0
 10
-271.250000
 20
-5.000000
 11
-159.250000
 21
-5.000000
  0
LINE
  8
0
 10
-271.250000
 20
5.000000
 11
-159.250000
 21
5.000000
  0
LINE
  8
0
 10
-271.250000
 20
15.000000
 11
-159.250000
 21
15.000000
  0
LINE
  8
0
 10
-189.250000
 20
15.000000
 11
-189.250000
 21
-185.000000
  0
LINE
  8
0
 10
-222.250000
 20
15.000000
 11
-222.250000
 21
-185.000000
  0
LINE
  8
0
 10
-271.250000
 20
15.000000
 11
-271.250000
 21
-185.000000
  0
LINE
  8
0
 10
282.099854
 20
195.500000
 11
282.099854
 21
-195.000000
  0
LINE
  8
0
 10
-281.250000
 20
195.500000
 11
282.099854
 21
195.500000
  0
LINE
  8
0
 10
-281.250000
 20
195.500000
 11
-281.250000
 21
-195.000000
  0
LINE
  8
0
 10
-281.250000
 20
-195.000000
 11
282.099854
 21
-195.000000
  0
LINE
  8
0
 10
162.099976
 20
-175.000000
 11
162.099976
 21
-195.000000
  0
LINE
  8
0
 10
162.099976
 20
-175.000000
 11
282.099854
 21
-175.000000
  0
LINE
  8
0
 10
162.099976
 20
175.500000
 11
282.099854
 21
175.500000
  0
LINE
  8
0
 10
-281.250000
 20
175.500000
 11
-161.250000
 21
175.500000
  0
LINE
  8
0
 10
162.099976
 20
195.500000
 11
162.099976
 21
175.500000
  0
LINE
  8
0
 10
-161.250000
 20
195.500000
 11
-161.250000
 21
175.500000
  0
CIRCLE
  8
0
 10
129.122269
 20
-163.386841
 40
4.278000
  0
CIRCLE
  8
0
 62
     2
 10
129.122269
 20
-163.386841
 40
4.863999
  0
CIRCLE
  8
0
 62
     2
 10
121.122269
 20
-146.386841
 40
4.863999
  0
CIRCLE
  8
0
 10
121.122269
 20
-146.386841
 40
4.278000
  0
CIRCLE
  8
0
 10
110.122269
 20
-163.386841
 40
4.278000
  0
CIRCLE
  8
0
 62
     2
 10
110.122269
 20
-163.386841
 40
4.863999
  0
CIRCLE
  8
0
 62
     2
 10
102.122269
 20
-146.386841
 40
4.863999
  0
CIRCLE
  8
0
 10
102.122269
 20
-146.386841
 40
4.278000
  0
CIRCLE
  8
0
 10
91.122269
 20
-163.386841
 40
4.278000
  0
CIRCLE
  8
0
 62
     2
 10
91.122269
 20
-163.386841
 40
4.863999
  0
CIRCLE
  8
0
 62
     2
 10
83.122269
 20
-146.386841
 40
4.863999
  0
CIRCLE
  8
0
 10
83.122269
 20
-146.386841
 40
4.278000
  0
CIRCLE
  8
0
 10
72.122269
 20
-163.386841
 40
4.278000
  0
CIRCLE
  8
0
 62
     2
 10
72.122269
 20
-163.386841
 40
4.863999
  0
CIRCLE
  8
0
 62
     2
 10
64.122269
 20
-146.386841
 40
4.863999
  0
CIRCLE
  8
0
 10
64.122269
 20
-146.386841
 40
4.278000
  0
CIRCLE
  8
0
 62
     2
 10
45.122265
 20
-146.386841
 40
4.278000
  0
CIRCLE
  8
0
 10
45.122265
 20
-146.386841
 40
4.863999
  0
CIRCLE
  8
0
 10
53.122265
 20
-163.386841
 40
4.278000
  0
CIRCLE
  8
0
 62
     2
 10
53.122265
 20
-163.386841
 40
4.863999
  0
CIRCLE
  8
0
 10
64.122299
 20
-106.393799
 40
2.800000
  0
CIRCLE
  8
0
 10
76.122299
 20
-127.393799
 40
2.800000
  0
ARC
  8
0
 10
67.825775
 20
-103.890358
 40
0.503529
 50
90.400215
 51
179.599792
  0
ARC
  8
0
 10
61.625771
 20
-110.090347
 40
0.503522
 50
90.398918
 51
179.600647
  0
ARC
  8
0
 10
78.625748
 20
-123.690323
 40
0.496526
 50
269.597656
 51
0.402338
  0
ARC
  8
0
 10
76.125763
 20
-127.390335
 40
3.203501
 50
90.062492
 51
179.937500
  0
ARC
  8
0
 10
64.125763
 20
-106.390335
 40
3.196505
 50
269.937378
 51
0.062633
  0
ARC
  8
0
 10
78.618782
 20
-103.890320
 40
0.503491
 50
0.395903
 51
89.604095
  0
ARC
  8
0
 10
61.625778
 20
-103.890358
 40
0.503529
 50
90.400215
 51
179.599792
  0
ARC
  8
0
 10
72.372269
 20
-102.886841
 40
0.500000
 50
180.000000
 51
270.000000
  0
ARC
  8
0
 10
73.988846
 20
-102.886841
 40
0.500000
 50
180.000000
 51
270.000000
  0
ARC
  8
0
 10
67.872269
 20
-102.886841
 40
0.500000
 50
270.000000
 51
0.000000
  0
ARC
  8
0
 10
66.255684
 20
-102.886841
 40
0.500000
 50
270.000000
 51
0.000000
  0
ARC
  8
0
 10
71.472260
 20
-97.986839
 40
0.400002
 50
0.000000
 51
90.000000
  0
ARC
  8
0
 10
73.088844
 20
-97.986839
 40
0.400002
 50
0.000000
 51
90.000000
  0
ARC
  8
0
 10
68.772263
 20
-97.986839
 40
0.400002
 50
90.000000
 51
180.000000
  0
ARC
  8
0
 10
67.155685
 20
-97.986839
 40
0.400002
 50
90.000000
 51
180.000000
  0
ARC
  8
0
 10
61.522263
 20
-97.986839
 40
0.400002
 50
90.000000
 51
180.000000
  0
ARC
  8
0
 10
78.722260
 20
-97.986839
 40
0.400002
 50
0.000000
 51
90.000000
  0
ARC
  8
0
 10
65.422264
 20
-97.386841
 40
0.300003
 50
90.000000
 51
180.000000
  0
ARC
  8
0
 10
74.822266
 20
-97.386841
 40
0.300003
 50
0.000000
 51
90.000000
  0
ARC
  8
0
 10
72.425743
 20
-129.890320
 40
0.496533
 50
269.598541
 51
0.401451
  0
ARC
  8
0
 10
78.625740
 20
-129.890320
 40
0.496533
 50
269.598541
 51
0.401451
  0
ARC
  8
0
 10
61.618813
 20
-129.890289
 40
0.496563
 50
179.602097
 51
270.397919
  0
ARC
  8
0
 10
55.822266
 20
-97.386841
 40
0.299999
 50
0.000000
 51
90.000000
  0
ARC
  8
0
 10
46.422264
 20
-97.386841
 40
0.300003
 50
90.000000
 51
180.000000
  0
ARC
  8
0
 10
59.722267
 20
-97.986839
 40
0.400002
 50
0.000000
 51
90.000000
  0
ARC
  8
0
 10
42.522266
 20
-97.986839
 40
0.400002
 50
90.000000
 51
180.000000
  0
ARC
  8
0
 10
48.155685
 20
-97.986839
 40
0.400002
 50
90.000000
 51
180.000000
  0
ARC
  8
0
 10
49.772263
 20
-97.986839
 40
0.400002
 50
90.000000
 51
180.000000
  0
ARC
  8
0
 10
54.088844
 20
-97.986839
 40
0.400002
 50
0.000000
 51
90.000000
  0
ARC
  8
0
 10
52.472267
 20
-97.986839
 40
0.400002
 50
0.000000
 51
90.000000
  0
ARC
  8
0
 10
47.255684
 20
-102.886841
 40
0.500000
 50
270.000000
 51
0.000000
  0
ARC
  8
0
 10
48.872265
 20
-102.886841
 40
0.500000
 50
270.000000
 51
0.000000
  0
ARC
  8
0
 10
54.988846
 20
-102.886841
 40
0.500000
 50
180.000000
 51
270.000000
  0
ARC
  8
0
 10
53.372265
 20
-102.886841
 40
0.500000
 50
180.000000
 51
270.000000
  0
CIRCLE
  8
0
 62
     4
 10
111.622269
 20
-120.586838
 40
1.500000
  0
CIRCLE
  8
0
 62
     4
 10
104.622269
 20
-120.586838
 40
1.500000
  0
ARC
  8
0
 62
     4
 10
108.122269
 20
-118.836838
 40
0.800004
 50
202.024429
 51
337.975555
  0
ARC
  8
0
 62
     4
 10
108.122269
 20
-118.836838
 40
0.800004
 50
22.024433
 51
157.975571
  0
CIRCLE
  8
0
 62
     4
 10
108.122269
 20
-118.836838
 40
1.850000
  0
CIRCLE
  8
0
 62
     4
 10
108.122269
 20
-118.836838
 40
1.900000
  0
ARC
  8
0
 62
     4
 10
111.622269
 20
-120.586838
 40
1.599998
 50
90.000000
 51
270.000000
  0
ARC
  8
0
 62
     4
 10
104.622269
 20
-120.586838
 40
1.599998
 50
270.000000
 51
90.000000
  0
CIRCLE
  8
0
 62
     4
 10
108.122269
 20
-118.836838
 40
2.050000
  0
ARC
  8
0
 62
     4
 10
112.822266
 20
-97.386841
 40
0.300003
 50
0.000000
 51
90.000000
  0
ARC
  8
0
 62
     4
 10
103.422272
 20
-97.386841
 40
0.300003
 50
90.000000
 51
180.000000
  0
ARC
  8
0
 62
     4
 10
103.422272
 20
-109.586838
 40
0.300003
 50
90.000000
 51
180.000000
  0
ARC
  8
0
 62
     4
 10
112.822266
 20
-109.586838
 40
0.300003
 50
0.000000
 51
90.000000
  0
ARC
  8
0
 62
     4
 10
111.536987
 20
-113.187180
 40
0.199670
 50
269.794220
 51
3.542330
  0
ARC
  8
0
 62
     4
 10
109.786606
 20
-113.186172
 40
0.200668
 50
176.761200
 51
269.901978
  0
ARC
  8
0
 62
     4
 10
108.996979
 20
-113.187180
 40
0.199670
 50
269.794220
 51
3.542330
  0
ARC
  8
0
 62
     4
 10
107.246613
 20
-113.186172
 40
0.200668
 50
176.761200
 51
269.901978
  0
ARC
  8
0
 62
     4
 10
106.456985
 20
-113.187180
 40
0.199670
 50
269.794220
 51
3.542330
  0
ARC
  8
0
 62
     4
 10
104.706604
 20
-113.186172
 40
0.200668
 50
176.761200
 51
269.901978
  0
CIRCLE
  8
0
 62
     4
 10
105.582260
 20
-112.286842
 40
0.750000
  0
CIRCLE
  8
0
 62
     4
 10
110.662262
 20
-112.286842
 40
0.750000
  0
ARC
  8
0
 10
102.122269
 20
-109.386841
 40
3.000000
 50
270.000000
 51
289.471191
  0
ARC
  8
0
 10
114.122269
 20
-127.386841
 40
3.000000
 50
90.000000
 51
109.471199
  0
ARC
  8
0
 10
102.122269
 20
-109.386841
 40
3.000003
 50
70.528801
 51
90.000000
  0
ARC
  8
0
 10
102.422272
 20
-129.586838
 40
0.300003
 50
180.000000
 51
270.000000
  0
ARC
  8
0
 10
102.122269
 20
-109.386841
 40
2.800002
 50
69.075180
 51
290.924805
  0
ARC
  8
0
 10
114.122269
 20
-127.386841
 40
2.799999
 50
217.383133
 51
110.924820
  0
ARC
  8
0
 10
95.122269
 20
-127.386841
 40
2.799999
 50
217.383133
 51
110.924820
  0
ARC
  8
0
 10
83.122269
 20
-109.386841
 40
2.800002
 50
69.075180
 51
290.924805
  0
ARC
  8
0
 10
83.422264
 20
-129.586838
 40
0.300003
 50
180.000000
 51
270.000000
  0
ARC
  8
0
 10
83.122269
 20
-109.386841
 40
3.000003
 50
70.528801
 51
90.000000
  0
ARC
  8
0
 10
95.122269
 20
-127.386841
 40
3.000000
 50
90.000000
 51
109.471199
  0
ARC
  8
0
 10
83.122269
 20
-109.386841
 40
3.000000
 50
270.000000
 51
289.471191
  0
CIRCLE
  8
0
 62
     4
 10
91.662262
 20
-112.286842
 40
0.750000
  0
CIRCLE
  8
0
 62
     4
 10
86.582260
 20
-112.286842
 40
0.750000
  0
ARC
  8
0
 62
     4
 10
85.706604
 20
-113.186172
 40
0.200668
 50
176.761200
 51
269.901978
  0
ARC
  8
0
 62
     4
 10
87.456978
 20
-113.187180
 40
0.199670
 50
269.794220
 51
3.542330
  0
ARC
  8
0
 62
     4
 10
88.246613
 20
-113.186172
 40
0.200668
 50
176.761200
 51
269.901978
  0
ARC
  8
0
 62
     4
 10
89.996979
 20
-113.187180
 40
0.199670
 50
269.794220
 51
3.542330
  0
ARC
  8
0
 62
     4
 10
90.786606
 20
-113.186172
 40
0.200668
 50
176.761200
 51
269.901978
  0
ARC
  8
0
 62
     4
 10
92.536980
 20
-113.187180
 40
0.199670
 50
269.794220
 51
3.542330
  0
ARC
  8
0
 62
     4
 10
93.822266
 20
-109.586838
 40
0.300003
 50
0.000000
 51
90.000000
  0
ARC
  8
0
 62
     4
 10
84.422264
 20
-109.586838
 40
0.300003
 50
90.000000
 51
180.000000
  0
ARC
  8
0
 62
     4
 10
84.422264
 20
-97.386841
 40
0.300003
 50
90.000000
 51
180.000000
  0
ARC
  8
0
 62
     4
 10
93.822266
 20
-97.386841
 40
0.300003
 50
0.000000
 51
90.000000
  0
CIRCLE
  8
0
 62
     4
 10
89.122269
 20
-118.836838
 40
2.050000
  0
ARC
  8
0
 62
     4
 10
85.622269
 20
-120.586838
 40
1.599998
 50
270.000000
 51
90.000000
  0
ARC
  8
0
 62
     4
 10
92.622269
 20
-120.586838
 40
1.599998
 50
90.000000
 51
270.000000
  0
CIRCLE
  8
0
 62
     4
 10
89.122269
 20
-118.836838
 40
1.900000
  0
CIRCLE
  8
0
 62
     4
 10
89.122269
 20
-118.836838
 40
1.850000
  0
ARC
  8
0
 62
     4
 10
89.122269
 20
-118.836838
 40
0.800004
 50
22.024433
 51
157.975571
  0
ARC
  8
0
 62
     4
 10
89.122269
 20
-118.836838
 40
0.800004
 50
202.024429
 51
337.975555
  0
CIRCLE
  8
0
 62
     4
 10
85.622269
 20
-120.586838
 40
1.500000
  0
CIRCLE
  8
0
 62
     4
 10
92.622269
 20
-120.586838
 40
1.500000
  0
ARC
  8
0
 10
42.625782
 20
-103.890358
 40
0.503529
 50
90.400215
 51
179.599792
  0
ARC
  8
0
 10
59.618782
 20
-103.890320
 40
0.503495
 50
0.395900
 51
89.603661
  0
ARC
  8
0
 10
45.125759
 20
-106.390335
 40
3.196505
 50
269.937378
 51
0.062633
  0
ARC
  8
0
 10
57.125763
 20
-127.390335
 40
3.203501
 50
90.062561
 51
179.937500
  0
ARC
  8
0
 10
59.625748
 20
-123.690323
 40
0.496526
 50
269.597656
 51
0.402338
  0
ARC
  8
0
 10
42.625771
 20
-110.090347
 40
0.503522
 50
90.398918
 51
179.600647
  0
ARC
  8
0
 10
48.825779
 20
-103.890358
 40
0.503529
 50
90.399780
 51
179.599777
  0
CIRCLE
  8
0
 10
57.122299
 20
-127.393799
 40
2.800000
  0
CIRCLE
  8
0
 10
45.122299
 20
-106.393799
 40
2.800000
  0
ARC
  8
0
 10
53.425743
 20
-129.890320
 40
0.496533
 50
269.598541
 51
0.401451
  0
ARC
  8
0
 10
59.625740
 20
-129.890320
 40
0.496533
 50
269.598999
 51
0.401448
  0
ARC
  8
0
 10
42.618813
 20
-129.890289
 40
0.496563
 50
179.602097
 51
270.397919
  0
ARC
  8
0
 62
     4
 10
133.617264
 20
-129.293808
 40
5.005938
 50
60.500595
 51
119.499405
  0
ARC
  8
0
 62
     4
 10
135.753876
 20
-125.518997
 40
0.668384
 50
0.185086
 51
60.573273
  0
ARC
  8
0
 62
     4
 10
131.493179
 20
-125.514694
 40
0.670926
 50
120.540268
 51
180.183731
  0
ARC
  8
0
 62
     4
 10
120.627258
 20
-129.293808
 40
5.005938
 50
60.500595
 51
119.499405
  0
ARC
  8
0
 62
     4
 10
122.751343
 20
-125.514694
 40
0.670925
 50
359.816254
 51
59.460293
  0
ARC
  8
0
 62
     4
 10
118.490646
 20
-125.518997
 40
0.668385
 50
119.426727
 51
179.814911
  0
ARC
  8
0
 10
-51.015785
 20
23.120964
 40
0.500000
 50
270.000000
 51
0.000000
  0
ARC
  8
0
 10
-77.015785
 20
23.120964
 40
0.500000
 50
180.000000
 51
270.000000
  0
ARC
  8
0
 10
-55.641899
 20
24.846348
 40
0.673907
 50
180.457474
 51
240.300735
  0
ARC
  8
0
 10
-51.381828
 20
24.841747
 40
0.666041
 50
299.309204
 51
359.932739
  0
ARC
  8
0
 10
-53.515785
 20
28.621433
 40
5.006523
 50
240.570068
 51
299.429932
  0
ARC
  8
0
 10
-57.213379
 20
23.118557
 40
0.497599
 50
269.722839
 51
0.277163
  0
ARC
  8
0
 10
-51.013374
 20
26.518559
 40
0.497599
 50
269.722839
 51
0.277163
  0
ARC
  8
0
 10
-56.213360
 20
25.518539
 40
0.502432
 50
90.276672
 51
179.723328
  0
ARC
  8
0
 10
-53.515785
 20
18.120964
 40
5.000000
 50
235.944214
 51
304.055786
  0
ARC
  8
0
 10
-50.115784
 20
18.720966
 40
0.400002
 50
180.000000
 51
270.000000
  0
ARC
  8
0
 10
-45.115784
 20
17.920967
 40
0.400002
 50
0.000000
 51
90.000000
  0
ARC
  8
0
 62
     4
 10
-44.515785
 20
-9.479034
 40
0.300000
 50
270.000000
 51
0.000000
  0
ARC
  8
0
 62
     4
 10
-66.715790
 20
-4.279037
 40
0.500000
 50
270.000000
 51
0.000000
  0
ARC
  8
0
 62
     4
 10
-68.715790
 20
-4.279037
 40
0.500000
 50
180.000000
 51
270.000000
  0
ARC
  8
0
 10
-50.015785
 20
21.620964
 40
0.500000
 50
180.000000
 51
270.000000
  0
ARC
  8
0
 10
-45.115784
 20
20.720966
 40
0.400002
 50
0.000000
 51
90.000000
  0
ARC
  8
0
 62
     4
 10
-68.715790
 20
-18.179031
 40
0.500000
 50
180.000000
 51
270.000000
  0
ARC
  8
0
 62
     4
 10
-66.715790
 20
-18.179031
 40
0.500000
 50
270.000000
 51
0.000000
  0
ARC
  8
0
 62
     4
 10
-44.515785
 20
-23.379036
 40
0.299999
 50
270.000000
 51
0.000000
  0
CIRCLE
  8
0
 10
-102.015785
 20
72.020966
 40
5.722500
  0
CIRCLE
  8
0
 10
-102.015785
 20
52.020966
 40
5.722500
  0
CIRCLE
  8
0
 10
-102.015785
 20
32.020966
 40
5.722500
  0
CIRCLE
  8
0
 62
     2
 10
-102.015785
 20
72.020966
 40
6.578500
  0
CIRCLE
  8
0
 62
     2
 10
-102.015785
 20
52.020966
 40
6.578500
  0
CIRCLE
  8
0
 62
     2
 10
-102.015785
 20
32.020966
 40
6.578500
  0
CIRCLE
  8
0
 10
-84.515785
 20
83.020966
 40
2.066999
  0
CIRCLE
  8
0
 10
-84.515785
 20
21.020966
 40
2.066999
  0
CIRCLE
  8
0
 62
     2
 10
-84.515785
 20
83.020966
 40
2.500000
  0
CIRCLE
  8
0
 62
     2
 10
-84.515785
 20
21.020966
 40
2.500000
  0
ARC
  8
0
 10
-77.015785
 20
23.120964
 40
0.500000
 50
180.000000
 51
270.000000
  0
ARC
  8
0
 10
-74.515785
 20
85.920967
 40
5.000002
 50
55.944176
 51
124.055824
  0
ARC
  8
0
 10
-45.115784
 20
83.320969
 40
0.400002
 50
270.000000
 51
0.000000
  0
ARC
  8
0
 10
-50.015785
 20
82.420967
 40
0.500000
 50
90.000000
 51
180.000000
  0
ARC
  8
0
 62
     4
 10
-68.715790
 20
108.320969
 40
0.500000
 50
90.000000
 51
180.000000
  0
ARC
  8
0
 62
     4
 10
-66.715790
 20
108.320969
 40
0.500000
 50
0.000000
 51
90.000000
  0
ARC
  8
0
 62
     4
 10
-44.515785
 20
113.520966
 40
0.299999
 50
0.000000
 51
90.000000
  0
ARC
  8
0
 10
-45.115784
 20
86.120964
 40
0.400002
 50
270.000000
 51
0.000000
  0
ARC
  8
0
 10
-50.115784
 20
85.320969
 40
0.400002
 50
90.000000
 51
180.000000
  0
ARC
  8
0
 10
-55.815792
 20
37.015968
 40
5.001747
 50
340.677551
 51
19.322451
  0
ARC
  8
0
 62
     4
 10
127.123550
 20
83.021271
 40
3.498721
 50
59.022209
 51
120.977684
  0
ARC
  8
0
 62
     4
 10
127.123550
 20
21.020657
 40
3.498718
 50
239.022339
 51
300.977753
  0
ARC
  8
0
 10
70.123550
 20
21.015686
 40
3.498722
 50
0.086490
 51
27.310949
  0
ARC
  8
0
 10
70.123543
 20
21.020657
 40
3.498724
 50
152.780670
 51
0.005060
  0
ARC
  8
0
 10
51.123547
 20
21.015686
 40
3.498722
 50
0.086490
 51
27.310978
  0
ARC
  8
0
 10
51.123543
 20
21.020657
 40
3.498720
 50
152.780640
 51
0.005060
  0
CIRCLE
  8
0
 62
     4
 10
120.622269
 20
37.020966
 40
3.000000
  0
CIRCLE
  8
0
 62
     4
 10
133.622269
 20
67.020966
 40
3.000000
  0
CIRCLE
  8
0
 62
     4
 10
120.622269
 20
37.020966
 40
2.799999
  0
CIRCLE
  8
0
 62
     4
 10
133.622269
 20
67.020966
 40
2.799999
  0
CIRCLE
  8
0
 10
101.622269
 20
37.020966
 40
2.799999
  0
CIRCLE
  8
0
 10
114.622269
 20
67.020966
 40
2.799999
  0
CIRCLE
  8
0
 10
82.622269
 20
37.020966
 40
2.799999
  0
CIRCLE
  8
0
 10
95.622269
 20
67.020966
 40
2.799999
  0
CIRCLE
  8
0
 10
63.622265
 20
37.020966
 40
2.799999
  0
CIRCLE
  8
0
 10
76.622269
 20
67.020966
 40
2.799999
  0
CIRCLE
  8
0
 10
108.122269
 20
4.420967
 40
2.000000
  0
ARC
  8
0
 10
102.572266
 20
-4.279037
 40
0.300000
 50
270.000000
 51
0.000000
  0
ARC
  8
0
 10
113.672272
 20
-4.279037
 40
0.300003
 50
180.000000
 51
270.000000
  0
ARC
  8
0
 10
104.524750
 20
4.820965
 40
0.400000
 50
270.000000
 51
330.000214
  0
ARC
  8
0
 10
106.603210
 20
6.820965
 40
0.400000
 50
90.000000
 51
150.000198
  0
ARC
  8
0
 10
109.641327
 20
6.820965
 40
0.400002
 50
29.999798
 51
90.000000
  0
ARC
  8
0
 10
111.719788
 20
4.820965
 40
0.400002
 50
209.999802
 51
270.000000
  0
CIRCLE
  8
0
 10
108.122269
 20
4.420967
 40
0.800000
  0
ARC
  8
0
 62
     4
 10
112.822266
 20
-23.379036
 40
0.299999
 50
270.000000
 51
0.000000
  0
ARC
  8
0
 62
     4
 10
103.422272
 20
-23.379036
 40
0.300003
 50
180.000000
 51
270.000000
  0
ARC
  8
0
 62
     4
 10
103.422272
 20
113.520966
 40
0.300003
 50
90.000000
 51
180.000000
  0
ARC
  8
0
 62
     4
 10
112.822266
 20
113.520966
 40
0.300003
 50
0.000000
 51
90.000000
  0
CIRCLE
  8
0
 10
108.122269
 20
85.720963
 40
0.800000
  0
ARC
  8
0
 10
111.719788
 20
85.320969
 40
0.400002
 50
90.000000
 51
150.000565
  0
ARC
  8
0
 10
109.641327
 20
83.320969
 40
0.400002
 50
270.000000
 51
330.000549
  0
ARC
  8
0
 10
106.603210
 20
83.320969
 40
0.400001
 50
209.999435
 51
270.000000
  0
ARC
  8
0
 10
104.524750
 20
85.320969
 40
0.400001
 50
29.999443
 51
90.000000
  0
ARC
  8
0
 10
113.672272
 20
94.420967
 40
0.300003
 50
90.000000
 51
180.000000
  0
ARC
  8
0
 10
102.572266
 20
94.420967
 40
0.300003
 50
0.000000
 51
90.000000
  0
CIRCLE
  8
0
 10
108.122269
 20
85.720963
 40
2.000000
  0
ARC
  8
0
 10
101.621796
 20
37.020828
 40
3.000469
 50
213.586884
 51
0.002622
  0
ARC
  8
0
 10
101.624557
 20
37.020279
 40
2.997704
 50
0.013124
 51
146.588455
  0
ARC
  8
0
 10
114.622269
 20
67.015968
 40
2.998170
 50
33.504539
 51
326.495453
  0
ARC
  8
0
 10
95.622261
 20
67.015968
 40
2.998170
 50
33.504539
 51
326.495453
  0
ARC
  8
0
 10
82.624557
 20
37.020279
 40
2.997704
 50
0.013124
 51
146.588455
  0
ARC
  8
0
 10
82.621796
 20
37.020828
 40
3.000469
 50
213.586884
 51
0.002622
  0
CIRCLE
  8
0
 10
89.122269
 20
85.720963
 40
2.000000
  0
ARC
  8
0
 10
83.572266
 20
94.420967
 40
0.300003
 50
0.000000
 51
90.000000
  0
ARC
  8
0
 10
94.672264
 20
94.420967
 40
0.300003
 50
90.000000
 51
180.000000
  0
ARC
  8
0
 10
85.524742
 20
85.320969
 40
0.400001
 50
29.999443
 51
90.000000
  0
ARC
  8
0
 10
87.603210
 20
83.320969
 40
0.400001
 50
209.999435
 51
270.000000
  0
ARC
  8
0
 10
90.641327
 20
83.320969
 40
0.400002
 50
270.000000
 51
330.000549
  0
ARC
  8
0
 10
92.719788
 20
85.320969
 40
0.400002
 50
90.000000
 51
150.000565
  0
CIRCLE
  8
0
 10
89.122269
 20
85.720963
 40
0.800000
  0
ARC
  8
0
 62
     4
 10
93.822266
 20
113.520966
 40
0.300003
 50
0.000000
 51
90.000000
  0
ARC
  8
0
 62
     4
 10
84.422264
 20
113.520966
 40
0.300003
 50
90.000000
 51
180.000000
  0
ARC
  8
0
 62
     4
 10
84.422264
 20
-9.479034
 40
0.300003
 50
180.000000
 51
270.000000
  0
ARC
  8
0
 62
     4
 10
93.822266
 20
-9.479034
 40
0.300000
 50
270.000000
 51
0.000000
  0
CIRCLE
  8
0
 10
89.122269
 20
18.320965
 40
0.800000
  0
ARC
  8
0
 10
92.719788
 20
18.720966
 40
0.400003
 50
209.999908
 51
270.000000
  0
ARC
  8
0
 10
90.641327
 20
20.720966
 40
0.400003
 50
29.999916
 51
90.000000
  0
ARC
  8
0
 10
87.603210
 20
20.720966
 40
0.400000
 50
90.000000
 51
150.000092
  0
ARC
  8
0
 10
85.524742
 20
18.720966
 40
0.400000
 50
270.000000
 51
330.000092
  0
ARC
  8
0
 10
94.672264
 20
9.620964
 40
0.300003
 50
180.000000
 51
270.000000
  0
ARC
  8
0
 10
83.572266
 20
9.620964
 40
0.300000
 50
270.000000
 51
0.000000
  0
CIRCLE
  8
0
 10
89.122269
 20
18.320965
 40
2.000000
  0
ARC
  8
0
 10
76.622261
 20
67.015968
 40
2.998170
 50
33.504539
 51
326.495453
  0
ARC
  8
0
 10
63.624557
 20
37.020279
 40
2.997704
 50
0.013124
 51
146.588409
  0
ARC
  8
0
 10
63.621796
 20
37.020828
 40
3.000466
 50
213.586929
 51
0.002622
  0
CIRCLE
  8
0
 10
70.122269
 20
85.720963
 40
2.000000
  0
ARC
  8
0
 10
64.572266
 20
94.420967
 40
0.300003
 50
0.000000
 51
90.000000
  0
ARC
  8
0
 10
75.672264
 20
94.420967
 40
0.300003
 50
90.000000
 51
180.000000
  0
ARC
  8
0
 10
66.524742
 20
85.320969
 40
0.400001
 50
29.999443
 51
90.000000
  0
ARC
  8
0
 10
68.603203
 20
83.320969
 40
0.400001
 50
209.999435
 51
270.000000
  0
ARC
  8
0
 10
71.641327
 20
83.320969
 40
0.400002
 50
270.000000
 51
330.000549
  0
ARC
  8
0
 10
73.719788
 20
85.320969
 40
0.400002
 50
90.000000
 51
150.000565
  0
CIRCLE
  8
0
 10
70.122269
 20
85.720963
 40
0.800000
  0
ARC
  8
0
 62
     4
 10
74.822266
 20
113.520966
 40
0.300003
 50
0.000000
 51
90.000000
  0
ARC
  8
0
 62
     4
 10
65.422264
 20
113.520966
 40
0.300003
 50
90.000000
 51
180.000000
  0
ARC
  8
0
 10
66.248833
 20
24.846081
 40
0.673455
 50
299.677094
 51
359.564606
  0
ARC
  8
0
 10
61.988754
 20
24.842010
 40
0.666489
 50
180.089859
 51
240.668137
  0
ARC
  8
0
 10
61.620163
 20
23.118862
 40
0.497899
 50
179.757904
 51
270.242310
  0
ARC
  8
0
 10
78.619682
 20
23.123547
 40
0.502589
 50
270.293976
 51
359.705597
  0
ARC
  8
0
 10
67.820160
 20
23.118858
 40
0.497899
 50
179.757690
 51
270.242310
  0
ARC
  8
0
 10
64.122269
 20
28.621433
 40
5.006523
 50
240.570068
 51
299.429932
  0
ARC
  8
0
 10
61.620159
 20
26.518860
 40
0.497899
 50
179.757690
 51
270.242310
  0
ARC
  8
0
 10
66.820145
 20
25.518845
 40
0.502125
 50
0.241800
 51
89.757980
  0
ARC
  8
0
 10
57.622261
 20
67.015968
 40
2.998173
 50
33.504501
 51
326.495514
  0
ARC
  8
0
 10
44.624557
 20
37.020279
 40
2.997707
 50
0.013124
 51
146.588409
  0
ARC
  8
0
 10
44.621796
 20
37.020828
 40
3.000466
 50
213.586929
 51
0.002622
  0
CIRCLE
  8
0
 10
51.122265
 20
85.720963
 40
2.000000
  0
ARC
  8
0
 10
45.572266
 20
94.420967
 40
0.299999
 50
0.000000
 51
90.000000
  0
ARC
  8
0
 10
56.672264
 20
94.420967
 40
0.300003
 50
90.000000
 51
180.000000
  0
ARC
  8
0
 10
47.524742
 20
85.320969
 40
0.399997
 50
29.999716
 51
90.000000
  0
ARC
  8
0
 10
49.603203
 20
83.320969
 40
0.399997
 50
209.999710
 51
270.000000
  0
ARC
  8
0
 10
52.641327
 20
83.320969
 40
0.400002
 50
270.000000
 51
330.000275
  0
ARC
  8
0
 10
54.719788
 20
85.320969
 40
0.400002
 50
90.000000
 51
150.000290
  0
CIRCLE
  8
0
 10
51.122265
 20
85.720963
 40
0.800000
  0
ARC
  8
0
 62
     4
 10
55.822266
 20
113.520966
 40
0.299999
 50
0.000000
 51
90.000000
  0
ARC
  8
0
 62
     4
 10
46.422264
 20
113.520966
 40
0.300003
 50
90.000000
 51
180.000000
  0
ARC
  8
0
 10
47.248833
 20
24.846081
 40
0.673455
 50
299.677094
 51
359.564606
  0
ARC
  8
0
 10
42.988754
 20
24.842010
 40
0.666489
 50
180.089859
 51
240.668137
  0
ARC
  8
0
 10
42.620163
 20
23.118862
 40
0.497899
 50
179.757904
 51
270.242310
  0
ARC
  8
0
 10
59.619682
 20
23.123547
 40
0.502589
 50
270.294403
 51
359.705597
  0
ARC
  8
0
 10
48.820160
 20
23.118858
 40
0.497899
 50
179.757690
 51
270.242310
  0
ARC
  8
0
 10
45.122265
 20
28.621433
 40
5.006523
 50
240.570068
 51
299.429932
  0
ARC
  8
0
 10
42.620159
 20
26.518860
 40
0.497899
 50
179.757690
 51
270.242310
  0
ARC
  8
0
 10
47.820145
 20
25.518845
 40
0.502125
 50
0.241800
 51
89.757980
  0
CIRCLE
  8
0
 10
57.622265
 20
67.020966
 40
2.799999
  0
CIRCLE
  8
0
 10
44.622265
 20
37.020966
 40
2.799999
  0
CIRCLE
  8
0
 10
37.124638
 20
42.025566
 40
2.100010
  0
CIRCLE
  8
0
 10
37.124638
 20
62.025673
 40
2.100010
  0
CIRCLE
  8
0
 10
141.125198
 20
42.025566
 40
2.100010
  0
CIRCLE
  8
0
 10
141.125198
 20
62.025673
 40
2.100010
  0
TEXT
  8
0
 10
-265.600006
 20
-4.670001
 40
6.300000
  1
G180M2A
 50
0.000000
 41
0.877193
 51
0.000000
  7
STANDARD
  0
TEXT
  8
0
 10
-265.600006
 20
-14.670000
 40
6.300000
  1
G180M3A
 50
0.000000
 41
0.877193
 51
0.000000
  7
STANDARD
  0
TEXT
  8
0
 10
-265.600006
 20
-24.670000
 40
6.300000
  1
G180M4A
 50
0.000000
 41
0.877193
 51
0.000000
  7
STANDARD
  0
TEXT
  8
0
 10
-265.600006
 20
-34.670002
 40
6.300000
  1
G180M5A
 50
0.000000
 41
0.877193
 51
0.000000
  7
STANDARD
  0
TEXT
  8
0
 10
-265.600006
 20
-44.670002
 40
6.300000
  1
G180M6A
 50
0.000000
 41
0.877193
 51
0.000000
  7
STANDARD
  0
TEXT
  8
0
 10
-265.600006
 20
-54.670002
 40
6.300000
  1
G180M7A
 50
0.000000
 41
0.877193
 51
0.000000
  7
STANDARD
  0
TEXT
  8
0
 10
-265.600006
 20
-64.669998
 40
6.300000
  1
G180M8A
 50
0.000000
 41
0.877193
 51
0.000000
  7
STANDARD
  0
TEXT
  8
0
 10
-265.600006
 20
-74.669998
 40
6.300000
  1
G180M9A
 50
0.000000
 41
0.877193
 51
0.000000
  7
STANDARD
  0
TEXT
  8
0
 10
-270.850006
 20
-104.669998
 40
6.300000
  1
G180M12A
 50
0.000000
 41
0.877193
 51
0.000000
  7
STANDARD
  0
TEXT
  8
0
 10
-270.850006
 20
-114.669998
 40
6.300000
  1
G180M13A
 50
0.000000
 41
0.877193
 51
0.000000
  7
STANDARD
  0
TEXT
  8
0
 10
-270.850006
 20
-124.669998
 40
6.300000
  1
G180M14A
 50
0.000000
 41
0.877193
 51
0.000000
  7
STANDARD
  0
TEXT
  8
0
 10
-270.850006
 20
-134.669998
 40
6.300000
  1
G180M15A
 50
0.000000
 41
0.877193
 51
0.000000
  7
STANDARD
  0
TEXT
  8
0
 10
-270.850006
 20
-144.669998
 40
6.300000
  1
G180M16A
 50
0.000000
 41
0.877193
 51
0.000000
  7
STANDARD
  0
TEXT
  8
0
 10
-270.850006
 20
-154.669998
 40
6.300000
  1
G180M17A
 50
0.000000
 41
0.877193
 51
0.000000
  7
STANDARD
  0
TEXT
  8
0
 10
-270.850006
 20
-164.669998
 40
6.300000
  1
G180M18A
 50
0.000000
 41
0.877193
 51
0.000000
  7
STANDARD
  0
TEXT
  8
0
 10
-270.850006
 20
-174.669998
 40
6.300000
  1
G180M19A
 50
0.000000
 41
0.877193
 51
0.000000
  7
STANDARD
  0
TEXT
  8
0
 10
-270.850006
 20
-184.669998
 40
6.300000
  1
G180M20A
 50
0.000000
 41
0.877193
 51
0.000000
  7
STANDARD
  0
TEXT
  8
0
 10
-270.850006
 20
-84.669998
 40
6.300000
  1
G180M10A
 50
0.000000
 41
0.877193
 51
0.000000
  7
STANDARD
  0
TEXT
  8
0
 10
-270.850006
 20
-94.669998
 40
6.300000
  1
G180M11A
 50
0.000000
 41
0.877193
 51
0.000000
  7
STANDARD
  0
TEXT
  8
0
 10
-259.999725
 20
5.329999
 40
6.300000
  1
TYPE
 50
0.000000
 41
1.052632
 51
0.000000
  7
STANDARD
  0
TEXT
  8
0
 10
-208.049713
 20
5.329999
 40
6.300000
  1
L
 50
0.000000
 41
1.052632
 51
0.000000
  7
STANDARD
  0
TEXT
  8
0
 10
-178.049713
 20
5.329999
 40
6.300000
  1
P
 50
0.000000
 41
1.052632
 51
0.000000
  7
STANDARD
  0
TEXT
  8
0
 10
-209.549713
 20
-4.670001
 40
6.300000
  1
57
 50
0.000000
 41
1.052632
 51
0.000000
  7
STANDARD
  0
TEXT
  8
0
 10
-209.549713
 20
-14.670001
 40
6.300000
  1
76
 50
0.000000
 41
1.052632
 51
0.000000
  7
STANDARD
  0
TEXT
  8
0
 10
-209.549713
 20
-24.670000
 40
6.300000
  1
95
 50
0.000000
 41
1.052632
 51
0.000000
  7
STANDARD
  0
TEXT
  8
0
 10
-215.849716
 20
-34.670002
 40
6.300000
  1
114
 50
0.000000
 41
1.052632
 51
0.000000
  7
STANDARD
  0
TEXT
  8
0
 10
-215.849716
 20
-44.670002
 40
6.300000
  1
133
 50
0.000000
 41
1.052632
 51
0.000000
  7
STANDARD
  0
TEXT
  8
0
 10
-215.849716
 20
-54.670002
 40
6.300000
  1
152
 50
0.000000
 41
1.052632
 51
0.000000
  7
STANDARD
  0
TEXT
  8
0
 10
-215.849716
 20
-64.669998
 40
6.300000
  1
171
 50
0.000000
 41
1.052632
 51
0.000000
  7
STANDARD
  0
TEXT
  8
0
 10
-215.849716
 20
-74.669998
 40
6.300000
  1
190
 50
0.000000
 41
1.052632
 51
0.000000
  7
STANDARD
  0
TEXT
  8
0
 10
-215.849716
 20
-84.669998
 40
6.300000
  1
209
 50
0.000000
 41
1.052632
 51
0.000000
  7
STANDARD
  0
TEXT
  8
0
 10
-215.849716
 20
-94.669998
 40
6.300000
  1
228
 50
0.000000
 41
1.052632
 51
0.000000
  7
STANDARD
  0
TEXT
  8
0
 10
-215.849716
 20
-104.669998
 40
6.300000
  1
247
 50
0.000000
 41
1.052632
 51
0.000000
  7
STANDARD
  0
TEXT
  8
0
 10
-215.849716
 20
-114.669998
 40
6.300000
  1
266
 50
0.000000
 41
1.052632
 51
0.000000
  7
STANDARD
  0
TEXT
  8
0
 10
-215.849716
 20
-124.669998
 40
6.300000
  1
285
 50
0.000000
 41
1.052632
 51
0.000000
  7
STANDARD
  0
TEXT
  8
0
 10
-215.849716
 20
-134.669998
 40
6.300000
  1
304
 50
0.000000
 41
1.052632
 51
0.000000
  7
STANDARD
  0
TEXT
  8
0
 10
-215.849716
 20
-144.669998
 40
6.300000
  1
323
 50
0.000000
 41
1.052632
 51
0.000000
  7
STANDARD
  0
TEXT
  8
0
 10
-215.849716
 20
-154.669998
 40
6.300000
  1
342
 50
0.000000
 41
1.052632
 51
0.000000
  7
STANDARD
  0
TEXT
  8
0
 10
-215.849716
 20
-164.669998
 40
6.300000
  1
361
 50
0.000000
 41
1.052632
 51
0.000000
  7
STANDARD
  0
TEXT
  8
0
 10
-215.849716
 20
-174.669998
 40
6.300000
  1
380
 50
0.000000
 41
1.052632
 51
0.000000
  7
STANDARD
  0
TEXT
  8
0
 10
-178.049713
 20
-4.670001
 40
6.300000
  1
47
 50
0.000000
 41
1.052632
 51
0.000000
  7
STANDARD
  0
TEXT
  8
0
 10
-178.049713
 20
-14.670001
 40
6.300000
  1
66
 50
0.000000
 41
1.052632
 51
0.000000
  7
STANDARD
  0
TEXT
  8
0
 10
-178.049713
 20
-24.670000
 40
6.300000
  1
85
 50
0.000000
 41
1.052632
 51
0.000000
  7
STANDARD
  0
TEXT
  8
0
 10
-184.349716
 20
-34.670002
 40
6.300000
  1
104
 50
0.000000
 41
1.052632
 51
0.000000
  7
STANDARD
  0
TEXT
  8
0
 10
-184.349716
 20
-44.670002
 40
6.300000
  1
123
 50
0.000000
 41
1.052632
 51
0.000000
  7
STANDARD
  0
TEXT
  8
0
 10
-184.349716
 20
-54.670002
 40
6.300000
  1
142
 50
0.000000
 41
1.052632
 51
0.000000
  7
STANDARD
  0
TEXT
  8
0
 10
-184.349716
 20
-64.669998
 40
6.300000
  1
161
 50
0.000000
 41
1.052632
 51
0.000000
  7
STANDARD
  0
TEXT
  8
0
 10
-184.349716
 20
-74.669998
 40
6.300000
  1
180
 50
0.000000
 41
1.052632
 51
0.000000
  7
STANDARD
  0
TEXT
  8
0
 10
-184.349716
 20
-84.669998
 40
6.300000
  1
199
 50
0.000000
 41
1.052632
 51
0.000000
  7
STANDARD
  0
TEXT
  8
0
 10
-184.349716
 20
-94.669998
 40
6.300000
  1
218
 50
0.000000
 41
1.052632
 51
0.000000
  7
STANDARD
  0
TEXT
  8
0
 10
-184.349716
 20
-104.669998
 40
6.300000
  1
237
 50
0.000000
 41
1.052632
 51
0.000000
  7
STANDARD
  0
TEXT
  8
0
 10
-184.349716
 20
-114.669998
 40
6.300000
  1
256
 50
0.000000
 41
1.052632
 51
0.000000
  7
STANDARD
  0
TEXT
  8
0
 10
-184.349716
 20
-124.669998
 40
6.300000
  1
275
 50
0.000000
 41
1.052632
 51
0.000000
  7
STANDARD
  0
TEXT
  8
0
 10
-184.349716
 20
-134.669998
 40
6.300000
  1
294
 50
0.000000
 41
1.052632
 51
0.000000
  7
STANDARD
  0
TEXT
  8
0
 10
-184.349716
 20
-144.669998
 40
6.300000
  1
313
 50
0.000000
 41
1.052632
 51
0.000000
  7
STANDARD
  0
TEXT
  8
0
 10
-184.349716
 20
-154.669998
 40
6.300000
  1
332
 50
0.000000
 41
1.052632
 51
0.000000
  7
STANDARD
  0
TEXT
  8
0
 10
-184.349716
 20
-164.669998
 40
6.300000
  1
351
 50
0.000000
 41
1.052632
 51
0.000000
  7
STANDARD
  0
TEXT
  8
0
 10
-184.349716
 20
-174.669998
 40
6.300000
  1
370
 50
0.000000
 41
1.052632
 51
0.000000
  7
STANDARD
  0
TEXT
  8
0
 10
-259.999725
 20
17.830000
 40
6.300000
  1
DIMENSION LIST
 50
0.000000
 41
1.052632
 51
0.000000
  7
STANDARD
  0
TEXT
  8
0
 10
-184.349716
 20
-184.669998
 40
6.300000
  1
389
 50
0.000000
 41
1.052632
 51
0.000000
  7
STANDARD
  0
TEXT
  8
0
 10
-215.849716
 20
-184.669998
 40
6.300000
  1
399
 50
0.000000
 41
1.052632
 51
0.000000
  7
STANDARD
  0
TEXT
  8
0
 10
196.250259
 20
180.830002
 40
6.300000
  1
Ver. 1.0
 50
0.000000
 41
1.052632
 51
0.000000
  7
STANDARD
  0
TEXT
  8
0
 10
167.564651
 20
-192.100006
 40
9.000000
  1
KOGANEI CORP.
 50
0.000000
 41
1.052632
 51
0.000000
  7
STANDARD
  0
TEXT
  8
0
 10
-256.549713
 20
180.830002
 40
6.300000
  1
G180 SERIES
 50
0.000000
 41
1.052632
 51
0.000000
  7
STANDARD
  0
TEXT
  8
0
 10
-270.049713
 20
155.830002
 40
6.300000
  1
MODEL:G180MA
 50
0.000000
 41
1.052632
 51
0.000000
  7
STANDARD
  0
LINE
  8
0
 62
     2
 10
68.363831
 20
-97.086830
 11
52.759007
 21
-70.058479
  0
LINE
  8
0
 62
     2
 10
52.759007
 20
-70.058479
 11
7.298892
 21
-70.058479
  0
LINE
  8
0
 62
     2
 10
68.363831
 20
-97.086830
 11
67.587372
 21
-94.189056
  0
LINE
  8
0
 62
     2
 10
68.363831
 20
-97.086830
 11
66.242508
 21
-94.965508
  0
TEXT
  8
0
 62
     2
 10
7.548892
 20
-69.058479
 40
3.200000
  1
GA180-4E1-PSL
 50
0.000000
 41
1.052632
 51
0.000000
  7
STANDARD
  0
LINE
  8
0
 62
     2
 10
92.005585
 20
-97.086838
 11
107.538780
 21
-70.182556
  0
LINE
  8
0
 62
     2
 10
107.538780
 20
-70.182556
 11
154.031570
 21
-70.182556
  0
LINE
  8
0
 62
     2
 10
92.005585
 20
-97.086838
 11
94.126907
 21
-94.965515
  0
LINE
  8
0
 62
     2
 10
92.005585
 20
-97.086838
 11
92.782043
 21
-94.189064
  0
TEXT
  8
0
 62
     2
 10
111.767570
 20
-69.182556
 40
3.200000
  1
GA180-4E2-PSL
 50
0.000000
 41
1.052632
 51
0.000000
  7
STANDARD
  0
LINE
  8
0
 62
     2
 10
127.122269
 20
-127.186836
 11
134.363449
 21
-114.644730
  0
LINE
  8
0
 62
     2
 10
134.363449
 20
-114.644730
 11
146.877151
 21
-114.644730
  0
LINE
  8
0
 62
     2
 10
127.122269
 20
-127.186836
 11
129.243591
 21
-125.065514
  0
LINE
  8
0
 62
     2
 10
127.122269
 20
-127.186836
 11
127.898727
 21
-124.289055
  0
TEXT
  8
0
 62
     2
 10
136.613144
 20
-113.644730
 40
3.200000
  1
-BP
 50
0.000000
 41
1.052632
 51
0.000000
  7
STANDARD
  0
LINE
  8
0
 62
     2
 10
110.731728
 20
-97.086838
 11
116.628258
 21
-86.873734
  0
LINE
  8
0
 62
     2
 10
116.628258
 20
-86.873734
 11
160.446274
 21
-86.873734
  0
LINE
  8
0
 62
     2
 10
110.731728
 20
-97.086838
 11
112.853050
 21
-94.965515
  0
LINE
  8
0
 62
     2
 10
110.731728
 20
-97.086838
 11
111.508186
 21
-94.189056
  0
TEXT
  8
0
 62
     2
 10
118.182274
 20
-85.873734
 40
3.200000
  1
GA183-4E2-PSL
 50
0.000000
 41
1.052632
 51
0.000000
  7
STANDARD
  0
LINE
  8
0
 62
     2
 10
48.701382
 20
-97.086838
 11
42.804848
 21
-86.873741
  0
LINE
  8
0
 62
     2
 10
42.804848
 20
-86.873741
 11
5.242228
 21
-86.873741
  0
LINE
  8
0
 62
     2
 10
48.701382
 20
-97.086838
 11
47.924923
 21
-94.189064
  0
LINE
  8
0
 62
     2
 10
48.701382
 20
-97.086838
 11
46.580063
 21
-94.965515
  0
TEXT
  8
0
 62
     2
 10
5.492228
 20
-85.873741
 40
3.200000
  1
GA180E1-PSL
 50
0.000000
 41
1.052632
 51
0.000000
  7
STANDARD
  0
TEXT
  8
0
 62
     2
 10
32.815266
 20
150.259247
 40
3.200000
  1
5
 50
0.000000
 41
1.052632
 51
0.000000
  7
STANDARD
  0
LINE
  8
0
 62
     2
 10
32.122265
 20
149.259247
 11
37.122265
 21
149.259247
  0
LINE
  8
0
 62
     2
 10
32.122265
 20
149.259247
 11
29.224487
 21
148.482788
  0
LINE
  8
0
 62
     2
 10
32.122265
 20
149.259247
 11
29.224487
 21
150.035706
  0
LINE
  8
0
 62
     2
 10
32.122265
 20
149.259247
 11
26.122265
 21
149.259247
  0
LINE
  8
0
 62
     2
 10
37.122265
 20
149.259247
 11
40.020042
 21
150.035706
  0
LINE
  8
0
 62
     2
 10
37.122265
 20
149.259247
 11
40.020042
 21
148.482788
  0
LINE
  8
0
 62
     2
 10
37.122265
 20
149.259247
 11
43.122265
 21
149.259247
  0
LINE
  8
0
 62
     2
 10
32.122265
 20
61.020962
 11
32.122265
 21
150.759247
  0
LINE
  8
0
 62
     2
 10
37.122265
 20
62.020962
 11
37.122265
 21
150.759247
  0
TEXT
  8
0
 62
     2
 10
87.315262
 20
150.259247
 40
3.200000
  1
P
 50
0.000000
 41
1.052632
 51
0.000000
  7
STANDARD
  0
LINE
  8
0
 62
     2
 10
37.122265
 20
149.259247
 11
141.122269
 21
149.259247
  0
LINE
  8
0
 62
     2
 10
37.122265
 20
149.259247
 11
40.020042
 21
150.035706
  0
LINE
  8
0
 62
     2
 10
37.122265
 20
149.259247
 11
40.020042
 21
148.482788
  0
LINE
  8
0
 62
     2
 10
141.122269
 20
149.259247
 11
138.224487
 21
148.482788
  0
LINE
  8
0
 62
     2
 10
141.122269
 20
149.259247
 11
138.224487
 21
150.035706
  0
LINE
  8
0
 62
     2
 10
37.122265
 20
42.020962
 11
37.122265
 21
150.759247
  0
LINE
  8
0
 62
     2
 10
141.122269
 20
62.020962
 11
141.122269
 21
150.759247
  0
TEXT
  8
0
 62
     2
 10
150.364807
 20
150.259247
 40
3.200000
  1
5
 50
0.000000
 41
1.052632
 51
0.000000
  7
STANDARD
  0
LINE
  8
0
 62
     2
 10
146.122269
 20
149.259247
 11
153.314819
 21
149.259247
  0
LINE
  8
0
 62
     2
 10
141.122269
 20
149.259247
 11
146.122269
 21
149.259247
  0
LINE
  8
0
 62
     2
 10
141.122269
 20
149.259247
 11
138.224487
 21
148.482788
  0
LINE
  8
0
 62
     2
 10
141.122269
 20
149.259247
 11
138.224487
 21
150.035706
  0
LINE
  8
0
 62
     2
 10
141.122269
 20
149.259247
 11
135.122269
 21
149.259247
  0
LINE
  8
0
 62
     2
 10
146.122269
 20
149.259247
 11
149.020050
 21
150.035706
  0
LINE
  8
0
 62
     2
 10
146.122269
 20
149.259247
 11
149.020050
 21
148.482788
  0
LINE
  8
0
 62
     2
 10
146.122269
 20
149.259247
 11
152.122269
 21
149.259247
  0
LINE
  8
0
 62
     2
 10
141.122269
 20
42.020962
 11
141.122269
 21
150.759247
  0
LINE
  8
0
 62
     2
 10
146.122269
 20
61.020962
 11
146.122269
 21
150.759247
  0
TEXT
  8
0
 62
     2
 10
87.315262
 20
160.864334
 40
3.200000
  1
L
 50
0.000000
 41
1.052632
 51
0.000000
  7
STANDARD
  0
LINE
  8
0
 62
     2
 10
32.122265
 20
159.864334
 11
146.122269
 21
159.864334
  0
LINE
  8
0
 62
     2
 10
32.122265
 20
159.864334
 11
35.020042
 21
160.640793
  0
LINE
  8
0
 62
     2
 10
32.122265
 20
159.864334
 11
35.020042
 21
159.087875
  0
LINE
  8
0
 62
     2
 10
146.122269
 20
159.864334
 11
143.224487
 21
159.087875
  0
LINE
  8
0
 62
     2
 10
146.122269
 20
159.864334
 11
143.224487
 21
160.640793
  0
LINE
  8
0
 62
     2
 10
32.122265
 20
89.020958
 11
32.122265
 21
161.364334
  0
LINE
  8
0
 62
     2
 10
146.122269
 20
89.020958
 11
146.122269
 21
161.364334
  0
ENDSEC
  0
EOF
