  0
SECTION
  2
HEADER
  0
ENDSEC
  0
SECTION
  2
TABLES
  0
TABLE
  2
LTYPE
 70
     4
  0
LTYPE
  2
CONTINUOUS
 70
    64
  3
Solid line
 72
    65
 73
     0
 40
0.000000
  0
LTYPE
  2
DASHED
 70
    64
  3
__ __ __ __ __ __ __ __ __ __ __ __ __ __ __
 72
    65
 73
     2
 40
3.500000
 49
2.000000
 49
-1.500000
  0
LTYPE
  2
CENTER
 70
    64
  3
____ _ ____ _ ____ _ ____ _ ____ _ ____ _ ____
 72
    65
 73
     4
 40
17.500000
 49
13.000000
 49
-1.500000
 49
1.500000
 49
-1.500000
  0
LTYPE
  2
PHANTOM
 70
    64
  3
_____ _ _ _____ _ _ _____ _ _ _____ _ _ ____  
 72
    65
 73
     6
 40
15.500000
 49
8.000000
 49
-1.500000
 49
1.500000
 49
-1.500000
 49
1.500000
 49
-1.500000
  0
LTYPE
  2
DASHED1
 70
    64
  3
__ __ __ __ __ __ __ __ __ __ __ __ __ __ __
 72
    65
 73
     2
 40
1.500000
 49
1.000000
 49
-0.500000
  0
LTYPE
  2
DASHED2
 70
    64
  3
__ __ __ __ __ __ __ __ __ __ __ __ __ __ __
 72
    65
 73
     2
 40
3.500000
 49
2.500000
 49
-1.000000
  0
LTYPE
  2
DASHED3
 70
    64
  3
__ __ __ __ __ __ __ __ __ __ __ __ __ __ __
 72
    65
 73
     2
 40
6.000000
 49
4.000000
 49
-2.000000
  0
LTYPE
  2
DASHED4
 70
    64
  3
__ __ __ __ __ __ __ __ __ __ __ __ __ __ __
 72
    65
 73
     2
 40
12.000000
 49
10.000000
 49
-2.000000
  0
LTYPE
  2
DASHED5
 70
    64
  3
__ __ __ __ __ __ __ __ __ __ __ __ __ __ __
 72
    65
 73
     2
 40
17.000000
 49
15.000000
 49
-2.000000
  0
LTYPE
  2
DASHED6
 70
    64
  3
__ __ __ __ __ __ __ __ __ __ __ __ __ __ __
 72
    65
 73
     2
 40
29.000000
 49
27.000000
 49
-2.000000
  0
LTYPE
  2
PHANTOM1
 70
    64
  3
_____ _ _ _____ _ _ _____ _ _ _____ _ _ ____  
 72
    65
 73
     6
 40
31.000000
 49
25.000000
 49
-1.500000
 49
1.000000
 49
-1.000000
 49
1.000000
 49
-1.500000
  0
LTYPE
  2
PHANTOM2
 70
    64
  3
_____ _ _ _____ _ _ _____ _ _ _____ _ _ ____  
 72
    65
 73
     6
 40
36.000000
 49
27.000000
 49
-1.500000
 49
2.500000
 49
-1.000000
 49
2.500000
 49
-1.500000
  0
LTYPE
  2
PHANTOM3
 70
    64
  3
_____ _ _ _____ _ _ _____ _ _ _____ _ _ ____  
 72
    65
 73
     6
 40
78.000000
 49
64.000000
 49
-2.000000
 49
4.000000
 49
-2.000000
 49
4.000000
 49
-2.000000
  0
LTYPE
  2
CENTER1
 70
    64
  3
____ _ ____ _ ____ _ ____ _ ____ _ ____ _ ____
 72
    65
 73
     4
 40
19.000000
 49
14.000000
 49
-1.000000
 49
3.000000
 49
-1.000000
  0
LTYPE
  2
CENTER2
 70
    64
  3
____ _ ____ _ ____ _ ____ _ ____ _ ____ _ ____
 72
    65
 73
     4
 40
28.500000
 49
25.000000
 49
-1.000000
 49
1.500000
 49
-1.000000
  0
LTYPE
  2
CENTER3
 70
    64
  3
____ _ ____ _ ____ _ ____ _ ____ _ ____ _ ____
 72
    65
 73
     4
 40
31.500000
 49
27.000000
 49
-1.000000
 49
2.500000
 49
-1.000000
  0
LTYPE
  2
CENTER4
 70
    64
  3
____ _ ____ _ ____ _ ____ _ ____ _ ____ _ ____
 72
    65
 73
     4
 40
50.000000
 49
45.000000
 49
-1.000000
 49
3.000000
 49
-1.000000
  0
LTYPE
  2
CENTER5
 70
    64
  3
____ _ ____ _ ____ _ ____ _ ____ _ ____ _ ____
 72
    65
 73
     4
 40
100.000000
 49
92.000000
 49
-2.000000
 49
4.000000
 49
-2.000000
  0
LTYPE
  2
SBK1
 70
    64
  3
______ _ _ _ ______ _ _ _ ______ _ _ _ _____  
 72
    65
 73
     8
 40
60.500000
 49
45.000000
 49
-2.000000
 49
2.500000
 49
-2.000000
 49
2.500000
 49
-2.000000
 49
2.500000
 49
-2.000000
  0
LTYPE
  2
SBK2
 70
    64
  3
______ _ _ _ ______ _ _ _ ______ _ _ _ _____  
 72
    65
 73
     8
 40
84.000000
 49
64.000000
 49
-2.000000
 49
4.000000
 49
-2.000000
 49
4.000000
 49
-2.000000
 49
4.000000
 49
-2.000000
  0
LTYPE
  2
STCH
 70
    64
  3
__ __ __ __ __ __ __ __ __ __ __ __ __ __ __
 72
    65
 73
     2
 40
3.000000
 49
1.000000
 49
-2.000000
  0
LTYPE
  2
MTCH
 70
    64
  3
_____ _ _ _____ _ _ _____ _ _ _____ _ _ ____  
 72
    65
 73
     6
 40
80.000000
 49
66.000000
 49
-2.000000
 49
4.000000
 49
-2.000000
 49
4.000000
 49
-2.000000
  0
ENDTAB
  0
TABLE
  2
LAYER
 70
     1
  0
LAYER
  2
0
 70
     0
 62
     7
  6
CONTINUOUS
  0
ENDTAB
  0
TABLE
  2
STYLE
 70
     1
  0
STYLE
  2
STANDARD
 70
     0
 40
0.000000
 41
1.000000
 50
0.000000
 71
     0
 42
0.200000
  3
txt
  4
BIGFONT
  0
ENDTAB
  0
TABLE
  2
VIEW
 70
     0
  0
ENDTAB
  0
ENDSEC
  0
SECTION
  2
BLOCKS
  0
ENDSEC
  0
SECTION
  2
ENTITIES
  0
LINE
  8
0
  6
CENTER
 62
     2
 10
133.234436
 20
-164.168488
 11
133.234436
 21
-172.497147
  0
LINE
  8
0
 10
53.734432
 20
-121.590790
 11
56.234432
 21
-121.590790
  0
LINE
  8
0
 10
59.434433
 20
-118.390793
 11
59.434433
 21
-115.890793
  0
LINE
  8
0
 10
65.034431
 20
-141.890793
 11
65.034431
 21
-139.390793
  0
LINE
  8
0
 10
68.234436
 20
-136.190796
 11
70.734436
 21
-136.190796
  0
LINE
  8
0
 10
53.734432
 20
-115.390793
 11
70.734436
 21
-115.390793
  0
LINE
  8
0
 10
53.234432
 20
-141.890793
 11
53.234432
 21
-115.890793
  0
LINE
  8
0
 10
71.234436
 20
-141.890793
 11
71.234436
 21
-115.890793
  0
LINE
  8
0
 10
55.166931
 20
-119.453293
 11
57.291931
 21
-117.328285
  0
LINE
  8
0
 10
55.141636
 20
-117.357956
 11
57.289433
 21
-119.455795
  0
LINE
  8
0
 10
67.141632
 20
-138.323410
 11
69.289429
 21
-140.421265
  0
LINE
  8
0
 10
67.166924
 20
-140.418762
 11
69.291924
 21
-138.293762
  0
LINE
  8
0
 10
53.234432
 20
-109.990791
 11
53.234432
 21
-115.890793
  0
LINE
  8
0
 10
71.234436
 20
-109.990791
 11
71.234436
 21
-115.890793
  0
LINE
  8
0
 10
65.601013
 20
-109.990791
 11
65.601013
 21
-114.890793
  0
LINE
  8
0
 10
58.867851
 20
-109.990791
 11
58.867851
 21
-114.890793
  0
LINE
  8
0
 10
60.484432
 20
-109.990791
 11
60.484432
 21
-114.890793
  0
LINE
  8
0
 10
63.984432
 20
-109.990791
 11
63.984432
 21
-114.890793
  0
LINE
  8
0
 10
53.634430
 20
-109.590790
 11
70.834427
 21
-109.590790
  0
LINE
  8
0
 10
57.234432
 20
-109.390793
 11
57.234432
 21
-109.590790
  0
LINE
  8
0
 10
67.234436
 20
-109.390793
 11
67.234436
 21
-109.590790
  0
LINE
  8
0
 10
66.934433
 20
-109.090790
 11
57.534431
 21
-109.090790
  0
LINE
  8
0
  6
CENTER
 62
     2
 10
62.234432
 20
-144.906845
 11
62.234432
 21
-106.954742
  0
LINE
  8
0
 10
47.934433
 20
-109.090790
 11
38.534431
 21
-109.090790
  0
LINE
  8
0
 10
48.234432
 20
-109.390793
 11
48.234432
 21
-109.590790
  0
LINE
  8
0
 10
38.234432
 20
-109.390793
 11
38.234432
 21
-109.590790
  0
LINE
  8
0
 10
34.634434
 20
-109.590790
 11
51.834435
 21
-109.590790
  0
LINE
  8
0
 10
44.984432
 20
-109.990791
 11
44.984432
 21
-114.890793
  0
LINE
  8
0
 10
41.484432
 20
-109.990791
 11
41.484432
 21
-114.890793
  0
LINE
  8
0
 10
39.867851
 20
-109.990791
 11
39.867851
 21
-114.890793
  0
LINE
  8
0
 10
46.601013
 20
-109.990791
 11
46.601013
 21
-114.890793
  0
LINE
  8
0
 10
52.234432
 20
-109.990791
 11
52.234432
 21
-115.890793
  0
LINE
  8
0
 10
34.234432
 20
-109.990791
 11
34.234432
 21
-115.890793
  0
LINE
  8
0
  6
CENTER
 62
     2
 10
100.234436
 20
-144.906845
 11
100.234436
 21
-106.954742
  0
LINE
  8
0
 62
     4
 10
95.234436
 20
-109.390793
 11
95.234436
 21
-141.090790
  0
LINE
  8
0
 62
     4
 10
105.234436
 20
-109.390793
 11
105.234436
 21
-141.090790
  0
LINE
  8
0
 62
     4
 10
104.441544
 20
-133.297897
 11
103.027321
 21
-131.883682
  0
LINE
  8
0
 62
     4
 10
104.441536
 20
-131.883667
 11
103.027321
 21
-133.297882
  0
LINE
  8
0
 62
     4
 10
96.027313
 20
-131.883682
 11
97.441536
 21
-133.297897
  0
LINE
  8
0
 62
     4
 10
96.027313
 20
-133.297882
 11
97.441528
 21
-131.883667
  0
LINE
  8
0
 62
     4
 10
102.059952
 20
-130.540802
 11
98.408920
 21
-130.540802
  0
LINE
  8
0
 62
     4
 10
102.059952
 20
-131.140793
 11
98.408920
 21
-131.140793
  0
LINE
  8
0
  6
CENTER
 62
     2
 10
102.734436
 20
-130.840790
 11
97.734436
 21
-130.840790
  0
LINE
  8
0
 62
     4
 10
95.234436
 20
-130.990784
 11
96.734436
 21
-130.990784
  0
LINE
  8
0
 62
     4
 10
96.734436
 20
-134.190796
 11
95.234436
 21
-134.190796
  0
LINE
  8
0
 62
     4
 10
105.234436
 20
-134.190796
 11
103.734436
 21
-134.190796
  0
LINE
  8
0
 62
     4
 10
103.734436
 20
-130.990784
 11
105.234436
 21
-130.990784
  0
LINE
  8
0
 62
     4
 10
105.234436
 20
-126.690796
 11
104.934433
 21
-126.690796
  0
LINE
  8
0
 62
     4
 10
95.234436
 20
-127.188873
 11
105.234436
 21
-127.188873
  0
LINE
  8
0
 62
     4
 10
97.584427
 20
-134.690796
 11
95.234436
 21
-134.690796
  0
LINE
  8
0
 62
     4
 10
98.834427
 20
-133.440796
 11
101.634430
 21
-133.440796
  0
LINE
  8
0
 62
     4
 10
102.884430
 20
-134.690796
 11
101.634422
 21
-133.440796
  0
LINE
  8
0
 62
     4
 10
105.234436
 20
-134.690796
 11
102.884430
 21
-134.690796
  0
LINE
  8
0
 62
     4
 10
99.090057
 20
-133.881607
 11
101.378799
 21
-133.881607
  0
LINE
  8
0
 62
     4
 10
97.840057
 20
-135.131607
 11
95.234436
 21
-135.131607
  0
LINE
  8
0
 62
     4
 10
105.234436
 20
-135.131607
 11
102.628799
 21
-135.131607
  0
LINE
  8
0
 62
     4
 10
101.378799
 20
-133.881607
 11
102.628799
 21
-135.131607
  0
LINE
  8
0
 62
     4
 10
105.234436
 20
-127.999977
 11
95.234436
 21
-127.999977
  0
LINE
  8
0
 62
     4
 10
101.378799
 20
-133.881607
 11
101.634430
 21
-133.440796
  0
LINE
  8
0
 62
     4
 10
99.090050
 20
-133.881607
 11
97.840050
 21
-135.131607
  0
LINE
  8
0
 62
     4
 10
97.584435
 20
-134.690796
 11
98.834435
 21
-133.440796
  0
LINE
  8
0
 62
     4
 10
99.090065
 20
-133.881607
 11
98.834427
 21
-133.440781
  0
LINE
  8
0
 62
     4
 10
102.884430
 20
-134.690796
 11
102.628799
 21
-135.131607
  0
LINE
  8
0
 62
     4
 10
97.840065
 20
-135.131607
 11
97.584435
 21
-134.690796
  0
LINE
  8
0
 62
     1
 10
98.734436
 20
-114.090790
 11
98.734436
 21
-109.090790
  0
LINE
  8
0
 62
     1
 10
98.734436
 20
-114.090790
 11
101.734436
 21
-114.090790
  0
LINE
  8
0
 62
     1
 10
101.734436
 20
-114.090790
 11
101.734436
 21
-109.090790
  0
LINE
  8
0
 62
     4
 10
105.234436
 20
-126.590790
 11
104.934433
 21
-126.590790
  0
LINE
  8
0
 62
     4
 10
104.934433
 20
-109.090790
 11
95.534439
 21
-109.090790
  0
LINE
  8
0
 62
     4
 10
95.534439
 20
-121.290794
 11
97.734436
 21
-121.290794
  0
LINE
  8
0
 62
     4
 10
97.334427
 20
-122.290794
 11
97.734436
 21
-122.290794
  0
LINE
  8
0
 62
     4
 10
97.334427
 20
-122.290794
 11
97.334427
 21
-121.290794
  0
LINE
  8
0
 62
     4
 10
103.134430
 20
-122.290794
 11
103.134430
 21
-121.290794
  0
LINE
  8
0
 62
     4
 10
97.334427
 20
-121.790794
 11
103.134430
 21
-121.790794
  0
LINE
  8
0
 62
     4
 10
102.734436
 20
-120.290794
 11
102.734436
 21
-122.790794
  0
LINE
  8
0
 62
     4
 10
97.734436
 20
-120.290794
 11
97.734436
 21
-122.790794
  0
LINE
  8
0
 62
     4
 10
103.724434
 20
-123.290794
 11
103.848434
 21
-125.178787
  0
LINE
  8
0
 62
     4
 10
103.324432
 20
-125.390793
 11
103.324432
 21
-125.890793
  0
LINE
  8
0
 62
     4
 10
102.224426
 20
-125.890793
 11
103.324432
 21
-125.890793
  0
LINE
  8
0
 62
     4
 10
102.224426
 20
-125.390793
 11
102.224426
 21
-125.890793
  0
LINE
  8
0
 62
     4
 10
101.898437
 20
-125.390793
 11
103.648437
 21
-125.390793
  0
LINE
  8
0
 62
     4
 10
101.698433
 20
-125.178795
 11
101.824432
 21
-123.290794
  0
LINE
  8
0
 62
     4
 10
101.824432
 20
-123.290794
 11
103.724426
 21
-123.290794
  0
LINE
  8
0
 62
     4
 10
100.634430
 20
-124.690796
 11
99.834427
 21
-124.690796
  0
LINE
  8
0
 62
     4
 10
100.634430
 20
-123.890793
 11
100.634430
 21
-124.690796
  0
LINE
  8
0
 62
     4
 10
100.634430
 20
-123.890793
 11
99.834427
 21
-123.890793
  0
LINE
  8
0
 62
     4
 10
99.834427
 20
-123.890793
 11
99.834427
 21
-124.690796
  0
LINE
  8
0
 62
     4
 10
101.184433
 20
-123.290787
 11
101.308434
 21
-125.178795
  0
LINE
  8
0
 62
     4
 10
100.784439
 20
-125.390793
 11
100.784439
 21
-125.890793
  0
LINE
  8
0
 62
     4
 10
99.684433
 20
-125.890793
 11
100.784439
 21
-125.890793
  0
LINE
  8
0
 62
     4
 10
99.684433
 20
-125.390793
 11
99.684433
 21
-125.890793
  0
LINE
  8
0
 62
     4
 10
99.358429
 20
-125.390793
 11
101.108429
 21
-125.390793
  0
LINE
  8
0
 62
     4
 10
99.158432
 20
-125.178795
 11
99.284431
 21
-123.290794
  0
LINE
  8
0
 62
     4
 10
99.284439
 20
-123.290794
 11
101.184433
 21
-123.290794
  0
LINE
  8
0
 62
     4
 10
96.618431
 20
-125.178795
 11
96.744431
 21
-123.290794
  0
LINE
  8
0
 62
     4
 10
98.644432
 20
-123.290794
 11
98.768425
 21
-125.178802
  0
LINE
  8
0
 62
     4
 10
103.934433
 20
-122.790794
 11
103.934433
 21
-121.790794
  0
LINE
  8
0
 62
     4
 10
104.934433
 20
-121.790794
 11
103.934433
 21
-121.790794
  0
LINE
  8
0
 62
     4
 10
96.534439
 20
-122.790794
 11
96.534439
 21
-121.790794
  0
LINE
  8
0
 62
     4
 10
95.534439
 20
-121.790794
 11
96.534439
 21
-121.790794
  0
LINE
  8
0
 62
     4
 10
98.984436
 20
-121.790794
 11
98.984436
 21
-122.790794
  0
LINE
  8
0
 62
     4
 10
101.484436
 20
-121.790794
 11
101.484436
 21
-122.790794
  0
LINE
  8
0
 62
     4
 10
97.144440
 20
-125.890793
 11
98.244431
 21
-125.890793
  0
LINE
  8
0
 62
     4
 10
96.818436
 20
-125.390793
 11
98.568436
 21
-125.390793
  0
LINE
  8
0
 62
     4
 10
96.744431
 20
-123.290794
 11
98.644440
 21
-123.290794
  0
LINE
  8
0
 62
     4
 10
98.244431
 20
-125.390793
 11
98.244431
 21
-125.890793
  0
LINE
  8
0
 62
     4
 10
97.144440
 20
-125.390793
 11
97.144440
 21
-125.890793
  0
LINE
  8
0
 62
     4
 10
95.534439
 20
-127.090790
 11
104.934433
 21
-127.090790
  0
LINE
  8
0
 62
     4
 10
104.934433
 20
-127.090790
 11
104.934433
 21
-121.790794
  0
LINE
  8
0
 62
     4
 10
95.534439
 20
-127.090790
 11
95.534439
 21
-121.790794
  0
LINE
  8
0
 62
     4
 10
96.534439
 20
-122.790794
 11
103.934433
 21
-122.790794
  0
LINE
  8
0
 62
     4
 10
97.734436
 20
-120.290794
 11
102.734436
 21
-120.290794
  0
LINE
  8
0
 62
     4
 10
97.734436
 20
-121.490791
 11
102.734436
 21
-121.490791
  0
LINE
  8
0
 62
     4
 10
102.734436
 20
-122.290794
 11
103.134430
 21
-122.290794
  0
LINE
  8
0
 62
     4
 10
102.734436
 20
-121.290794
 11
104.934433
 21
-121.290794
  0
LINE
  8
0
 62
     4
 10
95.534439
 20
-126.690796
 11
95.234436
 21
-126.690796
  0
LINE
  8
0
 62
     4
 10
95.534439
 20
-126.590790
 11
95.234436
 21
-126.590790
  0
LINE
  8
0
 62
     4
 10
105.234436
 20
-141.090790
 11
95.234436
 21
-141.090790
  0
LINE
  8
0
 10
105.484436
 20
-136.486053
 11
105.484436
 21
-109.590790
  0
LINE
  8
0
 10
94.984436
 20
-141.290787
 11
94.984436
 21
-124.295532
  0
LINE
  8
0
 10
109.234436
 20
-142.390793
 11
91.234436
 21
-142.390793
  0
LINE
  8
0
 10
109.234436
 20
-109.590790
 11
105.234436
 21
-109.590790
  0
LINE
  8
0
 10
109.234436
 20
-142.390793
 11
109.234436
 21
-109.590790
  0
LINE
  8
0
 10
91.234436
 20
-142.390793
 11
91.234436
 21
-109.590790
  0
LINE
  8
0
 10
94.234436
 20
-141.590790
 11
94.234436
 21
-124.390793
  0
LINE
  8
0
 10
103.234436
 20
-141.890793
 11
94.534439
 21
-141.890793
  0
LINE
  8
0
 10
94.234436
 20
-118.390793
 11
91.234436
 21
-118.390793
  0
LINE
  8
0
 10
94.234436
 20
-124.390793
 11
91.234436
 21
-124.390793
  0
LINE
  8
0
 10
106.234436
 20
-136.390793
 11
109.234436
 21
-136.390793
  0
LINE
  8
0
 10
103.234436
 20
-141.090790
 11
103.234436
 21
-142.390793
  0
LINE
  8
0
 10
94.234436
 20
-118.390793
 11
94.234436
 21
-109.590790
  0
LINE
  8
0
 10
94.984436
 20
-118.486053
 11
94.984436
 21
-109.590790
  0
LINE
  8
0
 10
106.234436
 20
-136.390793
 11
106.234436
 21
-109.590790
  0
LINE
  8
0
 10
95.234436
 20
-109.590790
 11
91.234436
 21
-109.590790
  0
LINE
  8
0
 10
103.234436
 20
-141.290787
 11
94.607666
 21
-141.290787
  0
LINE
  8
0
 10
92.820221
 20
-119.976578
 11
95.234436
 21
-122.390793
  0
LINE
  8
0
 10
92.820221
 20
-122.805008
 11
95.234436
 21
-120.390793
  0
LINE
  8
0
 10
105.234428
 20
-138.390793
 11
107.648636
 21
-140.805008
  0
LINE
  8
0
 10
105.234436
 20
-140.390793
 11
107.648643
 21
-137.976578
  0
LINE
  8
0
 10
86.234428
 20
-140.390793
 11
88.648643
 21
-137.976578
  0
LINE
  8
0
 10
86.234428
 20
-138.390793
 11
88.648636
 21
-140.805008
  0
LINE
  8
0
 10
73.820221
 20
-122.805008
 11
76.234436
 21
-120.390793
  0
LINE
  8
0
 10
73.820221
 20
-119.976578
 11
76.234436
 21
-122.390793
  0
LINE
  8
0
 10
84.234436
 20
-141.290787
 11
75.607666
 21
-141.290787
  0
LINE
  8
0
 10
76.234436
 20
-109.590790
 11
72.234436
 21
-109.590790
  0
LINE
  8
0
 10
87.234436
 20
-136.390793
 11
87.234436
 21
-109.590790
  0
LINE
  8
0
 10
75.984436
 20
-118.486053
 11
75.984436
 21
-109.590790
  0
LINE
  8
0
 10
75.234436
 20
-118.390793
 11
75.234436
 21
-109.590790
  0
LINE
  8
0
 10
84.234436
 20
-141.090790
 11
84.234436
 21
-142.390793
  0
LINE
  8
0
 10
87.234436
 20
-136.390793
 11
90.234436
 21
-136.390793
  0
LINE
  8
0
 10
75.234436
 20
-124.390793
 11
72.234436
 21
-124.390793
  0
LINE
  8
0
 10
75.234436
 20
-118.390793
 11
72.234436
 21
-118.390793
  0
LINE
  8
0
 10
84.234436
 20
-141.890793
 11
75.534431
 21
-141.890793
  0
LINE
  8
0
 10
75.234436
 20
-141.590790
 11
75.234436
 21
-124.390793
  0
LINE
  8
0
 10
72.234436
 20
-142.390793
 11
72.234436
 21
-109.590790
  0
LINE
  8
0
 10
90.234436
 20
-142.390793
 11
90.234436
 21
-109.590790
  0
LINE
  8
0
 10
90.234436
 20
-109.590790
 11
86.234436
 21
-109.590790
  0
LINE
  8
0
 10
90.234436
 20
-142.390793
 11
72.234436
 21
-142.390793
  0
LINE
  8
0
 10
75.984436
 20
-141.290787
 11
75.984436
 21
-124.295532
  0
LINE
  8
0
 10
86.484436
 20
-136.486053
 11
86.484436
 21
-109.590790
  0
LINE
  8
0
 62
     4
 10
86.234436
 20
-141.090790
 11
76.234436
 21
-141.090790
  0
LINE
  8
0
 62
     4
 10
76.534431
 20
-126.590790
 11
76.234436
 21
-126.590790
  0
LINE
  8
0
 62
     4
 10
76.534431
 20
-126.690796
 11
76.234436
 21
-126.690796
  0
LINE
  8
0
 62
     4
 10
83.734436
 20
-121.290794
 11
85.934433
 21
-121.290794
  0
LINE
  8
0
 62
     4
 10
83.734436
 20
-122.290794
 11
84.134430
 21
-122.290794
  0
LINE
  8
0
 62
     4
 10
78.734436
 20
-121.490791
 11
83.734436
 21
-121.490791
  0
LINE
  8
0
 62
     4
 10
78.734436
 20
-120.290794
 11
83.734436
 21
-120.290794
  0
LINE
  8
0
 62
     4
 10
77.534431
 20
-122.790794
 11
84.934433
 21
-122.790794
  0
LINE
  8
0
 62
     4
 10
76.534431
 20
-127.090790
 11
76.534431
 21
-121.790794
  0
LINE
  8
0
 62
     4
 10
85.934433
 20
-127.090790
 11
85.934433
 21
-121.790794
  0
LINE
  8
0
 62
     4
 10
76.534431
 20
-127.090790
 11
85.934433
 21
-127.090790
  0
LINE
  8
0
 62
     4
 10
78.144432
 20
-125.390793
 11
78.144432
 21
-125.890793
  0
LINE
  8
0
 62
     4
 10
79.244431
 20
-125.390793
 11
79.244431
 21
-125.890793
  0
LINE
  8
0
 62
     4
 10
77.744431
 20
-123.290794
 11
79.644432
 21
-123.290794
  0
LINE
  8
0
 62
     4
 10
77.818436
 20
-125.390793
 11
79.568436
 21
-125.390793
  0
LINE
  8
0
 62
     4
 10
78.144432
 20
-125.890793
 11
79.244431
 21
-125.890793
  0
LINE
  8
0
 62
     4
 10
82.484436
 20
-121.790794
 11
82.484436
 21
-122.790794
  0
LINE
  8
0
 62
     4
 10
79.984436
 20
-121.790794
 11
79.984436
 21
-122.790794
  0
LINE
  8
0
 62
     4
 10
76.534431
 20
-121.790794
 11
77.534431
 21
-121.790794
  0
LINE
  8
0
 62
     4
 10
77.534431
 20
-122.790794
 11
77.534431
 21
-121.790794
  0
LINE
  8
0
 62
     4
 10
85.934433
 20
-121.790794
 11
84.934433
 21
-121.790794
  0
LINE
  8
0
 62
     4
 10
84.934433
 20
-122.790794
 11
84.934433
 21
-121.790794
  0
LINE
  8
0
 62
     4
 10
79.644432
 20
-123.290787
 11
79.768433
 21
-125.178795
  0
LINE
  8
0
 62
     4
 10
77.618431
 20
-125.178795
 11
77.744431
 21
-123.290794
  0
LINE
  8
0
 62
     4
 10
80.284431
 20
-123.290794
 11
82.184433
 21
-123.290794
  0
LINE
  8
0
 62
     4
 10
80.158432
 20
-125.178795
 11
80.284431
 21
-123.290794
  0
LINE
  8
0
 62
     4
 10
80.358429
 20
-125.390793
 11
82.108429
 21
-125.390793
  0
LINE
  8
0
 62
     4
 10
80.684433
 20
-125.390793
 11
80.684433
 21
-125.890793
  0
LINE
  8
0
 62
     4
 10
80.684433
 20
-125.890793
 11
81.784431
 21
-125.890793
  0
LINE
  8
0
 62
     4
 10
81.784431
 20
-125.390793
 11
81.784431
 21
-125.890793
  0
LINE
  8
0
 62
     4
 10
82.184433
 20
-123.290794
 11
82.308434
 21
-125.178787
  0
LINE
  8
0
 62
     4
 10
80.834427
 20
-123.890793
 11
80.834427
 21
-124.690796
  0
LINE
  8
0
 62
     4
 10
81.634430
 20
-123.890793
 11
80.834427
 21
-123.890793
  0
LINE
  8
0
 62
     4
 10
81.634430
 20
-123.890793
 11
81.634430
 21
-124.690796
  0
LINE
  8
0
 62
     4
 10
81.634430
 20
-124.690796
 11
80.834427
 21
-124.690796
  0
LINE
  8
0
 62
     4
 10
82.824432
 20
-123.290794
 11
84.724434
 21
-123.290794
  0
LINE
  8
0
 62
     4
 10
82.698433
 20
-125.178795
 11
82.824432
 21
-123.290794
  0
LINE
  8
0
 62
     4
 10
82.898437
 20
-125.390793
 11
84.648437
 21
-125.390793
  0
LINE
  8
0
 62
     4
 10
83.224434
 20
-125.390793
 11
83.224434
 21
-125.890793
  0
LINE
  8
0
 62
     4
 10
83.224434
 20
-125.890793
 11
84.324432
 21
-125.890793
  0
LINE
  8
0
 62
     4
 10
84.324432
 20
-125.390793
 11
84.324432
 21
-125.890793
  0
LINE
  8
0
 62
     4
 10
84.724434
 20
-123.290794
 11
84.848434
 21
-125.178795
  0
LINE
  8
0
 62
     4
 10
78.734436
 20
-120.290794
 11
78.734436
 21
-122.790794
  0
LINE
  8
0
 62
     4
 10
83.734436
 20
-120.290794
 11
83.734436
 21
-122.790794
  0
LINE
  8
0
 62
     4
 10
78.334427
 20
-121.790794
 11
84.134430
 21
-121.790794
  0
LINE
  8
0
 62
     4
 10
84.134430
 20
-122.290794
 11
84.134430
 21
-121.290794
  0
LINE
  8
0
 62
     4
 10
78.334427
 20
-122.290794
 11
78.334427
 21
-121.290794
  0
LINE
  8
0
 62
     4
 10
78.334427
 20
-122.290794
 11
78.734436
 21
-122.290794
  0
LINE
  8
0
 62
     4
 10
76.534431
 20
-121.290794
 11
78.734436
 21
-121.290794
  0
LINE
  8
0
 62
     4
 10
85.934433
 20
-109.090790
 11
76.534431
 21
-109.090790
  0
LINE
  8
0
 62
     4
 10
86.234436
 20
-126.590790
 11
85.934433
 21
-126.590790
  0
LINE
  8
0
 62
     1
 10
82.734436
 20
-114.090790
 11
82.734436
 21
-109.090790
  0
LINE
  8
0
 62
     1
 10
79.734436
 20
-114.090790
 11
82.734436
 21
-114.090790
  0
LINE
  8
0
 62
     1
 10
79.734436
 20
-114.090790
 11
79.734436
 21
-109.090790
  0
LINE
  8
0
 62
     4
 10
78.840065
 20
-135.131607
 11
78.584427
 21
-134.690781
  0
LINE
  8
0
 62
     4
 10
83.884422
 20
-134.690796
 11
83.628799
 21
-135.131607
  0
LINE
  8
0
 62
     4
 10
80.090073
 20
-133.881607
 11
79.834435
 21
-133.440781
  0
LINE
  8
0
 62
     4
 10
78.584435
 20
-134.690796
 11
79.834435
 21
-133.440796
  0
LINE
  8
0
 62
     4
 10
80.090065
 20
-133.881607
 11
78.840057
 21
-135.131607
  0
LINE
  8
0
 62
     4
 10
82.378792
 20
-133.881607
 11
82.634422
 21
-133.440796
  0
LINE
  8
0
 62
     4
 10
86.234436
 20
-127.999977
 11
76.234436
 21
-127.999977
  0
LINE
  8
0
 62
     4
 10
82.378807
 20
-133.881607
 11
83.628799
 21
-135.131607
  0
LINE
  8
0
 62
     4
 10
86.234436
 20
-135.131607
 11
83.628799
 21
-135.131607
  0
LINE
  8
0
 62
     4
 10
78.840057
 20
-135.131607
 11
76.234436
 21
-135.131607
  0
LINE
  8
0
 62
     4
 10
80.090057
 20
-133.881607
 11
82.378799
 21
-133.881607
  0
LINE
  8
0
 62
     4
 10
86.234436
 20
-134.690796
 11
83.884430
 21
-134.690796
  0
LINE
  8
0
 62
     4
 10
83.884430
 20
-134.690796
 11
82.634422
 21
-133.440796
  0
LINE
  8
0
 62
     4
 10
79.834427
 20
-133.440796
 11
82.634430
 21
-133.440796
  0
LINE
  8
0
 62
     4
 10
78.584427
 20
-134.690796
 11
76.234436
 21
-134.690796
  0
LINE
  8
0
 62
     4
 10
76.234436
 20
-127.188873
 11
86.234436
 21
-127.188873
  0
LINE
  8
0
 62
     4
 10
86.234436
 20
-126.690796
 11
85.934433
 21
-126.690796
  0
LINE
  8
0
 62
     4
 10
84.734436
 20
-130.990784
 11
86.234436
 21
-130.990784
  0
LINE
  8
0
 62
     4
 10
86.234436
 20
-134.190796
 11
84.734436
 21
-134.190796
  0
LINE
  8
0
 62
     4
 10
77.734436
 20
-134.190796
 11
76.234436
 21
-134.190796
  0
LINE
  8
0
 62
     4
 10
76.234436
 20
-130.990784
 11
77.734436
 21
-130.990784
  0
LINE
  8
0
  6
CENTER
 62
     2
 10
83.734436
 20
-130.840790
 11
78.734436
 21
-130.840790
  0
LINE
  8
0
 62
     4
 10
83.059944
 20
-131.140793
 11
79.408920
 21
-131.140793
  0
LINE
  8
0
 62
     4
 10
83.110596
 20
-130.540802
 11
79.408920
 21
-130.540802
  0
LINE
  8
0
 62
     4
 10
77.027313
 20
-133.297897
 11
78.441528
 21
-131.883667
  0
LINE
  8
0
 62
     4
 10
77.027313
 20
-131.883682
 11
78.441528
 21
-133.297897
  0
LINE
  8
0
 62
     4
 10
85.441536
 20
-131.883682
 11
84.027321
 21
-133.297897
  0
LINE
  8
0
 62
     4
 10
85.441536
 20
-133.297897
 11
84.027321
 21
-131.883682
  0
LINE
  8
0
 62
     4
 10
86.234436
 20
-109.390793
 11
86.234436
 21
-141.090790
  0
LINE
  8
0
 62
     4
 10
76.234436
 20
-109.390793
 11
76.234436
 21
-141.090790
  0
LINE
  8
0
  6
CENTER
 62
     2
 10
81.234436
 20
-144.906845
 11
81.234436
 21
-106.954742
  0
LINE
  8
0
 10
48.166927
 20
-140.418762
 11
50.291927
 21
-138.293762
  0
LINE
  8
0
 10
48.141640
 20
-138.323410
 11
50.289436
 21
-140.421265
  0
LINE
  8
0
 10
36.141636
 20
-117.357948
 11
38.289429
 21
-119.455788
  0
LINE
  8
0
 10
36.166931
 20
-119.453293
 11
38.291931
 21
-117.328293
  0
LINE
  8
0
 10
52.234432
 20
-141.890793
 11
52.234432
 21
-115.890793
  0
LINE
  8
0
 10
34.234432
 20
-141.890793
 11
34.234432
 21
-115.890793
  0
LINE
  8
0
 10
34.734432
 20
-115.390793
 11
51.734432
 21
-115.390793
  0
LINE
  8
0
 10
49.234432
 20
-136.190796
 11
51.734432
 21
-136.190796
  0
LINE
  8
0
 10
46.034431
 20
-141.890793
 11
46.034431
 21
-139.390793
  0
LINE
  8
0
 10
40.434433
 20
-118.390793
 11
40.434433
 21
-115.890793
  0
LINE
  8
0
 10
34.734432
 20
-121.590790
 11
37.234432
 21
-121.590790
  0
LINE
  8
0
  6
CENTER
 62
     2
 10
43.234432
 20
-144.906845
 11
43.234432
 21
-106.954742
  0
LINE
  8
0
 62
     4
 10
109.734436
 20
-139.190796
 11
128.734436
 21
-139.190796
  0
LINE
  8
0
 62
     4
 10
122.734436
 20
-139.190796
 11
122.734436
 21
-138.690796
  0
LINE
  8
0
 62
     4
 10
122.734436
 20
-138.690796
 11
128.734436
 21
-138.690796
  0
LINE
  8
0
 62
     4
 10
128.734436
 20
-139.190796
 11
128.734436
 21
-138.690796
  0
LINE
  8
0
 62
     4
 10
128.534439
 20
-137.520798
 11
128.534439
 21
-138.690796
  0
LINE
  8
0
 62
     4
 10
122.934433
 20
-137.520798
 11
122.934433
 21
-138.690796
  0
LINE
  8
0
 62
     4
 10
110.234436
 20
-142.390793
 11
110.734436
 21
-142.390793
  0
LINE
  8
0
 62
     4
 10
128.234436
 20
-139.190796
 11
128.234436
 21
-142.390793
  0
LINE
  8
0
 62
     4
 10
110.234436
 20
-139.190796
 11
110.234436
 21
-142.390793
  0
LINE
  8
0
 62
     4
 10
127.734436
 20
-142.390793
 11
128.234436
 21
-142.390793
  0
LINE
  8
0
  6
CENTER
 62
     2
 10
119.234436
 20
-135.440796
 11
119.234436
 21
-144.906845
  0
LINE
  8
0
 10
138.234436
 20
-143.390793
 11
138.234436
 21
-168.390793
  0
LINE
  8
0
 10
24.234432
 20
-149.890793
 11
138.234436
 21
-149.890793
  0
LINE
  8
0
 10
24.234432
 20
-143.390793
 11
138.234436
 21
-143.390793
  0
LINE
  8
0
 10
24.234432
 20
-143.390793
 11
24.234432
 21
-168.390793
  0
LINE
  8
0
 10
24.234432
 20
-168.390793
 11
138.234436
 21
-168.390793
  0
LINE
  8
0
 10
72.734436
 20
-142.390793
 11
89.734436
 21
-142.390793
  0
LINE
  8
0
 10
72.734436
 20
-142.390793
 11
72.734436
 21
-143.390793
  0
LINE
  8
0
 10
72.734436
 20
-143.390793
 11
89.734436
 21
-143.390793
  0
LINE
  8
0
 10
89.734436
 20
-142.390793
 11
89.734436
 21
-143.390793
  0
LINE
  8
0
 10
91.734436
 20
-142.390793
 11
108.734436
 21
-142.390793
  0
LINE
  8
0
 10
91.734436
 20
-142.390793
 11
91.734436
 21
-143.390793
  0
LINE
  8
0
 10
91.734436
 20
-143.390793
 11
108.734436
 21
-143.390793
  0
LINE
  8
0
 10
108.734436
 20
-142.390793
 11
108.734436
 21
-143.390793
  0
LINE
  8
0
 62
     4
 10
110.734436
 20
-142.390793
 11
127.734436
 21
-142.390793
  0
LINE
  8
0
 10
110.734436
 20
-142.390793
 11
110.734436
 21
-143.390793
  0
LINE
  8
0
 10
110.734436
 20
-143.390793
 11
127.734436
 21
-143.390793
  0
LINE
  8
0
 10
127.734436
 20
-142.390793
 11
127.734436
 21
-143.390793
  0
LINE
  8
0
 10
45.234432
 20
-141.890793
 11
41.234432
 21
-141.890793
  0
LINE
  8
0
 10
39.864433
 20
-142.390793
 11
41.234432
 21
-141.890793
  0
LINE
  8
0
 10
39.864433
 20
-142.390793
 11
34.734432
 21
-142.390793
  0
LINE
  8
0
 10
34.734432
 20
-142.390793
 11
34.734432
 21
-143.390793
  0
LINE
  8
0
 10
34.734432
 20
-143.390793
 11
51.734432
 21
-143.390793
  0
LINE
  8
0
 10
51.734432
 20
-142.390793
 11
51.734432
 21
-143.390793
  0
LINE
  8
0
 10
51.734432
 20
-142.390793
 11
46.604431
 21
-142.390793
  0
LINE
  8
0
 10
45.234428
 20
-141.890793
 11
46.604431
 21
-142.390793
  0
LINE
  8
0
 10
64.234436
 20
-141.890793
 11
60.234432
 21
-141.890793
  0
LINE
  8
0
 10
58.864429
 20
-142.390793
 11
60.234428
 21
-141.890793
  0
LINE
  8
0
 10
58.864433
 20
-142.390793
 11
53.734432
 21
-142.390793
  0
LINE
  8
0
 10
53.734432
 20
-142.390793
 11
53.734432
 21
-143.390793
  0
LINE
  8
0
 10
53.734432
 20
-143.390793
 11
70.734436
 21
-143.390793
  0
LINE
  8
0
 10
70.734436
 20
-142.390793
 11
70.734436
 21
-143.390793
  0
LINE
  8
0
 10
70.734436
 20
-142.390793
 11
65.604431
 21
-142.390793
  0
LINE
  8
0
 10
64.234428
 20
-141.890793
 11
65.604431
 21
-142.390793
  0
LINE
  8
0
  6
CENTER
 62
     2
 10
29.234432
 20
-172.497147
 11
29.234432
 21
-164.168488
  0
LINE
  8
0
 62
     4
 10
115.734436
 20
-139.190796
 11
115.734436
 21
-138.690796
  0
LINE
  8
0
 62
     4
 10
109.734436
 20
-139.190796
 11
109.734436
 21
-138.690796
  0
LINE
  8
0
 62
     4
 10
115.534439
 20
-137.520798
 11
115.534439
 21
-138.690796
  0
LINE
  8
0
 62
     4
 10
109.934433
 20
-137.520798
 11
109.934433
 21
-138.690796
  0
LINE
  8
0
 62
     4
 10
115.734436
 20
-138.690796
 11
109.734436
 21
-138.690796
  0
LINE
  8
0
  6
CENTER
 62
     2
 10
-129.197540
 20
35.339211
 11
-124.776825
 21
35.339211
  0
LINE
  8
0
 10
-73.458267
 20
66.339211
 11
-73.458267
 21
12.039211
  0
LINE
  8
0
 62
     4
 10
-84.758270
 20
-27.060791
 11
-84.758270
 21
-30.360786
  0
LINE
  8
0
 62
     4
 10
-84.758270
 20
-24.460793
 11
-84.658264
 21
-24.460793
  0
LINE
  8
0
 62
     4
 10
-83.073273
 20
-35.960793
 11
-84.658264
 21
-35.960793
  0
LINE
  8
0
 62
     4
 10
-81.643265
 20
-35.860786
 11
-79.358269
 21
-35.860786
  0
LINE
  8
0
 62
     4
 10
-81.958267
 20
-40.960793
 11
-79.858269
 21
-40.960793
  0
LINE
  8
0
 62
     4
 10
-81.958267
 20
-42.490791
 11
-82.758270
 21
-42.490791
  0
LINE
  8
0
 62
     4
 10
-81.643265
 20
-37.490791
 11
-83.073273
 21
-37.490791
  0
LINE
  8
0
 62
     4
 10
-82.758270
 20
-37.490791
 11
-82.758270
 21
-42.490791
  0
LINE
  8
0
 62
     4
 10
-81.958267
 20
-37.490791
 11
-81.958267
 21
-42.490791
  0
LINE
  8
0
 62
     4
 10
-81.643265
 20
-34.353104
 11
-81.643265
 21
-37.490791
  0
LINE
  8
0
 62
     4
 10
-83.073273
 20
-33.861794
 11
-83.073273
 21
-37.490791
  0
LINE
  8
0
 62
     1
 10
-80.696617
 20
-34.678349
 11
-83.974022
 21
-33.552330
  0
LINE
  8
0
 62
     1
 10
-80.863655
 20
-33.482895
 11
-84.022377
 21
-32.325218
  0
LINE
  8
0
 62
     4
 10
-81.643265
 20
-27.060791
 11
-81.643265
 21
-33.197166
  0
LINE
  8
0
 62
     4
 10
-83.073273
 20
-27.060791
 11
-83.073273
 21
-32.673065
  0
LINE
  8
0
 62
     4
 10
-67.158264
 20
3.139210
 11
-67.658264
 21
3.139210
  0
LINE
  8
0
 10
-67.658264
 20
11.239212
 11
-67.658264
 21
2.639210
  0
LINE
  8
0
 62
     4
 10
-86.067451
 20
-11.860786
 11
-85.256348
 21
-16.460793
  0
LINE
  8
0
 62
     4
 10
-84.758270
 20
-10.560791
 11
-84.758270
 21
-16.460793
  0
LINE
  8
0
 62
     4
 10
-85.256348
 20
-16.460793
 11
-84.758270
 21
-16.460793
  0
LINE
  8
0
 62
     4
 10
-84.658264
 20
-15.860786
 11
-84.758270
 21
-15.860786
  0
LINE
  8
0
 62
     4
 10
-68.658264
 20
-10.560791
 11
-68.658264
 21
1.939209
  0
LINE
  8
0
 62
     4
 10
-92.758270
 20
-11.860786
 11
-86.067451
 21
-11.860786
  0
LINE
  8
0
 62
     4
 10
-68.658264
 20
-10.560791
 11
-84.758270
 21
-10.560791
  0
LINE
  8
0
 62
     4
 10
-67.158264
 20
1.939209
 11
-68.658264
 21
1.939209
  0
LINE
  8
0
 62
     4
 10
-67.158264
 20
2.239208
 11
-67.458267
 21
1.939207
  0
LINE
  8
0
 62
     4
 10
-99.158264
 20
-8.360790
 11
-93.375412
 21
-8.360790
  0
LINE
  8
0
 62
     4
 10
-92.258270
 20
-10.860786
 11
-89.058266
 21
-10.860786
  0
LINE
  8
0
 62
     4
 10
-92.158264
 20
-10.960793
 11
-92.158264
 21
-10.860786
  0
LINE
  8
0
 62
     4
 10
-92.258270
 20
-11.860786
 11
-92.258270
 21
-10.860786
  0
LINE
  8
0
 62
     4
 10
-93.375412
 20
-8.360793
 11
-92.758270
 21
-11.860785
  0
LINE
  8
0
 62
     4
 10
-91.658264
 20
-11.460793
 11
-89.658264
 21
-11.460793
  0
LINE
  8
0
 62
     4
 10
-89.158264
 20
-10.960793
 11
-89.158264
 21
-10.860786
  0
LINE
  8
0
 62
     4
 10
-89.058266
 20
-11.860786
 11
-89.058266
 21
-10.860786
  0
LINE
  8
0
 62
     4
 10
-98.458267
 20
-7.660789
 11
-98.458267
 21
-0.060791
  0
LINE
  8
0
 62
     4
 10
-97.658264
 20
-7.660789
 11
-97.658264
 21
-0.060791
  0
LINE
  8
0
 62
     4
 10
-97.658264
 20
-7.660789
 11
-98.458267
 21
-7.660789
  0
LINE
  8
0
 62
     4
 10
-98.458267
 20
-0.060791
 11
-97.658264
 21
-0.060791
  0
LINE
  8
0
 62
     4
 10
-79.358269
 20
-16.460793
 11
-67.458267
 21
-16.460793
  0
LINE
  8
0
 62
     4
 10
-84.658264
 20
-21.960793
 11
-84.658264
 21
-10.560791
  0
LINE
  8
0
 62
     4
 10
-79.358269
 20
-21.960793
 11
-79.358269
 21
-16.460793
  0
LINE
  8
0
 62
     4
 10
-79.558510
 20
-26.060791
 11
-78.358269
 21
-26.060791
  0
LINE
  8
0
 62
     4
 10
-84.658264
 20
-26.060791
 11
-85.158264
 21
-26.349468
  0
LINE
  8
0
 62
     4
 10
-85.158264
 20
-26.349464
 11
-85.158264
 21
-27.060791
  0
LINE
  8
0
 62
     4
 10
-83.958267
 20
-21.960793
 11
-83.958267
 21
-22.060791
  0
LINE
  8
0
 62
     4
 10
-85.158264
 20
-27.060791
 11
-79.858269
 21
-27.060791
  0
LINE
  8
0
 62
     4
 10
-79.558510
 20
-26.060793
 11
-79.858269
 21
-24.360792
  0
LINE
  8
0
  6
PHANTOM
 62
     4
 10
-79.858269
 20
-22.860786
 11
-79.858269
 21
-24.359406
  0
LINE
  8
0
 62
     4
 10
-79.858269
 20
-21.960793
 11
-79.858269
 21
-27.060791
  0
LINE
  8
0
 62
     4
 10
-79.858269
 20
-22.060791
 11
-84.658264
 21
-22.060791
  0
LINE
  8
0
 62
     4
 10
-84.658264
 20
-22.060791
 11
-84.658264
 21
-26.060791
  0
LINE
  8
0
 62
     4
 10
-84.658264
 20
-21.960793
 11
-79.358269
 21
-21.960793
  0
LINE
  8
0
 62
     4
 10
-78.358269
 20
-25.349464
 11
-78.358269
 21
-26.060791
  0
LINE
  8
0
 62
     4
 10
-78.858269
 20
-25.060789
 11
-78.358269
 21
-25.349464
  0
LINE
  8
0
 62
     4
 10
-79.358269
 20
-17.660789
 11
-78.858269
 21
-18.526814
  0
LINE
  8
0
 62
     4
 10
-78.858269
 20
-18.526817
 11
-78.858269
 21
-25.060791
  0
LINE
  8
0
 10
-68.058266
 20
11.639210
 11
-73.058266
 21
11.639210
  0
LINE
  8
0
 10
-73.458267
 20
3.139210
 11
-79.458267
 21
3.139210
  0
LINE
  8
0
 10
-79.458267
 20
2.639210
 11
-99.958267
 21
2.639210
  0
LINE
  8
0
 62
     4
 10
-99.158264
 20
2.639210
 11
-99.158264
 21
-8.360790
  0
LINE
  8
0
 10
-67.658264
 20
2.639210
 11
-73.458267
 21
2.639210
  0
LINE
  8
0
 10
-100.458275
 20
3.139213
 11
-99.958275
 21
2.639212
  0
LINE
  8
0
 10
-79.458267
 20
8.839211
 11
-79.458267
 21
2.639210
  0
LINE
  8
0
 10
-79.258270
 20
8.839211
 11
-79.258270
 21
7.296745
  0
LINE
  8
0
 10
-73.458267
 20
8.839211
 11
-79.458267
 21
8.839211
  0
LINE
  8
0
 10
-73.458267
 20
8.839211
 11
-73.458267
 21
2.639210
  0
LINE
  8
0
 10
-73.658264
 20
8.839211
 11
-73.658264
 21
7.296745
  0
LINE
  8
0
 10
-73.658264
 20
18.159210
 11
-73.658264
 21
19.339211
  0
LINE
  8
0
 10
-79.658264
 20
18.839211
 11
-79.658264
 21
16.439209
  0
LINE
  8
0
 10
-73.958267
 20
15.939209
 11
-99.958267
 21
15.939209
  0
LINE
  8
0
 10
-79.258270
 20
18.159210
 11
-79.258270
 21
19.339211
  0
LINE
  8
0
 10
-79.158264
 20
19.339211
 11
-73.658264
 21
19.339211
  0
LINE
  8
0
 10
-99.458267
 20
88.039215
 11
-99.458267
 21
87.539215
  0
LINE
  8
0
 10
-94.458267
 20
87.539215
 11
-99.458267
 21
87.539215
  0
LINE
  8
0
 10
-94.658264
 20
81.839211
 11
-94.658264
 21
83.381676
  0
LINE
  8
0
 10
-100.258270
 20
81.839211
 11
-100.258270
 21
83.381676
  0
LINE
  8
0
 10
-94.458267
 20
81.839211
 11
-100.458267
 21
81.839211
  0
LINE
  8
0
 10
-94.458267
 20
81.839211
 11
-94.458267
 21
88.039215
  0
LINE
  8
0
 62
     4
 10
-81.958267
 20
133.169220
 11
-82.758270
 21
133.169220
  0
LINE
  8
0
 62
     4
 10
-81.643265
 20
128.169220
 11
-83.073273
 21
128.169220
  0
LINE
  8
0
 62
     4
 10
-82.758270
 20
128.169220
 11
-82.758270
 21
133.169220
  0
LINE
  8
0
 62
     4
 10
-81.958267
 20
128.169220
 11
-81.958267
 21
133.169220
  0
LINE
  8
0
 62
     4
 10
-81.643265
 20
123.487213
 11
-81.643265
 21
128.169220
  0
LINE
  8
0
 62
     4
 10
-83.073273
 20
124.059212
 11
-83.073273
 21
128.169220
  0
LINE
  8
0
 62
     1
 10
-85.398277
 20
124.989212
 11
-79.398270
 21
122.589211
  0
LINE
  8
0
 62
     1
 10
-85.398277
 20
123.749214
 11
-79.398270
 21
121.349205
  0
LINE
  8
0
 62
     4
 10
-81.643265
 20
117.739212
 11
-81.643265
 21
122.247208
  0
LINE
  8
0
 62
     4
 10
-83.073273
 20
117.739212
 11
-83.073273
 21
122.819214
  0
LINE
  8
0
 10
-100.458267
 20
24.339211
 11
-73.458267
 21
24.339211
  0
LINE
  8
0
 10
-100.458267
 20
66.339211
 11
-73.458267
 21
66.339211
  0
LINE
  8
0
 10
-76.458267
 20
31.989210
 11
-73.458267
 21
31.989210
  0
LINE
  8
0
 10
-76.458267
 20
28.679211
 11
-73.458267
 21
28.679211
  0
LINE
  8
0
 10
-76.458267
 20
31.989210
 11
-76.458267
 21
28.679211
  0
LINE
  8
0
 10
-100.458267
 20
66.339211
 11
-100.458267
 21
24.339211
  0
LINE
  8
0
 62
     4
 10
-67.158264
 20
87.539215
 11
-67.658264
 21
87.539215
  0
LINE
  8
0
 10
-67.658264
 20
76.639206
 11
-67.658264
 21
88.039215
  0
LINE
  8
0
 10
-100.458267
 20
-10.760785
 11
-99.958267
 21
-11.260786
  0
LINE
  8
0
 10
-68.058266
 20
76.239212
 11
-72.958267
 21
76.239212
  0
LINE
  8
0
 62
     4
 10
-86.067459
 20
102.539215
 11
-85.256348
 21
107.139214
  0
LINE
  8
0
 62
     4
 10
-84.758270
 20
101.239212
 11
-84.758270
 21
107.139206
  0
LINE
  8
0
 62
     4
 10
-85.256348
 20
107.139206
 11
-84.758270
 21
107.139206
  0
LINE
  8
0
 62
     4
 10
-84.658264
 20
106.539215
 11
-84.758270
 21
106.539215
  0
LINE
  8
0
 62
     4
 10
-68.658264
 20
101.239212
 11
-68.658264
 21
88.739212
  0
LINE
  8
0
 62
     4
 10
-92.758270
 20
102.539215
 11
-86.067451
 21
102.539215
  0
LINE
  8
0
 62
     4
 10
-68.658264
 20
101.239212
 11
-84.758270
 21
101.239212
  0
LINE
  8
0
 62
     4
 10
-67.158264
 20
87.539215
 11
-67.158264
 21
88.439209
  0
LINE
  8
0
 62
     4
 10
-67.158264
 20
88.739212
 11
-68.658264
 21
88.739212
  0
LINE
  8
0
 62
     4
 10
-67.158264
 20
88.439217
 11
-67.458267
 21
88.739212
  0
LINE
  8
0
 62
     4
 10
-99.158264
 20
99.039215
 11
-93.375412
 21
99.039215
  0
LINE
  8
0
 62
     4
 10
-92.258270
 20
101.539215
 11
-89.058266
 21
101.539215
  0
LINE
  8
0
 62
     4
 10
-92.158264
 20
101.639206
 11
-92.158264
 21
101.539215
  0
LINE
  8
0
 62
     4
 10
-92.258270
 20
102.539215
 11
-92.258270
 21
101.539215
  0
LINE
  8
0
 62
     4
 10
-93.375412
 20
99.039207
 11
-92.758270
 21
102.539207
  0
LINE
  8
0
 62
     4
 10
-91.658264
 20
102.139206
 11
-89.658264
 21
102.139206
  0
LINE
  8
0
 62
     4
 10
-89.158264
 20
101.639206
 11
-89.158264
 21
101.539215
  0
LINE
  8
0
 62
     4
 10
-89.058266
 20
102.539215
 11
-89.058266
 21
101.539215
  0
LINE
  8
0
 62
     4
 10
-98.458267
 20
98.339211
 11
-98.458267
 21
90.739212
  0
LINE
  8
0
 62
     4
 10
-99.158264
 20
-11.260788
 11
-99.158264
 21
-22.260788
  0
LINE
  8
0
 62
     4
 10
-97.658264
 20
98.339211
 11
-97.658264
 21
90.739212
  0
LINE
  8
0
 62
     4
 10
-97.658264
 20
98.339211
 11
-98.458267
 21
98.339211
  0
LINE
  8
0
 62
     4
 10
-98.458267
 20
90.739212
 11
-97.658264
 21
90.739212
  0
LINE
  8
0
 62
     4
 10
-67.158264
 20
88.739212
 11
-67.158264
 21
106.839211
  0
LINE
  8
0
 62
     4
 10
-79.358269
 20
107.139206
 11
-67.458267
 21
107.139206
  0
LINE
  8
0
 62
     4
 10
-84.658264
 20
112.639206
 11
-84.658264
 21
101.239212
  0
LINE
  8
0
 62
     4
 10
-79.358269
 20
112.639206
 11
-79.358269
 21
107.139206
  0
LINE
  8
0
 62
     4
 10
-79.558510
 20
116.739212
 11
-78.358269
 21
116.739212
  0
LINE
  8
0
 62
     4
 10
-84.658257
 20
116.739204
 11
-85.158272
 21
117.027885
  0
LINE
  8
0
 62
     4
 10
-85.158264
 20
117.027885
 11
-85.158264
 21
117.739212
  0
LINE
  8
0
 62
     4
 10
-83.958267
 20
112.639206
 11
-83.958267
 21
112.739212
  0
LINE
  8
0
 62
     4
 10
-85.158264
 20
117.739212
 11
-79.858269
 21
117.739212
  0
LINE
  8
0
 62
     4
 10
-79.558517
 20
116.739220
 11
-79.858276
 21
115.039207
  0
LINE
  8
0
  6
PHANTOM
 62
     4
 10
-79.858269
 20
113.539215
 11
-79.858269
 21
115.037827
  0
LINE
  8
0
 62
     4
 10
-79.858269
 20
112.639206
 11
-79.858269
 21
117.739212
  0
LINE
  8
0
 62
     4
 10
-79.858269
 20
112.739212
 11
-84.658264
 21
112.739212
  0
LINE
  8
0
 62
     4
 10
-84.658264
 20
112.739212
 11
-84.658264
 21
116.739212
  0
LINE
  8
0
 62
     4
 10
-84.658264
 20
112.639206
 11
-79.358269
 21
112.639206
  0
LINE
  8
0
 62
     4
 10
-78.358269
 20
116.027885
 11
-78.358269
 21
116.739212
  0
LINE
  8
0
 62
     4
 10
-78.858261
 20
115.739204
 11
-78.358269
 21
116.027878
  0
LINE
  8
0
 62
     4
 10
-79.358261
 20
108.339211
 11
-78.858261
 21
109.205238
  0
LINE
  8
0
 62
     4
 10
-78.858269
 20
109.205231
 11
-78.858269
 21
115.739212
  0
LINE
  8
0
 10
-92.864059
 20
-11.260788
 11
-99.958267
 21
-11.260788
  0
LINE
  8
0
 10
-68.058266
 20
79.039207
 11
-73.058266
 21
79.039207
  0
LINE
  8
0
 10
-73.458267
 20
66.339211
 11
-73.458267
 21
78.639206
  0
LINE
  8
0
 10
-100.458267
 20
24.339211
 11
-100.458267
 21
-10.760788
  0
LINE
  8
0
 10
-75.758270
 20
31.989210
 11
-75.758270
 21
28.679211
  0
LINE
  8
0
 10
-100.458267
 20
66.339211
 11
-100.458267
 21
87.539215
  0
LINE
  8
0
 10
-99.158264
 20
88.039215
 11
-99.958267
 21
88.039215
  0
LINE
  8
0
 62
     4
 10
-78.858269
 20
-32.426819
 11
-78.858269
 21
-38.960793
  0
LINE
  8
0
 62
     4
 10
-79.358261
 20
-31.560789
 11
-78.858261
 21
-32.426815
  0
LINE
  8
0
 62
     4
 10
-78.858269
 20
-38.960793
 11
-78.358269
 21
-39.249466
  0
LINE
  8
0
 62
     4
 10
-78.358269
 20
-39.249466
 11
-78.358269
 21
-39.960793
  0
LINE
  8
0
 62
     4
 10
-84.658264
 20
-35.860786
 11
-83.073273
 21
-35.860786
  0
LINE
  8
0
 62
     4
 10
-84.658264
 20
-35.960793
 11
-84.658264
 21
-39.960793
  0
LINE
  8
0
 62
     4
 10
-79.858269
 20
-35.960793
 11
-81.643265
 21
-35.960793
  0
LINE
  8
0
 62
     4
 10
-79.858269
 20
-35.860786
 11
-79.858269
 21
-40.960793
  0
LINE
  8
0
  6
PHANTOM
 62
     4
 10
-79.858269
 20
-36.760788
 11
-79.858269
 21
-38.259407
  0
LINE
  8
0
 62
     4
 10
-79.558517
 20
-39.960793
 11
-79.858276
 21
-38.260792
  0
LINE
  8
0
 62
     4
 10
-85.158264
 20
-40.960793
 11
-82.758270
 21
-40.960793
  0
LINE
  8
0
 62
     4
 10
-83.958267
 20
-35.860786
 11
-83.958267
 21
-35.960793
  0
LINE
  8
0
 62
     4
 10
-85.158264
 20
-40.249466
 11
-85.158264
 21
-40.960793
  0
LINE
  8
0
 62
     4
 10
-84.658264
 20
-39.960789
 11
-85.158264
 21
-40.249462
  0
LINE
  8
0
 62
     4
 10
-79.558510
 20
-39.960793
 11
-78.358269
 21
-39.960793
  0
LINE
  8
0
 62
     4
 10
-79.358269
 20
-35.860786
 11
-79.358269
 21
-30.360786
  0
LINE
  8
0
 62
     4
 10
-84.658264
 20
-35.860786
 11
-84.658264
 21
-27.060791
  0
LINE
  8
0
 62
     4
 10
-79.358269
 20
-30.360786
 11
-67.458267
 21
-30.360786
  0
LINE
  8
0
 62
     4
 10
-67.158264
 20
3.139210
 11
-67.158264
 21
-30.060791
  0
LINE
  8
0
 62
     4
 10
-98.458267
 20
-13.960793
 11
-97.658264
 21
-13.960793
  0
LINE
  8
0
 62
     4
 10
-97.658264
 20
-21.560791
 11
-98.458267
 21
-21.560791
  0
LINE
  8
0
 62
     4
 10
-97.658264
 20
-21.560791
 11
-97.658264
 21
-13.960793
  0
LINE
  8
0
 62
     4
 10
-99.158264
 20
87.539215
 11
-99.158264
 21
99.039215
  0
LINE
  8
0
 62
     4
 10
-98.458267
 20
-21.560791
 11
-98.458267
 21
-13.960793
  0
LINE
  8
0
 62
     4
 10
-89.058266
 20
-25.760788
 11
-89.058266
 21
-24.760788
  0
LINE
  8
0
 62
     4
 10
-89.158264
 20
-24.860786
 11
-89.158264
 21
-24.760788
  0
LINE
  8
0
 62
     4
 10
-91.658264
 20
-25.360786
 11
-89.658264
 21
-25.360786
  0
LINE
  8
0
 62
     4
 10
-93.375404
 20
-22.260794
 11
-92.758255
 21
-25.760792
  0
LINE
  8
0
 62
     4
 10
-92.258270
 20
-25.760788
 11
-92.258270
 21
-24.760788
  0
LINE
  8
0
 62
     4
 10
-92.158264
 20
-24.860786
 11
-92.158264
 21
-24.760788
  0
LINE
  8
0
 62
     4
 10
-92.258270
 20
-24.760788
 11
-89.058266
 21
-24.760788
  0
LINE
  8
0
 62
     4
 10
-99.158264
 20
-22.260788
 11
-93.375412
 21
-22.260788
  0
LINE
  8
0
 62
     4
 10
-68.658264
 20
-24.460793
 11
-78.858269
 21
-24.460793
  0
LINE
  8
0
 62
     4
 10
-92.758270
 20
-25.760788
 11
-86.067451
 21
-25.760788
  0
LINE
  8
0
 62
     4
 10
-68.658264
 20
-24.460793
 11
-68.658264
 21
-16.460793
  0
LINE
  8
0
 62
     4
 10
-84.658264
 20
-29.760788
 11
-84.758270
 21
-29.760788
  0
LINE
  8
0
 62
     4
 10
-85.256348
 20
-30.360786
 11
-84.758270
 21
-30.360786
  0
LINE
  8
0
 62
     4
 10
-84.758270
 20
-24.460793
 11
-84.758270
 21
-26.118523
  0
LINE
  8
0
 62
     4
 10
-86.067451
 20
-25.760790
 11
-85.256348
 21
-30.360794
  0
LINE
  8
0
 10
-67.658264
 20
88.039215
 11
-94.458267
 21
88.039215
  0
LINE
  8
0
 10
-100.458267
 20
87.539207
 11
-99.958267
 21
88.039207
  0
LINE
  8
0
 62
     4
 10
-83.073273
 20
-40.960793
 11
-83.073273
 21
-46.761322
  0
LINE
  8
0
 62
     4
 10
-81.643265
 20
-40.960793
 11
-81.643265
 21
-47.315590
  0
LINE
  8
0
 62
     1
 10
-80.458420
 20
-47.774826
 11
-84.279518
 21
-46.293785
  0
LINE
  8
0
 62
     1
 10
-80.436859
 20
-49.009079
 11
-84.311554
 21
-47.542332
  0
LINE
  8
0
 62
     4
 10
-83.073273
 20
-48.011086
 11
-83.073273
 21
-51.390793
  0
LINE
  8
0
 62
     4
 10
-81.643265
 20
-48.552406
 11
-81.643265
 21
-51.390793
  0
LINE
  8
0
 62
     4
 10
-81.958267
 20
-51.390793
 11
-81.958267
 21
-56.390793
  0
LINE
  8
0
 62
     4
 10
-82.758270
 20
-51.390793
 11
-82.758270
 21
-56.390793
  0
LINE
  8
0
 62
     4
 10
-81.643265
 20
-51.390793
 11
-83.073273
 21
-51.390793
  0
LINE
  8
0
 62
     4
 10
-81.958267
 20
-56.390793
 11
-82.758270
 21
-56.390793
  0
LINE
  8
0
 10
-126.458267
 20
20.839211
 11
-126.458267
 21
17.339211
  0
LINE
  8
0
 10
-125.958267
 20
21.339209
 11
-126.458267
 21
20.839209
  0
LINE
  8
0
 10
-125.958275
 20
21.339214
 11
-126.458267
 21
21.839209
  0
LINE
  8
0
  6
CENTER
 62
     2
 10
-123.458267
 20
25.339211
 11
-107.448265
 21
25.339211
  0
LINE
  8
0
  6
CENTER
 62
     2
 10
-122.568573
 20
45.339211
 11
-67.658264
 21
45.339211
  0
LINE
  8
0
  6
CENTER
 62
     2
 10
-123.458267
 20
65.339211
 11
-107.448265
 21
65.339211
  0
LINE
  8
0
  6
CENTER
 62
     2
 10
-110.458267
 20
53.339211
 11
-110.458267
 21
37.339211
  0
LINE
  8
0
  6
CENTER
 62
     2
 10
-115.458267
 20
73.339211
 11
-115.458267
 21
17.339211
  0
LINE
  8
0
 10
-101.458267
 20
24.339211
 11
-101.458267
 21
22.839211
  0
LINE
  8
0
 10
-119.458260
 20
56.339211
 11
-126.458260
 21
63.339207
  0
LINE
  8
0
 10
-119.458260
 20
34.339207
 11
-126.458267
 21
27.339205
  0
LINE
  8
0
 10
-101.458260
 20
22.839209
 11
-107.958260
 21
16.339209
  0
LINE
  8
0
 10
-101.458267
 20
67.839211
 11
-107.958260
 21
74.339203
  0
LINE
  8
0
 10
-126.458267
 20
27.339211
 11
-126.458267
 21
21.839211
  0
LINE
  8
0
 10
-119.458267
 20
56.339211
 11
-119.458267
 21
34.339211
  0
LINE
  8
0
 10
-126.458267
 20
73.339211
 11
-126.458267
 21
63.339211
  0
LINE
  8
0
 10
-125.462410
 20
74.339211
 11
-107.958267
 21
74.339211
  0
LINE
  8
0
 10
-125.458267
 20
16.339211
 11
-107.958267
 21
16.339211
  0
LINE
  8
0
 10
-101.458267
 20
67.839211
 11
-101.458267
 21
66.339211
  0
LINE
  8
0
 10
-100.458267
 20
66.339211
 11
-100.458267
 21
24.339211
  0
LINE
  8
0
 10
-100.458267
 20
66.339211
 11
-101.458267
 21
66.339211
  0
LINE
  8
0
 10
-100.458267
 20
24.339211
 11
-101.458267
 21
24.339211
  0
LINE
  8
0
 10
-101.458267
 20
66.339211
 11
-101.458267
 21
24.339211
  0
LINE
  8
0
  6
CENTER
 62
     2
 10
-129.197540
 20
55.339211
 11
-124.776825
 21
55.339211
  0
LINE
  8
0
  6
CENTER
 62
     2
 10
-104.838882
 20
60.339211
 11
-97.289284
 21
60.339211
  0
LINE
  8
0
  6
CENTER
 62
     2
 10
-104.838882
 20
30.339211
 11
-97.289284
 21
30.339211
  0
LINE
  8
0
  6
CENTER
 62
     2
 10
97.234436
 20
-2.260792
 11
103.234436
 21
-2.260792
  0
LINE
  8
0
  6
CENTER
 62
     2
 10
78.234436
 20
11.639206
 11
84.234436
 21
11.639206
  0
LINE
  8
0
  6
CENTER
 62
     2
 10
40.234432
 20
79.039207
 11
46.234432
 21
79.039207
  0
LINE
  8
0
  6
CENTER
 62
     2
 10
59.234432
 20
79.039207
 11
65.234436
 21
79.039207
  0
LINE
  8
0
  6
CENTER
 62
     2
 10
78.234436
 20
79.039207
 11
84.234436
 21
79.039207
  0
LINE
  8
0
  6
CENTER
 62
     2
 10
97.234436
 20
79.039207
 11
103.234436
 21
79.039207
  0
LINE
  8
0
 62
     4
 10
110.234436
 20
28.680895
 11
110.234436
 21
24.339207
  0
LINE
  8
0
 62
     4
 10
128.234436
 20
58.680893
 11
128.234436
 21
24.339207
  0
LINE
  8
0
 62
     4
 10
110.754532
 20
28.359306
 11
114.714333
 21
32.319103
  0
LINE
  8
0
 62
     4
 10
111.320213
 20
31.753418
 11
114.148636
 21
28.924994
  0
LINE
  8
0
 62
     4
 10
124.320213
 20
61.753414
 11
127.148643
 21
58.924988
  0
LINE
  8
0
 62
     4
 10
123.754532
 20
58.359306
 11
127.714325
 21
62.319096
  0
LINE
  8
0
 10
109.234436
 20
59.078255
 11
109.234436
 21
24.339207
  0
LINE
  8
0
 10
91.234436
 20
29.078257
 11
91.234436
 21
24.339207
  0
LINE
  8
0
 10
90.234436
 20
59.078255
 11
90.234436
 21
24.339207
  0
LINE
  8
0
 10
72.234436
 20
29.078257
 11
72.234436
 21
24.339207
  0
LINE
  8
0
 10
71.234436
 20
59.078255
 11
71.234436
 21
16.439205
  0
LINE
  8
0
 10
53.234432
 20
29.078257
 11
53.234432
 21
16.439205
  0
LINE
  8
0
 10
52.234432
 20
58.679207
 11
52.234432
 21
16.439205
  0
LINE
  8
0
 10
34.234432
 20
29.078257
 11
34.234432
 21
16.439205
  0
LINE
  8
0
 10
91.754532
 20
28.359304
 11
95.714333
 21
32.319107
  0
LINE
  8
0
 10
92.320221
 20
31.753422
 11
95.148643
 21
28.924995
  0
LINE
  8
0
 10
105.320221
 20
61.753422
 11
108.148651
 21
58.924992
  0
LINE
  8
0
 10
104.754539
 20
58.359310
 11
108.714333
 21
62.319103
  0
LINE
  8
0
 10
72.754532
 20
28.359308
 11
76.714333
 21
32.319103
  0
LINE
  8
0
 10
73.320221
 20
31.753418
 11
76.148643
 21
28.924992
  0
LINE
  8
0
 10
86.320213
 20
61.753422
 11
89.148643
 21
58.924992
  0
LINE
  8
0
 10
85.754532
 20
58.359310
 11
89.714333
 21
62.319103
  0
LINE
  8
0
 10
53.754536
 20
28.359306
 11
57.714333
 21
32.319103
  0
LINE
  8
0
 10
54.320221
 20
31.753422
 11
57.148647
 21
28.924994
  0
LINE
  8
0
 10
67.320221
 20
61.753422
 11
70.148643
 21
58.924992
  0
LINE
  8
0
 10
66.754532
 20
58.359310
 11
70.714333
 21
62.319103
  0
LINE
  8
0
 62
     4
 10
110.234436
 20
66.339203
 11
128.234436
 21
66.339203
  0
LINE
  8
0
 62
     4
 10
110.234436
 20
24.339207
 11
128.234436
 21
24.339207
  0
LINE
  8
0
 62
     4
 10
128.234436
 20
66.339203
 11
128.234436
 21
61.997520
  0
LINE
  8
0
 62
     4
 10
110.234436
 20
66.339203
 11
110.234436
 21
31.997519
  0
LINE
  8
0
  6
CENTER
 62
     2
 10
119.234436
 20
71.441177
 11
119.234436
 21
20.117256
  0
LINE
  8
0
 10
109.234436
 20
16.339207
 11
138.234436
 21
16.339207
  0
LINE
  8
0
 10
109.234436
 20
22.839207
 11
138.234436
 21
22.839207
  0
LINE
  8
0
 10
90.234436
 20
16.339207
 11
91.234436
 21
16.339207
  0
LINE
  8
0
 10
90.234436
 20
22.839207
 11
91.234436
 21
22.839207
  0
LINE
  8
0
 10
71.234436
 20
16.339207
 11
72.234436
 21
16.339207
  0
LINE
  8
0
 10
71.234436
 20
22.839207
 11
72.234436
 21
22.839207
  0
LINE
  8
0
 10
109.234436
 20
67.839203
 11
138.234436
 21
67.839203
  0
LINE
  8
0
 10
109.234436
 20
74.339203
 11
138.234436
 21
74.339203
  0
LINE
  8
0
 10
90.234436
 20
67.839203
 11
91.234436
 21
67.839203
  0
LINE
  8
0
 10
90.234436
 20
74.339203
 11
91.234436
 21
74.339203
  0
LINE
  8
0
 10
71.234436
 20
67.839203
 11
72.234436
 21
67.839203
  0
LINE
  8
0
 10
71.234436
 20
74.339203
 11
72.234436
 21
74.339203
  0
LINE
  8
0
 10
105.484436
 20
-10.760792
 11
94.984436
 21
-10.760792
  0
LINE
  8
0
 10
96.636917
 20
-2.260792
 11
91.234436
 21
-2.260792
  0
LINE
  8
0
 10
103.831955
 20
-2.260792
 11
109.234436
 21
-2.260792
  0
LINE
  8
0
 10
106.234436
 20
-11.260791
 11
109.234436
 21
-8.260793
  0
LINE
  8
0
 10
91.234436
 20
-8.260797
 11
94.234428
 21
-11.260791
  0
LINE
  8
0
 10
94.234436
 20
-11.260792
 11
94.684433
 21
-11.260792
  0
LINE
  8
0
 10
94.984436
 20
-10.760792
 11
94.984436
 21
-10.960796
  0
LINE
  8
0
 10
105.484436
 20
-10.760792
 11
105.484436
 21
-10.960796
  0
LINE
  8
0
 10
98.715378
 20
0.539207
 11
101.753494
 21
0.539207
  0
LINE
  8
0
 10
102.099899
 20
0.339207
 11
103.485542
 21
-2.060789
  0
LINE
  8
0
 10
96.983322
 20
-2.060797
 11
98.368965
 21
0.339203
  0
LINE
  8
0
 10
105.784439
 20
-11.260792
 11
106.234436
 21
-11.260792
  0
LINE
  8
0
 62
     4
 10
105.234436
 20
-11.660793
 11
95.234436
 21
-11.660793
  0
LINE
  8
0
 62
     4
 10
95.534439
 20
-30.360790
 11
104.934433
 21
-30.360790
  0
LINE
  8
0
 62
     4
 10
95.234436
 20
-11.960796
 11
105.234436
 21
-11.960796
  0
LINE
  8
0
 62
     4
 10
95.234436
 20
-10.760792
 11
95.234436
 21
-35.860790
  0
LINE
  8
0
 62
     4
 10
105.234436
 20
-10.760792
 11
105.234436
 21
-35.860790
  0
LINE
  8
0
 62
     4
 10
105.234436
 20
-35.860790
 11
102.734436
 21
-35.860790
  0
LINE
  8
0
 62
     4
 10
103.134430
 20
-30.360790
 11
103.134430
 21
-35.860790
  0
LINE
  8
0
 62
     4
 10
97.334427
 20
-30.360790
 11
97.334427
 21
-35.860790
  0
LINE
  8
0
 62
     1
 10
101.734436
 20
-27.360790
 11
101.734436
 21
-30.360790
  0
LINE
  8
0
 62
     1
 10
101.734436
 20
-27.360790
 11
98.734436
 21
-27.360790
  0
LINE
  8
0
 62
     1
 10
98.734436
 20
-27.360790
 11
98.734436
 21
-30.360790
  0
LINE
  8
0
 62
     4
 10
102.734436
 20
-31.460796
 11
97.734436
 21
-31.460796
  0
LINE
  8
0
 62
     4
 10
104.934433
 20
-40.960796
 11
95.534439
 21
-40.960796
  0
LINE
  8
0
 62
     4
 10
102.734436
 20
-39.960796
 11
97.734436
 21
-39.960796
  0
LINE
  8
0
 62
     4
 10
104.934433
 20
-35.960796
 11
104.934433
 21
-40.960796
  0
LINE
  8
0
 62
     4
 10
102.734436
 20
-31.460796
 11
102.734436
 21
-39.960796
  0
LINE
  8
0
 62
     4
 10
97.734436
 20
-39.249470
 11
102.734436
 21
-39.249470
  0
LINE
  8
0
 62
     4
 10
97.734436
 20
-38.960796
 11
102.734436
 21
-38.960796
  0
LINE
  8
0
 62
     4
 10
103.834427
 20
-35.960796
 11
103.834427
 21
-40.960796
  0
LINE
  8
0
 62
     4
 10
96.634430
 20
-35.960796
 11
96.634430
 21
-40.960796
  0
LINE
  8
0
 62
     4
 10
97.734436
 20
-31.460796
 11
97.734436
 21
-39.960796
  0
LINE
  8
0
 62
     4
 10
95.534439
 20
-35.960796
 11
95.534439
 21
-40.960796
  0
LINE
  8
0
 62
     4
 10
97.734436
 20
-35.860790
 11
95.234436
 21
-35.860790
  0
LINE
  8
0
 62
     4
 10
97.734436
 20
-32.326817
 11
102.734436
 21
-32.326817
  0
LINE
  8
0
 62
     4
 10
104.934433
 20
-35.960796
 11
102.734436
 21
-35.960796
  0
LINE
  8
0
 62
     4
 10
97.734436
 20
-35.960796
 11
95.534439
 21
-35.960796
  0
LINE
  8
0
 62
     4
 10
104.334427
 20
-35.960796
 11
104.334427
 21
-35.860790
  0
LINE
  8
0
 62
     4
 10
96.134430
 20
-35.960796
 11
96.134430
 21
-35.860790
  0
LINE
  8
0
 62
     4
 10
98.409439
 20
-40.960796
 11
98.409439
 21
-46.072124
  0
LINE
  8
0
 62
     4
 10
96.979431
 20
-40.960796
 11
96.979431
 21
-45.690792
  0
LINE
  8
0
 62
     1
 10
94.654434
 20
-45.070797
 11
105.752739
 21
-48.030346
  0
LINE
  8
0
 62
     1
 10
94.654419
 20
-46.310791
 11
105.752747
 21
-49.270340
  0
LINE
  8
0
 62
     4
 10
98.409439
 20
-47.312130
 11
98.409439
 21
-51.490795
  0
LINE
  8
0
 62
     4
 10
96.979431
 20
-46.930790
 11
96.979431
 21
-51.490795
  0
LINE
  8
0
 62
     4
 10
98.094437
 20
-51.490795
 11
98.094437
 21
-56.490795
  0
LINE
  8
0
 62
     4
 10
97.294434
 20
-51.490795
 11
97.294434
 21
-56.490795
  0
LINE
  8
0
 62
     4
 10
98.409439
 20
-51.490795
 11
96.979431
 21
-51.490795
  0
LINE
  8
0
 62
     4
 10
98.094437
 20
-56.490795
 11
97.294434
 21
-56.490795
  0
LINE
  8
0
 62
     4
 10
103.489426
 20
-40.960796
 11
103.489426
 21
-47.426792
  0
LINE
  8
0
 62
     4
 10
102.059433
 20
-40.960796
 11
102.059433
 21
-47.045460
  0
LINE
  8
0
 62
     4
 10
102.374435
 20
-56.490795
 11
103.174438
 21
-56.490795
  0
LINE
  8
0
 62
     4
 10
102.059433
 20
-51.490795
 11
103.489426
 21
-51.490795
  0
LINE
  8
0
 62
     4
 10
103.174438
 20
-51.490795
 11
103.174438
 21
-56.490795
  0
LINE
  8
0
 62
     4
 10
102.374435
 20
-51.490795
 11
102.374435
 21
-56.490795
  0
LINE
  8
0
 62
     4
 10
102.059433
 20
-48.285458
 11
102.059433
 21
-51.490795
  0
LINE
  8
0
 62
     4
 10
103.489426
 20
-48.666790
 11
103.489426
 21
-51.490795
  0
LINE
  8
0
 10
109.234436
 20
-8.260792
 11
109.234436
 21
24.339207
  0
LINE
  8
0
 10
91.234436
 20
-8.260792
 11
91.234436
 21
24.339207
  0
LINE
  8
0
  6
CENTER
 62
     2
 10
99.734436
 20
43.919205
 11
99.734436
 21
31.179207
  0
LINE
  8
0
  6
CENTER
 62
     2
 10
94.144440
 20
37.339207
 11
106.304428
 21
37.339207
  0
LINE
  8
0
  6
CENTER
 62
     2
 10
94.584427
 20
53.339207
 11
106.214432
 21
53.339207
  0
LINE
  8
0
  6
CENTER
 62
     2
 10
100.734436
 20
59.469208
 11
100.734436
 21
46.889206
  0
LINE
  8
0
 62
     4
 10
103.489426
 20
123.699203
 11
103.489426
 21
128.269211
  0
LINE
  8
0
 62
     4
 10
102.059433
 20
124.079208
 11
102.059433
 21
128.269211
  0
LINE
  8
0
 62
     4
 10
102.374435
 20
128.269211
 11
102.374435
 21
133.269211
  0
LINE
  8
0
 62
     4
 10
103.174438
 20
128.269211
 11
103.174438
 21
133.269211
  0
LINE
  8
0
 62
     4
 10
102.059433
 20
128.269211
 11
103.489426
 21
128.269211
  0
LINE
  8
0
 62
     4
 10
102.374435
 20
133.269211
 11
103.174438
 21
133.269211
  0
LINE
  8
0
 62
     4
 10
102.059433
 20
117.739212
 11
102.059433
 21
122.839203
  0
LINE
  8
0
 62
     4
 10
103.489426
 20
117.739212
 11
103.489426
 21
122.469208
  0
LINE
  8
0
 62
     4
 10
98.094437
 20
133.269211
 11
97.294434
 21
133.269211
  0
LINE
  8
0
 62
     4
 10
98.409439
 20
128.269211
 11
96.979431
 21
128.269211
  0
LINE
  8
0
 62
     4
 10
97.294434
 20
128.269211
 11
97.294434
 21
133.269211
  0
LINE
  8
0
 62
     4
 10
98.094437
 20
128.269211
 11
98.094437
 21
133.269211
  0
LINE
  8
0
 62
     4
 10
96.979431
 20
125.445206
 11
96.979431
 21
128.269211
  0
LINE
  8
0
 62
     4
 10
98.409439
 20
125.063873
 11
98.409439
 21
128.269211
  0
LINE
  8
0
 62
     1
 10
105.814430
 20
123.089203
 11
94.716118
 21
126.048759
  0
LINE
  8
0
 62
     1
 10
105.814430
 20
121.849205
 11
94.716118
 21
124.808754
  0
LINE
  8
0
 62
     4
 10
96.979431
 20
117.739212
 11
96.979431
 21
124.205200
  0
LINE
  8
0
 62
     4
 10
98.409439
 20
117.739212
 11
98.409439
 21
123.823868
  0
LINE
  8
0
 62
     4
 10
96.134430
 20
112.739212
 11
96.134430
 21
112.639206
  0
LINE
  8
0
 62
     4
 10
104.334427
 20
112.739212
 11
104.334427
 21
112.639206
  0
LINE
  8
0
 62
     4
 10
97.734436
 20
112.739212
 11
95.534439
 21
112.739212
  0
LINE
  8
0
 62
     4
 10
104.934433
 20
112.739212
 11
102.734436
 21
112.739212
  0
LINE
  8
0
 62
     4
 10
97.734436
 20
109.105232
 11
102.734436
 21
109.105232
  0
LINE
  8
0
 62
     4
 10
97.734436
 20
112.639206
 11
95.234436
 21
112.639206
  0
LINE
  8
0
 62
     4
 10
95.534439
 20
112.739212
 11
95.534439
 21
117.739212
  0
LINE
  8
0
 62
     4
 10
97.734436
 20
108.239212
 11
97.734436
 21
116.739212
  0
LINE
  8
0
 62
     4
 10
96.634430
 20
112.739212
 11
96.634430
 21
117.739212
  0
LINE
  8
0
 62
     4
 10
103.834427
 20
112.739212
 11
103.834427
 21
117.739212
  0
LINE
  8
0
 62
     4
 10
97.734436
 20
115.739212
 11
102.734436
 21
115.739212
  0
LINE
  8
0
 62
     4
 10
97.734436
 20
116.027878
 11
102.734436
 21
116.027878
  0
LINE
  8
0
 62
     4
 10
102.734436
 20
108.239212
 11
102.734436
 21
116.739212
  0
LINE
  8
0
 62
     4
 10
104.934433
 20
112.739212
 11
104.934433
 21
117.739212
  0
LINE
  8
0
 62
     4
 10
102.734436
 20
116.739212
 11
97.734436
 21
116.739212
  0
LINE
  8
0
 62
     4
 10
104.934433
 20
117.739212
 11
95.534439
 21
117.739212
  0
LINE
  8
0
 62
     4
 10
102.734436
 20
108.239212
 11
97.734436
 21
108.239212
  0
LINE
  8
0
 62
     1
 10
98.734436
 20
104.139206
 11
98.734436
 21
107.139206
  0
LINE
  8
0
 62
     1
 10
101.734436
 20
104.139206
 11
98.734436
 21
104.139206
  0
LINE
  8
0
 62
     1
 10
101.734436
 20
104.139206
 11
101.734436
 21
107.139206
  0
LINE
  8
0
 62
     4
 10
97.334427
 20
107.139206
 11
97.334427
 21
112.639206
  0
LINE
  8
0
 62
     4
 10
103.134430
 20
107.139206
 11
103.134430
 21
112.639206
  0
LINE
  8
0
 62
     4
 10
105.234436
 20
112.639206
 11
102.734436
 21
112.639206
  0
LINE
  8
0
 62
     4
 10
105.234436
 20
87.539207
 11
105.234436
 21
112.639206
  0
LINE
  8
0
 62
     4
 10
95.234436
 20
87.539207
 11
95.234436
 21
112.639206
  0
LINE
  8
0
 62
     4
 10
95.234436
 20
88.739212
 11
105.234436
 21
88.739212
  0
LINE
  8
0
 62
     4
 10
95.534439
 20
107.139206
 11
104.934433
 21
107.139206
  0
LINE
  8
0
 62
     4
 10
105.234436
 20
88.439209
 11
95.234436
 21
88.439209
  0
LINE
  8
0
 10
105.784439
 20
88.039207
 11
106.234436
 21
88.039207
  0
LINE
  8
0
 10
96.983330
 20
78.839203
 11
98.368965
 21
76.439209
  0
LINE
  8
0
 10
102.099899
 20
76.439201
 11
103.485542
 21
78.839211
  0
LINE
  8
0
 10
98.715378
 20
76.239204
 11
101.753494
 21
76.239204
  0
LINE
  8
0
 10
105.484436
 20
87.539207
 11
105.484436
 21
87.739212
  0
LINE
  8
0
 10
94.984436
 20
87.539207
 11
94.984436
 21
87.739212
  0
LINE
  8
0
 10
94.234436
 20
88.039207
 11
94.684433
 21
88.039207
  0
LINE
  8
0
 10
91.234428
 20
85.039207
 11
94.234428
 21
88.039207
  0
LINE
  8
0
 10
106.234428
 20
88.039207
 11
109.234428
 21
85.039207
  0
LINE
  8
0
 10
109.234436
 20
85.039207
 11
109.234436
 21
66.339203
  0
LINE
  8
0
 10
91.234436
 20
85.039207
 11
91.234436
 21
66.339203
  0
LINE
  8
0
 10
103.831955
 20
79.039207
 11
109.234436
 21
79.039207
  0
LINE
  8
0
 10
96.636917
 20
79.039207
 11
91.234436
 21
79.039207
  0
LINE
  8
0
 10
109.234436
 20
66.339203
 11
91.234436
 21
66.339203
  0
LINE
  8
0
 10
105.484436
 20
87.539207
 11
94.984436
 21
87.539207
  0
LINE
  8
0
 10
109.234436
 20
66.339203
 11
109.234436
 21
61.600159
  0
LINE
  8
0
 10
91.234436
 20
66.339203
 11
91.234436
 21
31.600157
  0
LINE
  8
0
 10
91.234436
 20
24.339207
 11
109.234436
 21
24.339207
  0
LINE
  8
0
  6
CENTER
 62
     2
 10
100.234436
 20
120.476120
 11
100.234436
 21
-43.888096
  0
LINE
  8
0
 10
91.234436
 20
10.439205
 11
109.234436
 21
10.439205
  0
LINE
  8
0
  6
CENTER
 62
     2
 10
81.234436
 20
120.476120
 11
81.234436
 21
-30.323566
  0
LINE
  8
0
 10
72.234436
 20
24.339207
 11
90.234436
 21
24.339207
  0
LINE
  8
0
 10
72.234436
 20
66.339203
 11
72.234436
 21
31.600157
  0
LINE
  8
0
 10
90.234436
 20
66.339203
 11
90.234436
 21
61.600159
  0
LINE
  8
0
 10
86.484436
 20
87.539207
 11
75.984436
 21
87.539207
  0
LINE
  8
0
 10
90.234436
 20
66.339203
 11
72.234436
 21
66.339203
  0
LINE
  8
0
 10
77.636909
 20
79.039207
 11
72.234436
 21
79.039207
  0
LINE
  8
0
 10
84.831955
 20
79.039207
 11
90.234436
 21
79.039207
  0
LINE
  8
0
 10
72.234436
 20
85.039207
 11
72.234436
 21
66.339203
  0
LINE
  8
0
 10
90.234436
 20
85.039207
 11
90.234436
 21
66.339203
  0
LINE
  8
0
 10
87.234428
 20
88.039207
 11
90.234428
 21
85.039207
  0
LINE
  8
0
 10
72.234428
 20
85.039207
 11
75.234428
 21
88.039207
  0
LINE
  8
0
 10
75.234436
 20
88.039207
 11
75.684433
 21
88.039207
  0
LINE
  8
0
 10
75.984436
 20
87.539207
 11
75.984436
 21
87.739212
  0
LINE
  8
0
 10
86.484436
 20
87.539207
 11
86.484436
 21
87.739212
  0
LINE
  8
0
 10
79.715378
 20
76.239204
 11
82.753494
 21
76.239204
  0
LINE
  8
0
 10
83.099899
 20
76.439201
 11
84.485542
 21
78.839211
  0
LINE
  8
0
 10
77.983315
 20
78.839211
 11
79.368958
 21
76.439209
  0
LINE
  8
0
 10
86.784431
 20
88.039207
 11
87.234436
 21
88.039207
  0
LINE
  8
0
 62
     4
 10
86.234436
 20
88.439209
 11
76.234436
 21
88.439209
  0
LINE
  8
0
 62
     4
 10
76.534431
 20
107.139206
 11
85.934433
 21
107.139206
  0
LINE
  8
0
 62
     4
 10
76.234436
 20
88.739212
 11
86.234436
 21
88.739212
  0
LINE
  8
0
 62
     4
 10
76.234436
 20
87.539207
 11
76.234436
 21
112.639206
  0
LINE
  8
0
 62
     4
 10
86.234436
 20
87.539207
 11
86.234436
 21
112.639206
  0
LINE
  8
0
 62
     4
 10
86.234436
 20
112.639206
 11
83.734436
 21
112.639206
  0
LINE
  8
0
 62
     4
 10
84.134430
 20
107.139206
 11
84.134430
 21
112.639206
  0
LINE
  8
0
 62
     4
 10
78.334427
 20
107.139206
 11
78.334427
 21
112.639206
  0
LINE
  8
0
 62
     1
 10
82.734436
 20
104.139206
 11
82.734436
 21
107.139206
  0
LINE
  8
0
 62
     1
 10
82.734436
 20
104.139206
 11
79.734436
 21
104.139206
  0
LINE
  8
0
 62
     1
 10
79.734436
 20
104.139206
 11
79.734436
 21
107.139206
  0
LINE
  8
0
 62
     4
 10
83.734436
 20
108.239212
 11
78.734436
 21
108.239212
  0
LINE
  8
0
 62
     4
 10
85.934433
 20
117.739212
 11
76.534431
 21
117.739212
  0
LINE
  8
0
 62
     4
 10
83.734436
 20
116.739212
 11
78.734436
 21
116.739212
  0
LINE
  8
0
 62
     4
 10
85.934433
 20
112.739212
 11
85.934433
 21
117.739212
  0
LINE
  8
0
 62
     4
 10
83.734436
 20
108.239212
 11
83.734436
 21
116.739212
  0
LINE
  8
0
 62
     4
 10
78.734436
 20
116.027878
 11
83.734436
 21
116.027878
  0
LINE
  8
0
 62
     4
 10
78.734436
 20
115.739212
 11
83.734436
 21
115.739212
  0
LINE
  8
0
 62
     4
 10
84.834427
 20
112.739212
 11
84.834427
 21
117.739212
  0
LINE
  8
0
 62
     4
 10
77.634430
 20
112.739212
 11
77.634430
 21
117.739212
  0
LINE
  8
0
 62
     4
 10
78.734436
 20
108.239212
 11
78.734436
 21
116.739212
  0
LINE
  8
0
 62
     4
 10
76.534431
 20
112.739212
 11
76.534431
 21
117.739212
  0
LINE
  8
0
 62
     4
 10
78.734436
 20
112.639206
 11
76.234436
 21
112.639206
  0
LINE
  8
0
 62
     4
 10
78.734436
 20
109.105232
 11
83.734436
 21
109.105232
  0
LINE
  8
0
 62
     4
 10
85.934433
 20
112.739212
 11
83.734436
 21
112.739212
  0
LINE
  8
0
 62
     4
 10
78.734436
 20
112.739212
 11
76.534431
 21
112.739212
  0
LINE
  8
0
 62
     4
 10
85.334427
 20
112.739212
 11
85.334427
 21
112.639206
  0
LINE
  8
0
 62
     4
 10
77.134430
 20
112.739212
 11
77.134430
 21
112.639206
  0
LINE
  8
0
 62
     4
 10
79.409431
 20
117.739212
 11
79.409431
 21
123.823868
  0
LINE
  8
0
 62
     4
 10
77.979431
 20
117.739212
 11
77.979431
 21
124.205200
  0
LINE
  8
0
 62
     1
 10
86.814430
 20
121.849205
 11
75.716118
 21
124.808754
  0
LINE
  8
0
 62
     1
 10
86.814430
 20
123.089211
 11
75.716118
 21
126.048759
  0
LINE
  8
0
 62
     4
 10
79.409431
 20
125.063873
 11
79.409431
 21
128.269211
  0
LINE
  8
0
 62
     4
 10
77.979431
 20
125.445206
 11
77.979431
 21
128.269211
  0
LINE
  8
0
 62
     4
 10
79.094437
 20
128.269211
 11
79.094437
 21
133.269211
  0
LINE
  8
0
 62
     4
 10
78.294434
 20
128.269211
 11
78.294434
 21
133.269211
  0
LINE
  8
0
 62
     4
 10
79.409431
 20
128.269211
 11
77.979431
 21
128.269211
  0
LINE
  8
0
 62
     4
 10
79.094437
 20
133.269211
 11
78.294434
 21
133.269211
  0
LINE
  8
0
 62
     4
 10
84.489433
 20
117.739212
 11
84.489433
 21
122.469208
  0
LINE
  8
0
 62
     4
 10
83.059433
 20
117.739212
 11
83.059433
 21
122.839203
  0
LINE
  8
0
 62
     4
 10
83.374435
 20
133.269211
 11
84.174431
 21
133.269211
  0
LINE
  8
0
 62
     4
 10
83.059433
 20
128.269211
 11
84.489433
 21
128.269211
  0
LINE
  8
0
 62
     4
 10
84.174431
 20
128.269211
 11
84.174431
 21
133.269211
  0
LINE
  8
0
 62
     4
 10
83.374435
 20
128.269211
 11
83.374435
 21
133.269211
  0
LINE
  8
0
 62
     4
 10
83.059433
 20
124.079208
 11
83.059433
 21
128.269211
  0
LINE
  8
0
 62
     4
 10
84.489433
 20
123.699203
 11
84.489433
 21
128.269211
  0
LINE
  8
0
  6
CENTER
 62
     2
 10
81.734436
 20
59.469208
 11
81.734436
 21
46.889206
  0
LINE
  8
0
  6
CENTER
 62
     2
 10
75.584427
 20
53.339207
 11
87.214432
 21
53.339207
  0
LINE
  8
0
  6
CENTER
 62
     2
 10
75.144432
 20
37.339207
 11
87.304428
 21
37.339207
  0
LINE
  8
0
  6
CENTER
 62
     2
 10
80.734436
 20
43.919205
 11
80.734436
 21
31.179207
  0
LINE
  8
0
 10
72.234436
 20
5.639206
 11
72.234436
 21
24.339207
  0
LINE
  8
0
 10
90.234436
 20
5.639206
 11
90.234436
 21
24.339207
  0
LINE
  8
0
 62
     4
 10
84.489433
 20
-34.766796
 11
84.489433
 21
-37.590794
  0
LINE
  8
0
 62
     4
 10
83.059433
 20
-34.385464
 11
83.059433
 21
-37.590794
  0
LINE
  8
0
 62
     4
 10
83.374435
 20
-37.590794
 11
83.374435
 21
-42.590794
  0
LINE
  8
0
 62
     4
 10
84.174431
 20
-37.590794
 11
84.174431
 21
-42.590794
  0
LINE
  8
0
 62
     4
 10
83.059433
 20
-37.590794
 11
84.489433
 21
-37.590794
  0
LINE
  8
0
 62
     4
 10
83.374435
 20
-42.590794
 11
84.174431
 21
-42.590794
  0
LINE
  8
0
 62
     4
 10
83.059433
 20
-27.060795
 11
83.059433
 21
-33.145458
  0
LINE
  8
0
 62
     4
 10
84.489433
 20
-27.060795
 11
84.489433
 21
-33.526791
  0
LINE
  8
0
 62
     4
 10
79.094437
 20
-42.590794
 11
78.294434
 21
-42.590794
  0
LINE
  8
0
 62
     4
 10
79.409431
 20
-37.590794
 11
77.979431
 21
-37.590794
  0
LINE
  8
0
 62
     4
 10
78.294434
 20
-37.590794
 11
78.294434
 21
-42.590794
  0
LINE
  8
0
 62
     4
 10
79.094437
 20
-37.590794
 11
79.094437
 21
-42.590794
  0
LINE
  8
0
 62
     4
 10
77.979431
 20
-33.030796
 11
77.979431
 21
-37.590794
  0
LINE
  8
0
 62
     4
 10
79.409431
 20
-33.412128
 11
79.409431
 21
-37.590794
  0
LINE
  8
0
 62
     1
 10
75.654434
 20
-32.410793
 11
86.752747
 21
-35.370350
  0
LINE
  8
0
 62
     1
 10
75.654434
 20
-31.170790
 11
86.752747
 21
-34.130341
  0
LINE
  8
0
 62
     4
 10
77.979431
 20
-27.060795
 11
77.979431
 21
-31.790791
  0
LINE
  8
0
 62
     4
 10
79.409431
 20
-27.060795
 11
79.409431
 21
-32.172123
  0
LINE
  8
0
 62
     4
 10
77.134430
 20
-22.060795
 11
77.134430
 21
-21.960796
  0
LINE
  8
0
 62
     4
 10
85.334427
 20
-22.060795
 11
85.334427
 21
-21.960796
  0
LINE
  8
0
 62
     4
 10
78.734436
 20
-22.060795
 11
76.534431
 21
-22.060795
  0
LINE
  8
0
 62
     4
 10
85.934433
 20
-22.060795
 11
83.734436
 21
-22.060795
  0
LINE
  8
0
 62
     4
 10
78.734436
 20
-18.426815
 11
83.734436
 21
-18.426815
  0
LINE
  8
0
 62
     4
 10
78.734436
 20
-21.960796
 11
76.234436
 21
-21.960796
  0
LINE
  8
0
 62
     4
 10
76.534431
 20
-22.060795
 11
76.534431
 21
-27.060795
  0
LINE
  8
0
 62
     4
 10
78.734436
 20
-17.560795
 11
78.734436
 21
-26.060795
  0
LINE
  8
0
 62
     4
 10
77.634430
 20
-22.060795
 11
77.634430
 21
-27.060795
  0
LINE
  8
0
 62
     4
 10
84.834427
 20
-22.060795
 11
84.834427
 21
-27.060795
  0
LINE
  8
0
 62
     4
 10
78.734436
 20
-25.060795
 11
83.734436
 21
-25.060795
  0
LINE
  8
0
 62
     4
 10
78.734436
 20
-25.349468
 11
83.734436
 21
-25.349468
  0
LINE
  8
0
 62
     4
 10
83.734436
 20
-17.560795
 11
83.734436
 21
-26.060795
  0
LINE
  8
0
 62
     4
 10
85.934433
 20
-22.060795
 11
85.934433
 21
-27.060795
  0
LINE
  8
0
 62
     4
 10
83.734436
 20
-26.060795
 11
78.734436
 21
-26.060795
  0
LINE
  8
0
 62
     4
 10
85.934433
 20
-27.060795
 11
76.534431
 21
-27.060795
  0
LINE
  8
0
 62
     4
 10
83.734436
 20
-17.560795
 11
78.734436
 21
-17.560795
  0
LINE
  8
0
 62
     1
 10
79.734436
 20
-13.460796
 11
79.734436
 21
-16.460796
  0
LINE
  8
0
 62
     1
 10
82.734436
 20
-13.460796
 11
79.734436
 21
-13.460796
  0
LINE
  8
0
 62
     1
 10
82.734436
 20
-13.460796
 11
82.734436
 21
-16.460796
  0
LINE
  8
0
 62
     4
 10
78.334427
 20
-16.460796
 11
78.334427
 21
-21.960796
  0
LINE
  8
0
 62
     4
 10
84.134430
 20
-16.460796
 11
84.134430
 21
-21.960796
  0
LINE
  8
0
 62
     4
 10
86.234436
 20
-21.960796
 11
83.734436
 21
-21.960796
  0
LINE
  8
0
 62
     4
 10
86.234436
 20
3.139206
 11
86.234436
 21
-21.960796
  0
LINE
  8
0
 62
     4
 10
76.234436
 20
3.139206
 11
76.234436
 21
-21.960796
  0
LINE
  8
0
 62
     4
 10
76.234436
 20
1.939205
 11
86.234436
 21
1.939205
  0
LINE
  8
0
 62
     4
 10
76.534431
 20
-16.460796
 11
85.934433
 21
-16.460796
  0
LINE
  8
0
 62
     4
 10
86.234436
 20
2.239208
 11
76.234436
 21
2.239208
  0
LINE
  8
0
 10
86.784431
 20
2.639206
 11
87.234436
 21
2.639206
  0
LINE
  8
0
 10
77.983322
 20
11.839203
 11
79.368965
 21
14.239202
  0
LINE
  8
0
 10
83.099899
 20
14.239207
 11
84.485542
 21
11.839208
  0
LINE
  8
0
 10
79.715378
 20
14.439205
 11
82.753494
 21
14.439205
  0
LINE
  8
0
 10
86.484436
 20
3.139206
 11
86.484436
 21
2.939205
  0
LINE
  8
0
 10
75.984436
 20
3.139206
 11
75.984436
 21
2.939205
  0
LINE
  8
0
 10
75.234436
 20
2.639206
 11
75.684433
 21
2.639206
  0
LINE
  8
0
 10
72.234428
 20
5.639206
 11
75.234436
 21
2.639205
  0
LINE
  8
0
 10
87.234428
 20
2.639208
 11
90.234436
 21
5.639212
  0
LINE
  8
0
 10
84.831955
 20
11.639206
 11
90.234436
 21
11.639206
  0
LINE
  8
0
 10
77.636909
 20
11.639206
 11
72.234436
 21
11.639206
  0
LINE
  8
0
 10
86.484436
 20
3.139206
 11
75.984436
 21
3.139206
  0
LINE
  8
0
  6
CENTER
 62
     2
 10
62.234432
 20
120.476120
 11
62.234432
 21
11.674435
  0
LINE
  8
0
 10
53.234432
 20
24.339207
 11
71.234436
 21
24.339207
  0
LINE
  8
0
 10
53.234432
 20
66.339203
 11
53.234432
 21
31.600157
  0
LINE
  8
0
 10
71.234436
 20
66.339203
 11
71.234436
 21
61.600159
  0
LINE
  8
0
 10
67.484436
 20
87.539207
 11
56.984432
 21
87.539207
  0
LINE
  8
0
 10
71.234436
 20
66.339203
 11
53.234432
 21
66.339203
  0
LINE
  8
0
 10
58.636909
 20
79.039207
 11
53.234432
 21
79.039207
  0
LINE
  8
0
 10
65.831955
 20
79.039207
 11
71.234436
 21
79.039207
  0
LINE
  8
0
 10
53.234432
 20
85.039207
 11
53.234432
 21
66.339203
  0
LINE
  8
0
 10
71.234436
 20
85.039207
 11
71.234436
 21
66.339203
  0
LINE
  8
0
 10
68.234428
 20
88.039200
 11
71.234428
 21
85.039200
  0
LINE
  8
0
 10
53.234432
 20
85.039207
 11
56.234432
 21
88.039207
  0
LINE
  8
0
 10
56.234432
 20
88.039207
 11
56.684433
 21
88.039207
  0
LINE
  8
0
 10
56.984432
 20
87.539207
 11
56.984432
 21
87.739212
  0
LINE
  8
0
 10
67.484436
 20
87.539207
 11
67.484436
 21
87.739212
  0
LINE
  8
0
 10
60.715370
 20
76.239204
 11
63.753490
 21
76.239204
  0
LINE
  8
0
 10
64.099899
 20
76.439201
 11
65.485542
 21
78.839211
  0
LINE
  8
0
 10
58.983322
 20
78.839211
 11
60.368961
 21
76.439209
  0
LINE
  8
0
 10
67.784431
 20
88.039207
 11
68.234436
 21
88.039207
  0
LINE
  8
0
 62
     4
 10
67.234436
 20
88.439209
 11
57.234432
 21
88.439209
  0
LINE
  8
0
 62
     4
 10
57.534431
 20
107.139206
 11
66.934433
 21
107.139206
  0
LINE
  8
0
 62
     4
 10
57.234432
 20
88.739212
 11
67.234436
 21
88.739212
  0
LINE
  8
0
 62
     4
 10
57.234432
 20
87.539207
 11
57.234432
 21
112.639206
  0
LINE
  8
0
 62
     4
 10
67.234436
 20
87.539207
 11
67.234436
 21
112.639206
  0
LINE
  8
0
 62
     4
 10
67.234436
 20
112.639206
 11
64.734436
 21
112.639206
  0
LINE
  8
0
 62
     4
 10
65.134430
 20
107.139206
 11
65.134430
 21
112.639206
  0
LINE
  8
0
 62
     4
 10
59.334435
 20
107.139206
 11
59.334435
 21
112.639206
  0
LINE
  8
0
 62
     1
 10
63.734432
 20
104.139206
 11
63.734432
 21
107.139206
  0
LINE
  8
0
 62
     1
 10
63.734432
 20
104.139206
 11
60.734432
 21
104.139206
  0
LINE
  8
0
 62
     1
 10
60.734432
 20
104.139206
 11
60.734432
 21
107.139206
  0
LINE
  8
0
 62
     4
 10
64.734436
 20
108.239212
 11
59.734432
 21
108.239212
  0
LINE
  8
0
 62
     4
 10
66.934433
 20
117.739212
 11
57.534431
 21
117.739212
  0
LINE
  8
0
 62
     4
 10
64.734436
 20
116.739212
 11
59.734432
 21
116.739212
  0
LINE
  8
0
 62
     4
 10
66.934433
 20
112.739212
 11
66.934433
 21
117.739212
  0
LINE
  8
0
 62
     4
 10
64.734436
 20
108.239212
 11
64.734436
 21
116.739212
  0
LINE
  8
0
 62
     4
 10
59.734432
 20
116.027878
 11
64.734436
 21
116.027878
  0
LINE
  8
0
 62
     4
 10
59.734432
 20
115.739212
 11
64.734436
 21
115.739212
  0
LINE
  8
0
 62
     4
 10
65.834427
 20
112.739212
 11
65.834427
 21
117.739212
  0
LINE
  8
0
 62
     4
 10
58.634430
 20
112.739212
 11
58.634430
 21
117.739212
  0
LINE
  8
0
 62
     4
 10
59.734432
 20
108.239212
 11
59.734432
 21
116.739212
  0
LINE
  8
0
 62
     4
 10
57.534431
 20
112.739212
 11
57.534431
 21
117.739212
  0
LINE
  8
0
 62
     4
 10
59.734432
 20
112.639206
 11
57.234432
 21
112.639206
  0
LINE
  8
0
 62
     4
 10
59.734432
 20
109.105232
 11
64.734436
 21
109.105232
  0
LINE
  8
0
 10
59.434433
 20
18.839207
 11
59.434433
 21
16.439205
  0
LINE
  8
0
 10
53.734432
 20
15.939205
 11
70.734436
 21
15.939205
  0
LINE
  8
0
 10
53.434433
 20
19.339207
 11
58.934433
 21
19.339207
  0
LINE
  8
0
 10
53.434433
 20
18.159206
 11
53.434433
 21
19.339207
  0
LINE
  8
0
 10
59.034431
 20
18.159206
 11
59.034431
 21
19.339207
  0
LINE
  8
0
 62
     4
 10
66.934433
 20
112.739212
 11
64.734436
 21
112.739212
  0
LINE
  8
0
 62
     4
 10
59.734432
 20
112.739212
 11
57.534431
 21
112.739212
  0
LINE
  8
0
 62
     4
 10
66.334427
 20
112.739212
 11
66.334427
 21
112.639206
  0
LINE
  8
0
 62
     4
 10
58.134430
 20
112.739212
 11
58.134430
 21
112.639206
  0
LINE
  8
0
 62
     4
 10
60.409431
 20
117.739212
 11
60.409431
 21
123.823868
  0
LINE
  8
0
 62
     4
 10
58.979431
 20
117.739212
 11
58.979431
 21
124.205200
  0
LINE
  8
0
 62
     1
 10
67.814430
 20
121.849213
 11
56.716118
 21
124.808762
  0
LINE
  8
0
 62
     1
 10
67.814430
 20
123.089211
 11
56.716122
 21
126.048759
  0
LINE
  8
0
 62
     4
 10
60.409431
 20
125.063873
 11
60.409431
 21
128.269211
  0
LINE
  8
0
 62
     4
 10
58.979431
 20
125.445206
 11
58.979431
 21
128.269211
  0
LINE
  8
0
 62
     4
 10
60.094433
 20
128.269211
 11
60.094433
 21
133.269211
  0
LINE
  8
0
 62
     4
 10
59.294434
 20
128.269211
 11
59.294434
 21
133.269211
  0
LINE
  8
0
 62
     4
 10
60.409431
 20
128.269211
 11
58.979431
 21
128.269211
  0
LINE
  8
0
 62
     4
 10
60.094433
 20
133.269211
 11
59.294434
 21
133.269211
  0
LINE
  8
0
 62
     4
 10
65.489433
 20
117.739212
 11
65.489433
 21
122.469208
  0
LINE
  8
0
 62
     4
 10
64.059433
 20
117.739212
 11
64.059433
 21
122.839203
  0
LINE
  8
0
 62
     4
 10
64.374435
 20
133.269211
 11
65.174431
 21
133.269211
  0
LINE
  8
0
 62
     4
 10
64.059433
 20
128.269211
 11
65.489433
 21
128.269211
  0
LINE
  8
0
 62
     4
 10
65.174431
 20
128.269211
 11
65.174431
 21
133.269211
  0
LINE
  8
0
 62
     4
 10
64.374435
 20
128.269211
 11
64.374435
 21
133.269211
  0
LINE
  8
0
 62
     4
 10
64.059433
 20
124.079208
 11
64.059433
 21
128.269211
  0
LINE
  8
0
 62
     4
 10
65.489433
 20
123.699203
 11
65.489433
 21
128.269211
  0
LINE
  8
0
  6
CENTER
 62
     2
 10
62.734432
 20
59.469208
 11
62.734432
 21
46.889206
  0
LINE
  8
0
  6
CENTER
 62
     2
 10
56.584435
 20
53.339207
 11
68.214432
 21
53.339207
  0
LINE
  8
0
  6
CENTER
 62
     2
 10
56.144432
 20
37.339207
 11
68.304428
 21
37.339207
  0
LINE
  8
0
  6
CENTER
 62
     2
 10
61.734432
 20
43.919205
 11
61.734432
 21
31.179207
  0
LINE
  8
0
  6
CENTER
 62
     2
 10
43.234432
 20
120.476120
 11
43.234432
 21
11.674435
  0
LINE
  8
0
 10
34.234432
 20
24.339207
 11
52.234432
 21
24.339207
  0
LINE
  8
0
 10
34.234432
 20
66.339203
 11
34.234432
 21
31.600157
  0
LINE
  8
0
 10
52.234432
 20
66.339203
 11
52.234432
 21
61.600159
  0
LINE
  8
0
 10
48.484432
 20
87.539207
 11
37.984432
 21
87.539207
  0
LINE
  8
0
 10
52.234432
 20
66.339203
 11
34.234432
 21
66.339203
  0
LINE
  8
0
 10
39.636909
 20
79.039207
 11
34.234432
 21
79.039207
  0
LINE
  8
0
 10
46.831955
 20
79.039207
 11
52.234432
 21
79.039207
  0
LINE
  8
0
 10
34.234432
 20
85.039207
 11
34.234432
 21
66.339203
  0
LINE
  8
0
 10
52.234432
 20
85.039207
 11
52.234432
 21
66.339203
  0
LINE
  8
0
 10
49.234432
 20
88.039207
 11
52.234432
 21
85.039207
  0
LINE
  8
0
 10
34.234436
 20
85.039207
 11
37.234432
 21
88.039207
  0
LINE
  8
0
 10
37.234432
 20
88.039207
 11
37.684433
 21
88.039207
  0
LINE
  8
0
 10
37.984432
 20
87.539207
 11
37.984432
 21
87.739212
  0
LINE
  8
0
 10
48.484432
 20
87.539207
 11
48.484432
 21
87.739212
  0
LINE
  8
0
 10
41.715370
 20
76.239204
 11
44.753494
 21
76.239204
  0
LINE
  8
0
 10
45.099899
 20
76.439209
 11
46.485538
 21
78.839203
  0
LINE
  8
0
 10
39.983322
 20
78.839203
 11
41.368961
 21
76.439209
  0
LINE
  8
0
 10
48.784431
 20
88.039207
 11
49.234432
 21
88.039207
  0
LINE
  8
0
 62
     4
 10
48.234432
 20
88.439209
 11
38.234432
 21
88.439209
  0
LINE
  8
0
 62
     4
 10
38.534431
 20
107.139206
 11
47.934433
 21
107.139206
  0
LINE
  8
0
 62
     4
 10
38.234432
 20
88.739212
 11
48.234432
 21
88.739212
  0
LINE
  8
0
 62
     4
 10
38.234432
 20
87.539207
 11
38.234432
 21
112.639206
  0
LINE
  8
0
 62
     4
 10
48.234432
 20
87.539207
 11
48.234432
 21
112.639206
  0
LINE
  8
0
 62
     4
 10
48.234432
 20
112.639206
 11
45.734432
 21
112.639206
  0
LINE
  8
0
 62
     4
 10
46.134430
 20
107.139206
 11
46.134430
 21
112.639206
  0
LINE
  8
0
 62
     4
 10
40.334435
 20
107.139206
 11
40.334435
 21
112.639206
  0
LINE
  8
0
 62
     1
 10
44.734432
 20
104.139206
 11
44.734432
 21
107.139206
  0
LINE
  8
0
 62
     1
 10
44.734432
 20
104.139206
 11
41.734432
 21
104.139206
  0
LINE
  8
0
 62
     1
 10
41.734432
 20
104.139206
 11
41.734432
 21
107.139206
  0
LINE
  8
0
 62
     4
 10
45.734432
 20
108.239212
 11
40.734432
 21
108.239212
  0
LINE
  8
0
 62
     4
 10
47.934433
 20
117.739212
 11
38.534431
 21
117.739212
  0
LINE
  8
0
 62
     4
 10
45.734432
 20
116.739212
 11
40.734432
 21
116.739212
  0
LINE
  8
0
 62
     4
 10
47.934433
 20
112.739212
 11
47.934433
 21
117.739212
  0
LINE
  8
0
 62
     4
 10
45.734432
 20
108.239212
 11
45.734432
 21
116.739212
  0
LINE
  8
0
 62
     4
 10
40.734432
 20
116.027878
 11
45.734432
 21
116.027878
  0
LINE
  8
0
 62
     4
 10
40.734432
 20
115.739212
 11
45.734432
 21
115.739212
  0
LINE
  8
0
 62
     4
 10
46.834435
 20
112.739212
 11
46.834435
 21
117.739212
  0
LINE
  8
0
 62
     4
 10
39.634430
 20
112.739212
 11
39.634430
 21
117.739212
  0
LINE
  8
0
 62
     4
 10
40.734432
 20
108.239212
 11
40.734432
 21
116.739212
  0
LINE
  8
0
 62
     4
 10
38.534431
 20
112.739212
 11
38.534431
 21
117.739212
  0
LINE
  8
0
 62
     4
 10
40.734432
 20
112.639206
 11
38.234432
 21
112.639206
  0
LINE
  8
0
 62
     4
 10
40.734432
 20
109.105232
 11
45.734432
 21
109.105232
  0
LINE
  8
0
 10
40.434433
 20
18.839207
 11
40.434433
 21
16.439205
  0
LINE
  8
0
 10
34.734432
 20
15.939205
 11
51.734432
 21
15.939205
  0
LINE
  8
0
 10
34.434433
 20
19.339207
 11
39.934433
 21
19.339207
  0
LINE
  8
0
 10
34.434433
 20
18.159206
 11
34.434433
 21
19.339207
  0
LINE
  8
0
 10
40.034431
 20
18.159206
 11
40.034431
 21
19.339207
  0
LINE
  8
0
 62
     4
 10
47.934433
 20
112.739212
 11
45.734432
 21
112.739212
  0
LINE
  8
0
 62
     4
 10
40.734432
 20
112.739212
 11
38.534431
 21
112.739212
  0
LINE
  8
0
 62
     4
 10
47.334435
 20
112.739212
 11
47.334435
 21
112.639206
  0
LINE
  8
0
 62
     4
 10
39.134430
 20
112.739212
 11
39.134430
 21
112.639206
  0
LINE
  8
0
 62
     4
 10
41.409431
 20
117.739212
 11
41.409431
 21
123.823868
  0
LINE
  8
0
 62
     4
 10
39.979431
 20
117.739212
 11
39.979431
 21
124.205200
  0
LINE
  8
0
 62
     1
 10
48.814430
 20
121.849197
 11
37.716114
 21
124.808746
  0
LINE
  8
0
 62
     1
 10
48.814430
 20
123.089203
 11
37.716114
 21
126.048752
  0
LINE
  8
0
 62
     4
 10
41.409431
 20
125.063873
 11
41.409431
 21
128.269211
  0
LINE
  8
0
 62
     4
 10
39.979431
 20
125.445206
 11
39.979431
 21
128.269211
  0
LINE
  8
0
 62
     4
 10
41.094433
 20
128.269211
 11
41.094433
 21
133.269211
  0
LINE
  8
0
 62
     4
 10
40.294434
 20
128.269211
 11
40.294434
 21
133.269211
  0
LINE
  8
0
 62
     4
 10
41.409431
 20
128.269211
 11
39.979431
 21
128.269211
  0
LINE
  8
0
 62
     4
 10
41.094433
 20
133.269211
 11
40.294434
 21
133.269211
  0
LINE
  8
0
 62
     4
 10
46.489433
 20
117.739212
 11
46.489433
 21
122.469208
  0
LINE
  8
0
 62
     4
 10
45.059433
 20
117.739212
 11
45.059433
 21
122.839203
  0
LINE
  8
0
 62
     4
 10
45.374432
 20
133.269211
 11
46.174431
 21
133.269211
  0
LINE
  8
0
 62
     4
 10
45.059433
 20
128.269211
 11
46.489433
 21
128.269211
  0
LINE
  8
0
 62
     4
 10
46.174431
 20
128.269211
 11
46.174431
 21
133.269211
  0
LINE
  8
0
 62
     4
 10
45.374432
 20
128.269211
 11
45.374432
 21
133.269211
  0
LINE
  8
0
 62
     4
 10
45.059433
 20
124.079208
 11
45.059433
 21
128.269211
  0
LINE
  8
0
 62
     4
 10
46.489433
 20
123.699203
 11
46.489433
 21
128.269211
  0
LINE
  8
0
  6
CENTER
 62
     2
 10
36.409729
 20
52.339664
 11
50.409729
 21
52.339664
  0
LINE
  8
0
 10
48.320221
 20
61.753422
 11
51.148647
 21
58.924992
  0
LINE
  8
0
 10
47.754536
 20
58.359306
 11
51.714333
 21
62.319099
  0
LINE
  8
0
 10
34.754536
 20
28.359308
 11
38.714329
 21
32.319107
  0
LINE
  8
0
 10
35.320217
 20
31.753420
 11
38.148647
 21
28.924994
  0
LINE
  8
0
 10
52.234432
 20
16.339207
 11
53.234432
 21
16.339207
  0
LINE
  8
0
 10
52.234432
 20
22.839207
 11
53.234432
 21
22.839207
  0
LINE
  8
0
 10
52.234432
 20
67.839203
 11
53.234432
 21
67.839203
  0
LINE
  8
0
 10
52.234432
 20
74.339203
 11
53.234432
 21
74.339203
  0
LINE
  8
0
  6
CENTER
 62
     2
 10
25.734432
 20
35.339207
 11
32.734432
 21
35.339207
  0
LINE
  8
0
  6
CENTER
 62
     2
 10
29.234432
 20
38.839207
 11
29.234432
 21
31.839207
  0
LINE
  8
0
  6
CENTER
 62
     2
 10
29.234432
 20
58.839207
 11
29.234432
 21
51.839207
  0
LINE
  8
0
  6
CENTER
 62
     2
 10
25.734432
 20
55.339207
 11
32.734432
 21
55.339207
  0
LINE
  8
0
 10
138.234436
 20
74.339203
 11
138.234436
 21
16.339207
  0
LINE
  8
0
  6
CENTER
 62
     2
 10
133.234436
 20
58.839207
 11
133.234436
 21
51.839207
  0
LINE
  8
0
  6
CENTER
 62
     2
 10
133.234436
 20
38.839207
 11
133.234436
 21
31.839207
  0
LINE
  8
0
  6
CENTER
 62
     2
 10
129.734436
 20
35.339207
 11
136.734436
 21
35.339207
  0
LINE
  8
0
  6
CENTER
 62
     2
 10
129.734436
 20
55.339207
 11
136.734436
 21
55.339207
  0
LINE
  8
0
 10
24.234432
 20
74.339203
 11
34.234432
 21
74.339203
  0
LINE
  8
0
 10
24.234432
 20
16.339207
 11
34.234432
 21
16.339207
  0
LINE
  8
0
 10
24.234432
 20
22.839207
 11
34.234432
 21
22.839207
  0
LINE
  8
0
 10
24.234432
 20
67.839203
 11
34.234432
 21
67.839203
  0
LINE
  8
0
 10
24.234432
 20
74.339203
 11
24.234432
 21
16.339207
  0
LINE
  8
0
 10
-271.250000
 20
-185.000000
 11
-159.250000
 21
-185.000000
  0
LINE
  8
0
 10
-271.250000
 20
-175.000000
 11
-159.250000
 21
-175.000000
  0
LINE
  8
0
 10
-271.250000
 20
-165.000000
 11
-159.250000
 21
-165.000000
  0
LINE
  8
0
 10
-271.250000
 20
-155.000000
 11
-159.250000
 21
-155.000000
  0
LINE
  8
0
 10
-271.250000
 20
-145.000000
 11
-159.250000
 21
-145.000000
  0
LINE
  8
0
 10
-271.250000
 20
-135.000000
 11
-159.250000
 21
-135.000000
  0
LINE
  8
0
 10
-271.250000
 20
-125.000000
 11
-159.250000
 21
-125.000000
  0
LINE
  8
0
 10
-271.250000
 20
-115.000000
 11
-159.250000
 21
-115.000000
  0
LINE
  8
0
 10
-271.250000
 20
-105.000000
 11
-159.250000
 21
-105.000000
  0
LINE
  8
0
 10
-271.250000
 20
-95.000000
 11
-159.250000
 21
-95.000000
  0
LINE
  8
0
 10
-271.250000
 20
-85.000000
 11
-159.250000
 21
-85.000000
  0
LINE
  8
0
 10
-271.250000
 20
-75.000000
 11
-159.250000
 21
-75.000000
  0
LINE
  8
0
 10
-271.250000
 20
-65.000000
 11
-159.250000
 21
-65.000000
  0
LINE
  8
0
 10
-271.250000
 20
-55.000000
 11
-159.250000
 21
-55.000000
  0
LINE
  8
0
 10
-271.250000
 20
-45.000000
 11
-159.250000
 21
-45.000000
  0
LINE
  8
0
 10
-271.250000
 20
-35.000000
 11
-159.250000
 21
-35.000000
  0
LINE
  8
0
 10
-271.250000
 20
-25.000000
 11
-159.250000
 21
-25.000000
  0
LINE
  8
0
 10
-271.250000
 20
-15.000000
 11
-159.250000
 21
-15.000000
  0
LINE
  8
0
 10
-271.250000
 20
-5.000000
 11
-159.250000
 21
-5.000000
  0
LINE
  8
0
 10
-271.250000
 20
5.000000
 11
-159.250000
 21
5.000000
  0
LINE
  8
0
 10
-271.250000
 20
15.000000
 11
-159.250000
 21
15.000000
  0
LINE
  8
0
 10
-271.250000
 20
15.000000
 11
-271.250000
 21
-185.000000
  0
LINE
  8
0
 10
-222.250000
 20
15.000000
 11
-222.250000
 21
-185.000000
  0
LINE
  8
0
 10
-189.250000
 20
15.000000
 11
-189.250000
 21
-185.000000
  0
LINE
  8
0
 10
-159.250000
 20
15.000000
 11
-159.250000
 21
-185.000000
  0
LINE
  8
0
 10
282.099854
 20
195.500000
 11
282.099854
 21
-195.000000
  0
LINE
  8
0
 10
-281.250000
 20
195.500000
 11
282.099854
 21
195.500000
  0
LINE
  8
0
 10
-281.250000
 20
195.500000
 11
-281.250000
 21
-195.000000
  0
LINE
  8
0
 10
-281.250000
 20
-195.000000
 11
282.099854
 21
-195.000000
  0
LINE
  8
0
 10
162.099976
 20
-175.000000
 11
162.099976
 21
-195.000000
  0
LINE
  8
0
 10
162.099976
 20
-175.000000
 11
282.099854
 21
-175.000000
  0
LINE
  8
0
 10
162.099976
 20
175.500000
 11
282.099854
 21
175.500000
  0
LINE
  8
0
 10
-281.250000
 20
175.500000
 11
-161.250000
 21
175.500000
  0
LINE
  8
0
 10
162.099976
 20
195.500000
 11
162.099976
 21
175.500000
  0
LINE
  8
0
 10
-161.250000
 20
195.500000
 11
-161.250000
 21
175.500000
  0
CIRCLE
  8
0
 10
56.234467
 20
-118.397751
 40
2.800000
  0
CIRCLE
  8
0
 10
68.234467
 20
-139.397751
 40
2.800000
  0
ARC
  8
0
 10
59.937946
 20
-115.894302
 40
0.503529
 50
90.399780
 51
179.599777
  0
ARC
  8
0
 10
53.737938
 20
-122.094299
 40
0.503522
 50
90.398918
 51
179.600647
  0
ARC
  8
0
 10
70.737915
 20
-135.694275
 40
0.496533
 50
269.597656
 51
0.401457
  0
ARC
  8
0
 10
68.237930
 20
-139.394287
 40
3.203493
 50
90.062500
 51
179.937500
  0
ARC
  8
0
 10
56.237926
 20
-118.394287
 40
3.196505
 50
269.937378
 51
0.062633
  0
ARC
  8
0
 10
70.730949
 20
-115.894272
 40
0.503491
 50
0.395903
 51
89.604095
  0
ARC
  8
0
 10
53.737946
 20
-115.894310
 40
0.503529
 50
90.400215
 51
179.599792
  0
ARC
  8
0
 10
64.484436
 20
-114.890793
 40
0.500000
 50
180.000000
 51
270.000000
  0
ARC
  8
0
 10
66.101013
 20
-114.890793
 40
0.500000
 50
180.000000
 51
270.000000
  0
ARC
  8
0
 10
59.984432
 20
-114.890793
 40
0.500000
 50
270.000000
 51
0.000000
  0
ARC
  8
0
 10
58.367851
 20
-114.890793
 40
0.500000
 50
270.000000
 51
0.000000
  0
ARC
  8
0
 10
63.584431
 20
-109.990791
 40
0.400002
 50
0.000000
 51
90.000000
  0
ARC
  8
0
 10
65.201012
 20
-109.990791
 40
0.400002
 50
0.000000
 51
90.000000
  0
ARC
  8
0
 10
60.884430
 20
-109.990791
 40
0.400002
 50
90.000000
 51
180.000000
  0
ARC
  8
0
 10
59.267853
 20
-109.990791
 40
0.400002
 50
90.000000
 51
180.000000
  0
ARC
  8
0
 10
53.634430
 20
-109.990791
 40
0.400002
 50
90.000000
 51
180.000000
  0
ARC
  8
0
 10
70.834427
 20
-109.990791
 40
0.400002
 50
0.000000
 51
90.000000
  0
ARC
  8
0
 10
57.534431
 20
-109.390793
 40
0.300003
 50
90.000000
 51
180.000000
  0
ARC
  8
0
 10
66.934433
 20
-109.390793
 40
0.300003
 50
0.000000
 51
90.000000
  0
ARC
  8
0
 10
64.537910
 20
-141.894272
 40
0.496533
 50
269.598541
 51
0.401451
  0
ARC
  8
0
 10
70.737907
 20
-141.894272
 40
0.496533
 50
269.598541
 51
0.401451
  0
ARC
  8
0
 10
53.730980
 20
-141.894241
 40
0.496563
 50
179.602097
 51
270.397919
  0
ARC
  8
0
 10
47.934433
 20
-109.390793
 40
0.299999
 50
0.000000
 51
90.000000
  0
ARC
  8
0
 10
38.534431
 20
-109.390793
 40
0.300003
 50
90.000000
 51
180.000000
  0
ARC
  8
0
 10
51.834435
 20
-109.990791
 40
0.400002
 50
0.000000
 51
90.000000
  0
ARC
  8
0
 10
34.634434
 20
-109.990791
 40
0.400002
 50
90.000000
 51
180.000000
  0
ARC
  8
0
 10
40.267853
 20
-109.990791
 40
0.400002
 50
90.000000
 51
180.000000
  0
ARC
  8
0
 10
41.884430
 20
-109.990791
 40
0.400002
 50
90.000000
 51
180.000000
  0
ARC
  8
0
 10
46.201012
 20
-109.990791
 40
0.400002
 50
0.000000
 51
90.000000
  0
ARC
  8
0
 10
44.584435
 20
-109.990791
 40
0.400002
 50
0.000000
 51
90.000000
  0
ARC
  8
0
 10
39.367851
 20
-114.890793
 40
0.500000
 50
270.000000
 51
0.000000
  0
ARC
  8
0
 10
40.984432
 20
-114.890793
 40
0.500000
 50
270.000000
 51
0.000000
  0
ARC
  8
0
 10
47.101013
 20
-114.890793
 40
0.500000
 50
180.000000
 51
270.000000
  0
ARC
  8
0
 10
45.484432
 20
-114.890793
 40
0.500000
 50
180.000000
 51
270.000000
  0
CIRCLE
  8
0
 62
     4
 10
103.734436
 20
-132.590790
 40
1.500000
  0
CIRCLE
  8
0
 62
     4
 10
96.734436
 20
-132.590790
 40
1.500000
  0
ARC
  8
0
 62
     4
 10
100.234436
 20
-130.840790
 40
0.800004
 50
202.024429
 51
337.975555
  0
ARC
  8
0
 62
     4
 10
100.234436
 20
-130.840790
 40
0.800004
 50
22.024433
 51
157.975571
  0
CIRCLE
  8
0
 62
     4
 10
100.234436
 20
-130.840790
 40
1.850000
  0
CIRCLE
  8
0
 62
     4
 10
100.234436
 20
-130.840790
 40
1.900000
  0
ARC
  8
0
 62
     4
 10
103.734436
 20
-132.590790
 40
1.600006
 50
90.000000
 51
270.000000
  0
ARC
  8
0
 62
     4
 10
96.734436
 20
-132.590790
 40
1.600006
 50
270.000000
 51
90.000000
  0
CIRCLE
  8
0
 62
     4
 10
100.234436
 20
-130.840790
 40
2.050000
  0
ARC
  8
0
 62
     4
 10
104.934433
 20
-109.390793
 40
0.300003
 50
0.000000
 51
90.000000
  0
ARC
  8
0
 62
     4
 10
95.534439
 20
-109.390793
 40
0.300003
 50
90.000000
 51
180.000000
  0
ARC
  8
0
 62
     4
 10
95.534439
 20
-121.590790
 40
0.300003
 50
90.000000
 51
180.000000
  0
ARC
  8
0
 62
     4
 10
104.934433
 20
-121.590790
 40
0.300003
 50
0.000000
 51
90.000000
  0
ARC
  8
0
 62
     4
 10
103.649155
 20
-125.191132
 40
0.199670
 50
269.794220
 51
3.542330
  0
ARC
  8
0
 62
     4
 10
101.898773
 20
-125.190125
 40
0.200668
 50
176.761200
 51
269.901978
  0
ARC
  8
0
 62
     4
 10
101.109146
 20
-125.191132
 40
0.199670
 50
269.794220
 51
3.542330
  0
ARC
  8
0
 62
     4
 10
99.358780
 20
-125.190125
 40
0.200668
 50
176.761200
 51
269.901978
  0
ARC
  8
0
 62
     4
 10
98.569153
 20
-125.191132
 40
0.199670
 50
269.794220
 51
3.542330
  0
ARC
  8
0
 62
     4
 10
96.818771
 20
-125.190125
 40
0.200668
 50
176.761200
 51
269.901978
  0
CIRCLE
  8
0
 62
     4
 10
97.694427
 20
-124.290794
 40
0.750000
  0
CIRCLE
  8
0
 62
     4
 10
102.774429
 20
-124.290794
 40
0.750000
  0
ARC
  8
0
 10
94.234436
 20
-121.390793
 40
3.000000
 50
270.000000
 51
289.471191
  0
ARC
  8
0
 10
106.234436
 20
-139.390793
 40
3.000000
 50
90.000000
 51
109.471199
  0
ARC
  8
0
 10
94.234436
 20
-121.390793
 40
3.000003
 50
70.528801
 51
90.000000
  0
ARC
  8
0
 10
94.534439
 20
-141.590790
 40
0.300003
 50
180.000000
 51
270.000000
  0
ARC
  8
0
 10
94.234436
 20
-121.390793
 40
2.800002
 50
69.075180
 51
290.924805
  0
ARC
  8
0
 10
106.234436
 20
-139.390793
 40
2.799999
 50
217.383133
 51
110.924820
  0
ARC
  8
0
 10
87.234436
 20
-139.390793
 40
2.799999
 50
217.383133
 51
110.924820
  0
ARC
  8
0
 10
75.234436
 20
-121.390793
 40
2.800002
 50
69.075180
 51
290.924805
  0
ARC
  8
0
 10
75.534431
 20
-141.590790
 40
0.300003
 50
180.000000
 51
270.000000
  0
ARC
  8
0
 10
75.234436
 20
-121.390793
 40
3.000003
 50
70.528801
 51
90.000000
  0
ARC
  8
0
 10
87.234436
 20
-139.390793
 40
3.000000
 50
90.000000
 51
109.471199
  0
ARC
  8
0
 10
75.234436
 20
-121.390793
 40
3.000000
 50
270.000000
 51
289.471191
  0
CIRCLE
  8
0
 62
     4
 10
83.774429
 20
-124.290794
 40
0.750000
  0
CIRCLE
  8
0
 62
     4
 10
78.694427
 20
-124.290794
 40
0.750000
  0
ARC
  8
0
 62
     4
 10
77.818771
 20
-125.190125
 40
0.200668
 50
176.761200
 51
269.901978
  0
ARC
  8
0
 62
     4
 10
79.569145
 20
-125.191132
 40
0.199670
 50
269.794220
 51
3.542330
  0
ARC
  8
0
 62
     4
 10
80.358780
 20
-125.190125
 40
0.200668
 50
176.761200
 51
269.901978
  0
ARC
  8
0
 62
     4
 10
82.109146
 20
-125.191132
 40
0.199670
 50
269.794220
 51
3.542330
  0
ARC
  8
0
 62
     4
 10
82.898773
 20
-125.190125
 40
0.200668
 50
176.761200
 51
269.901978
  0
ARC
  8
0
 62
     4
 10
84.649147
 20
-125.191132
 40
0.199670
 50
269.794220
 51
3.542330
  0
ARC
  8
0
 62
     4
 10
85.934433
 20
-121.590790
 40
0.300003
 50
0.000000
 51
90.000000
  0
ARC
  8
0
 62
     4
 10
76.534431
 20
-121.590790
 40
0.300003
 50
90.000000
 51
180.000000
  0
ARC
  8
0
 62
     4
 10
76.534431
 20
-109.390793
 40
0.300003
 50
90.000000
 51
180.000000
  0
ARC
  8
0
 62
     4
 10
85.934433
 20
-109.390793
 40
0.300003
 50
0.000000
 51
90.000000
  0
CIRCLE
  8
0
 62
     4
 10
81.234436
 20
-130.840790
 40
2.050000
  0
ARC
  8
0
 62
     4
 10
77.734436
 20
-132.590790
 40
1.600006
 50
270.000000
 51
90.000000
  0
ARC
  8
0
 62
     4
 10
84.734436
 20
-132.590790
 40
1.600006
 50
90.000000
 51
270.000000
  0
CIRCLE
  8
0
 62
     4
 10
81.234436
 20
-130.840790
 40
1.900000
  0
CIRCLE
  8
0
 62
     4
 10
81.234436
 20
-130.840790
 40
1.850000
  0
ARC
  8
0
 62
     4
 10
81.234436
 20
-130.840790
 40
0.800004
 50
22.024433
 51
157.975571
  0
ARC
  8
0
 62
     4
 10
81.234436
 20
-130.840790
 40
0.800004
 50
202.024429
 51
337.975555
  0
CIRCLE
  8
0
 62
     4
 10
77.734436
 20
-132.590790
 40
1.500000
  0
CIRCLE
  8
0
 62
     4
 10
84.734436
 20
-132.590790
 40
1.500000
  0
ARC
  8
0
 10
34.737949
 20
-115.894310
 40
0.503529
 50
90.400215
 51
179.599792
  0
ARC
  8
0
 10
51.730949
 20
-115.894272
 40
0.503495
 50
0.395900
 51
89.603661
  0
ARC
  8
0
 10
37.237926
 20
-118.394287
 40
3.196505
 50
269.937378
 51
0.062633
  0
ARC
  8
0
 10
49.237930
 20
-139.394287
 40
3.203493
 50
90.062561
 51
179.937500
  0
ARC
  8
0
 10
51.737915
 20
-135.694275
 40
0.496533
 50
269.597656
 51
0.401457
  0
ARC
  8
0
 10
34.737938
 20
-122.094299
 40
0.503522
 50
90.398918
 51
179.600647
  0
ARC
  8
0
 10
40.937946
 20
-115.894302
 40
0.503529
 50
90.399780
 51
179.599777
  0
CIRCLE
  8
0
 10
49.234467
 20
-139.397751
 40
2.800000
  0
CIRCLE
  8
0
 10
37.234467
 20
-118.397751
 40
2.800000
  0
ARC
  8
0
 10
45.537910
 20
-141.894272
 40
0.496533
 50
269.598541
 51
0.401451
  0
ARC
  8
0
 10
51.737907
 20
-141.894272
 40
0.496533
 50
269.598999
 51
0.401448
  0
ARC
  8
0
 10
34.730980
 20
-141.894241
 40
0.496563
 50
179.602097
 51
270.397919
  0
ARC
  8
0
 62
     4
 10
125.729431
 20
-141.297760
 40
5.005931
 50
60.500553
 51
119.499451
  0
ARC
  8
0
 62
     4
 10
127.866043
 20
-137.522949
 40
0.668384
 50
0.184432
 51
60.573273
  0
ARC
  8
0
 62
     4
 10
123.605347
 20
-137.518646
 40
0.670923
 50
120.539703
 51
180.183731
  0
ARC
  8
0
 62
     4
 10
114.863510
 20
-137.518646
 40
0.670925
 50
359.816254
 51
59.460293
  0
ARC
  8
0
 62
     4
 10
110.602814
 20
-137.522949
 40
0.668385
 50
119.426727
 51
179.815567
  0
ARC
  8
0
 62
     4
 10
112.739426
 20
-141.297760
 40
5.005931
 50
60.500553
 51
119.499451
  0
ARC
  8
0
 62
     4
 10
-91.658264
 20
-10.960793
 40
0.500000
 50
180.000000
 51
270.000000
  0
ARC
  8
0
 62
     4
 10
-89.658264
 20
-10.960793
 40
0.500000
 50
270.000000
 51
0.000000
  0
ARC
  8
0
 62
     4
 10
-67.458267
 20
-16.160789
 40
0.299999
 50
270.000000
 51
0.000000
  0
ARC
  8
0
 10
-68.058266
 20
11.239212
 40
0.400002
 50
0.000000
 51
90.000000
  0
ARC
  8
0
 10
-73.058266
 20
12.039211
 40
0.400002
 50
180.000000
 51
270.000000
  0
ARC
  8
0
 10
-76.458267
 20
11.439209
 40
5.000002
 50
235.944168
 51
304.055817
  0
ARC
  8
0
 10
-78.584381
 20
18.164593
 40
0.673911
 50
180.457458
 51
240.300735
  0
ARC
  8
0
 10
-76.458267
 20
21.939678
 40
5.006523
 50
240.570068
 51
299.429932
  0
ARC
  8
0
 10
-80.155861
 20
16.436802
 40
0.497598
 50
269.722412
 51
0.277165
  0
ARC
  8
0
 10
-79.155838
 20
18.836784
 40
0.502432
 50
90.276672
 51
179.723328
  0
ARC
  8
0
 10
-73.955856
 20
19.836803
 40
0.497599
 50
269.722412
 51
0.277165
  0
ARC
  8
0
 10
-99.955376
 20
16.442101
 40
0.502900
 50
180.329437
 51
269.670563
  0
ARC
  8
0
 10
-73.955856
 20
16.436802
 40
0.497600
 50
269.723267
 51
0.277160
  0
ARC
  8
0
 10
-74.324310
 20
18.159992
 40
0.666041
 50
299.309204
 51
359.932739
  0
ARC
  8
0
 10
-97.458267
 20
79.239212
 40
5.000002
 50
55.944176
 51
124.055824
  0
ARC
  8
0
 10
-68.058266
 20
76.639206
 40
0.400002
 50
270.000000
 51
0.000000
  0
ARC
  8
0
 10
-72.958267
 20
75.739212
 40
0.500000
 50
90.000000
 51
180.000000
  0
ARC
  8
0
 62
     4
 10
-91.658264
 20
101.639206
 40
0.500000
 50
90.000000
 51
180.000000
  0
ARC
  8
0
 62
     4
 10
-89.658264
 20
101.639206
 40
0.500000
 50
0.000000
 51
90.000000
  0
ARC
  8
0
 62
     4
 10
-67.458267
 20
106.839211
 40
0.300003
 50
0.000000
 51
90.000000
  0
ARC
  8
0
 10
-68.058266
 20
79.439209
 40
0.400002
 50
270.000000
 51
0.000000
  0
ARC
  8
0
 10
-73.058266
 20
78.639206
 40
0.400002
 50
90.000000
 51
180.000000
  0
ARC
  8
0
 10
-78.758270
 20
30.334209
 40
5.001751
 50
340.677551
 51
19.322456
  0
ARC
  8
0
 62
     4
 10
-67.458267
 20
-30.060791
 40
0.299999
 50
270.000000
 51
0.000000
  0
ARC
  8
0
 62
     4
 10
-89.658264
 20
-24.860786
 40
0.500000
 50
270.000000
 51
0.000000
  0
ARC
  8
0
 62
     4
 10
-91.658264
 20
-24.860786
 40
0.500000
 50
180.000000
 51
270.000000
  0
CIRCLE
  8
0
 10
-115.457558
 20
25.343748
 40
5.722527
  0
CIRCLE
  8
0
 10
-110.467529
 20
45.343857
 40
5.722527
  0
CIRCLE
  8
0
 10
-115.457558
 20
65.343948
 40
5.722527
  0
CIRCLE
  8
0
 62
     2
 10
-115.457558
 20
25.343748
 40
6.578529
  0
CIRCLE
  8
0
 62
     2
 10
-110.467529
 20
45.343857
 40
6.578529
  0
CIRCLE
  8
0
 62
     2
 10
-115.457558
 20
65.343948
 40
6.578529
  0
ARC
  8
0
 10
-125.455696
 20
17.341782
 40
1.002574
 50
180.147049
 51
269.853058
  0
ARC
  8
0
 10
-125.460335
 20
73.341278
 40
0.997935
 50
89.881294
 51
180.118713
  0
CIRCLE
  8
0
 62
     4
 10
112.734436
 20
30.339207
 40
3.000000
  0
CIRCLE
  8
0
 62
     4
 10
125.734436
 20
60.339207
 40
3.000000
  0
CIRCLE
  8
0
 62
     4
 10
112.734436
 20
30.339207
 40
2.799999
  0
CIRCLE
  8
0
 62
     4
 10
125.734436
 20
60.339207
 40
2.799999
  0
CIRCLE
  8
0
 10
93.734436
 20
30.339207
 40
2.799999
  0
CIRCLE
  8
0
 10
106.734436
 20
60.339207
 40
2.799999
  0
CIRCLE
  8
0
 10
74.734436
 20
30.339207
 40
2.799999
  0
CIRCLE
  8
0
 10
87.734436
 20
60.339207
 40
2.799999
  0
CIRCLE
  8
0
 10
55.734432
 20
30.339207
 40
2.799999
  0
CIRCLE
  8
0
 10
68.734436
 20
60.339207
 40
2.799999
  0
CIRCLE
  8
0
 10
100.234436
 20
-2.260792
 40
2.000000
  0
ARC
  8
0
 10
94.684433
 20
-10.960796
 40
0.300000
 50
270.000000
 51
0.000000
  0
ARC
  8
0
 10
105.784439
 20
-10.960796
 40
0.300003
 50
180.000000
 51
270.000000
  0
ARC
  8
0
 10
96.636917
 20
-1.860794
 40
0.400000
 50
270.000000
 51
330.000183
  0
ARC
  8
0
 10
98.715378
 20
0.139206
 40
0.400000
 50
90.000000
 51
150.000183
  0
ARC
  8
0
 10
101.753494
 20
0.139206
 40
0.400002
 50
29.999819
 51
90.000000
  0
ARC
  8
0
 10
103.831955
 20
-1.860794
 40
0.400002
 50
209.999832
 51
270.000000
  0
CIRCLE
  8
0
 10
100.234436
 20
-2.260792
 40
0.800000
  0
ARC
  8
0
 62
     4
 10
104.934433
 20
-30.060795
 40
0.299999
 50
270.000000
 51
0.000000
  0
ARC
  8
0
 62
     4
 10
95.534439
 20
-30.060795
 40
0.300003
 50
180.000000
 51
270.000000
  0
CIRCLE
  8
0
 10
99.734436
 20
37.339211
 40
4.283250
  0
CIRCLE
  8
0
 62
     2
 10
99.734436
 20
37.339211
 40
4.864349
  0
CIRCLE
  8
0
 10
100.734436
 20
53.339211
 40
4.283250
  0
CIRCLE
  8
0
 62
     2
 10
100.734436
 20
53.339211
 40
4.864349
  0
ARC
  8
0
 62
     4
 10
95.534439
 20
106.839203
 40
0.300003
 50
90.000000
 51
180.000000
  0
ARC
  8
0
 62
     4
 10
104.934433
 20
106.839203
 40
0.300003
 50
0.000000
 51
90.000000
  0
CIRCLE
  8
0
 10
100.234436
 20
79.039207
 40
0.800000
  0
ARC
  8
0
 10
103.831955
 20
78.639206
 40
0.400002
 50
90.000000
 51
150.000565
  0
ARC
  8
0
 10
101.753494
 20
76.639206
 40
0.400002
 50
270.000000
 51
330.000549
  0
ARC
  8
0
 10
98.715378
 20
76.639206
 40
0.400001
 50
209.999435
 51
270.000000
  0
ARC
  8
0
 10
96.636917
 20
78.639206
 40
0.400001
 50
29.999443
 51
90.000000
  0
ARC
  8
0
 10
105.784439
 20
87.739212
 40
0.300003
 50
90.000000
 51
180.000000
  0
ARC
  8
0
 10
94.684433
 20
87.739212
 40
0.300003
 50
0.000000
 51
90.000000
  0
CIRCLE
  8
0
 10
100.234436
 20
79.039207
 40
2.000000
  0
ARC
  8
0
 10
93.733963
 20
30.339069
 40
3.000469
 50
213.586884
 51
0.002622
  0
ARC
  8
0
 10
93.736725
 20
30.338522
 40
2.997704
 50
0.013088
 51
146.588425
  0
ARC
  8
0
 10
106.734436
 20
60.334206
 40
2.998170
 50
33.504539
 51
326.495453
  0
ARC
  8
0
 10
87.734428
 20
60.334206
 40
2.998170
 50
33.504539
 51
326.495453
  0
ARC
  8
0
 10
74.736725
 20
30.338522
 40
2.997704
 50
0.013088
 51
146.588425
  0
ARC
  8
0
 10
74.733963
 20
30.339069
 40
3.000469
 50
213.586884
 51
0.002622
  0
CIRCLE
  8
0
 10
81.234436
 20
79.039207
 40
2.000000
  0
ARC
  8
0
 10
75.684433
 20
87.739212
 40
0.300003
 50
0.000000
 51
90.000000
  0
ARC
  8
0
 10
86.784431
 20
87.739212
 40
0.300003
 50
90.000000
 51
180.000000
  0
ARC
  8
0
 10
77.636909
 20
78.639206
 40
0.400001
 50
29.999443
 51
90.000000
  0
ARC
  8
0
 10
79.715378
 20
76.639206
 40
0.400001
 50
209.999435
 51
270.000000
  0
ARC
  8
0
 10
82.753494
 20
76.639206
 40
0.400002
 50
270.000000
 51
330.000549
  0
ARC
  8
0
 10
84.831955
 20
78.639206
 40
0.400002
 50
90.000000
 51
150.000565
  0
CIRCLE
  8
0
 10
81.234436
 20
79.039207
 40
0.800000
  0
ARC
  8
0
 62
     4
 10
85.934433
 20
106.839203
 40
0.300003
 50
0.000000
 51
90.000000
  0
ARC
  8
0
 62
     4
 10
76.534431
 20
106.839203
 40
0.300003
 50
90.000000
 51
180.000000
  0
CIRCLE
  8
0
 62
     2
 10
81.734436
 20
53.339211
 40
4.864349
  0
CIRCLE
  8
0
 10
81.734436
 20
53.339211
 40
4.283250
  0
CIRCLE
  8
0
 62
     2
 10
80.734436
 20
37.339211
 40
4.864349
  0
CIRCLE
  8
0
 10
80.734436
 20
37.339211
 40
4.283250
  0
ARC
  8
0
 62
     4
 10
76.534431
 20
-16.160793
 40
0.300003
 50
180.000000
 51
270.000000
  0
ARC
  8
0
 62
     4
 10
85.934433
 20
-16.160793
 40
0.299999
 50
270.000000
 51
0.000000
  0
CIRCLE
  8
0
 10
81.234436
 20
11.639206
 40
0.800000
  0
ARC
  8
0
 10
84.831955
 20
12.039207
 40
0.400002
 50
209.999802
 51
270.000000
  0
ARC
  8
0
 10
82.753494
 20
14.039207
 40
0.400002
 50
29.999798
 51
90.000000
  0
ARC
  8
0
 10
79.715378
 20
14.039207
 40
0.400000
 50
90.000000
 51
150.000198
  0
ARC
  8
0
 10
77.636909
 20
12.039207
 40
0.400000
 50
270.000000
 51
330.000214
  0
ARC
  8
0
 10
86.784431
 20
2.939205
 40
0.300003
 50
180.000000
 51
270.000000
  0
ARC
  8
0
 10
75.684433
 20
2.939205
 40
0.300000
 50
270.000000
 51
0.000000
  0
CIRCLE
  8
0
 10
81.234436
 20
11.639206
 40
2.000000
  0
ARC
  8
0
 10
68.734428
 20
60.334206
 40
2.998170
 50
33.504539
 51
326.495453
  0
ARC
  8
0
 10
55.736725
 20
30.338522
 40
2.997707
 50
0.013088
 51
146.588379
  0
ARC
  8
0
 10
55.733963
 20
30.339069
 40
3.000466
 50
213.586929
 51
0.002622
  0
CIRCLE
  8
0
 10
62.234432
 20
79.039207
 40
2.000000
  0
ARC
  8
0
 10
56.684433
 20
87.739212
 40
0.299999
 50
0.000000
 51
90.000000
  0
ARC
  8
0
 10
67.784431
 20
87.739212
 40
0.300003
 50
90.000000
 51
180.000000
  0
ARC
  8
0
 10
58.636909
 20
78.639206
 40
0.399997
 50
29.999716
 51
90.000000
  0
ARC
  8
0
 10
60.715370
 20
76.639206
 40
0.399997
 50
209.999710
 51
270.000000
  0
ARC
  8
0
 10
63.753490
 20
76.639206
 40
0.400002
 50
270.000000
 51
330.000275
  0
ARC
  8
0
 10
65.831955
 20
78.639206
 40
0.400002
 50
90.000000
 51
150.000565
  0
CIRCLE
  8
0
 10
62.234432
 20
79.039207
 40
0.800000
  0
ARC
  8
0
 62
     4
 10
66.934433
 20
106.839203
 40
0.300003
 50
0.000000
 51
90.000000
  0
ARC
  8
0
 62
     4
 10
57.534431
 20
106.839203
 40
0.300003
 50
90.000000
 51
180.000000
  0
ARC
  8
0
 10
58.361000
 20
18.164322
 40
0.673455
 50
299.677094
 51
359.564606
  0
ARC
  8
0
 10
54.100922
 20
18.160252
 40
0.666489
 50
180.089859
 51
240.668137
  0
ARC
  8
0
 10
53.732330
 20
16.437103
 40
0.497899
 50
179.757904
 51
270.242310
  0
ARC
  8
0
 10
70.731850
 20
16.441788
 40
0.502588
 50
270.293976
 51
359.705597
  0
ARC
  8
0
 10
59.932327
 20
16.437099
 40
0.497899
 50
179.757690
 51
270.242310
  0
ARC
  8
0
 10
56.234432
 20
21.939674
 40
5.006523
 50
240.570068
 51
299.429932
  0
ARC
  8
0
 10
53.732327
 20
19.837101
 40
0.497899
 50
179.757690
 51
270.242310
  0
ARC
  8
0
 10
58.932312
 20
18.837086
 40
0.502125
 50
0.241800
 51
89.757980
  0
CIRCLE
  8
0
 62
     2
 10
62.734432
 20
53.339211
 40
4.864349
  0
CIRCLE
  8
0
 10
62.734432
 20
53.339211
 40
4.283250
  0
CIRCLE
  8
0
 62
     2
 10
61.734432
 20
37.339211
 40
4.864349
  0
CIRCLE
  8
0
 10
61.734432
 20
37.339211
 40
4.283250
  0
ARC
  8
0
 10
49.734428
 20
60.334206
 40
2.998173
 50
33.504501
 51
326.495514
  0
ARC
  8
0
 10
36.736725
 20
30.338522
 40
2.997707
 50
0.013088
 51
146.588379
  0
ARC
  8
0
 10
36.733963
 20
30.339069
 40
3.000466
 50
213.586929
 51
0.002622
  0
CIRCLE
  8
0
 10
43.234432
 20
79.039207
 40
2.000000
  0
ARC
  8
0
 10
37.684433
 20
87.739212
 40
0.299999
 50
0.000000
 51
90.000000
  0
ARC
  8
0
 10
48.784431
 20
87.739212
 40
0.300003
 50
90.000000
 51
180.000000
  0
ARC
  8
0
 10
39.636909
 20
78.639206
 40
0.399997
 50
29.999716
 51
90.000000
  0
ARC
  8
0
 10
41.715370
 20
76.639206
 40
0.399997
 50
209.999710
 51
270.000000
  0
ARC
  8
0
 10
44.753494
 20
76.639206
 40
0.400002
 50
270.000000
 51
330.000275
  0
ARC
  8
0
 10
46.831955
 20
78.639206
 40
0.400002
 50
90.000000
 51
150.000290
  0
CIRCLE
  8
0
 10
43.234432
 20
79.039207
 40
0.800000
  0
ARC
  8
0
 62
     4
 10
47.934433
 20
106.839203
 40
0.299999
 50
0.000000
 51
90.000000
  0
ARC
  8
0
 62
     4
 10
38.534431
 20
106.839203
 40
0.300003
 50
90.000000
 51
180.000000
  0
ARC
  8
0
 10
39.361000
 20
18.164322
 40
0.673455
 50
299.677094
 51
359.564606
  0
ARC
  8
0
 10
35.100922
 20
18.160252
 40
0.666489
 50
180.089859
 51
240.668137
  0
ARC
  8
0
 10
34.732330
 20
16.437103
 40
0.497899
 50
179.757904
 51
270.242310
  0
ARC
  8
0
 10
51.731850
 20
16.441788
 40
0.502588
 50
270.294403
 51
359.705597
  0
ARC
  8
0
 10
40.932327
 20
16.437099
 40
0.497899
 50
179.757690
 51
270.242310
  0
ARC
  8
0
 10
37.234432
 20
21.939674
 40
5.006523
 50
240.570068
 51
299.429932
  0
ARC
  8
0
 10
34.732327
 20
19.837101
 40
0.497899
 50
179.757690
 51
270.242310
  0
ARC
  8
0
 10
39.932312
 20
18.837086
 40
0.502125
 50
0.241800
 51
89.757980
  0
CIRCLE
  8
0
 62
     2
 10
43.239731
 20
52.339664
 40
4.864349
  0
CIRCLE
  8
0
 10
43.239731
 20
52.339664
 40
4.283250
  0
CIRCLE
  8
0
 10
49.734432
 20
60.339207
 40
2.799999
  0
CIRCLE
  8
0
 10
36.734432
 20
30.339207
 40
2.799999
  0
CIRCLE
  8
0
 10
29.236807
 20
35.343803
 40
2.100010
  0
CIRCLE
  8
0
 10
29.236807
 20
55.343914
 40
2.100010
  0
CIRCLE
  8
0
 10
133.237366
 20
35.343803
 40
2.100010
  0
CIRCLE
  8
0
 10
133.237366
 20
55.343914
 40
2.100010
  0
TEXT
  8
0
 10
-259.999725
 20
5.329999
 40
6.300000
  1
TYPE
 50
0.000000
 41
1.052632
 51
0.000000
  7
STANDARD
  0
TEXT
  8
0
 10
-208.049713
 20
5.329999
 40
6.300000
  1
L
 50
0.000000
 41
1.052632
 51
0.000000
  7
STANDARD
  0
TEXT
  8
0
 10
-178.049713
 20
5.329999
 40
6.300000
  1
P
 50
0.000000
 41
1.052632
 51
0.000000
  7
STANDARD
  0
TEXT
  8
0
 10
-209.699722
 20
-4.670000
 40
6.300000
  1
57
 50
0.000000
 41
1.052632
 51
0.000000
  7
STANDARD
  0
TEXT
  8
0
 10
-209.699722
 20
-14.670000
 40
6.300000
  1
76
 50
0.000000
 41
1.052632
 51
0.000000
  7
STANDARD
  0
TEXT
  8
0
 10
-209.699722
 20
-24.670000
 40
6.300000
  1
95
 50
0.000000
 41
1.052632
 51
0.000000
  7
STANDARD
  0
TEXT
  8
0
 10
-215.849716
 20
-34.670002
 40
6.300000
  1
114
 50
0.000000
 41
1.052632
 51
0.000000
  7
STANDARD
  0
TEXT
  8
0
 10
-215.849716
 20
-44.670002
 40
6.300000
  1
133
 50
0.000000
 41
1.052632
 51
0.000000
  7
STANDARD
  0
TEXT
  8
0
 10
-215.849716
 20
-54.670002
 40
6.300000
  1
152
 50
0.000000
 41
1.052632
 51
0.000000
  7
STANDARD
  0
TEXT
  8
0
 10
-215.849716
 20
-64.669998
 40
6.300000
  1
171
 50
0.000000
 41
1.052632
 51
0.000000
  7
STANDARD
  0
TEXT
  8
0
 10
-215.849716
 20
-74.669998
 40
6.300000
  1
190
 50
0.000000
 41
1.052632
 51
0.000000
  7
STANDARD
  0
TEXT
  8
0
 10
-215.849716
 20
-84.669998
 40
6.300000
  1
209
 50
0.000000
 41
1.052632
 51
0.000000
  7
STANDARD
  0
TEXT
  8
0
 10
-215.849716
 20
-94.669998
 40
6.300000
  1
228
 50
0.000000
 41
1.052632
 51
0.000000
  7
STANDARD
  0
TEXT
  8
0
 10
-215.849716
 20
-104.669998
 40
6.300000
  1
247
 50
0.000000
 41
1.052632
 51
0.000000
  7
STANDARD
  0
TEXT
  8
0
 10
-215.849716
 20
-114.669998
 40
6.300000
  1
266
 50
0.000000
 41
1.052632
 51
0.000000
  7
STANDARD
  0
TEXT
  8
0
 10
-215.849716
 20
-124.669998
 40
6.300000
  1
285
 50
0.000000
 41
1.052632
 51
0.000000
  7
STANDARD
  0
TEXT
  8
0
 10
-215.849716
 20
-134.669998
 40
6.300000
  1
304
 50
0.000000
 41
1.052632
 51
0.000000
  7
STANDARD
  0
TEXT
  8
0
 10
-215.849716
 20
-144.669998
 40
6.300000
  1
323
 50
0.000000
 41
1.052632
 51
0.000000
  7
STANDARD
  0
TEXT
  8
0
 10
-215.849716
 20
-154.669998
 40
6.300000
  1
342
 50
0.000000
 41
1.052632
 51
0.000000
  7
STANDARD
  0
TEXT
  8
0
 10
-215.849716
 20
-164.669998
 40
6.300000
  1
361
 50
0.000000
 41
1.052632
 51
0.000000
  7
STANDARD
  0
TEXT
  8
0
 10
-215.849716
 20
-174.669998
 40
6.300000
  1
380
 50
0.000000
 41
1.052632
 51
0.000000
  7
STANDARD
  0
TEXT
  8
0
 10
-178.049713
 20
-4.670001
 40
6.300000
  1
47
 50
0.000000
 41
1.052632
 51
0.000000
  7
STANDARD
  0
TEXT
  8
0
 10
-178.049713
 20
-14.670001
 40
6.300000
  1
66
 50
0.000000
 41
1.052632
 51
0.000000
  7
STANDARD
  0
TEXT
  8
0
 10
-178.049713
 20
-24.670000
 40
6.300000
  1
85
 50
0.000000
 41
1.052632
 51
0.000000
  7
STANDARD
  0
TEXT
  8
0
 10
-184.349716
 20
-34.670002
 40
6.300000
  1
104
 50
0.000000
 41
1.052632
 51
0.000000
  7
STANDARD
  0
TEXT
  8
0
 10
-184.349716
 20
-44.670002
 40
6.300000
  1
123
 50
0.000000
 41
1.052632
 51
0.000000
  7
STANDARD
  0
TEXT
  8
0
 10
-184.349716
 20
-54.670002
 40
6.300000
  1
142
 50
0.000000
 41
1.052632
 51
0.000000
  7
STANDARD
  0
TEXT
  8
0
 10
-184.349716
 20
-64.669998
 40
6.300000
  1
161
 50
0.000000
 41
1.052632
 51
0.000000
  7
STANDARD
  0
TEXT
  8
0
 10
-184.349716
 20
-74.669998
 40
6.300000
  1
180
 50
0.000000
 41
1.052632
 51
0.000000
  7
STANDARD
  0
TEXT
  8
0
 10
-184.349716
 20
-84.669998
 40
6.300000
  1
199
 50
0.000000
 41
1.052632
 51
0.000000
  7
STANDARD
  0
TEXT
  8
0
 10
-184.349716
 20
-94.669998
 40
6.300000
  1
218
 50
0.000000
 41
1.052632
 51
0.000000
  7
STANDARD
  0
TEXT
  8
0
 10
-184.349716
 20
-104.669998
 40
6.300000
  1
237
 50
0.000000
 41
1.052632
 51
0.000000
  7
STANDARD
  0
TEXT
  8
0
 10
-184.349716
 20
-114.669998
 40
6.300000
  1
256
 50
0.000000
 41
1.052632
 51
0.000000
  7
STANDARD
  0
TEXT
  8
0
 10
-184.349716
 20
-124.669998
 40
6.300000
  1
275
 50
0.000000
 41
1.052632
 51
0.000000
  7
STANDARD
  0
TEXT
  8
0
 10
-184.349716
 20
-134.669998
 40
6.300000
  1
294
 50
0.000000
 41
1.052632
 51
0.000000
  7
STANDARD
  0
TEXT
  8
0
 10
-184.349716
 20
-144.669998
 40
6.300000
  1
313
 50
0.000000
 41
1.052632
 51
0.000000
  7
STANDARD
  0
TEXT
  8
0
 10
-184.349716
 20
-154.669998
 40
6.300000
  1
332
 50
0.000000
 41
1.052632
 51
0.000000
  7
STANDARD
  0
TEXT
  8
0
 10
-184.349716
 20
-164.669998
 40
6.300000
  1
351
 50
0.000000
 41
1.052632
 51
0.000000
  7
STANDARD
  0
TEXT
  8
0
 10
-184.349716
 20
-174.669998
 40
6.300000
  1
370
 50
0.000000
 41
1.052632
 51
0.000000
  7
STANDARD
  0
TEXT
  8
0
 10
-259.999725
 20
17.830000
 40
6.300000
  1
DIMENSION LIST
 50
0.000000
 41
1.052632
 51
0.000000
  7
STANDARD
  0
TEXT
  8
0
 10
-268.100006
 20
-104.669998
 40
6.300000
  1
G180M12F
 50
0.000000
 41
0.835422
 51
0.000000
  7
STANDARD
  0
TEXT
  8
0
 10
-268.100006
 20
-114.669998
 40
6.300000
  1
G180M13F
 50
0.000000
 41
0.835422
 51
0.000000
  7
STANDARD
  0
TEXT
  8
0
 10
-268.100006
 20
-124.669998
 40
6.300000
  1
G180M14F
 50
0.000000
 41
0.835422
 51
0.000000
  7
STANDARD
  0
TEXT
  8
0
 10
-268.100006
 20
-134.669998
 40
6.300000
  1
G180M15F
 50
0.000000
 41
0.835422
 51
0.000000
  7
STANDARD
  0
TEXT
  8
0
 10
-268.100006
 20
-144.669998
 40
6.300000
  1
G180M16F
 50
0.000000
 41
0.835422
 51
0.000000
  7
STANDARD
  0
TEXT
  8
0
 10
-268.100006
 20
-154.669998
 40
6.300000
  1
G180M17F
 50
0.000000
 41
0.835422
 51
0.000000
  7
STANDARD
  0
TEXT
  8
0
 10
-268.100006
 20
-164.669998
 40
6.300000
  1
G180M18F
 50
0.000000
 41
0.835422
 51
0.000000
  7
STANDARD
  0
TEXT
  8
0
 10
-268.100006
 20
-174.669998
 40
6.300000
  1
G180M19F
 50
0.000000
 41
0.835422
 51
0.000000
  7
STANDARD
  0
TEXT
  8
0
 10
-268.100006
 20
-84.669998
 40
6.300000
  1
G180M10F
 50
0.000000
 41
0.835422
 51
0.000000
  7
STANDARD
  0
TEXT
  8
0
 10
-268.100006
 20
-94.669998
 40
6.300000
  1
G180M11F
 50
0.000000
 41
0.835422
 51
0.000000
  7
STANDARD
  0
TEXT
  8
0
 10
-263.100006
 20
-4.670001
 40
6.300000
  1
G180M2F
 50
0.000000
 41
0.835422
 51
0.000000
  7
STANDARD
  0
TEXT
  8
0
 10
-263.100006
 20
-14.670001
 40
6.300000
  1
G180M3F
 50
0.000000
 41
0.835422
 51
0.000000
  7
STANDARD
  0
TEXT
  8
0
 10
-263.100006
 20
-24.670002
 40
6.300000
  1
G180M4F
 50
0.000000
 41
0.835422
 51
0.000000
  7
STANDARD
  0
TEXT
  8
0
 10
-263.100006
 20
-34.670002
 40
6.300000
  1
G180M5F
 50
0.000000
 41
0.835422
 51
0.000000
  7
STANDARD
  0
TEXT
  8
0
 10
-263.100006
 20
-44.670002
 40
6.300000
  1
G180M6F
 50
0.000000
 41
0.835422
 51
0.000000
  7
STANDARD
  0
TEXT
  8
0
 10
-263.100006
 20
-54.670002
 40
6.300000
  1
G180M7F
 50
0.000000
 41
0.835422
 51
0.000000
  7
STANDARD
  0
TEXT
  8
0
 10
-263.100006
 20
-64.669998
 40
6.300000
  1
G180M8F
 50
0.000000
 41
0.835422
 51
0.000000
  7
STANDARD
  0
TEXT
  8
0
 10
-263.100006
 20
-74.669998
 40
6.300000
  1
G180M9F
 50
0.000000
 41
0.835422
 51
0.000000
  7
STANDARD
  0
TEXT
  8
0
 10
-268.100006
 20
-184.669998
 40
6.300000
  1
G180M20F
 50
0.000000
 41
0.835422
 51
0.000000
  7
STANDARD
  0
TEXT
  8
0
 10
-215.849716
 20
-184.669998
 40
6.300000
  1
399
 50
0.000000
 41
1.052632
 51
0.000000
  7
STANDARD
  0
TEXT
  8
0
 10
-184.349716
 20
-184.669998
 40
6.300000
  1
389
 50
0.000000
 41
1.052632
 51
0.000000
  7
STANDARD
  0
TEXT
  8
0
 10
196.250259
 20
180.830002
 40
6.300000
  1
Ver. 1.0
 50
0.000000
 41
1.052632
 51
0.000000
  7
STANDARD
  0
TEXT
  8
0
 10
167.564651
 20
-192.100006
 40
9.000000
  1
KOGANEI CORP.
 50
0.000000
 41
1.052632
 51
0.000000
  7
STANDARD
  0
TEXT
  8
0
 10
-256.549713
 20
180.830002
 40
6.300000
  1
G180 SERIES
 50
0.000000
 41
1.052632
 51
0.000000
  7
STANDARD
  0
TEXT
  8
0
 10
-270.049713
 20
155.830002
 40
6.300000
  1
MODEL:G180MF
 50
0.000000
 41
1.052632
 51
0.000000
  7
STANDARD
  0
LINE
  8
0
 62
     2
 10
119.234436
 20
-139.190781
 11
126.475624
 21
-126.648682
  0
LINE
  8
0
 62
     2
 10
126.475624
 20
-126.648682
 11
138.989334
 21
-126.648674
  0
LINE
  8
0
 62
     2
 10
119.234436
 20
-139.190781
 11
121.355759
 21
-137.069458
  0
LINE
  8
0
 62
     2
 10
119.234436
 20
-139.190781
 11
120.010895
 21
-136.292999
  0
TEXT
  8
0
 62
     2
 10
128.725327
 20
-125.648674
 40
3.200000
  1
-BP
 50
0.000000
 41
1.052632
 51
0.000000
  7
STANDARD
  0
LINE
  8
0
 62
     2
 10
62.234440
 20
-109.090790
 11
46.629604
 21
-82.062431
  0
LINE
  8
0
 62
     2
 10
46.629604
 20
-82.062431
 11
4.369490
 21
-82.062431
  0
LINE
  8
0
 62
     2
 10
62.234440
 20
-109.090790
 11
61.457981
 21
-106.193016
  0
LINE
  8
0
 62
     2
 10
62.234440
 20
-109.090790
 11
60.113121
 21
-106.969467
  0
TEXT
  8
0
 62
     2
 10
4.619490
 20
-81.062431
 40
3.200000
  1
G180-4E1-PSL
 50
0.000000
 41
1.052632
 51
0.000000
  7
STANDARD
  0
LINE
  8
0
 62
     2
 10
81.896881
 20
-109.090797
 11
97.430077
 21
-82.186516
  0
LINE
  8
0
 62
     2
 10
97.430077
 20
-82.186516
 11
140.722870
 21
-82.186508
  0
LINE
  8
0
 62
     2
 10
81.896881
 20
-109.090797
 11
84.018204
 21
-106.969475
  0
LINE
  8
0
 62
     2
 10
81.896881
 20
-109.090797
 11
82.673340
 21
-106.193024
  0
TEXT
  8
0
 62
     2
 10
101.658867
 20
-81.186508
 40
3.200000
  1
G180-4E2-PSL
 50
0.000000
 41
1.052632
 51
0.000000
  7
STANDARD
  0
LINE
  8
0
 62
     2
 10
100.896896
 20
-109.090797
 11
106.793434
 21
-98.877693
  0
LINE
  8
0
 62
     2
 10
106.793434
 20
-98.877693
 11
147.411423
 21
-98.877693
  0
LINE
  8
0
 62
     2
 10
100.896896
 20
-109.090797
 11
103.018219
 21
-106.969475
  0
LINE
  8
0
 62
     2
 10
100.896896
 20
-109.090797
 11
101.673355
 21
-106.193024
  0
TEXT
  8
0
 62
     2
 10
108.347420
 20
-97.877693
 40
3.200000
  1
G183-4E2-PSL
 50
0.000000
 41
1.052632
 51
0.000000
  7
STANDARD
  0
LINE
  8
0
 62
     2
 10
43.234432
 20
-109.090790
 11
37.337894
 21
-98.877686
  0
LINE
  8
0
 62
     2
 10
37.337894
 20
-98.877686
 11
2.975278
 21
-98.877686
  0
LINE
  8
0
 62
     2
 10
43.234432
 20
-109.090790
 11
42.457973
 21
-106.193016
  0
LINE
  8
0
 62
     2
 10
43.234432
 20
-109.090790
 11
41.113113
 21
-106.969467
  0
TEXT
  8
0
 62
     2
 10
3.225278
 20
-97.877686
 40
3.200000
  1
G180E1-PSL
 50
0.000000
 41
1.052632
 51
0.000000
  7
STANDARD
  0
TEXT
  8
0
 62
     2
 10
24.927433
 20
147.325928
 40
3.200000
  1
5
 50
0.000000
 41
1.052632
 51
0.000000
  7
STANDARD
  0
LINE
  8
0
 62
     2
 10
24.234432
 20
146.325928
 11
29.234432
 21
146.325928
  0
LINE
  8
0
 62
     2
 10
24.234432
 20
146.325928
 11
21.336655
 21
145.549469
  0
LINE
  8
0
 62
     2
 10
24.234432
 20
146.325928
 11
21.336655
 21
147.102386
  0
LINE
  8
0
 62
     2
 10
24.234432
 20
146.325928
 11
18.234432
 21
146.325928
  0
LINE
  8
0
 62
     2
 10
29.234432
 20
146.325928
 11
32.132210
 21
147.102386
  0
LINE
  8
0
 62
     2
 10
29.234432
 20
146.325928
 11
32.132210
 21
145.549469
  0
LINE
  8
0
 62
     2
 10
29.234432
 20
146.325928
 11
35.234432
 21
146.325928
  0
LINE
  8
0
 62
     2
 10
24.234432
 20
74.339211
 11
24.234432
 21
147.825928
  0
LINE
  8
0
 62
     2
 10
29.234432
 20
55.339207
 11
29.234432
 21
147.825928
  0
TEXT
  8
0
 62
     2
 10
79.427437
 20
147.325928
 40
3.200000
  1
P
 50
0.000000
 41
1.052632
 51
0.000000
  7
STANDARD
  0
LINE
  8
0
 62
     2
 10
29.234432
 20
146.325928
 11
133.234436
 21
146.325928
  0
LINE
  8
0
 62
     2
 10
29.234432
 20
146.325928
 11
32.132210
 21
147.102386
  0
LINE
  8
0
 62
     2
 10
29.234432
 20
146.325928
 11
32.132210
 21
145.549469
  0
LINE
  8
0
 62
     2
 10
133.234436
 20
146.325928
 11
130.336655
 21
145.549469
  0
LINE
  8
0
 62
     2
 10
133.234436
 20
146.325928
 11
130.336655
 21
147.102386
  0
LINE
  8
0
 62
     2
 10
29.234432
 20
55.339207
 11
29.234432
 21
147.825928
  0
LINE
  8
0
 62
     2
 10
133.234436
 20
55.339207
 11
133.234436
 21
147.825928
  0
TEXT
  8
0
 62
     2
 10
144.379105
 20
147.325928
 40
3.200000
  1
5
 50
0.000000
 41
1.052632
 51
0.000000
  7
STANDARD
  0
LINE
  8
0
 62
     2
 10
138.234436
 20
146.325928
 11
147.329117
 21
146.325928
  0
LINE
  8
0
 62
     2
 10
133.234436
 20
146.325928
 11
138.234436
 21
146.325928
  0
LINE
  8
0
 62
     2
 10
133.234436
 20
146.325928
 11
130.336655
 21
145.549469
  0
LINE
  8
0
 62
     2
 10
133.234436
 20
146.325928
 11
130.336655
 21
147.102386
  0
LINE
  8
0
 62
     2
 10
133.234436
 20
146.325928
 11
127.234436
 21
146.325928
  0
LINE
  8
0
 62
     2
 10
138.234436
 20
146.325928
 11
141.132217
 21
147.102386
  0
LINE
  8
0
 62
     2
 10
138.234436
 20
146.325928
 11
141.132217
 21
145.549469
  0
LINE
  8
0
 62
     2
 10
138.234436
 20
146.325928
 11
144.234436
 21
146.325928
  0
LINE
  8
0
 62
     2
 10
133.234436
 20
55.339207
 11
133.234436
 21
147.825928
  0
LINE
  8
0
 62
     2
 10
138.234436
 20
74.339211
 11
138.234436
 21
147.825928
  0
TEXT
  8
0
 62
     2
 10
79.427437
 20
158.442719
 40
3.200000
  1
L
 50
0.000000
 41
1.052632
 51
0.000000
  7
STANDARD
  0
LINE
  8
0
 62
     2
 10
24.234432
 20
157.442719
 11
138.234436
 21
157.442719
  0
LINE
  8
0
 62
     2
 10
24.234432
 20
157.442719
 11
27.132210
 21
158.219177
  0
LINE
  8
0
 62
     2
 10
24.234432
 20
157.442719
 11
27.132210
 21
156.666260
  0
LINE
  8
0
 62
     2
 10
138.234436
 20
157.442719
 11
135.336655
 21
156.666260
  0
LINE
  8
0
 62
     2
 10
138.234436
 20
157.442719
 11
135.336655
 21
158.219177
  0
LINE
  8
0
 62
     2
 10
24.234432
 20
74.339218
 11
24.234432
 21
158.942719
  0
LINE
  8
0
 62
     2
 10
138.234436
 20
74.339218
 11
138.234436
 21
158.942719
  0
ENDSEC
  0
EOF
