  0
SECTION
  2
HEADER
  0
ENDSEC
  0
SECTION
  2
TABLES
  0
TABLE
  2
LTYPE
 70
     4
  0
LTYPE
  2
CONTINUOUS
 70
    64
  3
Solid line
 72
    65
 73
     0
 40
0.000000
  0
LTYPE
  2
DASHED
 70
    64
  3
__ __ __ __ __ __ __ __ __ __ __ __ __ __ __
 72
    65
 73
     2
 40
3.500000
 49
2.000000
 49
-1.500000
  0
LTYPE
  2
CENTER
 70
    64
  3
____ _ ____ _ ____ _ ____ _ ____ _ ____ _ ____
 72
    65
 73
     4
 40
17.500000
 49
13.000000
 49
-1.500000
 49
1.500000
 49
-1.500000
  0
LTYPE
  2
PHANTOM
 70
    64
  3
_____ _ _ _____ _ _ _____ _ _ _____ _ _ ____  
 72
    65
 73
     6
 40
15.500000
 49
8.000000
 49
-1.500000
 49
1.500000
 49
-1.500000
 49
1.500000
 49
-1.500000
  0
LTYPE
  2
DASHED1
 70
    64
  3
__ __ __ __ __ __ __ __ __ __ __ __ __ __ __
 72
    65
 73
     2
 40
1.500000
 49
1.000000
 49
-0.500000
  0
LTYPE
  2
DASHED2
 70
    64
  3
__ __ __ __ __ __ __ __ __ __ __ __ __ __ __
 72
    65
 73
     2
 40
3.500000
 49
2.500000
 49
-1.000000
  0
LTYPE
  2
DASHED3
 70
    64
  3
__ __ __ __ __ __ __ __ __ __ __ __ __ __ __
 72
    65
 73
     2
 40
6.000000
 49
4.000000
 49
-2.000000
  0
LTYPE
  2
DASHED4
 70
    64
  3
__ __ __ __ __ __ __ __ __ __ __ __ __ __ __
 72
    65
 73
     2
 40
12.000000
 49
10.000000
 49
-2.000000
  0
LTYPE
  2
DASHED5
 70
    64
  3
__ __ __ __ __ __ __ __ __ __ __ __ __ __ __
 72
    65
 73
     2
 40
17.000000
 49
15.000000
 49
-2.000000
  0
LTYPE
  2
DASHED6
 70
    64
  3
__ __ __ __ __ __ __ __ __ __ __ __ __ __ __
 72
    65
 73
     2
 40
29.000000
 49
27.000000
 49
-2.000000
  0
LTYPE
  2
PHANTOM1
 70
    64
  3
_____ _ _ _____ _ _ _____ _ _ _____ _ _ ____  
 72
    65
 73
     6
 40
31.000000
 49
25.000000
 49
-1.500000
 49
1.000000
 49
-1.000000
 49
1.000000
 49
-1.500000
  0
LTYPE
  2
PHANTOM2
 70
    64
  3
_____ _ _ _____ _ _ _____ _ _ _____ _ _ ____  
 72
    65
 73
     6
 40
36.000000
 49
27.000000
 49
-1.500000
 49
2.500000
 49
-1.000000
 49
2.500000
 49
-1.500000
  0
LTYPE
  2
PHANTOM3
 70
    64
  3
_____ _ _ _____ _ _ _____ _ _ _____ _ _ ____  
 72
    65
 73
     6
 40
78.000000
 49
64.000000
 49
-2.000000
 49
4.000000
 49
-2.000000
 49
4.000000
 49
-2.000000
  0
LTYPE
  2
CENTER1
 70
    64
  3
____ _ ____ _ ____ _ ____ _ ____ _ ____ _ ____
 72
    65
 73
     4
 40
19.000000
 49
14.000000
 49
-1.000000
 49
3.000000
 49
-1.000000
  0
LTYPE
  2
CENTER2
 70
    64
  3
____ _ ____ _ ____ _ ____ _ ____ _ ____ _ ____
 72
    65
 73
     4
 40
28.500000
 49
25.000000
 49
-1.000000
 49
1.500000
 49
-1.000000
  0
LTYPE
  2
CENTER3
 70
    64
  3
____ _ ____ _ ____ _ ____ _ ____ _ ____ _ ____
 72
    65
 73
     4
 40
31.500000
 49
27.000000
 49
-1.000000
 49
2.500000
 49
-1.000000
  0
LTYPE
  2
CENTER4
 70
    64
  3
____ _ ____ _ ____ _ ____ _ ____ _ ____ _ ____
 72
    65
 73
     4
 40
50.000000
 49
45.000000
 49
-1.000000
 49
3.000000
 49
-1.000000
  0
LTYPE
  2
CENTER5
 70
    64
  3
____ _ ____ _ ____ _ ____ _ ____ _ ____ _ ____
 72
    65
 73
     4
 40
100.000000
 49
92.000000
 49
-2.000000
 49
4.000000
 49
-2.000000
  0
LTYPE
  2
SBK1
 70
    64
  3
______ _ _ _ ______ _ _ _ ______ _ _ _ _____  
 72
    65
 73
     8
 40
60.500000
 49
45.000000
 49
-2.000000
 49
2.500000
 49
-2.000000
 49
2.500000
 49
-2.000000
 49
2.500000
 49
-2.000000
  0
LTYPE
  2
SBK2
 70
    64
  3
______ _ _ _ ______ _ _ _ ______ _ _ _ _____  
 72
    65
 73
     8
 40
84.000000
 49
64.000000
 49
-2.000000
 49
4.000000
 49
-2.000000
 49
4.000000
 49
-2.000000
 49
4.000000
 49
-2.000000
  0
LTYPE
  2
STCH
 70
    64
  3
__ __ __ __ __ __ __ __ __ __ __ __ __ __ __
 72
    65
 73
     2
 40
3.000000
 49
1.000000
 49
-2.000000
  0
LTYPE
  2
MTCH
 70
    64
  3
_____ _ _ _____ _ _ _____ _ _ _____ _ _ ____  
 72
    65
 73
     6
 40
80.000000
 49
66.000000
 49
-2.000000
 49
4.000000
 49
-2.000000
 49
4.000000
 49
-2.000000
  0
ENDTAB
  0
TABLE
  2
LAYER
 70
     1
  0
LAYER
  2
0
 70
     0
 62
     7
  6
CONTINUOUS
  0
ENDTAB
  0
TABLE
  2
STYLE
 70
     1
  0
STYLE
  2
STANDARD
 70
     0
 40
0.000000
 41
1.000000
 50
0.000000
 71
     0
 42
0.200000
  3
txt
  4
BIGFONT
  0
ENDTAB
  0
TABLE
  2
VIEW
 70
     0
  0
ENDTAB
  0
ENDSEC
  0
SECTION
  2
BLOCKS
  0
ENDSEC
  0
SECTION
  2
ENTITIES
  0
LINE
  8
0
 10
57.700222
 20
-132.428741
 11
59.070225
 21
-132.928741
  0
LINE
  8
0
 10
64.200226
 20
-132.928741
 11
59.070229
 21
-132.928741
  0
LINE
  8
0
 10
64.200226
 20
-132.928741
 11
64.200226
 21
-133.928741
  0
LINE
  8
0
 10
47.200226
 20
-133.928741
 11
64.200226
 21
-133.928741
  0
LINE
  8
0
 10
47.200226
 20
-132.928741
 11
47.200226
 21
-133.928741
  0
LINE
  8
0
 10
52.330223
 20
-132.928741
 11
47.200226
 21
-132.928741
  0
LINE
  8
0
 10
52.330227
 20
-132.928741
 11
53.700226
 21
-132.428741
  0
LINE
  8
0
 10
57.700226
 20
-132.428741
 11
53.700226
 21
-132.428741
  0
LINE
  8
0
 10
38.700230
 20
-132.428741
 11
40.070229
 21
-132.928741
  0
LINE
  8
0
 10
45.200226
 20
-132.928741
 11
40.070225
 21
-132.928741
  0
LINE
  8
0
 10
45.200226
 20
-132.928741
 11
45.200226
 21
-133.928741
  0
LINE
  8
0
 10
28.200226
 20
-133.928741
 11
45.200226
 21
-133.928741
  0
LINE
  8
0
 10
28.200226
 20
-132.928741
 11
28.200226
 21
-133.928741
  0
LINE
  8
0
 10
33.330223
 20
-132.928741
 11
28.200226
 21
-132.928741
  0
LINE
  8
0
 10
33.330227
 20
-132.928741
 11
34.700226
 21
-132.428741
  0
LINE
  8
0
 10
38.700226
 20
-132.428741
 11
34.700226
 21
-132.428741
  0
LINE
  8
0
 10
17.700226
 20
-142.928741
 11
131.700226
 21
-142.928741
  0
LINE
  8
0
 10
17.700226
 20
-149.928741
 11
131.700226
 21
-149.928741
  0
LINE
  8
0
 10
17.700226
 20
-160.928741
 11
131.700226
 21
-160.928741
  0
LINE
  8
0
 10
47.200226
 20
-112.128738
 11
49.700226
 21
-112.128738
  0
LINE
  8
0
 10
52.900223
 20
-108.928741
 11
52.900223
 21
-106.428741
  0
LINE
  8
0
 10
58.500229
 20
-132.428741
 11
58.500229
 21
-129.928741
  0
LINE
  8
0
 10
61.700226
 20
-126.728745
 11
64.200226
 21
-126.728745
  0
LINE
  8
0
 10
47.200226
 20
-105.928741
 11
64.200226
 21
-105.928741
  0
LINE
  8
0
 10
46.700226
 20
-132.428741
 11
46.700226
 21
-106.428741
  0
LINE
  8
0
 10
64.700226
 20
-132.428741
 11
64.700226
 21
-106.428741
  0
LINE
  8
0
 10
48.632725
 20
-109.991241
 11
50.757725
 21
-107.866241
  0
LINE
  8
0
 10
48.607422
 20
-107.895897
 11
50.755222
 21
-109.993744
  0
LINE
  8
0
 10
60.607426
 20
-128.861359
 11
62.755219
 21
-130.959198
  0
LINE
  8
0
 10
60.632721
 20
-130.956696
 11
62.757721
 21
-128.831711
  0
LINE
  8
0
 10
46.700226
 20
-100.528740
 11
46.700226
 21
-106.428741
  0
LINE
  8
0
 10
64.700226
 20
-100.528740
 11
64.700226
 21
-106.428741
  0
LINE
  8
0
 10
59.066803
 20
-100.528740
 11
59.066803
 21
-105.428741
  0
LINE
  8
0
 10
52.333645
 20
-100.528740
 11
52.333645
 21
-105.428741
  0
LINE
  8
0
 10
53.950226
 20
-100.528740
 11
53.950226
 21
-105.428741
  0
LINE
  8
0
 10
57.450226
 20
-100.528740
 11
57.450226
 21
-105.428741
  0
LINE
  8
0
 10
47.100227
 20
-100.128738
 11
64.300224
 21
-100.128738
  0
LINE
  8
0
 10
50.700226
 20
-99.928741
 11
50.700226
 21
-100.128738
  0
LINE
  8
0
 10
60.700226
 20
-99.928741
 11
60.700226
 21
-100.128738
  0
LINE
  8
0
 10
60.400223
 20
-99.628738
 11
51.000225
 21
-99.628738
  0
LINE
  8
0
  6
CENTER
 62
     2
 10
55.700226
 20
-134.928741
 11
55.700226
 21
-97.492691
  0
LINE
  8
0
 10
41.400223
 20
-99.628738
 11
32.000225
 21
-99.628738
  0
LINE
  8
0
 10
41.700226
 20
-99.928741
 11
41.700226
 21
-100.128738
  0
LINE
  8
0
 10
31.700226
 20
-99.928741
 11
31.700226
 21
-100.128738
  0
LINE
  8
0
 10
28.100225
 20
-100.128738
 11
45.300224
 21
-100.128738
  0
LINE
  8
0
 10
38.450226
 20
-100.528740
 11
38.450226
 21
-105.428741
  0
LINE
  8
0
 10
34.950226
 20
-100.528740
 11
34.950226
 21
-105.428741
  0
LINE
  8
0
 10
33.333645
 20
-100.528740
 11
33.333645
 21
-105.428741
  0
LINE
  8
0
 10
40.066807
 20
-100.528740
 11
40.066807
 21
-105.428741
  0
LINE
  8
0
 10
45.700226
 20
-100.528740
 11
45.700226
 21
-106.428741
  0
LINE
  8
0
 10
27.700226
 20
-100.528740
 11
27.700226
 21
-106.428741
  0
LINE
  8
0
  6
CENTER
 62
     2
 10
93.700226
 20
-134.928741
 11
93.700226
 21
-97.492691
  0
LINE
  8
0
 62
     4
 10
88.700226
 20
-99.928741
 11
88.700226
 21
-131.628738
  0
LINE
  8
0
 62
     4
 10
98.700226
 20
-99.928741
 11
98.700226
 21
-131.628738
  0
LINE
  8
0
 62
     4
 10
97.907326
 20
-123.835838
 11
96.493118
 21
-122.421638
  0
LINE
  8
0
 62
     4
 10
97.907333
 20
-122.421638
 11
96.493118
 21
-123.835846
  0
LINE
  8
0
 62
     4
 10
89.493118
 20
-122.421631
 11
90.907333
 21
-123.835846
  0
LINE
  8
0
 62
     4
 10
89.493118
 20
-123.835846
 11
90.907333
 21
-122.421631
  0
LINE
  8
0
 62
     4
 10
95.525742
 20
-121.078743
 11
91.874710
 21
-121.078743
  0
LINE
  8
0
 62
     4
 10
95.525742
 20
-121.678741
 11
91.874710
 21
-121.678741
  0
LINE
  8
0
  6
CENTER
 62
     2
 10
96.200226
 20
-121.378738
 11
91.200226
 21
-121.378738
  0
LINE
  8
0
 62
     4
 10
88.700226
 20
-121.528740
 11
90.200226
 21
-121.528740
  0
LINE
  8
0
 62
     4
 10
90.200226
 20
-124.728745
 11
88.700226
 21
-124.728745
  0
LINE
  8
0
 62
     4
 10
98.700226
 20
-124.728745
 11
97.200226
 21
-124.728745
  0
LINE
  8
0
 62
     4
 10
97.200226
 20
-121.528740
 11
98.700226
 21
-121.528740
  0
LINE
  8
0
 62
     4
 10
98.700226
 20
-117.228745
 11
98.400230
 21
-117.228745
  0
LINE
  8
0
 62
     4
 10
88.700226
 20
-117.726822
 11
98.700226
 21
-117.726822
  0
LINE
  8
0
 62
     4
 10
91.050224
 20
-125.228745
 11
88.700226
 21
-125.228745
  0
LINE
  8
0
 62
     4
 10
92.300224
 20
-123.978745
 11
95.100227
 21
-123.978745
  0
LINE
  8
0
 62
     4
 10
96.350220
 20
-125.228745
 11
95.100212
 21
-123.978737
  0
LINE
  8
0
 62
     4
 10
98.700226
 20
-125.228745
 11
96.350227
 21
-125.228745
  0
LINE
  8
0
 62
     4
 10
92.555855
 20
-124.419556
 11
94.844597
 21
-124.419556
  0
LINE
  8
0
 62
     4
 10
91.305855
 20
-125.669556
 11
88.700226
 21
-125.669556
  0
LINE
  8
0
 62
     4
 10
98.700226
 20
-125.669556
 11
96.094597
 21
-125.669556
  0
LINE
  8
0
 62
     4
 10
94.844589
 20
-124.419556
 11
96.094597
 21
-125.669563
  0
LINE
  8
0
 62
     4
 10
98.700226
 20
-118.537926
 11
88.700226
 21
-118.537926
  0
LINE
  8
0
 62
     4
 10
94.844604
 20
-124.419563
 11
95.100235
 21
-123.978752
  0
LINE
  8
0
 62
     4
 10
92.555855
 20
-124.419556
 11
91.305855
 21
-125.669556
  0
LINE
  8
0
 62
     4
 10
91.050224
 20
-125.228745
 11
92.300224
 21
-123.978745
  0
LINE
  8
0
 62
     4
 10
92.555855
 20
-124.419556
 11
92.300232
 21
-123.978745
  0
LINE
  8
0
 62
     4
 10
96.350235
 20
-125.228752
 11
96.094604
 21
-125.669571
  0
LINE
  8
0
 62
     4
 10
91.305855
 20
-125.669556
 11
91.050232
 21
-125.228745
  0
LINE
  8
0
 62
     1
 10
92.200226
 20
-104.628738
 11
92.200226
 21
-99.628738
  0
LINE
  8
0
 62
     1
 10
92.200226
 20
-104.628738
 11
95.200226
 21
-104.628738
  0
LINE
  8
0
 62
     1
 10
95.200226
 20
-104.628738
 11
95.200226
 21
-99.628738
  0
LINE
  8
0
 62
     4
 10
98.700226
 20
-117.128738
 11
98.400230
 21
-117.128738
  0
LINE
  8
0
 62
     4
 10
98.400230
 20
-99.628738
 11
89.000229
 21
-99.628738
  0
LINE
  8
0
 62
     4
 10
89.000229
 20
-111.828743
 11
91.200226
 21
-111.828743
  0
LINE
  8
0
 62
     4
 10
90.800224
 20
-112.828743
 11
91.200226
 21
-112.828743
  0
LINE
  8
0
 62
     4
 10
90.800224
 20
-112.828743
 11
90.800224
 21
-111.828743
  0
LINE
  8
0
 62
     4
 10
96.600227
 20
-112.828743
 11
96.600227
 21
-111.828743
  0
LINE
  8
0
 62
     4
 10
90.800224
 20
-112.328743
 11
96.600227
 21
-112.328743
  0
LINE
  8
0
 62
     4
 10
96.200226
 20
-110.828743
 11
96.200226
 21
-113.328743
  0
LINE
  8
0
 62
     4
 10
91.200226
 20
-110.828743
 11
91.200226
 21
-113.328743
  0
LINE
  8
0
 62
     4
 10
97.190224
 20
-113.828735
 11
97.314224
 21
-115.716743
  0
LINE
  8
0
 62
     4
 10
96.790230
 20
-115.928741
 11
96.790230
 21
-116.428741
  0
LINE
  8
0
 62
     4
 10
95.690224
 20
-116.428741
 11
96.790230
 21
-116.428741
  0
LINE
  8
0
 62
     4
 10
95.690224
 20
-115.928741
 11
95.690224
 21
-116.428741
  0
LINE
  8
0
 62
     4
 10
95.364227
 20
-115.928741
 11
97.114227
 21
-115.928741
  0
LINE
  8
0
 62
     4
 10
95.164230
 20
-115.716743
 11
95.290230
 21
-113.828743
  0
LINE
  8
0
 62
     4
 10
95.290230
 20
-113.828743
 11
97.190224
 21
-113.828743
  0
LINE
  8
0
 62
     4
 10
94.100227
 20
-115.228745
 11
93.300224
 21
-115.228745
  0
LINE
  8
0
 62
     4
 10
94.100227
 20
-114.428741
 11
94.100227
 21
-115.228745
  0
LINE
  8
0
 62
     4
 10
94.100227
 20
-114.428741
 11
93.300224
 21
-114.428741
  0
LINE
  8
0
 62
     4
 10
93.300224
 20
-114.428741
 11
93.300224
 21
-115.228745
  0
LINE
  8
0
 62
     4
 10
94.650223
 20
-113.828743
 11
94.774223
 21
-115.716743
  0
LINE
  8
0
 62
     4
 10
94.250229
 20
-115.928741
 11
94.250229
 21
-116.428741
  0
LINE
  8
0
 62
     4
 10
93.150230
 20
-116.428741
 11
94.250229
 21
-116.428741
  0
LINE
  8
0
 62
     4
 10
93.150230
 20
-115.928741
 11
93.150230
 21
-116.428741
  0
LINE
  8
0
 62
     4
 10
92.824226
 20
-115.928741
 11
94.574226
 21
-115.928741
  0
LINE
  8
0
 62
     4
 10
92.624222
 20
-115.716743
 11
92.750221
 21
-113.828743
  0
LINE
  8
0
 62
     4
 10
92.750229
 20
-113.828743
 11
94.650230
 21
-113.828743
  0
LINE
  8
0
 62
     4
 10
90.084221
 20
-115.716743
 11
90.210228
 21
-113.828735
  0
LINE
  8
0
 62
     4
 10
92.110222
 20
-113.828743
 11
92.234222
 21
-115.716743
  0
LINE
  8
0
 62
     4
 10
97.400230
 20
-113.328743
 11
97.400230
 21
-112.328743
  0
LINE
  8
0
 62
     4
 10
98.400230
 20
-112.328743
 11
97.400230
 21
-112.328743
  0
LINE
  8
0
 62
     4
 10
90.000229
 20
-113.328743
 11
90.000229
 21
-112.328743
  0
LINE
  8
0
 62
     4
 10
89.000229
 20
-112.328743
 11
90.000229
 21
-112.328743
  0
LINE
  8
0
 62
     4
 10
92.450226
 20
-112.328743
 11
92.450226
 21
-113.328743
  0
LINE
  8
0
 62
     4
 10
94.950226
 20
-112.328743
 11
94.950226
 21
-113.328743
  0
LINE
  8
0
 62
     4
 10
90.610229
 20
-116.428741
 11
91.710228
 21
-116.428741
  0
LINE
  8
0
 62
     4
 10
90.284225
 20
-115.928741
 11
92.034225
 21
-115.928741
  0
LINE
  8
0
 62
     4
 10
90.210228
 20
-113.828743
 11
92.110229
 21
-113.828743
  0
LINE
  8
0
 62
     4
 10
91.710228
 20
-115.928741
 11
91.710228
 21
-116.428741
  0
LINE
  8
0
 62
     4
 10
90.610229
 20
-115.928741
 11
90.610229
 21
-116.428741
  0
LINE
  8
0
 62
     4
 10
89.000229
 20
-117.628738
 11
98.400230
 21
-117.628738
  0
LINE
  8
0
 62
     4
 10
98.400230
 20
-117.628738
 11
98.400230
 21
-112.328743
  0
LINE
  8
0
 62
     4
 10
89.000229
 20
-117.628738
 11
89.000229
 21
-112.328743
  0
LINE
  8
0
 62
     4
 10
90.000229
 20
-113.328743
 11
97.400230
 21
-113.328743
  0
LINE
  8
0
 62
     4
 10
91.200226
 20
-110.828743
 11
96.200226
 21
-110.828743
  0
LINE
  8
0
 62
     4
 10
91.200226
 20
-112.028740
 11
96.200226
 21
-112.028740
  0
LINE
  8
0
 62
     4
 10
96.200226
 20
-112.828743
 11
96.600227
 21
-112.828743
  0
LINE
  8
0
 62
     4
 10
96.200226
 20
-111.828743
 11
98.400230
 21
-111.828743
  0
LINE
  8
0
 62
     4
 10
89.000229
 20
-117.228745
 11
88.700226
 21
-117.228745
  0
LINE
  8
0
 62
     4
 10
89.000229
 20
-117.128738
 11
88.700226
 21
-117.128738
  0
LINE
  8
0
 62
     4
 10
98.700226
 20
-131.628738
 11
88.700226
 21
-131.628738
  0
LINE
  8
0
 10
98.950226
 20
-127.024002
 11
98.950226
 21
-100.128738
  0
LINE
  8
0
 10
88.450226
 20
-131.828735
 11
88.450226
 21
-114.833481
  0
LINE
  8
0
 10
102.700226
 20
-132.928741
 11
84.700226
 21
-132.928741
  0
LINE
  8
0
 10
102.700226
 20
-100.128738
 11
98.700226
 21
-100.128738
  0
LINE
  8
0
 10
102.700226
 20
-132.928741
 11
102.700226
 21
-100.128738
  0
LINE
  8
0
 10
84.700226
 20
-132.928741
 11
84.700226
 21
-100.128738
  0
LINE
  8
0
 10
87.700226
 20
-132.128738
 11
87.700226
 21
-114.928741
  0
LINE
  8
0
 10
96.700226
 20
-132.428741
 11
88.000229
 21
-132.428741
  0
LINE
  8
0
 10
87.700226
 20
-108.928741
 11
84.700226
 21
-108.928741
  0
LINE
  8
0
 10
87.700226
 20
-114.928741
 11
84.700226
 21
-114.928741
  0
LINE
  8
0
 10
99.700226
 20
-126.928741
 11
102.700226
 21
-126.928741
  0
LINE
  8
0
 10
96.700226
 20
-131.628738
 11
96.700226
 21
-132.928741
  0
LINE
  8
0
 10
87.700226
 20
-108.928741
 11
87.700226
 21
-100.128738
  0
LINE
  8
0
 10
88.450226
 20
-109.024002
 11
88.450226
 21
-100.128738
  0
LINE
  8
0
 10
99.700226
 20
-126.928741
 11
99.700226
 21
-100.128738
  0
LINE
  8
0
 10
88.700226
 20
-100.128738
 11
84.700226
 21
-100.128738
  0
LINE
  8
0
 10
96.700226
 20
-131.828735
 11
88.073463
 21
-131.828735
  0
LINE
  8
0
 10
86.286011
 20
-110.514526
 11
88.700226
 21
-112.928741
  0
LINE
  8
0
 10
86.286011
 20
-113.342957
 11
88.700226
 21
-110.928741
  0
LINE
  8
0
 10
98.700226
 20
-128.928741
 11
101.114441
 21
-131.342957
  0
LINE
  8
0
 10
98.700218
 20
-130.928726
 11
101.114433
 21
-128.514526
  0
LINE
  8
0
 10
79.700218
 20
-130.928726
 11
82.114433
 21
-128.514526
  0
LINE
  8
0
 10
79.700226
 20
-128.928741
 11
82.114441
 21
-131.342957
  0
LINE
  8
0
 10
67.286011
 20
-113.342957
 11
69.700226
 21
-110.928741
  0
LINE
  8
0
 10
67.286011
 20
-110.514526
 11
69.700226
 21
-112.928741
  0
LINE
  8
0
 10
77.700226
 20
-131.828735
 11
69.073456
 21
-131.828735
  0
LINE
  8
0
 10
69.700226
 20
-100.128738
 11
65.700226
 21
-100.128738
  0
LINE
  8
0
 10
80.700226
 20
-126.928741
 11
80.700226
 21
-100.128738
  0
LINE
  8
0
 10
69.450226
 20
-109.024002
 11
69.450226
 21
-100.128738
  0
LINE
  8
0
 10
68.700226
 20
-108.928741
 11
68.700226
 21
-100.128738
  0
LINE
  8
0
 10
77.700226
 20
-131.628738
 11
77.700226
 21
-132.928741
  0
LINE
  8
0
 10
80.700226
 20
-126.928741
 11
83.700226
 21
-126.928741
  0
LINE
  8
0
 10
68.700226
 20
-114.928741
 11
65.700226
 21
-114.928741
  0
LINE
  8
0
 10
68.700226
 20
-108.928741
 11
65.700226
 21
-108.928741
  0
LINE
  8
0
 10
77.700226
 20
-132.428741
 11
69.000229
 21
-132.428741
  0
LINE
  8
0
 10
68.700226
 20
-132.128738
 11
68.700226
 21
-114.928741
  0
LINE
  8
0
 10
65.700226
 20
-132.928741
 11
65.700226
 21
-100.128738
  0
LINE
  8
0
 10
83.700226
 20
-132.928741
 11
83.700226
 21
-100.128738
  0
LINE
  8
0
 10
83.700226
 20
-100.128738
 11
79.700226
 21
-100.128738
  0
LINE
  8
0
 10
83.700226
 20
-132.928741
 11
65.700226
 21
-132.928741
  0
LINE
  8
0
 10
69.450226
 20
-131.828735
 11
69.450226
 21
-114.833481
  0
LINE
  8
0
 10
79.950226
 20
-127.024002
 11
79.950226
 21
-100.128738
  0
LINE
  8
0
 62
     4
 10
79.700226
 20
-131.628738
 11
69.700226
 21
-131.628738
  0
LINE
  8
0
 62
     4
 10
70.000229
 20
-117.128738
 11
69.700226
 21
-117.128738
  0
LINE
  8
0
 62
     4
 10
70.000229
 20
-117.228745
 11
69.700226
 21
-117.228745
  0
LINE
  8
0
 62
     4
 10
77.200226
 20
-111.828743
 11
79.400223
 21
-111.828743
  0
LINE
  8
0
 62
     4
 10
77.200226
 20
-112.828743
 11
77.600227
 21
-112.828743
  0
LINE
  8
0
 62
     4
 10
72.200226
 20
-112.028740
 11
77.200226
 21
-112.028740
  0
LINE
  8
0
 62
     4
 10
72.200226
 20
-110.828743
 11
77.200226
 21
-110.828743
  0
LINE
  8
0
 62
     4
 10
71.000229
 20
-113.328743
 11
78.400223
 21
-113.328743
  0
LINE
  8
0
 62
     4
 10
70.000229
 20
-117.628738
 11
70.000229
 21
-112.328743
  0
LINE
  8
0
 62
     4
 10
79.400223
 20
-117.628738
 11
79.400223
 21
-112.328743
  0
LINE
  8
0
 62
     4
 10
70.000229
 20
-117.628738
 11
79.400223
 21
-117.628738
  0
LINE
  8
0
 62
     4
 10
71.610222
 20
-115.928741
 11
71.610222
 21
-116.428741
  0
LINE
  8
0
 62
     4
 10
72.710228
 20
-115.928741
 11
72.710228
 21
-116.428741
  0
LINE
  8
0
 62
     4
 10
71.210228
 20
-113.828743
 11
73.110222
 21
-113.828743
  0
LINE
  8
0
 62
     4
 10
71.284225
 20
-115.928741
 11
73.034225
 21
-115.928741
  0
LINE
  8
0
 62
     4
 10
71.610222
 20
-116.428741
 11
72.710228
 21
-116.428741
  0
LINE
  8
0
 62
     4
 10
75.950226
 20
-112.328743
 11
75.950226
 21
-113.328743
  0
LINE
  8
0
 62
     4
 10
73.450226
 20
-112.328743
 11
73.450226
 21
-113.328743
  0
LINE
  8
0
 62
     4
 10
70.000229
 20
-112.328743
 11
71.000229
 21
-112.328743
  0
LINE
  8
0
 62
     4
 10
71.000229
 20
-113.328743
 11
71.000229
 21
-112.328743
  0
LINE
  8
0
 62
     4
 10
79.400223
 20
-112.328743
 11
78.400223
 21
-112.328743
  0
LINE
  8
0
 62
     4
 10
78.400223
 20
-113.328743
 11
78.400223
 21
-112.328743
  0
LINE
  8
0
 62
     4
 10
73.110229
 20
-113.828743
 11
73.234230
 21
-115.716743
  0
LINE
  8
0
 62
     4
 10
71.084229
 20
-115.716743
 11
71.210228
 21
-113.828743
  0
LINE
  8
0
 62
     4
 10
73.750229
 20
-113.828743
 11
75.650223
 21
-113.828743
  0
LINE
  8
0
 62
     4
 10
73.624222
 20
-115.716736
 11
73.750229
 21
-113.828743
  0
LINE
  8
0
 62
     4
 10
73.824226
 20
-115.928741
 11
75.574226
 21
-115.928741
  0
LINE
  8
0
 62
     4
 10
74.150223
 20
-115.928741
 11
74.150223
 21
-116.428741
  0
LINE
  8
0
 62
     4
 10
74.150223
 20
-116.428741
 11
75.250229
 21
-116.428741
  0
LINE
  8
0
 62
     4
 10
75.250229
 20
-115.928741
 11
75.250229
 21
-116.428741
  0
LINE
  8
0
 62
     4
 10
75.650223
 20
-113.828735
 11
75.774223
 21
-115.716743
  0
LINE
  8
0
 62
     4
 10
74.300224
 20
-114.428741
 11
74.300224
 21
-115.228745
  0
LINE
  8
0
 62
     4
 10
75.100227
 20
-114.428741
 11
74.300224
 21
-114.428741
  0
LINE
  8
0
 62
     4
 10
75.100227
 20
-114.428741
 11
75.100227
 21
-115.228745
  0
LINE
  8
0
 62
     4
 10
75.100227
 20
-115.228745
 11
74.300224
 21
-115.228745
  0
LINE
  8
0
 62
     4
 10
76.290222
 20
-113.828743
 11
78.190224
 21
-113.828743
  0
LINE
  8
0
 62
     4
 10
76.164223
 20
-115.716743
 11
76.290222
 21
-113.828743
  0
LINE
  8
0
 62
     4
 10
76.364227
 20
-115.928741
 11
78.114227
 21
-115.928741
  0
LINE
  8
0
 62
     4
 10
76.690224
 20
-115.928741
 11
76.690224
 21
-116.428741
  0
LINE
  8
0
 62
     4
 10
76.690224
 20
-116.428741
 11
77.790222
 21
-116.428741
  0
LINE
  8
0
 62
     4
 10
77.790222
 20
-115.928741
 11
77.790222
 21
-116.428741
  0
LINE
  8
0
 62
     4
 10
78.190224
 20
-113.828743
 11
78.314224
 21
-115.716736
  0
LINE
  8
0
 62
     4
 10
72.200226
 20
-110.828743
 11
72.200226
 21
-113.328743
  0
LINE
  8
0
 62
     4
 10
77.200226
 20
-110.828743
 11
77.200226
 21
-113.328743
  0
LINE
  8
0
 62
     4
 10
71.800224
 20
-112.328743
 11
77.600227
 21
-112.328743
  0
LINE
  8
0
 62
     4
 10
77.600227
 20
-112.828743
 11
77.600227
 21
-111.828743
  0
LINE
  8
0
 62
     4
 10
71.800224
 20
-112.828743
 11
71.800224
 21
-111.828743
  0
LINE
  8
0
 62
     4
 10
71.800224
 20
-112.828743
 11
72.200226
 21
-112.828743
  0
LINE
  8
0
 62
     4
 10
70.000229
 20
-111.828743
 11
72.200226
 21
-111.828743
  0
LINE
  8
0
 62
     4
 10
79.400223
 20
-99.628738
 11
70.000229
 21
-99.628738
  0
LINE
  8
0
 62
     4
 10
79.700226
 20
-117.128738
 11
79.400223
 21
-117.128738
  0
LINE
  8
0
 62
     1
 10
76.200226
 20
-104.628738
 11
76.200226
 21
-99.628738
  0
LINE
  8
0
 62
     1
 10
73.200226
 20
-104.628738
 11
76.200226
 21
-104.628738
  0
LINE
  8
0
 62
     1
 10
73.200226
 20
-104.628738
 11
73.200226
 21
-99.628738
  0
LINE
  8
0
 62
     4
 10
72.305855
 20
-125.669556
 11
72.050232
 21
-125.228745
  0
LINE
  8
0
 62
     4
 10
77.350235
 20
-125.228752
 11
77.094604
 21
-125.669571
  0
LINE
  8
0
 62
     4
 10
73.555855
 20
-124.419556
 11
73.300232
 21
-123.978745
  0
LINE
  8
0
 62
     4
 10
72.050224
 20
-125.228737
 11
73.300224
 21
-123.978737
  0
LINE
  8
0
 62
     4
 10
73.555847
 20
-124.419548
 11
72.305847
 21
-125.669556
  0
LINE
  8
0
 62
     4
 10
75.844597
 20
-124.419556
 11
76.100227
 21
-123.978745
  0
LINE
  8
0
 62
     4
 10
79.700226
 20
-118.537926
 11
69.700226
 21
-118.537926
  0
LINE
  8
0
 62
     4
 10
75.844597
 20
-124.419556
 11
77.094589
 21
-125.669548
  0
LINE
  8
0
 62
     4
 10
79.700226
 20
-125.669556
 11
77.094597
 21
-125.669556
  0
LINE
  8
0
 62
     4
 10
72.305855
 20
-125.669556
 11
69.700226
 21
-125.669556
  0
LINE
  8
0
 62
     4
 10
73.555855
 20
-124.419556
 11
75.844597
 21
-124.419556
  0
LINE
  8
0
 62
     4
 10
79.700226
 20
-125.228745
 11
77.350227
 21
-125.228745
  0
LINE
  8
0
 62
     4
 10
77.350227
 20
-125.228745
 11
76.100227
 21
-123.978745
  0
LINE
  8
0
 62
     4
 10
73.300224
 20
-123.978745
 11
76.100227
 21
-123.978745
  0
LINE
  8
0
 62
     4
 10
72.050224
 20
-125.228745
 11
69.700226
 21
-125.228745
  0
LINE
  8
0
 62
     4
 10
69.700226
 20
-117.726822
 11
79.700226
 21
-117.726822
  0
LINE
  8
0
 62
     4
 10
79.700226
 20
-117.228745
 11
79.400223
 21
-117.228745
  0
LINE
  8
0
 62
     4
 10
78.200226
 20
-121.528740
 11
79.700226
 21
-121.528740
  0
LINE
  8
0
 62
     4
 10
79.700226
 20
-124.728745
 11
78.200226
 21
-124.728745
  0
LINE
  8
0
 62
     4
 10
71.200226
 20
-124.728745
 11
69.700226
 21
-124.728745
  0
LINE
  8
0
 62
     4
 10
69.700226
 20
-121.528740
 11
71.200226
 21
-121.528740
  0
LINE
  8
0
  6
CENTER
 62
     2
 10
77.200226
 20
-121.378738
 11
72.200226
 21
-121.378738
  0
LINE
  8
0
 62
     4
 10
76.525742
 20
-121.678741
 11
72.874710
 21
-121.678741
  0
LINE
  8
0
 62
     4
 10
76.525742
 20
-121.078743
 11
72.874710
 21
-121.078743
  0
LINE
  8
0
 62
     4
 10
70.493111
 20
-123.835838
 11
71.907326
 21
-122.421631
  0
LINE
  8
0
 62
     4
 10
70.493118
 20
-122.421638
 11
71.907326
 21
-123.835838
  0
LINE
  8
0
 62
     4
 10
78.907326
 20
-122.421631
 11
77.493118
 21
-123.835838
  0
LINE
  8
0
 62
     4
 10
78.907333
 20
-123.835846
 11
77.493118
 21
-122.421631
  0
LINE
  8
0
 62
     4
 10
79.700226
 20
-99.928741
 11
79.700226
 21
-131.628738
  0
LINE
  8
0
 62
     4
 10
69.700226
 20
-99.928741
 11
69.700226
 21
-131.628738
  0
LINE
  8
0
  6
CENTER
 62
     2
 10
74.700226
 20
-134.928741
 11
74.700226
 21
-97.492691
  0
LINE
  8
0
 10
41.632725
 20
-130.956711
 11
43.757725
 21
-128.831711
  0
LINE
  8
0
 10
41.607422
 20
-128.861359
 11
43.755219
 21
-130.959198
  0
LINE
  8
0
 10
29.607430
 20
-107.895889
 11
31.755224
 21
-109.993744
  0
LINE
  8
0
 10
29.632727
 20
-109.991241
 11
31.757727
 21
-107.866241
  0
LINE
  8
0
 10
45.700226
 20
-132.428741
 11
45.700226
 21
-106.428741
  0
LINE
  8
0
 10
27.700226
 20
-132.428741
 11
27.700226
 21
-106.428741
  0
LINE
  8
0
 10
28.200226
 20
-105.928741
 11
45.200226
 21
-105.928741
  0
LINE
  8
0
 10
42.700226
 20
-126.728745
 11
45.200226
 21
-126.728745
  0
LINE
  8
0
 10
39.500225
 20
-132.428741
 11
39.500225
 21
-129.928741
  0
LINE
  8
0
 10
33.900227
 20
-108.928741
 11
33.900227
 21
-106.428741
  0
LINE
  8
0
 10
28.200226
 20
-112.128738
 11
30.700226
 21
-112.128738
  0
LINE
  8
0
  6
CENTER
 62
     2
 10
36.700226
 20
-134.928741
 11
36.700226
 21
-97.492691
  0
LINE
  8
0
 10
121.200226
 20
-132.928741
 11
121.200226
 21
-133.928741
  0
LINE
  8
0
 10
104.200226
 20
-133.928741
 11
121.200226
 21
-133.928741
  0
LINE
  8
0
 10
104.200226
 20
-132.928741
 11
104.200226
 21
-133.928741
  0
LINE
  8
0
 62
     4
 10
104.200226
 20
-132.928741
 11
121.200226
 21
-132.928741
  0
LINE
  8
0
 10
102.200226
 20
-132.928741
 11
102.200226
 21
-133.928741
  0
LINE
  8
0
 10
85.200226
 20
-133.928741
 11
102.200226
 21
-133.928741
  0
LINE
  8
0
 10
85.200226
 20
-132.928741
 11
85.200226
 21
-133.928741
  0
LINE
  8
0
 10
85.200226
 20
-132.928741
 11
102.200226
 21
-132.928741
  0
LINE
  8
0
 10
83.200226
 20
-132.928741
 11
83.200226
 21
-133.928741
  0
LINE
  8
0
 10
66.200226
 20
-133.928741
 11
83.200226
 21
-133.928741
  0
LINE
  8
0
 10
66.200226
 20
-132.928741
 11
66.200226
 21
-133.928741
  0
LINE
  8
0
 10
66.200226
 20
-132.928741
 11
83.200226
 21
-132.928741
  0
LINE
  8
0
 62
     4
 10
103.050224
 20
-129.728745
 11
122.350227
 21
-129.728745
  0
LINE
  8
0
 62
     4
 10
103.700226
 20
-129.228745
 11
109.050224
 21
-129.228745
  0
LINE
  8
0
 62
     4
 10
116.350227
 20
-129.728745
 11
116.350227
 21
-129.228745
  0
LINE
  8
0
 62
     4
 10
116.350227
 20
-129.228745
 11
122.350227
 21
-129.228745
  0
LINE
  8
0
 62
     4
 10
122.350227
 20
-129.728745
 11
122.350227
 21
-129.228745
  0
LINE
  8
0
 62
     4
 10
122.150230
 20
-128.058746
 11
122.150230
 21
-129.228745
  0
LINE
  8
0
 62
     4
 10
116.550224
 20
-128.058746
 11
116.550224
 21
-129.228745
  0
LINE
  8
0
 62
     4
 10
103.700226
 20
-132.928741
 11
104.200226
 21
-132.928741
  0
LINE
  8
0
 62
     4
 10
121.700226
 20
-129.728745
 11
121.700226
 21
-132.928741
  0
LINE
  8
0
 62
     4
 10
103.700226
 20
-129.728745
 11
103.700226
 21
-132.928741
  0
LINE
  8
0
 62
     4
 10
121.200226
 20
-132.928741
 11
121.700226
 21
-132.928741
  0
LINE
  8
0
  6
CENTER
 62
     2
 10
112.700226
 20
-126.814102
 11
112.700226
 21
-134.928741
  0
LINE
  8
0
 10
131.700226
 20
-133.928741
 11
131.700226
 21
-160.928741
  0
LINE
  8
0
 10
17.700226
 20
-133.928741
 11
131.700226
 21
-133.928741
  0
LINE
  8
0
 10
17.700226
 20
-133.928741
 11
17.700226
 21
-160.928741
  0
LINE
  8
0
  6
CENTER
 62
     2
 10
22.850225
 20
-164.078293
 11
22.850225
 21
-157.478607
  0
LINE
  8
0
  6
CENTER
 62
     2
 10
126.850227
 20
-164.078293
 11
126.850227
 21
-157.478607
  0
LINE
  8
0
 62
     4
 10
109.050224
 20
-129.728745
 11
109.050224
 21
-129.228745
  0
LINE
  8
0
 62
     4
 10
103.050224
 20
-129.728745
 11
103.050224
 21
-129.228745
  0
LINE
  8
0
 62
     4
 10
108.850227
 20
-128.058746
 11
108.850227
 21
-129.228745
  0
LINE
  8
0
 62
     4
 10
103.250229
 20
-128.058746
 11
103.250229
 21
-129.228745
  0
LINE
  8
0
 62
     4
 10
109.050224
 20
-129.228745
 11
103.050224
 21
-129.228745
  0
LINE
  8
0
 62
     4
 10
-72.727478
 20
-41.498741
 11
-74.157471
 21
-41.498741
  0
LINE
  8
0
 62
     4
 10
-73.842468
 20
-41.498741
 11
-73.842468
 21
-47.706070
  0
LINE
  8
0
 62
     4
 10
-73.042473
 20
-41.498741
 11
-73.042473
 21
-47.892738
  0
LINE
  8
0
 10
-66.842468
 20
31.451262
 11
-66.842468
 21
28.141262
  0
LINE
  8
0
 10
-67.542473
 20
31.451262
 11
-67.542473
 21
28.141262
  0
LINE
  8
0
 10
-67.542473
 20
31.451262
 11
-64.542473
 21
31.451262
  0
LINE
  8
0
 10
-67.542473
 20
28.141262
 11
-64.542473
 21
28.141262
  0
LINE
  8
0
 62
     4
 10
-90.242477
 20
-11.798737
 11
-90.242477
 21
-22.798737
  0
LINE
  8
0
 62
     4
 10
-89.542473
 20
-22.098740
 11
-89.542473
 21
-14.498741
  0
LINE
  8
0
 10
-91.542473
 20
-11.298738
 11
-91.042473
 21
-11.798739
  0
LINE
  8
0
 10
-91.542473
 20
2.601260
 11
-91.042473
 21
2.101259
  0
LINE
  8
0
 62
     4
 10
-89.542473
 20
-8.198738
 11
-89.542473
 21
-0.598740
  0
LINE
  8
0
 62
     4
 10
-90.242477
 20
2.101261
 11
-90.242477
 21
-8.898739
  0
LINE
  8
0
 10
-91.542473
 20
-11.298737
 11
-91.542473
 21
23.801262
  0
LINE
  8
0
 62
     4
 10
-69.942474
 20
-32.964760
 11
-69.942474
 21
-39.498741
  0
LINE
  8
0
 62
     4
 10
-70.442474
 20
-32.098740
 11
-69.942474
 21
-32.964764
  0
LINE
  8
0
 62
     4
 10
-69.942474
 20
-39.498737
 11
-69.442474
 21
-39.787418
  0
LINE
  8
0
 62
     4
 10
-69.442474
 20
-39.787415
 11
-69.442474
 21
-40.498741
  0
LINE
  8
0
 62
     4
 10
-75.742477
 20
-36.398735
 11
-74.157471
 21
-36.398735
  0
LINE
  8
0
 62
     4
 10
-75.742477
 20
-36.498741
 11
-75.742477
 21
-40.498741
  0
LINE
  8
0
 62
     4
 10
-70.942474
 20
-36.498741
 11
-72.727478
 21
-36.498741
  0
LINE
  8
0
 62
     4
 10
-70.942474
 20
-36.398735
 11
-70.942474
 21
-41.498741
  0
LINE
  8
0
  6
PHANTOM
 62
     4
 10
-70.942474
 20
-37.298737
 11
-70.942474
 21
-38.797356
  0
LINE
  8
0
 62
     4
 10
-70.642708
 20
-40.498734
 11
-70.942467
 21
-38.798740
  0
LINE
  8
0
 62
     4
 10
-76.242477
 20
-41.498741
 11
-74.157471
 21
-41.498741
  0
LINE
  8
0
 62
     4
 10
-75.042473
 20
-36.398735
 11
-75.042473
 21
-36.498741
  0
LINE
  8
0
 62
     4
 10
-76.242477
 20
-40.787415
 11
-76.242477
 21
-41.498741
  0
LINE
  8
0
 62
     4
 10
-75.742470
 20
-40.498734
 11
-76.242470
 21
-40.787411
  0
LINE
  8
0
 62
     4
 10
-70.642715
 20
-40.498741
 11
-69.442474
 21
-40.498741
  0
LINE
  8
0
 62
     4
 10
-70.442474
 20
-36.398735
 11
-70.442474
 21
-30.898735
  0
LINE
  8
0
 62
     4
 10
-75.742477
 20
-36.398735
 11
-75.742477
 21
-27.598740
  0
LINE
  8
0
 62
     4
 10
-70.442474
 20
-30.898735
 11
-58.542473
 21
-30.898735
  0
LINE
  8
0
 62
     4
 10
-88.742477
 20
-22.098740
 11
-88.742477
 21
-14.498741
  0
LINE
  8
0
 62
     4
 10
-80.142471
 20
-26.298737
 11
-80.142471
 21
-25.298737
  0
LINE
  8
0
 62
     4
 10
-80.242477
 20
-25.398735
 11
-80.242477
 21
-25.298737
  0
LINE
  8
0
 62
     4
 10
-82.742477
 20
-25.898735
 11
-80.742477
 21
-25.898735
  0
LINE
  8
0
 62
     4
 10
-84.459618
 20
-22.798735
 11
-83.842476
 21
-26.298735
  0
LINE
  8
0
 62
     4
 10
-83.342468
 20
-26.298737
 11
-83.342468
 21
-25.298737
  0
LINE
  8
0
 62
     4
 10
-83.242477
 20
-25.398735
 11
-83.242477
 21
-25.298737
  0
LINE
  8
0
 62
     4
 10
-83.342468
 20
-25.298737
 11
-80.142471
 21
-25.298737
  0
LINE
  8
0
 62
     4
 10
-59.742474
 20
-24.998741
 11
-69.942474
 21
-24.998741
  0
LINE
  8
0
 62
     4
 10
-83.842468
 20
-26.298737
 11
-77.151657
 21
-26.298737
  0
LINE
  8
0
 62
     4
 10
-59.742474
 20
-24.998741
 11
-59.742474
 21
-16.998741
  0
LINE
  8
0
 62
     4
 10
-75.742477
 20
-30.298737
 11
-75.842468
 21
-30.298737
  0
LINE
  8
0
 62
     4
 10
-76.340553
 20
-30.898735
 11
-75.842468
 21
-30.898735
  0
LINE
  8
0
 62
     4
 10
-75.842468
 20
-24.998741
 11
-75.842468
 21
-26.656471
  0
LINE
  8
0
 62
     4
 10
-77.151657
 20
-26.298737
 11
-76.340553
 21
-30.898735
  0
LINE
  8
0
 62
     1
 10
-70.402473
 20
-48.508739
 11
-76.402473
 21
-47.108742
  0
LINE
  8
0
 62
     1
 10
-70.402473
 20
-49.748734
 11
-76.402473
 21
-48.348732
  0
LINE
  8
0
 62
     4
 10
-74.157471
 20
-48.872574
 11
-74.157471
 21
-51.928741
  0
LINE
  8
0
 62
     4
 10
-72.727478
 20
-49.206238
 11
-72.727478
 21
-51.928741
  0
LINE
  8
0
 62
     4
 10
-73.042473
 20
-51.928741
 11
-73.042473
 21
-56.928741
  0
LINE
  8
0
 62
     4
 10
-73.842468
 20
-51.928741
 11
-73.842468
 21
-56.928741
  0
LINE
  8
0
 62
     4
 10
-72.727478
 20
-51.928741
 11
-74.157471
 21
-51.928741
  0
LINE
  8
0
 62
     4
 10
-73.042473
 20
-56.928741
 11
-73.842468
 21
-56.928741
  0
LINE
  8
0
 62
     4
 10
-72.727478
 20
-47.966240
 11
-72.727478
 21
-27.598740
  0
LINE
  8
0
 62
     4
 10
-74.157471
 20
-47.632568
 11
-74.157471
 21
-27.598740
  0
LINE
  8
0
 62
     4
 10
-58.242474
 20
2.601261
 11
-58.742474
 21
2.601261
  0
LINE
  8
0
 10
-58.742474
 20
13.501263
 11
-58.742474
 21
2.101261
  0
LINE
  8
0
 10
-59.142471
 20
13.901260
 11
-64.042473
 21
13.901260
  0
LINE
  8
0
 62
     4
 10
-77.151657
 20
-12.398738
 11
-76.340553
 21
-16.998735
  0
LINE
  8
0
 62
     4
 10
-75.842468
 20
-11.098740
 11
-75.842468
 21
-16.998741
  0
LINE
  8
0
 62
     4
 10
-76.340553
 20
-16.998741
 11
-75.842468
 21
-16.998741
  0
LINE
  8
0
 62
     4
 10
-75.742477
 20
-16.398735
 11
-75.842468
 21
-16.398735
  0
LINE
  8
0
 62
     4
 10
-59.742474
 20
-11.098740
 11
-59.742474
 21
1.401260
  0
LINE
  8
0
 62
     4
 10
-83.842468
 20
-12.398735
 11
-77.151657
 21
-12.398735
  0
LINE
  8
0
 62
     4
 10
-59.742474
 20
-11.098740
 11
-75.842468
 21
-11.098740
  0
LINE
  8
0
 62
     4
 10
-58.242474
 20
1.401260
 11
-59.742474
 21
1.401260
  0
LINE
  8
0
 10
-58.242474
 20
1.701263
 11
-58.542477
 21
1.401262
  0
LINE
  8
0
 62
     4
 10
-83.342468
 20
-11.398735
 11
-80.142471
 21
-11.398735
  0
LINE
  8
0
 62
     4
 10
-83.242477
 20
-11.498741
 11
-83.242477
 21
-11.398735
  0
LINE
  8
0
 62
     4
 10
-83.342468
 20
-12.398735
 11
-83.342468
 21
-11.398735
  0
LINE
  8
0
 62
     4
 10
-84.459618
 20
-8.898736
 11
-83.842476
 21
-12.398736
  0
LINE
  8
0
 62
     4
 10
-82.742477
 20
-11.998741
 11
-80.742477
 21
-11.998741
  0
LINE
  8
0
 62
     4
 10
-80.242477
 20
-11.498741
 11
-80.242477
 21
-11.398735
  0
LINE
  8
0
 62
     4
 10
-80.142471
 20
-12.398735
 11
-80.142471
 21
-11.398735
  0
LINE
  8
0
 62
     4
 10
-88.742477
 20
-8.198738
 11
-88.742477
 21
-0.598740
  0
LINE
  8
0
 62
     4
 10
-58.242474
 20
-30.598740
 11
-58.242474
 21
2.601261
  0
LINE
  8
0
 62
     4
 10
-70.442474
 20
-16.998741
 11
-58.542473
 21
-16.998741
  0
LINE
  8
0
 62
     4
 10
-75.742477
 20
-22.498741
 11
-75.742477
 21
-11.098740
  0
LINE
  8
0
 62
     4
 10
-70.442474
 20
-22.498741
 11
-70.442474
 21
-16.998741
  0
LINE
  8
0
 62
     4
 10
-70.642715
 20
-26.598740
 11
-69.442474
 21
-26.598740
  0
LINE
  8
0
 62
     4
 10
-75.742470
 20
-26.598742
 11
-76.242470
 21
-26.887415
  0
LINE
  8
0
 62
     4
 10
-76.242477
 20
-26.887413
 11
-76.242477
 21
-27.598740
  0
LINE
  8
0
 62
     4
 10
-75.042473
 20
-22.498741
 11
-75.042473
 21
-22.598740
  0
LINE
  8
0
 62
     4
 10
-76.242477
 20
-27.598740
 11
-70.942474
 21
-27.598740
  0
LINE
  8
0
 62
     4
 10
-70.642708
 20
-26.598734
 11
-70.942474
 21
-24.898739
  0
LINE
  8
0
  6
PHANTOM
 62
     4
 10
-70.942474
 20
-23.398735
 11
-70.942474
 21
-24.897354
  0
LINE
  8
0
 62
     4
 10
-70.942474
 20
-22.498741
 11
-70.942474
 21
-27.598740
  0
LINE
  8
0
 62
     4
 10
-70.942474
 20
-22.598740
 11
-75.742477
 21
-22.598740
  0
LINE
  8
0
 62
     4
 10
-75.742477
 20
-22.598740
 11
-75.742477
 21
-26.598740
  0
LINE
  8
0
 62
     4
 10
-75.742477
 20
-22.498741
 11
-70.442474
 21
-22.498741
  0
LINE
  8
0
 62
     4
 10
-69.442474
 20
-25.887413
 11
-69.442474
 21
-26.598740
  0
LINE
  8
0
 62
     4
 10
-69.942474
 20
-25.598738
 11
-69.442474
 21
-25.887413
  0
LINE
  8
0
 62
     4
 10
-70.442467
 20
-18.198734
 11
-69.942474
 21
-19.064758
  0
LINE
  8
0
 62
     4
 10
-69.942474
 20
-19.064766
 11
-69.942474
 21
-25.598740
  0
LINE
  8
0
 10
-59.142471
 20
11.101261
 11
-64.142471
 21
11.101261
  0
LINE
  8
0
 10
-64.542473
 20
2.601261
 11
-70.542473
 21
2.601261
  0
LINE
  8
0
 10
-70.542473
 20
8.301262
 11
-70.542473
 21
2.101261
  0
LINE
  8
0
 10
-70.342468
 20
8.301262
 11
-70.342468
 21
6.758801
  0
LINE
  8
0
 10
-64.542473
 20
8.301262
 11
-70.542473
 21
8.301262
  0
LINE
  8
0
 10
-64.542473
 20
8.301262
 11
-64.542473
 21
2.101261
  0
LINE
  8
0
 10
-64.742477
 20
8.301262
 11
-64.742477
 21
6.758801
  0
LINE
  8
0
 10
-64.542473
 20
2.101261
 11
-58.742474
 21
2.101261
  0
LINE
  8
0
 62
     4
 10
-75.742477
 20
-24.998741
 11
-75.842468
 21
-24.998741
  0
LINE
  8
0
 62
     4
 10
-75.842468
 20
-27.598740
 11
-75.842468
 21
-30.898735
  0
LINE
  8
0
 62
     4
 10
-72.727478
 20
-36.398735
 11
-70.442474
 21
-36.398735
  0
LINE
  8
0
 62
     4
 10
-74.157471
 20
-36.498741
 11
-75.742477
 21
-36.498741
  0
LINE
  8
0
 62
     4
 10
-72.727478
 20
-41.498741
 11
-70.942474
 21
-41.498741
  0
LINE
  8
0
 10
-70.242477
 20
18.801262
 11
-64.742477
 21
18.801262
  0
LINE
  8
0
 10
-64.742477
 20
17.621262
 11
-64.742477
 21
18.801262
  0
LINE
  8
0
 10
-70.342468
 20
17.621262
 11
-70.342468
 21
18.801262
  0
LINE
  8
0
 10
-70.742477
 20
18.301262
 11
-70.742477
 21
15.901260
  0
LINE
  8
0
 10
-91.042473
 20
15.401260
 11
-65.042473
 21
15.401260
  0
LINE
  8
0
 10
-64.542473
 20
23.801262
 11
-64.542473
 21
11.501263
  0
LINE
  8
0
 62
     4
 10
-89.542473
 20
-0.598740
 11
-88.742477
 21
-0.598740
  0
LINE
  8
0
 62
     4
 10
-88.742477
 20
-8.198738
 11
-89.542473
 21
-8.198738
  0
LINE
  8
0
 62
     4
 10
-90.242477
 20
-8.898739
 11
-84.459618
 21
-8.898739
  0
LINE
  8
0
 10
-91.042473
 20
2.101261
 11
-70.542473
 21
2.101261
  0
LINE
  8
0
 10
-91.042473
 20
-11.798737
 11
-83.948273
 21
-11.798737
  0
LINE
  8
0
 62
     4
 10
-90.242477
 20
-22.798737
 11
-84.459618
 21
-22.798737
  0
LINE
  8
0
 62
     4
 10
-88.742477
 20
-22.098740
 11
-89.542473
 21
-22.098740
  0
LINE
  8
0
 62
     4
 10
-89.542473
 20
-14.498741
 11
-88.742477
 21
-14.498741
  0
LINE
  8
0
 10
-85.542473
 20
87.501266
 11
-58.742474
 21
87.501266
  0
LINE
  8
0
 10
-85.542473
 20
81.301262
 11
-85.542473
 21
87.501266
  0
LINE
  8
0
 10
-85.542473
 20
81.301262
 11
-91.542473
 21
81.301262
  0
LINE
  8
0
 10
-85.742477
 20
81.301262
 11
-85.742477
 21
82.843727
  0
LINE
  8
0
 10
-91.342476
 20
81.301262
 11
-91.342476
 21
82.843727
  0
LINE
  8
0
 10
-90.542473
 20
87.501266
 11
-90.542473
 21
87.001266
  0
LINE
  8
0
 10
-85.542473
 20
87.001266
 11
-90.542473
 21
87.001266
  0
LINE
  8
0
 10
-92.542473
 20
22.301262
 11
-92.542473
 21
23.801262
  0
LINE
  8
0
 10
-119.542473
 20
15.001263
 11
-119.542473
 21
19.301262
  0
LINE
  8
0
 10
-92.542473
 20
8.001263
 11
-92.542473
 21
10.301262
  0
LINE
  8
0
 10
-101.542473
 20
7.801262
 11
-92.742477
 21
7.801262
  0
LINE
  8
0
 10
-101.542473
 20
81.801262
 11
-92.742477
 21
81.801262
  0
LINE
  8
0
 10
-119.542473
 20
61.801262
 11
-115.542473
 21
57.801262
  0
LINE
  8
0
 10
-119.542473
 20
27.801258
 11
-115.542473
 21
31.801260
  0
LINE
  8
0
 10
-108.542473
 20
74.801262
 11
-101.542473
 21
81.801262
  0
LINE
  8
0
 10
-108.542473
 20
14.801262
 11
-101.542473
 21
7.801260
  0
LINE
  8
0
 10
-115.542473
 20
57.801262
 11
-115.542473
 21
31.801262
  0
LINE
  8
0
 10
-119.342476
 20
74.801262
 11
-108.542473
 21
74.801262
  0
LINE
  8
0
 10
-119.342476
 20
14.801262
 11
-108.542473
 21
14.801262
  0
LINE
  8
0
 10
-119.542473
 20
61.801262
 11
-119.542473
 21
74.601257
  0
LINE
  8
0
 10
-92.742470
 20
81.801262
 11
-92.542473
 21
81.601257
  0
LINE
  8
0
 10
-92.542473
 20
8.001265
 11
-92.742485
 21
7.801264
  0
LINE
  8
0
 10
-119.342468
 20
74.801262
 11
-119.542465
 21
74.601265
  0
LINE
  8
0
 10
-119.542473
 20
15.001258
 11
-119.342468
 21
14.801258
  0
LINE
  8
0
  6
CENTER
 62
     2
 10
-116.542473
 20
64.801262
 11
-100.542473
 21
64.801262
  0
LINE
  8
0
  6
CENTER
 62
     2
 10
-116.542473
 20
24.801262
 11
-100.542473
 21
24.801262
  0
LINE
  8
0
  6
CENTER
 62
     2
 10
-108.542473
 20
72.801262
 11
-108.542473
 21
56.801262
  0
LINE
  8
0
  6
CENTER
 62
     2
 10
-108.542473
 20
32.801262
 11
-108.542473
 21
16.801262
  0
LINE
  8
0
  6
CENTER
 62
     2
 10
-106.542473
 20
52.801262
 11
-106.542473
 21
36.801262
  0
LINE
  8
0
 62
     2
 10
-98.542473
 20
79.301262
 11
-98.542473
 21
72.301262
  0
LINE
  8
0
  6
CENTER
 62
     2
 10
-98.542473
 20
17.301262
 11
-98.542473
 21
10.301262
  0
LINE
  8
0
  6
CENTER
 62
     2
 10
-102.042473
 20
75.801262
 11
-95.042473
 21
75.801262
  0
LINE
  8
0
  6
CENTER
 62
     2
 10
-102.042473
 20
13.801262
 11
-95.042473
 21
13.801262
  0
LINE
  8
0
 10
-92.542473
 20
79.301262
 11
-92.542473
 21
81.601257
  0
LINE
  8
0
 10
-92.542473
 20
65.801262
 11
-92.542473
 21
72.301262
  0
LINE
  8
0
 10
-92.542473
 20
17.301262
 11
-92.542473
 21
23.801262
  0
LINE
  8
0
 10
-119.542473
 20
19.301260
 11
-119.042473
 21
19.801260
  0
LINE
  8
0
 10
-119.542473
 20
20.301262
 11
-119.042473
 21
19.801260
  0
LINE
  8
0
 10
-119.542473
 20
20.301262
 11
-119.542473
 21
27.801262
  0
LINE
  8
0
 10
-92.542473
 20
17.301262
 11
-91.542473
 21
17.301262
  0
LINE
  8
0
 10
-92.542473
 20
17.301262
 11
-92.542473
 21
10.301262
  0
LINE
  8
0
 10
-92.542473
 20
10.301262
 11
-91.542473
 21
10.301262
  0
LINE
  8
0
 10
-91.542473
 20
17.301262
 11
-91.542473
 21
10.301262
  0
LINE
  8
0
 10
-91.542473
 20
72.301262
 11
-91.542473
 21
79.301262
  0
LINE
  8
0
 10
-92.542473
 20
79.301262
 11
-91.542473
 21
79.301262
  0
LINE
  8
0
 10
-92.542473
 20
72.301262
 11
-92.542473
 21
79.301262
  0
LINE
  8
0
 10
-92.542473
 20
72.301262
 11
-91.542473
 21
72.301262
  0
LINE
  8
0
 10
-91.542473
 20
23.801262
 11
-91.542473
 21
65.801262
  0
LINE
  8
0
 10
-91.542473
 20
65.801262
 11
-92.542473
 21
65.801262
  0
LINE
  8
0
 10
-92.542473
 20
23.801262
 11
-92.542473
 21
65.801262
  0
LINE
  8
0
 10
-92.542473
 20
23.801262
 11
-91.542473
 21
23.801262
  0
LINE
  8
0
 10
-91.542473
 20
23.801262
 11
-64.542473
 21
23.801262
  0
LINE
  8
0
 10
-91.542473
 20
65.801262
 11
-64.542473
 21
65.801262
  0
LINE
  8
0
 10
-91.542473
 20
65.801262
 11
-91.542473
 21
23.801262
  0
LINE
  8
0
 10
-64.542473
 20
65.801262
 11
-64.542473
 21
23.801262
  0
LINE
  8
0
 62
     4
 10
-58.242474
 20
87.001266
 11
-58.742474
 21
87.001266
  0
LINE
  8
0
 10
-58.742474
 20
76.101257
 11
-58.742474
 21
87.501266
  0
LINE
  8
0
 10
-91.542480
 20
87.001266
 11
-91.042480
 21
87.501274
  0
LINE
  8
0
 10
-59.142471
 20
75.701263
 11
-64.042473
 21
75.701263
  0
LINE
  8
0
 62
     4
 10
-77.151657
 20
102.001259
 11
-76.340553
 21
106.601265
  0
LINE
  8
0
 62
     4
 10
-75.842468
 20
100.701263
 11
-75.842468
 21
106.601257
  0
LINE
  8
0
 62
     4
 10
-76.340553
 20
106.601257
 11
-75.842468
 21
106.601257
  0
LINE
  8
0
 62
     4
 10
-75.742477
 20
106.001266
 11
-75.842468
 21
106.001266
  0
LINE
  8
0
 62
     4
 10
-59.742474
 20
100.701263
 11
-59.742474
 21
88.201263
  0
LINE
  8
0
 62
     4
 10
-83.842468
 20
102.001266
 11
-77.151657
 21
102.001266
  0
LINE
  8
0
 62
     4
 10
-59.742474
 20
100.701263
 11
-75.842468
 21
100.701263
  0
LINE
  8
0
 62
     4
 10
-58.242474
 20
87.001266
 11
-58.242474
 21
87.901260
  0
LINE
  8
0
 62
     4
 10
-58.242474
 20
88.201263
 11
-59.742474
 21
88.201263
  0
LINE
  8
0
 62
     4
 10
-58.242474
 20
87.901260
 11
-58.542477
 21
88.201263
  0
LINE
  8
0
 62
     4
 10
-90.242477
 20
98.501266
 11
-84.459618
 21
98.501266
  0
LINE
  8
0
 62
     4
 10
-83.342468
 20
101.001266
 11
-80.142471
 21
101.001266
  0
LINE
  8
0
 62
     4
 10
-83.242477
 20
101.101257
 11
-83.242477
 21
101.001266
  0
LINE
  8
0
 62
     4
 10
-83.342468
 20
102.001266
 11
-83.342468
 21
101.001266
  0
LINE
  8
0
 62
     4
 10
-84.459618
 20
98.501274
 11
-83.842476
 21
102.001274
  0
LINE
  8
0
 62
     4
 10
-82.742477
 20
101.601257
 11
-80.742477
 21
101.601257
  0
LINE
  8
0
 62
     4
 10
-80.242477
 20
101.101257
 11
-80.242477
 21
101.001266
  0
LINE
  8
0
 62
     4
 10
-80.142471
 20
102.001266
 11
-80.142471
 21
101.001266
  0
LINE
  8
0
 62
     4
 10
-89.542473
 20
97.801262
 11
-89.542473
 21
90.201263
  0
LINE
  8
0
 62
     4
 10
-90.242477
 20
87.001266
 11
-90.242477
 21
98.501266
  0
LINE
  8
0
 62
     4
 10
-88.742477
 20
97.801262
 11
-88.742477
 21
90.201263
  0
LINE
  8
0
 62
     4
 10
-88.742477
 20
97.801262
 11
-89.542473
 21
97.801262
  0
LINE
  8
0
 62
     4
 10
-89.542473
 20
90.201263
 11
-88.742477
 21
90.201263
  0
LINE
  8
0
 62
     4
 10
-58.242474
 20
88.201263
 11
-58.242474
 21
106.301262
  0
LINE
  8
0
 62
     4
 10
-70.442474
 20
106.601257
 11
-58.542473
 21
106.601257
  0
LINE
  8
0
 62
     4
 10
-75.742477
 20
112.101257
 11
-75.742477
 21
100.701263
  0
LINE
  8
0
 62
     4
 10
-70.442474
 20
112.101257
 11
-70.442474
 21
106.601257
  0
LINE
  8
0
 62
     4
 10
-70.642715
 20
116.201263
 11
-69.442474
 21
116.201263
  0
LINE
  8
0
 62
     4
 10
-75.742470
 20
116.201263
 11
-76.242470
 21
116.489937
  0
LINE
  8
0
 62
     4
 10
-76.242477
 20
116.489937
 11
-76.242477
 21
117.201263
  0
LINE
  8
0
 62
     4
 10
-75.042473
 20
112.101257
 11
-75.042473
 21
112.201263
  0
LINE
  8
0
 62
     4
 10
-76.242477
 20
117.201263
 11
-70.942474
 21
117.201263
  0
LINE
  8
0
 62
     4
 10
-70.642723
 20
116.201271
 11
-70.942482
 21
114.501259
  0
LINE
  8
0
  6
PHANTOM
 62
     4
 10
-70.942474
 20
113.001266
 11
-70.942474
 21
114.499878
  0
LINE
  8
0
 62
     4
 10
-70.942474
 20
112.101257
 11
-70.942474
 21
117.201263
  0
LINE
  8
0
 62
     4
 10
-70.942474
 20
112.201263
 11
-75.742477
 21
112.201263
  0
LINE
  8
0
 62
     4
 10
-75.742477
 20
112.201263
 11
-75.742477
 21
116.201263
  0
LINE
  8
0
 62
     4
 10
-75.742477
 20
112.101257
 11
-70.442474
 21
112.101257
  0
LINE
  8
0
 62
     4
 10
-69.442474
 20
115.489937
 11
-69.442474
 21
116.201263
  0
LINE
  8
0
 62
     4
 10
-69.942474
 20
115.201263
 11
-69.442474
 21
115.489937
  0
LINE
  8
0
 62
     4
 10
-70.442467
 20
107.801262
 11
-69.942474
 21
108.667290
  0
LINE
  8
0
 62
     4
 10
-69.942474
 20
108.667282
 11
-69.942474
 21
115.201263
  0
LINE
  8
0
 10
-91.042473
 20
87.501266
 11
-90.242477
 21
87.501266
  0
LINE
  8
0
 10
-59.142471
 20
78.501266
 11
-64.142471
 21
78.501266
  0
LINE
  8
0
 10
-64.542473
 20
65.801262
 11
-64.542473
 21
78.101257
  0
LINE
  8
0
 10
-91.542473
 20
65.801262
 11
-91.542473
 21
87.001266
  0
LINE
  8
0
  6
CENTER
 62
     2
 10
-114.343346
 20
44.801262
 11
-98.438179
 21
44.801262
  0
LINE
  8
0
  6
CENTER
 62
     2
 10
-121.871941
 20
54.801262
 11
-117.349930
 21
54.801262
  0
LINE
  8
0
  6
CENTER
 62
     2
 10
-121.871941
 20
34.801262
 11
-117.349930
 21
34.801262
  0
LINE
  8
0
  6
CENTER
 62
     2
 10
-95.716446
 20
59.801262
 11
-88.795975
 21
59.801262
  0
LINE
  8
0
  6
CENTER
 62
     2
 10
-95.716446
 20
29.801262
 11
-88.795975
 21
29.801262
  0
LINE
  8
0
 62
     4
 10
-73.042473
 20
132.631256
 11
-73.842468
 21
132.631256
  0
LINE
  8
0
 62
     4
 10
-72.727478
 20
127.631264
 11
-74.157471
 21
127.631264
  0
LINE
  8
0
 62
     4
 10
-73.842468
 20
127.631264
 11
-73.842468
 21
132.631256
  0
LINE
  8
0
 62
     4
 10
-73.042473
 20
127.631264
 11
-73.042473
 21
132.631256
  0
LINE
  8
0
 62
     4
 10
-72.727478
 20
124.262177
 11
-72.727478
 21
127.631264
  0
LINE
  8
0
 62
     4
 10
-74.157471
 20
124.715012
 11
-74.157471
 21
127.631264
  0
LINE
  8
0
 62
     4
 10
-74.157471
 20
117.201263
 11
-74.157471
 21
123.475014
  0
LINE
  8
0
 62
     4
 10
-72.727478
 20
117.201263
 11
-72.727478
 21
123.022179
  0
LINE
  8
0
 62
     1
 10
-76.482468
 20
124.211258
 11
-70.482468
 21
122.311256
  0
LINE
  8
0
 62
     1
 10
-76.482468
 20
125.451263
 11
-70.482468
 21
123.551262
  0
LINE
  8
0
  6
CENTER
 62
     2
 10
33.850227
 20
78.501266
 11
39.850227
 21
78.501266
  0
LINE
  8
0
  6
CENTER
 62
     2
 10
52.850227
 20
78.501266
 11
58.850227
 21
78.501266
  0
LINE
  8
0
  6
CENTER
 62
     2
 10
71.850227
 20
78.501266
 11
77.850227
 21
78.501266
  0
LINE
  8
0
  6
CENTER
 62
     2
 10
90.850227
 20
78.501266
 11
96.850227
 21
78.501266
  0
LINE
  8
0
 62
     2
 10
71.850227
 20
11.101261
 11
77.850227
 21
11.101261
  0
LINE
  8
0
 62
     2
 10
90.850227
 20
-2.798737
 11
96.850227
 21
-2.798737
  0
LINE
  8
0
 10
111.050697
 20
78.801262
 11
114.652313
 21
78.801262
  0
LINE
  8
0
 10
111.050697
 20
10.801262
 11
114.652313
 21
10.801262
  0
LINE
  8
0
 10
52.740227
 20
15.401260
 11
58.960228
 21
15.401260
  0
LINE
  8
0
 10
33.740227
 20
15.401260
 11
39.960228
 21
15.401260
  0
LINE
  8
0
 62
     4
 10
103.850227
 20
10.801262
 11
121.850227
 21
10.801262
  0
LINE
  8
0
 62
     4
 10
103.850227
 20
78.801262
 11
121.850227
 21
78.801262
  0
LINE
  8
0
 10
65.850227
 20
7.801262
 11
17.850225
 21
7.801262
  0
LINE
  8
0
 10
84.850227
 20
7.801262
 11
83.850227
 21
7.801262
  0
LINE
  8
0
 10
84.850227
 20
81.801262
 11
83.850227
 21
81.801262
  0
LINE
  8
0
 10
65.850227
 20
81.801262
 11
64.850227
 21
81.801262
  0
LINE
  8
0
 10
46.850227
 20
81.801262
 11
45.850227
 21
81.801262
  0
LINE
  8
0
 10
27.850225
 20
81.801262
 11
17.850225
 21
81.801262
  0
LINE
  8
0
 10
131.850220
 20
7.801262
 11
102.850227
 21
7.801262
  0
LINE
  8
0
 10
131.850220
 20
81.801262
 11
102.850227
 21
81.801262
  0
LINE
  8
0
 62
     4
 10
103.850227
 20
28.142950
 11
103.850227
 21
10.801262
  0
LINE
  8
0
 62
     4
 10
121.850227
 20
58.142948
 11
121.850227
 21
10.801262
  0
LINE
  8
0
 62
     4
 10
104.370323
 20
27.821362
 11
108.330116
 21
31.781155
  0
LINE
  8
0
 62
     4
 10
104.936012
 20
31.215473
 11
107.764435
 21
28.387047
  0
LINE
  8
0
 62
     4
 10
117.936005
 20
61.215473
 11
120.764435
 21
58.387043
  0
LINE
  8
0
 62
     4
 10
117.370323
 20
57.821358
 11
121.330124
 21
61.781155
  0
LINE
  8
0
 10
102.850227
 20
58.540310
 11
102.850227
 21
23.801262
  0
LINE
  8
0
 10
84.850227
 20
28.540312
 11
84.850227
 21
23.801262
  0
LINE
  8
0
 10
83.850227
 20
58.540310
 11
83.850227
 21
23.801262
  0
LINE
  8
0
 10
65.850227
 20
28.540312
 11
65.850227
 21
23.801262
  0
LINE
  8
0
 10
64.850227
 20
58.540310
 11
64.850227
 21
15.901260
  0
LINE
  8
0
 10
46.850227
 20
28.540312
 11
46.850227
 21
15.901260
  0
LINE
  8
0
 10
45.850227
 20
58.141262
 11
45.850227
 21
15.901260
  0
LINE
  8
0
 10
27.850225
 20
28.540312
 11
27.850225
 21
15.901260
  0
LINE
  8
0
 10
85.370323
 20
27.821360
 11
89.330124
 21
31.781160
  0
LINE
  8
0
 10
85.936012
 20
31.215475
 11
88.764435
 21
28.387049
  0
LINE
  8
0
 10
98.936012
 20
61.215473
 11
101.764442
 21
58.387043
  0
LINE
  8
0
 10
98.370331
 20
57.821362
 11
102.330124
 21
61.781155
  0
LINE
  8
0
 10
66.370323
 20
27.821362
 11
70.330124
 21
31.781160
  0
LINE
  8
0
 10
66.936012
 20
31.215473
 11
69.764442
 21
28.387049
  0
LINE
  8
0
 10
79.936012
 20
61.215477
 11
82.764435
 21
58.387047
  0
LINE
  8
0
 10
79.370323
 20
57.821365
 11
83.330124
 21
61.781158
  0
LINE
  8
0
 10
47.370327
 20
27.821362
 11
51.330120
 21
31.781158
  0
LINE
  8
0
 10
47.936012
 20
31.215477
 11
50.764439
 21
28.387047
  0
LINE
  8
0
 10
60.936012
 20
61.215477
 11
63.764439
 21
58.387047
  0
LINE
  8
0
 10
60.370327
 20
57.821365
 11
64.330124
 21
61.781155
  0
LINE
  8
0
 62
     4
 10
121.850227
 20
78.801262
 11
121.850227
 21
61.459576
  0
LINE
  8
0
 62
     4
 10
103.850227
 20
78.801262
 11
103.850227
 21
31.459574
  0
LINE
  8
0
  6
CENTER
 62
     2
 10
112.850227
 20
80.949615
 11
112.850227
 21
8.850018
  0
LINE
  8
0
 10
99.100227
 20
-11.298737
 11
88.600227
 21
-11.298737
  0
LINE
  8
0
 10
90.252708
 20
-2.798737
 11
84.850227
 21
-2.798737
  0
LINE
  8
0
 10
97.447746
 20
-2.798737
 11
102.850227
 21
-2.798737
  0
LINE
  8
0
 10
99.850220
 20
-11.798738
 11
102.850227
 21
-8.798735
  0
LINE
  8
0
 10
84.850227
 20
-8.798744
 11
87.850227
 21
-11.798741
  0
LINE
  8
0
 10
87.850227
 20
-11.798737
 11
88.300224
 21
-11.798737
  0
LINE
  8
0
 10
88.600227
 20
-11.298737
 11
88.600227
 21
-11.498741
  0
LINE
  8
0
 10
99.100227
 20
-11.298737
 11
99.100227
 21
-11.498741
  0
LINE
  8
0
 10
92.331169
 20
0.001263
 11
95.369286
 21
0.001263
  0
LINE
  8
0
 10
95.715698
 20
-0.198737
 11
97.101334
 21
-2.598736
  0
LINE
  8
0
 10
90.599113
 20
-2.598742
 11
91.984756
 21
-0.198742
  0
LINE
  8
0
 10
99.400230
 20
-11.798737
 11
99.850227
 21
-11.798737
  0
LINE
  8
0
 62
     4
 10
98.850227
 20
-12.198738
 11
88.850227
 21
-12.198738
  0
LINE
  8
0
 62
     4
 10
89.150230
 20
-30.898735
 11
98.550224
 21
-30.898735
  0
LINE
  8
0
 62
     4
 10
88.850227
 20
-12.498741
 11
98.850227
 21
-12.498741
  0
LINE
  8
0
 62
     4
 10
88.850227
 20
-11.298737
 11
88.850227
 21
-36.398735
  0
LINE
  8
0
 62
     4
 10
98.850227
 20
-11.298737
 11
98.850227
 21
-36.398735
  0
LINE
  8
0
 62
     4
 10
98.850227
 20
-36.398735
 11
96.350227
 21
-36.398735
  0
LINE
  8
0
 62
     4
 10
96.750229
 20
-30.898735
 11
96.750229
 21
-36.398735
  0
LINE
  8
0
 62
     4
 10
90.950226
 20
-30.898735
 11
90.950226
 21
-36.398735
  0
LINE
  8
0
 62
     1
 10
92.350227
 20
-27.898735
 11
95.350227
 21
-27.898735
  0
LINE
  8
0
 62
     1
 10
95.350227
 20
-27.898735
 11
95.350227
 21
-30.898735
  0
LINE
  8
0
 62
     1
 10
92.350227
 20
-27.898735
 11
92.350227
 21
-30.898735
  0
LINE
  8
0
 62
     4
 10
96.350227
 20
-31.998741
 11
91.350227
 21
-31.998741
  0
LINE
  8
0
 62
     4
 10
98.550224
 20
-41.498741
 11
89.150230
 21
-41.498741
  0
LINE
  8
0
 62
     4
 10
96.350227
 20
-40.498741
 11
91.350227
 21
-40.498741
  0
LINE
  8
0
 62
     4
 10
98.550224
 20
-36.498741
 11
98.550224
 21
-41.498741
  0
LINE
  8
0
 62
     4
 10
96.350227
 20
-31.998741
 11
96.350227
 21
-40.498741
  0
LINE
  8
0
 62
     4
 10
91.350227
 20
-39.787415
 11
96.350227
 21
-39.787415
  0
LINE
  8
0
 62
     4
 10
91.350227
 20
-39.498741
 11
96.350227
 21
-39.498741
  0
LINE
  8
0
 62
     4
 10
97.450226
 20
-36.498741
 11
97.450226
 21
-41.498741
  0
LINE
  8
0
 62
     4
 10
90.250229
 20
-36.498741
 11
90.250229
 21
-41.498741
  0
LINE
  8
0
 62
     4
 10
91.350227
 20
-31.998741
 11
91.350227
 21
-40.498741
  0
LINE
  8
0
 62
     4
 10
89.150230
 20
-36.498741
 11
89.150230
 21
-41.498741
  0
LINE
  8
0
 62
     4
 10
91.350227
 20
-36.398735
 11
88.850227
 21
-36.398735
  0
LINE
  8
0
 62
     4
 10
91.350227
 20
-32.864761
 11
96.350227
 21
-32.864761
  0
LINE
  8
0
 62
     4
 10
98.550224
 20
-36.498741
 11
96.350227
 21
-36.498741
  0
LINE
  8
0
 62
     4
 10
91.350227
 20
-36.498741
 11
89.150230
 21
-36.498741
  0
LINE
  8
0
 62
     4
 10
97.950226
 20
-36.498741
 11
97.950226
 21
-36.398735
  0
LINE
  8
0
 62
     4
 10
89.750229
 20
-36.498741
 11
89.750229
 21
-36.398735
  0
LINE
  8
0
 62
     4
 10
92.025230
 20
-41.498741
 11
92.025230
 21
-46.610069
  0
LINE
  8
0
 62
     4
 10
90.595230
 20
-41.498741
 11
90.595230
 21
-46.228737
  0
LINE
  8
0
 62
     1
 10
88.270226
 20
-45.608742
 11
99.368546
 21
-48.568291
  0
LINE
  8
0
 62
     1
 10
88.270233
 20
-46.848736
 11
99.368538
 21
-49.808285
  0
LINE
  8
0
 62
     4
 10
92.025230
 20
-47.850075
 11
92.025230
 21
-52.028740
  0
LINE
  8
0
 62
     4
 10
90.595230
 20
-47.468735
 11
90.595230
 21
-52.028740
  0
LINE
  8
0
 62
     4
 10
91.710228
 20
-52.028740
 11
91.710228
 21
-57.028740
  0
LINE
  8
0
 62
     4
 10
90.910225
 20
-52.028740
 11
90.910225
 21
-57.028740
  0
LINE
  8
0
 62
     4
 10
92.025230
 20
-52.028740
 11
90.595230
 21
-52.028740
  0
LINE
  8
0
 62
     4
 10
91.710228
 20
-57.028740
 11
90.910225
 21
-57.028740
  0
LINE
  8
0
 62
     4
 10
97.105225
 20
-41.498741
 11
97.105225
 21
-47.964737
  0
LINE
  8
0
 62
     4
 10
95.675224
 20
-41.498741
 11
95.675224
 21
-47.583405
  0
LINE
  8
0
 62
     4
 10
95.990227
 20
-57.028740
 11
96.790230
 21
-57.028740
  0
LINE
  8
0
 62
     4
 10
95.675224
 20
-52.028740
 11
97.105225
 21
-52.028740
  0
LINE
  8
0
 62
     4
 10
96.790230
 20
-52.028740
 11
96.790230
 21
-57.028740
  0
LINE
  8
0
 62
     4
 10
95.990227
 20
-52.028740
 11
95.990227
 21
-57.028740
  0
LINE
  8
0
 62
     4
 10
95.675224
 20
-48.823402
 11
95.675224
 21
-52.028740
  0
LINE
  8
0
 62
     4
 10
97.105225
 20
-49.204735
 11
97.105225
 21
-52.028740
  0
LINE
  8
0
 10
102.850227
 20
-8.798737
 11
102.850227
 21
23.801262
  0
LINE
  8
0
 10
84.850227
 20
-8.798737
 11
84.850227
 21
23.801262
  0
LINE
  8
0
  6
CENTER
 62
     2
 10
93.350227
 20
43.381264
 11
93.350227
 21
30.641262
  0
LINE
  8
0
  6
CENTER
 62
     2
 10
87.760231
 20
36.801262
 11
99.920227
 21
36.801262
  0
LINE
  8
0
  6
CENTER
 62
     2
 10
88.200226
 20
52.801262
 11
99.830231
 21
52.801262
  0
LINE
  8
0
  6
CENTER
 62
     2
 10
94.350227
 20
58.931263
 11
94.350227
 21
46.351261
  0
LINE
  8
0
 62
     4
 10
97.105225
 20
123.161263
 11
97.105225
 21
127.731262
  0
LINE
  8
0
 62
     4
 10
95.675224
 20
123.541260
 11
95.675224
 21
127.731262
  0
LINE
  8
0
 62
     4
 10
95.990227
 20
127.731262
 11
95.990227
 21
132.731262
  0
LINE
  8
0
 62
     4
 10
96.790230
 20
127.731262
 11
96.790230
 21
132.731262
  0
LINE
  8
0
 62
     4
 10
95.675224
 20
127.731262
 11
97.105225
 21
127.731262
  0
LINE
  8
0
 62
     4
 10
95.990227
 20
132.731262
 11
96.790230
 21
132.731262
  0
LINE
  8
0
 62
     4
 10
95.675224
 20
117.201263
 11
95.675224
 21
122.301262
  0
LINE
  8
0
 62
     4
 10
97.105225
 20
117.201263
 11
97.105225
 21
121.931259
  0
LINE
  8
0
 62
     4
 10
91.710228
 20
132.731262
 11
90.910225
 21
132.731262
  0
LINE
  8
0
 62
     4
 10
92.025230
 20
127.731262
 11
90.595230
 21
127.731262
  0
LINE
  8
0
 62
     4
 10
90.910225
 20
127.731262
 11
90.910225
 21
132.731262
  0
LINE
  8
0
 62
     4
 10
91.710228
 20
127.731262
 11
91.710228
 21
132.731262
  0
LINE
  8
0
 62
     4
 10
90.595230
 20
124.907265
 11
90.595230
 21
127.731262
  0
LINE
  8
0
 62
     4
 10
92.025230
 20
124.525932
 11
92.025230
 21
127.731262
  0
LINE
  8
0
 62
     1
 10
99.430229
 20
122.551254
 11
88.331909
 21
125.510803
  0
LINE
  8
0
 62
     1
 10
99.430229
 20
121.311264
 11
88.331909
 21
124.270813
  0
LINE
  8
0
 62
     4
 10
90.595230
 20
117.201263
 11
90.595230
 21
123.667259
  0
LINE
  8
0
 62
     4
 10
92.025230
 20
117.201263
 11
92.025230
 21
123.285927
  0
LINE
  8
0
 62
     4
 10
89.750229
 20
112.201263
 11
89.750229
 21
112.101257
  0
LINE
  8
0
 62
     4
 10
97.950226
 20
112.201263
 11
97.950226
 21
112.101257
  0
LINE
  8
0
 62
     4
 10
91.350227
 20
112.201263
 11
89.150230
 21
112.201263
  0
LINE
  8
0
 62
     4
 10
98.550224
 20
112.201263
 11
96.350227
 21
112.201263
  0
LINE
  8
0
 62
     4
 10
91.350227
 20
108.567291
 11
96.350227
 21
108.567291
  0
LINE
  8
0
 62
     4
 10
91.350227
 20
112.101257
 11
88.850227
 21
112.101257
  0
LINE
  8
0
 62
     4
 10
89.150230
 20
112.201263
 11
89.150230
 21
117.201263
  0
LINE
  8
0
 62
     4
 10
91.350227
 20
107.701263
 11
91.350227
 21
116.201263
  0
LINE
  8
0
 62
     4
 10
90.250229
 20
112.201263
 11
90.250229
 21
117.201263
  0
LINE
  8
0
 62
     4
 10
97.450226
 20
112.201263
 11
97.450226
 21
117.201263
  0
LINE
  8
0
 62
     4
 10
91.350227
 20
115.201263
 11
96.350227
 21
115.201263
  0
LINE
  8
0
 62
     4
 10
91.350227
 20
115.489937
 11
96.350227
 21
115.489937
  0
LINE
  8
0
 62
     4
 10
96.350227
 20
107.701263
 11
96.350227
 21
116.201263
  0
LINE
  8
0
 62
     4
 10
98.550224
 20
112.201263
 11
98.550224
 21
117.201263
  0
LINE
  8
0
 62
     4
 10
96.350227
 20
116.201263
 11
91.350227
 21
116.201263
  0
LINE
  8
0
 62
     4
 10
98.550224
 20
117.201263
 11
89.150230
 21
117.201263
  0
LINE
  8
0
 62
     4
 10
96.350227
 20
107.701263
 11
91.350227
 21
107.701263
  0
LINE
  8
0
 62
     1
 10
92.350227
 20
103.601257
 11
92.350227
 21
106.601257
  0
LINE
  8
0
 62
     1
 10
95.350227
 20
103.601257
 11
92.350227
 21
103.601257
  0
LINE
  8
0
 62
     1
 10
95.350227
 20
103.601257
 11
95.350227
 21
106.601257
  0
LINE
  8
0
 62
     4
 10
90.950226
 20
106.601257
 11
90.950226
 21
112.101257
  0
LINE
  8
0
 62
     4
 10
96.750229
 20
106.601257
 11
96.750229
 21
112.101257
  0
LINE
  8
0
 62
     4
 10
98.850227
 20
112.101257
 11
96.350227
 21
112.101257
  0
LINE
  8
0
 62
     4
 10
98.850227
 20
87.001266
 11
98.850227
 21
112.101257
  0
LINE
  8
0
 62
     4
 10
88.850227
 20
87.001266
 11
88.850227
 21
112.101257
  0
LINE
  8
0
 62
     4
 10
88.850227
 20
88.201263
 11
98.850227
 21
88.201263
  0
LINE
  8
0
 62
     4
 10
89.150230
 20
106.601257
 11
98.550224
 21
106.601257
  0
LINE
  8
0
 62
     4
 10
98.850227
 20
87.901260
 11
88.850227
 21
87.901260
  0
LINE
  8
0
 10
99.400230
 20
87.501266
 11
99.850227
 21
87.501266
  0
LINE
  8
0
 10
90.599113
 20
78.301262
 11
91.984749
 21
75.901260
  0
LINE
  8
0
 10
95.715698
 20
75.901253
 11
97.101334
 21
78.301262
  0
LINE
  8
0
 10
92.331169
 20
75.701263
 11
95.369286
 21
75.701263
  0
LINE
  8
0
 10
99.100227
 20
87.001266
 11
99.100227
 21
87.201263
  0
LINE
  8
0
 10
88.600227
 20
87.001266
 11
88.600227
 21
87.201263
  0
LINE
  8
0
 10
87.850227
 20
87.501266
 11
88.300224
 21
87.501266
  0
LINE
  8
0
 10
84.850227
 20
84.501251
 11
87.850227
 21
87.501266
  0
LINE
  8
0
 10
99.850220
 20
87.501266
 11
102.850220
 21
84.501266
  0
LINE
  8
0
 10
102.850227
 20
84.501266
 11
102.850227
 21
65.801262
  0
LINE
  8
0
 10
84.850227
 20
84.501266
 11
84.850227
 21
65.801262
  0
LINE
  8
0
 10
97.447746
 20
78.501266
 11
102.850227
 21
78.501266
  0
LINE
  8
0
 10
90.252708
 20
78.501266
 11
84.850227
 21
78.501266
  0
LINE
  8
0
 10
102.850227
 20
65.801262
 11
84.850227
 21
65.801262
  0
LINE
  8
0
 10
99.100227
 20
87.001266
 11
88.600227
 21
87.001266
  0
LINE
  8
0
 10
102.850227
 20
65.801262
 11
102.850227
 21
61.062214
  0
LINE
  8
0
 10
84.850227
 20
65.801262
 11
84.850227
 21
31.062212
  0
LINE
  8
0
 10
84.850227
 20
23.801262
 11
102.850227
 21
23.801262
  0
LINE
  8
0
  6
CENTER
 62
     2
 10
93.850227
 20
120.185204
 11
93.850227
 21
-43.909088
  0
LINE
  8
0
 10
84.850227
 20
9.901260
 11
102.850227
 21
9.901260
  0
LINE
  8
0
  6
CENTER
 62
     2
 10
74.850227
 20
120.185204
 11
74.850227
 21
-30.452934
  0
LINE
  8
0
 10
65.850227
 20
23.801262
 11
83.850227
 21
23.801262
  0
LINE
  8
0
 10
65.850227
 20
65.801262
 11
65.850227
 21
31.062212
  0
LINE
  8
0
 10
83.850227
 20
65.801262
 11
83.850227
 21
61.062214
  0
LINE
  8
0
 10
80.100227
 20
87.001266
 11
69.600227
 21
87.001266
  0
LINE
  8
0
 10
83.850227
 20
65.801262
 11
65.850227
 21
65.801262
  0
LINE
  8
0
 10
71.252701
 20
78.501266
 11
65.850227
 21
78.501266
  0
LINE
  8
0
 10
78.447746
 20
78.501266
 11
83.850227
 21
78.501266
  0
LINE
  8
0
 10
65.850227
 20
84.501266
 11
65.850227
 21
65.801262
  0
LINE
  8
0
 10
83.850227
 20
84.501266
 11
83.850227
 21
65.801262
  0
LINE
  8
0
 10
80.850220
 20
87.501259
 11
83.850227
 21
84.501259
  0
LINE
  8
0
 10
65.850227
 20
84.501251
 11
68.850227
 21
87.501259
  0
LINE
  8
0
 10
68.850227
 20
87.501266
 11
69.300224
 21
87.501266
  0
LINE
  8
0
 10
69.600227
 20
87.001266
 11
69.600227
 21
87.201263
  0
LINE
  8
0
 10
80.100227
 20
87.001266
 11
80.100227
 21
87.201263
  0
LINE
  8
0
 10
73.331169
 20
75.701263
 11
76.369286
 21
75.701263
  0
LINE
  8
0
 10
76.715698
 20
75.901260
 11
78.101334
 21
78.301262
  0
LINE
  8
0
 10
71.599106
 20
78.301262
 11
72.984749
 21
75.901260
  0
LINE
  8
0
 10
80.400223
 20
87.501266
 11
80.850227
 21
87.501266
  0
LINE
  8
0
 62
     4
 10
79.850227
 20
87.901260
 11
69.850227
 21
87.901260
  0
LINE
  8
0
 62
     4
 10
70.150223
 20
106.601257
 11
79.550224
 21
106.601257
  0
LINE
  8
0
 62
     4
 10
69.850227
 20
88.201263
 11
79.850227
 21
88.201263
  0
LINE
  8
0
 62
     4
 10
69.850227
 20
87.001266
 11
69.850227
 21
112.101257
  0
LINE
  8
0
 62
     4
 10
79.850227
 20
87.001266
 11
79.850227
 21
112.101257
  0
LINE
  8
0
 62
     4
 10
79.850227
 20
112.101257
 11
77.350227
 21
112.101257
  0
LINE
  8
0
 62
     4
 10
77.750229
 20
106.601257
 11
77.750229
 21
112.101257
  0
LINE
  8
0
 62
     4
 10
71.950226
 20
106.601257
 11
71.950226
 21
112.101257
  0
LINE
  8
0
 62
     1
 10
76.350227
 20
103.601257
 11
76.350227
 21
106.601257
  0
LINE
  8
0
 62
     1
 10
76.350227
 20
103.601257
 11
73.350227
 21
103.601257
  0
LINE
  8
0
 62
     1
 10
73.350227
 20
103.601257
 11
73.350227
 21
106.601257
  0
LINE
  8
0
 62
     4
 10
77.350227
 20
107.701263
 11
72.350227
 21
107.701263
  0
LINE
  8
0
 62
     4
 10
79.550224
 20
117.201263
 11
70.150223
 21
117.201263
  0
LINE
  8
0
 62
     4
 10
77.350227
 20
116.201263
 11
72.350227
 21
116.201263
  0
LINE
  8
0
 62
     4
 10
79.550224
 20
112.201263
 11
79.550224
 21
117.201263
  0
LINE
  8
0
 62
     4
 10
77.350227
 20
107.701263
 11
77.350227
 21
116.201263
  0
LINE
  8
0
 62
     4
 10
72.350227
 20
115.489937
 11
77.350227
 21
115.489937
  0
LINE
  8
0
 62
     4
 10
72.350227
 20
115.201263
 11
77.350227
 21
115.201263
  0
LINE
  8
0
 62
     4
 10
78.450226
 20
112.201263
 11
78.450226
 21
117.201263
  0
LINE
  8
0
 62
     4
 10
71.250229
 20
112.201263
 11
71.250229
 21
117.201263
  0
LINE
  8
0
 62
     4
 10
72.350227
 20
107.701263
 11
72.350227
 21
116.201263
  0
LINE
  8
0
 62
     4
 10
70.150223
 20
112.201263
 11
70.150223
 21
117.201263
  0
LINE
  8
0
 62
     4
 10
72.350227
 20
112.101257
 11
69.850227
 21
112.101257
  0
LINE
  8
0
 62
     4
 10
72.350227
 20
108.567291
 11
77.350227
 21
108.567291
  0
LINE
  8
0
 62
     4
 10
79.550224
 20
112.201263
 11
77.350227
 21
112.201263
  0
LINE
  8
0
 62
     4
 10
72.350227
 20
112.201263
 11
70.150223
 21
112.201263
  0
LINE
  8
0
 62
     4
 10
78.950226
 20
112.201263
 11
78.950226
 21
112.101257
  0
LINE
  8
0
 62
     4
 10
70.750229
 20
112.201263
 11
70.750229
 21
112.101257
  0
LINE
  8
0
 62
     4
 10
73.025223
 20
117.201263
 11
73.025223
 21
123.285927
  0
LINE
  8
0
 62
     4
 10
71.595222
 20
117.201263
 11
71.595222
 21
123.667259
  0
LINE
  8
0
 62
     1
 10
80.430229
 20
121.311264
 11
69.331917
 21
124.270813
  0
LINE
  8
0
 62
     1
 10
80.430229
 20
122.551254
 11
69.331909
 21
125.510803
  0
LINE
  8
0
 62
     4
 10
73.025223
 20
124.525932
 11
73.025223
 21
127.731262
  0
LINE
  8
0
 62
     4
 10
71.595222
 20
124.907265
 11
71.595222
 21
127.731262
  0
LINE
  8
0
 62
     4
 10
72.710228
 20
127.731262
 11
72.710228
 21
132.731262
  0
LINE
  8
0
 62
     4
 10
71.910225
 20
127.731262
 11
71.910225
 21
132.731262
  0
LINE
  8
0
 62
     4
 10
73.025223
 20
127.731262
 11
71.595222
 21
127.731262
  0
LINE
  8
0
 62
     4
 10
72.710228
 20
132.731262
 11
71.910225
 21
132.731262
  0
LINE
  8
0
 62
     4
 10
78.105225
 20
117.201263
 11
78.105225
 21
121.931259
  0
LINE
  8
0
 62
     4
 10
76.675224
 20
117.201263
 11
76.675224
 21
122.301262
  0
LINE
  8
0
 62
     4
 10
76.990227
 20
132.731262
 11
77.790222
 21
132.731262
  0
LINE
  8
0
 62
     4
 10
76.675224
 20
127.731262
 11
78.105225
 21
127.731262
  0
LINE
  8
0
 62
     4
 10
77.790222
 20
127.731262
 11
77.790222
 21
132.731262
  0
LINE
  8
0
 62
     4
 10
76.990227
 20
127.731262
 11
76.990227
 21
132.731262
  0
LINE
  8
0
 62
     4
 10
76.675224
 20
123.541260
 11
76.675224
 21
127.731262
  0
LINE
  8
0
 62
     4
 10
78.105225
 20
123.161263
 11
78.105225
 21
127.731262
  0
LINE
  8
0
  6
CENTER
 62
     2
 10
75.350227
 20
58.931263
 11
75.350227
 21
46.351261
  0
LINE
  8
0
  6
CENTER
 62
     2
 10
69.200226
 20
52.801262
 11
80.830223
 21
52.801262
  0
LINE
  8
0
  6
CENTER
 62
     2
 10
68.760223
 20
36.801262
 11
80.920227
 21
36.801262
  0
LINE
  8
0
  6
CENTER
 62
     2
 10
74.350227
 20
43.381264
 11
74.350227
 21
30.641262
  0
LINE
  8
0
 10
65.850227
 20
5.101261
 11
65.850227
 21
23.801262
  0
LINE
  8
0
 10
83.850227
 20
5.101261
 11
83.850227
 21
23.801262
  0
LINE
  8
0
 62
     4
 10
78.105225
 20
-35.304741
 11
78.105225
 21
-38.128738
  0
LINE
  8
0
 62
     4
 10
76.675224
 20
-34.923409
 11
76.675224
 21
-38.128738
  0
LINE
  8
0
 62
     4
 10
76.990227
 20
-38.128738
 11
76.990227
 21
-43.128738
  0
LINE
  8
0
 62
     4
 10
77.790222
 20
-38.128738
 11
77.790222
 21
-43.128738
  0
LINE
  8
0
 62
     4
 10
76.675224
 20
-38.128738
 11
78.105225
 21
-38.128738
  0
LINE
  8
0
 62
     4
 10
76.990227
 20
-43.128738
 11
77.790222
 21
-43.128738
  0
LINE
  8
0
 62
     4
 10
76.675224
 20
-27.598740
 11
76.675224
 21
-33.683403
  0
LINE
  8
0
 62
     4
 10
78.105225
 20
-27.598740
 11
78.105225
 21
-34.064735
  0
LINE
  8
0
 62
     4
 10
72.710228
 20
-43.128738
 11
71.910225
 21
-43.128738
  0
LINE
  8
0
 62
     4
 10
73.025223
 20
-38.128738
 11
71.595222
 21
-38.128738
  0
LINE
  8
0
 62
     4
 10
71.910225
 20
-38.128738
 11
71.910225
 21
-43.128738
  0
LINE
  8
0
 62
     4
 10
72.710228
 20
-38.128738
 11
72.710228
 21
-43.128738
  0
LINE
  8
0
 62
     4
 10
71.595222
 20
-33.568741
 11
71.595222
 21
-38.128738
  0
LINE
  8
0
 62
     4
 10
73.025223
 20
-33.950073
 11
73.025223
 21
-38.128738
  0
LINE
  8
0
 62
     1
 10
69.270226
 20
-32.948738
 11
80.368538
 21
-35.908291
  0
LINE
  8
0
 62
     1
 10
69.270226
 20
-31.708735
 11
80.368538
 21
-34.668285
  0
LINE
  8
0
 62
     4
 10
71.595222
 20
-27.598740
 11
71.595222
 21
-32.328735
  0
LINE
  8
0
 62
     4
 10
73.025223
 20
-27.598740
 11
73.025223
 21
-32.710068
  0
LINE
  8
0
 62
     4
 10
70.750229
 20
-22.598740
 11
70.750229
 21
-22.498741
  0
LINE
  8
0
 62
     4
 10
78.950226
 20
-22.598740
 11
78.950226
 21
-22.498741
  0
LINE
  8
0
 62
     4
 10
72.350227
 20
-22.598740
 11
70.150223
 21
-22.598740
  0
LINE
  8
0
 62
     4
 10
79.550224
 20
-22.598740
 11
77.350227
 21
-22.598740
  0
LINE
  8
0
 62
     4
 10
72.350227
 20
-18.964760
 11
77.350227
 21
-18.964760
  0
LINE
  8
0
 62
     4
 10
72.350227
 20
-22.498741
 11
69.850227
 21
-22.498741
  0
LINE
  8
0
 62
     4
 10
70.150223
 20
-22.598740
 11
70.150223
 21
-27.598740
  0
LINE
  8
0
 62
     4
 10
72.350227
 20
-18.098740
 11
72.350227
 21
-26.598740
  0
LINE
  8
0
 62
     4
 10
71.250229
 20
-22.598740
 11
71.250229
 21
-27.598740
  0
LINE
  8
0
 62
     4
 10
78.450226
 20
-22.598740
 11
78.450226
 21
-27.598740
  0
LINE
  8
0
 62
     4
 10
72.350227
 20
-25.598740
 11
77.350227
 21
-25.598740
  0
LINE
  8
0
 62
     4
 10
72.350227
 20
-25.887413
 11
77.350227
 21
-25.887413
  0
LINE
  8
0
 62
     4
 10
77.350227
 20
-18.098740
 11
77.350227
 21
-26.598740
  0
LINE
  8
0
 62
     4
 10
79.550224
 20
-22.598740
 11
79.550224
 21
-27.598740
  0
LINE
  8
0
 62
     4
 10
77.350227
 20
-26.598740
 11
72.350227
 21
-26.598740
  0
LINE
  8
0
 62
     4
 10
79.550224
 20
-27.598740
 11
70.150223
 21
-27.598740
  0
LINE
  8
0
 62
     4
 10
77.350227
 20
-18.098740
 11
72.350227
 21
-18.098740
  0
LINE
  8
0
 62
     1
 10
73.350227
 20
-13.998741
 11
73.350227
 21
-16.998741
  0
LINE
  8
0
 62
     1
 10
76.350227
 20
-13.998741
 11
73.350227
 21
-13.998741
  0
LINE
  8
0
 62
     1
 10
76.350227
 20
-13.998741
 11
76.350227
 21
-16.998741
  0
LINE
  8
0
 62
     4
 10
71.950226
 20
-16.998741
 11
71.950226
 21
-22.498741
  0
LINE
  8
0
 62
     4
 10
77.750229
 20
-16.998741
 11
77.750229
 21
-22.498741
  0
LINE
  8
0
 62
     4
 10
79.850227
 20
-22.498741
 11
77.350227
 21
-22.498741
  0
LINE
  8
0
 62
     4
 10
79.850227
 20
2.601261
 11
79.850227
 21
-22.498741
  0
LINE
  8
0
 62
     4
 10
69.850227
 20
2.601261
 11
69.850227
 21
-22.498741
  0
LINE
  8
0
 62
     4
 10
69.850227
 20
1.401260
 11
79.850227
 21
1.401260
  0
LINE
  8
0
 62
     4
 10
70.150223
 20
-16.998741
 11
79.550224
 21
-16.998741
  0
LINE
  8
0
 62
     4
 10
79.850227
 20
1.701263
 11
69.850227
 21
1.701263
  0
LINE
  8
0
 10
80.400223
 20
2.101261
 11
80.850227
 21
2.101261
  0
LINE
  8
0
 10
71.599113
 20
11.301258
 11
72.984756
 21
13.701258
  0
LINE
  8
0
 10
76.715698
 20
13.701262
 11
78.101334
 21
11.301261
  0
LINE
  8
0
 10
73.331169
 20
13.901260
 11
76.369286
 21
13.901260
  0
LINE
  8
0
 10
80.100227
 20
2.601261
 11
80.100227
 21
2.401260
  0
LINE
  8
0
 10
69.600227
 20
2.601261
 11
69.600227
 21
2.401260
  0
LINE
  8
0
 10
68.850227
 20
2.101261
 11
69.300224
 21
2.101261
  0
LINE
  8
0
 10
65.850227
 20
5.101262
 11
68.850227
 21
2.101260
  0
LINE
  8
0
 10
80.850227
 20
2.101263
 11
83.850227
 21
5.101264
  0
LINE
  8
0
 10
78.447746
 20
11.101261
 11
83.850227
 21
11.101261
  0
LINE
  8
0
 10
71.252701
 20
11.101261
 11
65.850227
 21
11.101261
  0
LINE
  8
0
 10
80.100227
 20
2.601261
 11
69.600227
 21
2.601261
  0
LINE
  8
0
  6
CENTER
 62
     2
 10
55.850227
 20
120.185204
 11
55.850227
 21
8.569920
  0
LINE
  8
0
 10
46.850227
 20
23.801262
 11
64.850227
 21
23.801262
  0
LINE
  8
0
 10
46.850227
 20
65.801262
 11
46.850227
 21
31.062212
  0
LINE
  8
0
 10
64.850227
 20
65.801262
 11
64.850227
 21
61.062214
  0
LINE
  8
0
 10
61.100227
 20
87.001266
 11
50.600227
 21
87.001266
  0
LINE
  8
0
 10
64.850227
 20
65.801262
 11
46.850227
 21
65.801262
  0
LINE
  8
0
 10
52.252705
 20
78.501266
 11
46.850227
 21
78.501266
  0
LINE
  8
0
 10
59.447746
 20
78.501266
 11
64.850227
 21
78.501266
  0
LINE
  8
0
 10
46.850227
 20
84.501266
 11
46.850227
 21
65.801262
  0
LINE
  8
0
 10
64.850227
 20
84.501266
 11
64.850227
 21
65.801262
  0
LINE
  8
0
 10
61.850227
 20
87.501266
 11
64.850227
 21
84.501259
  0
LINE
  8
0
 10
46.850227
 20
84.501259
 11
49.850227
 21
87.501259
  0
LINE
  8
0
 10
49.850227
 20
87.501266
 11
50.300224
 21
87.501266
  0
LINE
  8
0
 10
50.600227
 20
87.001266
 11
50.600227
 21
87.201263
  0
LINE
  8
0
 10
61.100227
 20
87.001266
 11
61.100227
 21
87.201263
  0
LINE
  8
0
 10
54.331165
 20
75.701263
 11
57.369286
 21
75.701263
  0
LINE
  8
0
 10
57.715694
 20
75.901260
 11
59.101337
 21
78.301262
  0
LINE
  8
0
 10
52.599110
 20
78.301262
 11
53.984756
 21
75.901260
  0
LINE
  8
0
 10
61.400223
 20
87.501266
 11
61.850227
 21
87.501266
  0
LINE
  8
0
 62
     4
 10
60.850227
 20
87.901260
 11
50.850227
 21
87.901260
  0
LINE
  8
0
 62
     4
 10
51.150223
 20
106.601257
 11
60.550224
 21
106.601257
  0
LINE
  8
0
 62
     4
 10
50.850227
 20
88.201263
 11
60.850227
 21
88.201263
  0
LINE
  8
0
 62
     4
 10
50.850227
 20
87.001266
 11
50.850227
 21
112.101257
  0
LINE
  8
0
 62
     4
 10
60.850227
 20
87.001266
 11
60.850227
 21
112.101257
  0
LINE
  8
0
 62
     4
 10
60.850227
 20
112.101257
 11
58.350227
 21
112.101257
  0
LINE
  8
0
 62
     4
 10
58.750229
 20
106.601257
 11
58.750229
 21
112.101257
  0
LINE
  8
0
 62
     4
 10
52.950226
 20
106.601257
 11
52.950226
 21
112.101257
  0
LINE
  8
0
 62
     1
 10
57.350227
 20
103.601257
 11
57.350227
 21
106.601257
  0
LINE
  8
0
 62
     1
 10
57.350227
 20
103.601257
 11
54.350227
 21
103.601257
  0
LINE
  8
0
 62
     1
 10
54.350227
 20
103.601257
 11
54.350227
 21
106.601257
  0
LINE
  8
0
 62
     4
 10
58.350227
 20
107.701263
 11
53.350227
 21
107.701263
  0
LINE
  8
0
 62
     4
 10
60.550224
 20
117.201263
 11
51.150223
 21
117.201263
  0
LINE
  8
0
 62
     4
 10
58.350227
 20
116.201263
 11
53.350227
 21
116.201263
  0
LINE
  8
0
 62
     4
 10
60.550224
 20
112.201263
 11
60.550224
 21
117.201263
  0
LINE
  8
0
 62
     4
 10
58.350227
 20
107.701263
 11
58.350227
 21
116.201263
  0
LINE
  8
0
 62
     4
 10
53.350227
 20
115.489937
 11
58.350227
 21
115.489937
  0
LINE
  8
0
 62
     4
 10
53.350227
 20
115.201263
 11
58.350227
 21
115.201263
  0
LINE
  8
0
 62
     4
 10
59.450226
 20
112.201263
 11
59.450226
 21
117.201263
  0
LINE
  8
0
 62
     4
 10
52.250225
 20
112.201263
 11
52.250225
 21
117.201263
  0
LINE
  8
0
 62
     4
 10
53.350227
 20
107.701263
 11
53.350227
 21
116.201263
  0
LINE
  8
0
 62
     4
 10
51.150223
 20
112.201263
 11
51.150223
 21
117.201263
  0
LINE
  8
0
 62
     4
 10
53.350227
 20
112.101257
 11
50.850227
 21
112.101257
  0
LINE
  8
0
 62
     4
 10
53.350227
 20
108.567291
 11
58.350227
 21
108.567291
  0
LINE
  8
0
 10
53.050224
 20
18.301262
 11
53.050224
 21
15.901260
  0
LINE
  8
0
 10
47.350227
 20
15.401260
 11
64.350227
 21
15.401260
  0
LINE
  8
0
 10
47.050224
 20
18.801262
 11
52.550224
 21
18.801262
  0
LINE
  8
0
 10
47.050224
 20
17.621262
 11
47.050224
 21
18.801262
  0
LINE
  8
0
 10
52.650223
 20
17.621262
 11
52.650223
 21
18.801262
  0
LINE
  8
0
 62
     4
 10
60.550224
 20
112.201263
 11
58.350227
 21
112.201263
  0
LINE
  8
0
 62
     4
 10
53.350227
 20
112.201263
 11
51.150223
 21
112.201263
  0
LINE
  8
0
 62
     4
 10
59.950226
 20
112.201263
 11
59.950226
 21
112.101257
  0
LINE
  8
0
 62
     4
 10
51.750225
 20
112.201263
 11
51.750225
 21
112.101257
  0
LINE
  8
0
 62
     4
 10
54.025223
 20
117.201263
 11
54.025223
 21
123.285927
  0
LINE
  8
0
 62
     4
 10
52.595226
 20
117.201263
 11
52.595226
 21
123.667259
  0
LINE
  8
0
 62
     1
 10
61.430225
 20
121.311272
 11
50.331913
 21
124.270821
  0
LINE
  8
0
 62
     1
 10
61.430225
 20
122.551270
 11
50.331917
 21
125.510826
  0
LINE
  8
0
 62
     4
 10
54.025223
 20
124.525932
 11
54.025223
 21
127.731262
  0
LINE
  8
0
 62
     4
 10
52.595226
 20
124.907265
 11
52.595226
 21
127.731262
  0
LINE
  8
0
 62
     4
 10
53.710228
 20
127.731262
 11
53.710228
 21
132.731262
  0
LINE
  8
0
 62
     4
 10
52.910225
 20
127.731262
 11
52.910225
 21
132.731262
  0
LINE
  8
0
 62
     4
 10
54.025223
 20
127.731262
 11
52.595226
 21
127.731262
  0
LINE
  8
0
 62
     4
 10
53.710228
 20
132.731262
 11
52.910225
 21
132.731262
  0
LINE
  8
0
 62
     4
 10
59.105225
 20
117.201263
 11
59.105225
 21
121.931259
  0
LINE
  8
0
 62
     4
 10
57.675224
 20
117.201263
 11
57.675224
 21
122.301262
  0
LINE
  8
0
 62
     4
 10
57.990227
 20
132.731262
 11
58.790222
 21
132.731262
  0
LINE
  8
0
 62
     4
 10
57.675224
 20
127.731262
 11
59.105225
 21
127.731262
  0
LINE
  8
0
 62
     4
 10
58.790222
 20
127.731262
 11
58.790222
 21
132.731262
  0
LINE
  8
0
 62
     4
 10
57.990227
 20
127.731262
 11
57.990227
 21
132.731262
  0
LINE
  8
0
 62
     4
 10
57.675224
 20
123.541260
 11
57.675224
 21
127.731262
  0
LINE
  8
0
 62
     4
 10
59.105225
 20
123.161263
 11
59.105225
 21
127.731262
  0
LINE
  8
0
 62
     2
 10
56.350227
 20
58.931263
 11
56.350227
 21
46.351261
  0
LINE
  8
0
  6
CENTER
 62
     2
 10
50.200226
 20
52.801262
 11
61.830223
 21
52.801262
  0
LINE
  8
0
  6
CENTER
 62
     2
 10
49.760223
 20
36.801262
 11
61.920227
 21
36.801262
  0
LINE
  8
0
  6
CENTER
 62
     2
 10
55.350227
 20
43.381264
 11
55.350227
 21
30.641262
  0
LINE
  8
0
  6
CENTER
 62
     2
 10
36.850227
 20
120.185204
 11
36.850227
 21
8.569920
  0
LINE
  8
0
 10
27.850225
 20
23.801262
 11
45.850227
 21
23.801262
  0
LINE
  8
0
 10
27.850225
 20
65.801262
 11
27.850225
 21
31.062212
  0
LINE
  8
0
 10
45.850227
 20
65.801262
 11
45.850227
 21
61.062214
  0
LINE
  8
0
 10
42.100227
 20
87.001266
 11
31.600225
 21
87.001266
  0
LINE
  8
0
 10
45.850227
 20
65.801262
 11
27.850225
 21
65.801262
  0
LINE
  8
0
 10
33.252705
 20
78.501266
 11
27.850225
 21
78.501266
  0
LINE
  8
0
 10
40.447746
 20
78.501266
 11
45.850227
 21
78.501266
  0
LINE
  8
0
 10
27.850225
 20
84.501266
 11
27.850225
 21
65.801262
  0
LINE
  8
0
 10
45.850227
 20
84.501266
 11
45.850227
 21
65.801262
  0
LINE
  8
0
 10
42.850224
 20
87.501259
 11
45.850224
 21
84.501259
  0
LINE
  8
0
 10
27.850224
 20
84.501259
 11
30.850222
 21
87.501259
  0
LINE
  8
0
 10
30.850225
 20
87.501266
 11
31.300224
 21
87.501266
  0
LINE
  8
0
 10
31.600225
 20
87.001266
 11
31.600225
 21
87.201263
  0
LINE
  8
0
 10
42.100227
 20
87.001266
 11
42.100227
 21
87.201263
  0
LINE
  8
0
 10
35.331165
 20
75.701263
 11
38.369286
 21
75.701263
  0
LINE
  8
0
 10
38.715694
 20
75.901260
 11
40.101341
 21
78.301262
  0
LINE
  8
0
 10
33.599106
 20
78.301262
 11
34.984753
 21
75.901260
  0
LINE
  8
0
 10
42.400223
 20
87.501266
 11
42.850227
 21
87.501266
  0
LINE
  8
0
 62
     4
 10
41.850227
 20
87.901260
 11
31.850225
 21
87.901260
  0
LINE
  8
0
 62
     4
 10
32.150227
 20
106.601257
 11
41.550224
 21
106.601257
  0
LINE
  8
0
 62
     4
 10
31.850225
 20
88.201263
 11
41.850227
 21
88.201263
  0
LINE
  8
0
 62
     4
 10
31.850225
 20
87.001266
 11
31.850225
 21
112.101257
  0
LINE
  8
0
 62
     4
 10
41.850227
 20
87.001266
 11
41.850227
 21
112.101257
  0
LINE
  8
0
 62
     4
 10
41.850227
 20
112.101257
 11
39.350227
 21
112.101257
  0
LINE
  8
0
 62
     4
 10
39.750225
 20
106.601257
 11
39.750225
 21
112.101257
  0
LINE
  8
0
 62
     4
 10
33.950226
 20
106.601257
 11
33.950226
 21
112.101257
  0
LINE
  8
0
 62
     1
 10
38.350227
 20
103.601257
 11
38.350227
 21
106.601257
  0
LINE
  8
0
 62
     1
 10
38.350227
 20
103.601257
 11
35.350227
 21
103.601257
  0
LINE
  8
0
 62
     1
 10
35.350227
 20
103.601257
 11
35.350227
 21
106.601257
  0
LINE
  8
0
 62
     4
 10
39.350227
 20
107.701263
 11
34.350227
 21
107.701263
  0
LINE
  8
0
 62
     4
 10
41.550224
 20
117.201263
 11
32.150227
 21
117.201263
  0
LINE
  8
0
 62
     4
 10
39.350227
 20
116.201263
 11
34.350227
 21
116.201263
  0
LINE
  8
0
 62
     4
 10
41.550224
 20
112.201263
 11
41.550224
 21
117.201263
  0
LINE
  8
0
 62
     4
 10
39.350227
 20
107.701263
 11
39.350227
 21
116.201263
  0
LINE
  8
0
 62
     4
 10
34.350227
 20
115.489937
 11
39.350227
 21
115.489937
  0
LINE
  8
0
 62
     4
 10
34.350227
 20
115.201263
 11
39.350227
 21
115.201263
  0
LINE
  8
0
 62
     4
 10
40.450226
 20
112.201263
 11
40.450226
 21
117.201263
  0
LINE
  8
0
 62
     4
 10
33.250225
 20
112.201263
 11
33.250225
 21
117.201263
  0
LINE
  8
0
 62
     4
 10
34.350227
 20
107.701263
 11
34.350227
 21
116.201263
  0
LINE
  8
0
 62
     4
 10
32.150227
 20
112.201263
 11
32.150227
 21
117.201263
  0
LINE
  8
0
 62
     4
 10
34.350227
 20
112.101257
 11
31.850225
 21
112.101257
  0
LINE
  8
0
 62
     4
 10
34.350227
 20
108.567291
 11
39.350227
 21
108.567291
  0
LINE
  8
0
 10
34.050224
 20
18.301262
 11
34.050224
 21
15.901260
  0
LINE
  8
0
 10
28.350225
 20
15.401260
 11
45.350227
 21
15.401260
  0
LINE
  8
0
 10
28.050224
 20
18.801262
 11
33.550224
 21
18.801262
  0
LINE
  8
0
 10
28.050224
 20
17.621262
 11
28.050224
 21
18.801262
  0
LINE
  8
0
 10
33.650227
 20
17.621262
 11
33.650227
 21
18.801262
  0
LINE
  8
0
 62
     4
 10
41.550224
 20
112.201263
 11
39.350227
 21
112.201263
  0
LINE
  8
0
 62
     4
 10
34.350227
 20
112.201263
 11
32.150227
 21
112.201263
  0
LINE
  8
0
 62
     4
 10
40.950226
 20
112.201263
 11
40.950226
 21
112.101257
  0
LINE
  8
0
 62
     4
 10
32.750225
 20
112.201263
 11
32.750225
 21
112.101257
  0
LINE
  8
0
 62
     4
 10
35.025227
 20
117.201263
 11
35.025227
 21
123.285927
  0
LINE
  8
0
 62
     4
 10
33.595226
 20
117.201263
 11
33.595226
 21
123.667259
  0
LINE
  8
0
 62
     1
 10
42.430225
 20
121.311249
 11
31.331911
 21
124.270805
  0
LINE
  8
0
 62
     1
 10
42.430225
 20
122.551262
 11
31.331913
 21
125.510811
  0
LINE
  8
0
 62
     4
 10
35.025227
 20
124.525932
 11
35.025227
 21
127.731262
  0
LINE
  8
0
 62
     4
 10
33.595226
 20
124.907265
 11
33.595226
 21
127.731262
  0
LINE
  8
0
 62
     4
 10
34.710224
 20
127.731262
 11
34.710224
 21
132.731262
  0
LINE
  8
0
 62
     4
 10
33.910225
 20
127.731262
 11
33.910225
 21
132.731262
  0
LINE
  8
0
 62
     4
 10
35.025227
 20
127.731262
 11
33.595226
 21
127.731262
  0
LINE
  8
0
 62
     4
 10
34.710224
 20
132.731262
 11
33.910225
 21
132.731262
  0
LINE
  8
0
 62
     4
 10
40.105225
 20
117.201263
 11
40.105225
 21
121.931259
  0
LINE
  8
0
 62
     4
 10
38.675224
 20
117.201263
 11
38.675224
 21
122.301262
  0
LINE
  8
0
 62
     4
 10
38.990227
 20
132.731262
 11
39.790226
 21
132.731262
  0
LINE
  8
0
 62
     4
 10
38.675224
 20
127.731262
 11
40.105225
 21
127.731262
  0
LINE
  8
0
 62
     4
 10
39.790226
 20
127.731262
 11
39.790226
 21
132.731262
  0
LINE
  8
0
 62
     4
 10
38.990227
 20
127.731262
 11
38.990227
 21
132.731262
  0
LINE
  8
0
 62
     4
 10
38.675224
 20
123.541260
 11
38.675224
 21
127.731262
  0
LINE
  8
0
 62
     4
 10
40.105225
 20
123.161263
 11
40.105225
 21
127.731262
  0
LINE
  8
0
  6
CENTER
 62
     2
 10
30.025522
 20
51.801720
 11
44.025520
 21
51.801720
  0
LINE
  8
0
 10
41.936012
 20
61.215477
 11
44.764439
 21
58.387047
  0
LINE
  8
0
 10
41.370331
 20
57.821365
 11
45.330124
 21
61.781155
  0
LINE
  8
0
 10
28.370325
 20
27.821362
 11
32.330124
 21
31.781158
  0
LINE
  8
0
 10
28.936010
 20
31.215473
 11
31.764437
 21
28.387047
  0
LINE
  8
0
  6
CENTER
 62
     2
 10
19.350225
 20
34.801262
 11
26.350225
 21
34.801262
  0
LINE
  8
0
  6
CENTER
 62
     2
 10
22.850225
 20
38.301262
 11
22.850225
 21
31.301262
  0
LINE
  8
0
  6
CENTER
 62
     2
 10
22.850225
 20
58.301262
 11
22.850225
 21
51.301262
  0
LINE
  8
0
  6
CENTER
 62
     2
 10
19.350225
 20
54.801262
 11
26.350225
 21
54.801262
  0
LINE
  8
0
 10
131.850220
 20
81.801262
 11
131.850220
 21
7.801262
  0
LINE
  8
0
  6
CENTER
 62
     2
 10
126.850227
 20
58.301262
 11
126.850227
 21
51.301262
  0
LINE
  8
0
  6
CENTER
 62
     2
 10
126.850227
 20
38.301262
 11
126.850227
 21
31.301262
  0
LINE
  8
0
  6
CENTER
 62
     2
 10
123.350227
 20
34.801262
 11
130.350220
 21
34.801262
  0
LINE
  8
0
  6
CENTER
 62
     2
 10
123.350227
 20
54.801262
 11
130.350220
 21
54.801262
  0
LINE
  8
0
 10
17.850225
 20
81.801262
 11
17.850225
 21
7.801262
  0
LINE
  8
0
 10
-154.250000
 20
15.000000
 11
-154.250000
 21
-185.000000
  0
LINE
  8
0
 10
-184.250000
 20
15.000000
 11
-184.250000
 21
-185.000000
  0
LINE
  8
0
 10
-217.250000
 20
15.000000
 11
-217.250000
 21
-185.000000
  0
LINE
  8
0
 10
-271.250000
 20
15.000000
 11
-271.250000
 21
-185.000000
  0
LINE
  8
0
 10
-271.250000
 20
15.000000
 11
-154.250000
 21
15.000000
  0
LINE
  8
0
 10
-271.250000
 20
5.000000
 11
-154.250000
 21
5.000000
  0
LINE
  8
0
 10
-271.250000
 20
-5.000000
 11
-154.250000
 21
-5.000000
  0
LINE
  8
0
 10
-271.250000
 20
-15.000000
 11
-154.250000
 21
-15.000000
  0
LINE
  8
0
 10
-271.250000
 20
-25.000000
 11
-154.250000
 21
-25.000000
  0
LINE
  8
0
 10
-271.250000
 20
-35.000000
 11
-154.250000
 21
-35.000000
  0
LINE
  8
0
 10
-271.250000
 20
-45.000000
 11
-154.250000
 21
-45.000000
  0
LINE
  8
0
 10
-271.250000
 20
-55.000000
 11
-154.250000
 21
-55.000000
  0
LINE
  8
0
 10
-271.250000
 20
-65.000000
 11
-154.250000
 21
-65.000000
  0
LINE
  8
0
 10
-271.250000
 20
-75.000000
 11
-154.250000
 21
-75.000000
  0
LINE
  8
0
 10
-271.250000
 20
-85.000000
 11
-154.250000
 21
-85.000000
  0
LINE
  8
0
 10
-271.250000
 20
-95.000000
 11
-154.250000
 21
-95.000000
  0
LINE
  8
0
 10
-271.250000
 20
-105.000000
 11
-154.250000
 21
-105.000000
  0
LINE
  8
0
 10
-271.250000
 20
-115.000000
 11
-154.250000
 21
-115.000000
  0
LINE
  8
0
 10
-271.250000
 20
-125.000000
 11
-154.250000
 21
-125.000000
  0
LINE
  8
0
 10
-271.250000
 20
-135.000000
 11
-154.250000
 21
-135.000000
  0
LINE
  8
0
 10
-271.250000
 20
-145.000000
 11
-154.250000
 21
-145.000000
  0
LINE
  8
0
 10
-271.250000
 20
-155.000000
 11
-154.250000
 21
-155.000000
  0
LINE
  8
0
 10
-271.250000
 20
-165.000000
 11
-154.250000
 21
-165.000000
  0
LINE
  8
0
 10
-271.250000
 20
-175.000000
 11
-154.250000
 21
-175.000000
  0
LINE
  8
0
 10
-271.250000
 20
-185.000000
 11
-154.250000
 21
-185.000000
  0
LINE
  8
0
 10
282.099854
 20
195.500000
 11
282.099854
 21
-195.000000
  0
LINE
  8
0
 10
-281.250000
 20
195.500000
 11
282.099854
 21
195.500000
  0
LINE
  8
0
 10
-281.250000
 20
195.500000
 11
-281.250000
 21
-195.000000
  0
LINE
  8
0
 10
-281.250000
 20
-195.000000
 11
282.099854
 21
-195.000000
  0
LINE
  8
0
 10
162.099976
 20
-175.000000
 11
162.099976
 21
-195.000000
  0
LINE
  8
0
 10
162.099976
 20
-175.000000
 11
282.099854
 21
-175.000000
  0
LINE
  8
0
 10
162.099976
 20
175.500000
 11
282.099854
 21
175.500000
  0
LINE
  8
0
 10
-281.250000
 20
175.500000
 11
-161.250000
 21
175.500000
  0
LINE
  8
0
 10
162.099976
 20
195.500000
 11
162.099976
 21
175.500000
  0
LINE
  8
0
 10
-161.250000
 20
195.500000
 11
-161.250000
 21
175.500000
  0
CIRCLE
  8
0
 10
49.700256
 20
-108.935699
 40
2.800000
  0
CIRCLE
  8
0
 10
61.700256
 20
-129.935699
 40
2.800000
  0
ARC
  8
0
 10
53.403740
 20
-106.432251
 40
0.503529
 50
90.399780
 51
179.599777
  0
ARC
  8
0
 10
47.203732
 20
-112.632248
 40
0.503522
 50
90.398918
 51
179.600647
  0
ARC
  8
0
 10
64.203712
 20
-126.232224
 40
0.496526
 50
269.597656
 51
0.402338
  0
ARC
  8
0
 10
61.703720
 20
-129.932236
 40
3.203501
 50
90.062561
 51
179.937500
  0
ARC
  8
0
 10
49.703720
 20
-108.932236
 40
3.196505
 50
269.937378
 51
0.062633
  0
ARC
  8
0
 10
64.196747
 20
-106.432220
 40
0.503491
 50
0.395903
 51
89.604095
  0
ARC
  8
0
 10
47.203743
 20
-106.432259
 40
0.503529
 50
90.400215
 51
179.599792
  0
ARC
  8
0
 10
57.950226
 20
-105.428741
 40
0.500000
 50
180.000000
 51
270.000000
  0
ARC
  8
0
 10
59.566803
 20
-105.428741
 40
0.500000
 50
180.000000
 51
270.000000
  0
ARC
  8
0
 10
53.450226
 20
-105.428741
 40
0.500000
 50
270.000000
 51
0.000000
  0
ARC
  8
0
 10
51.833645
 20
-105.428741
 40
0.500000
 50
270.000000
 51
0.000000
  0
ARC
  8
0
 10
57.050224
 20
-100.528740
 40
0.400002
 50
0.000000
 51
90.000000
  0
ARC
  8
0
 10
58.666809
 20
-100.528740
 40
0.400002
 50
0.000000
 51
90.000000
  0
ARC
  8
0
 10
54.350227
 20
-100.528740
 40
0.400002
 50
90.000000
 51
180.000000
  0
ARC
  8
0
 10
52.733643
 20
-100.528740
 40
0.400002
 50
90.000000
 51
180.000000
  0
ARC
  8
0
 10
47.100227
 20
-100.528740
 40
0.400002
 50
90.000000
 51
180.000000
  0
ARC
  8
0
 10
64.300224
 20
-100.528740
 40
0.400002
 50
0.000000
 51
90.000000
  0
ARC
  8
0
 10
51.000225
 20
-99.928741
 40
0.300003
 50
90.000000
 51
180.000000
  0
ARC
  8
0
 10
60.400223
 20
-99.928741
 40
0.299999
 50
0.000000
 51
90.000000
  0
ARC
  8
0
 10
58.003700
 20
-132.432220
 40
0.496533
 50
269.598541
 51
0.401451
  0
ARC
  8
0
 10
64.203705
 20
-132.432220
 40
0.496533
 50
269.598541
 51
0.401451
  0
ARC
  8
0
 10
47.196777
 20
-132.432190
 40
0.496563
 50
179.602097
 51
270.397919
  0
ARC
  8
0
 10
41.400223
 20
-99.928741
 40
0.299999
 50
0.000000
 51
90.000000
  0
ARC
  8
0
 10
32.000225
 20
-99.928741
 40
0.300003
 50
90.000000
 51
180.000000
  0
ARC
  8
0
 10
45.300224
 20
-100.528740
 40
0.400002
 50
0.000000
 51
90.000000
  0
ARC
  8
0
 10
28.100225
 20
-100.528740
 40
0.400002
 50
90.000000
 51
180.000000
  0
ARC
  8
0
 10
33.733643
 20
-100.528740
 40
0.400002
 50
90.000000
 51
180.000000
  0
ARC
  8
0
 10
35.350227
 20
-100.528740
 40
0.400002
 50
90.000000
 51
180.000000
  0
ARC
  8
0
 10
39.666809
 20
-100.528740
 40
0.400002
 50
0.000000
 51
90.000000
  0
ARC
  8
0
 10
38.050224
 20
-100.528740
 40
0.400002
 50
0.000000
 51
90.000000
  0
ARC
  8
0
 10
32.833645
 20
-105.428741
 40
0.500000
 50
270.000000
 51
0.000000
  0
ARC
  8
0
 10
34.450226
 20
-105.428741
 40
0.500000
 50
270.000000
 51
0.000000
  0
ARC
  8
0
 10
40.566807
 20
-105.428741
 40
0.500000
 50
180.000000
 51
270.000000
  0
ARC
  8
0
 10
38.950226
 20
-105.428741
 40
0.500000
 50
180.000000
 51
270.000000
  0
CIRCLE
  8
0
 62
     4
 10
97.200226
 20
-123.128738
 40
1.500000
  0
CIRCLE
  8
0
 62
     4
 10
90.200226
 20
-123.128738
 40
1.500000
  0
ARC
  8
0
 62
     4
 10
93.700226
 20
-121.378738
 40
0.800004
 50
202.024429
 51
337.975555
  0
ARC
  8
0
 62
     4
 10
93.700226
 20
-121.378738
 40
0.800004
 50
22.024433
 51
157.975571
  0
CIRCLE
  8
0
 62
     4
 10
93.700226
 20
-121.378738
 40
1.850000
  0
CIRCLE
  8
0
 62
     4
 10
93.700226
 20
-121.378738
 40
1.900000
  0
ARC
  8
0
 62
     4
 10
97.200226
 20
-123.128738
 40
1.599998
 50
90.000000
 51
270.000000
  0
ARC
  8
0
 62
     4
 10
90.200226
 20
-123.128738
 40
1.599998
 50
270.000000
 51
90.000000
  0
CIRCLE
  8
0
 62
     4
 10
93.700226
 20
-121.378738
 40
2.050000
  0
ARC
  8
0
 62
     4
 10
98.400230
 20
-99.928741
 40
0.300003
 50
0.000000
 51
90.000000
  0
ARC
  8
0
 62
     4
 10
89.000229
 20
-99.928741
 40
0.300003
 50
90.000000
 51
180.000000
  0
ARC
  8
0
 62
     4
 10
89.000229
 20
-112.128738
 40
0.300003
 50
90.000000
 51
180.000000
  0
ARC
  8
0
 62
     4
 10
98.400230
 20
-112.128738
 40
0.300003
 50
0.000000
 51
90.000000
  0
ARC
  8
0
 62
     4
 10
97.114944
 20
-115.729080
 40
0.199670
 50
269.794220
 51
3.542330
  0
ARC
  8
0
 62
     4
 10
95.364571
 20
-115.728073
 40
0.200668
 50
176.761200
 51
269.901978
  0
ARC
  8
0
 62
     4
 10
94.574944
 20
-115.729080
 40
0.199670
 50
269.794220
 51
3.542330
  0
ARC
  8
0
 62
     4
 10
92.824570
 20
-115.728073
 40
0.200668
 50
176.761200
 51
269.901978
  0
ARC
  8
0
 62
     4
 10
92.034943
 20
-115.729080
 40
0.199670
 50
269.794220
 51
3.542330
  0
ARC
  8
0
 62
     4
 10
90.284569
 20
-115.728073
 40
0.200668
 50
176.761200
 51
269.901978
  0
CIRCLE
  8
0
 62
     4
 10
91.160225
 20
-114.828743
 40
0.750000
  0
CIRCLE
  8
0
 62
     4
 10
96.240227
 20
-114.828743
 40
0.750000
  0
ARC
  8
0
 10
87.700226
 20
-111.928741
 40
3.000000
 50
270.000000
 51
289.471191
  0
ARC
  8
0
 10
99.700226
 20
-129.928741
 40
3.000000
 50
90.000000
 51
109.471199
  0
ARC
  8
0
 10
87.700226
 20
-111.928741
 40
3.000003
 50
70.528801
 51
90.000000
  0
ARC
  8
0
 10
88.000229
 20
-132.128738
 40
0.300003
 50
180.000000
 51
270.000000
  0
ARC
  8
0
 10
87.700226
 20
-111.928741
 40
2.800002
 50
69.075180
 51
290.924805
  0
ARC
  8
0
 10
99.700226
 20
-129.928741
 40
2.799999
 50
217.383133
 51
110.924820
  0
ARC
  8
0
 10
80.700226
 20
-129.928741
 40
2.799999
 50
217.383133
 51
110.924820
  0
ARC
  8
0
 10
68.700226
 20
-111.928741
 40
2.800002
 50
69.075180
 51
290.924805
  0
ARC
  8
0
 10
69.000229
 20
-132.128738
 40
0.300003
 50
180.000000
 51
270.000000
  0
ARC
  8
0
 10
68.700226
 20
-111.928741
 40
3.000003
 50
70.528801
 51
90.000000
  0
ARC
  8
0
 10
80.700226
 20
-129.928741
 40
3.000000
 50
90.000000
 51
109.471199
  0
ARC
  8
0
 10
68.700226
 20
-111.928741
 40
3.000000
 50
270.000000
 51
289.471191
  0
CIRCLE
  8
0
 62
     4
 10
77.240227
 20
-114.828743
 40
0.750000
  0
CIRCLE
  8
0
 62
     4
 10
72.160225
 20
-114.828743
 40
0.750000
  0
ARC
  8
0
 62
     4
 10
71.284569
 20
-115.728073
 40
0.200668
 50
176.761200
 51
269.901978
  0
ARC
  8
0
 62
     4
 10
73.034943
 20
-115.729080
 40
0.199670
 50
269.794220
 51
3.542330
  0
ARC
  8
0
 62
     4
 10
73.824570
 20
-115.728073
 40
0.200668
 50
176.761200
 51
269.901978
  0
ARC
  8
0
 62
     4
 10
75.574944
 20
-115.729080
 40
0.199670
 50
269.794220
 51
3.542330
  0
ARC
  8
0
 62
     4
 10
76.364571
 20
-115.728073
 40
0.200668
 50
176.761200
 51
269.901978
  0
ARC
  8
0
 62
     4
 10
78.114937
 20
-115.729080
 40
0.199670
 50
269.794220
 51
3.542330
  0
ARC
  8
0
 62
     4
 10
79.400223
 20
-112.128738
 40
0.300003
 50
0.000000
 51
90.000000
  0
ARC
  8
0
 62
     4
 10
70.000229
 20
-112.128738
 40
0.300003
 50
90.000000
 51
180.000000
  0
ARC
  8
0
 62
     4
 10
70.000229
 20
-99.928741
 40
0.300003
 50
90.000000
 51
180.000000
  0
ARC
  8
0
 62
     4
 10
79.400223
 20
-99.928741
 40
0.300003
 50
0.000000
 51
90.000000
  0
CIRCLE
  8
0
 62
     4
 10
74.700226
 20
-121.378738
 40
2.050000
  0
ARC
  8
0
 62
     4
 10
71.200226
 20
-123.128738
 40
1.599998
 50
270.000000
 51
90.000000
  0
ARC
  8
0
 62
     4
 10
78.200226
 20
-123.128738
 40
1.599998
 50
90.000000
 51
270.000000
  0
CIRCLE
  8
0
 62
     4
 10
74.700226
 20
-121.378738
 40
1.900000
  0
CIRCLE
  8
0
 62
     4
 10
74.700226
 20
-121.378738
 40
1.850000
  0
ARC
  8
0
 62
     4
 10
74.700226
 20
-121.378738
 40
0.800004
 50
22.024433
 51
157.975571
  0
ARC
  8
0
 62
     4
 10
74.700226
 20
-121.378738
 40
0.800004
 50
202.024429
 51
337.975555
  0
CIRCLE
  8
0
 62
     4
 10
71.200226
 20
-123.128738
 40
1.500000
  0
CIRCLE
  8
0
 62
     4
 10
78.200226
 20
-123.128738
 40
1.500000
  0
ARC
  8
0
 10
28.203741
 20
-106.432259
 40
0.503529
 50
90.399994
 51
179.599777
  0
ARC
  8
0
 10
45.196743
 20
-106.432220
 40
0.503495
 50
0.395900
 51
89.603661
  0
ARC
  8
0
 10
30.703720
 20
-108.932236
 40
3.196505
 50
269.937378
 51
0.062633
  0
ARC
  8
0
 10
42.703724
 20
-129.932236
 40
3.203501
 50
90.062561
 51
179.937500
  0
ARC
  8
0
 10
45.203712
 20
-126.232224
 40
0.496526
 50
269.597656
 51
0.402338
  0
ARC
  8
0
 10
28.203732
 20
-112.632248
 40
0.503522
 50
90.398918
 51
179.600647
  0
ARC
  8
0
 10
34.403740
 20
-106.432251
 40
0.503529
 50
90.399780
 51
179.599777
  0
CIRCLE
  8
0
 10
42.700256
 20
-129.935699
 40
2.800000
  0
CIRCLE
  8
0
 10
30.700260
 20
-108.935699
 40
2.800000
  0
ARC
  8
0
 10
39.003704
 20
-132.432220
 40
0.496533
 50
269.598541
 51
0.401451
  0
ARC
  8
0
 10
45.203701
 20
-132.432220
 40
0.496533
 50
269.598999
 51
0.401448
  0
ARC
  8
0
 10
28.196775
 20
-132.432190
 40
0.496562
 50
179.602097
 51
270.398132
  0
ARC
  8
0
 62
     4
 10
119.345230
 20
-131.835709
 40
5.005938
 50
60.500595
 51
119.499405
  0
ARC
  8
0
 62
     4
 10
121.481842
 20
-128.060898
 40
0.668384
 50
0.184432
 51
60.573273
  0
ARC
  8
0
 62
     4
 10
117.221146
 20
-128.056595
 40
0.670923
 50
120.539703
 51
180.183731
  0
ARC
  8
0
 62
     4
 10
108.179306
 20
-128.056595
 40
0.670925
 50
359.816254
 51
59.460293
  0
ARC
  8
0
 62
     4
 10
103.918610
 20
-128.060898
 40
0.668385
 50
119.426727
 51
179.815567
  0
ARC
  8
0
 62
     4
 10
106.055229
 20
-131.835709
 40
5.005938
 50
60.500595
 51
119.499405
  0
ARC
  8
0
 10
-69.842484
 20
29.796263
 40
5.001751
 50
340.677551
 51
19.322456
  0
ARC
  8
0
 10
-91.042473
 20
15.901260
 40
0.500000
 50
180.000000
 51
270.000000
  0
ARC
  8
0
 62
     4
 10
-58.542473
 20
-30.598740
 40
0.299999
 50
270.000000
 51
0.000000
  0
ARC
  8
0
 62
     4
 10
-80.742477
 20
-25.398735
 40
0.500000
 50
270.000000
 51
0.000000
  0
ARC
  8
0
 62
     4
 10
-82.742477
 20
-25.398735
 40
0.500000
 50
180.000000
 51
270.000000
  0
ARC
  8
0
 10
-59.142471
 20
13.501263
 40
0.400002
 50
0.000000
 51
90.000000
  0
ARC
  8
0
 10
-64.042473
 20
14.401260
 40
0.500000
 50
180.000000
 51
270.000000
  0
ARC
  8
0
 62
     4
 10
-82.742477
 20
-11.498741
 40
0.500000
 50
180.000000
 51
270.000000
  0
ARC
  8
0
 62
     4
 10
-80.742477
 20
-11.498741
 40
0.500000
 50
270.000000
 51
0.000000
  0
ARC
  8
0
 62
     4
 10
-58.542473
 20
-16.698738
 40
0.299999
 50
270.000000
 51
0.000000
  0
ARC
  8
0
 10
-59.142471
 20
10.701263
 40
0.400002
 50
0.000000
 51
90.000000
  0
ARC
  8
0
 10
-64.142471
 20
11.501263
 40
0.400002
 50
180.000000
 51
270.000000
  0
ARC
  8
0
 10
-67.542473
 20
10.901260
 40
5.000002
 50
235.944168
 51
304.055817
  0
ARC
  8
0
 10
-70.240051
 20
18.298836
 40
0.502432
 50
90.276672
 51
179.723328
  0
ARC
  8
0
 10
-65.040070
 20
19.298855
 40
0.497599
 50
269.722412
 51
0.277165
  0
ARC
  8
0
 10
-71.240067
 20
15.898853
 40
0.497598
 50
269.722412
 51
0.277274
  0
ARC
  8
0
 10
-67.542473
 20
21.401730
 40
5.006523
 50
240.570068
 51
299.429932
  0
ARC
  8
0
 10
-65.408508
 20
17.622044
 40
0.666041
 50
299.309204
 51
359.932739
  0
ARC
  8
0
 10
-69.668587
 20
17.626644
 40
0.673911
 50
180.457458
 51
240.300735
  0
ARC
  8
0
 10
-65.042473
 20
15.901260
 40
0.500000
 50
270.000000
 51
0.000000
  0
ARC
  8
0
 10
-88.542473
 20
78.701263
 40
5.000002
 50
55.944176
 51
124.055824
  0
CIRCLE
  8
0
 62
     2
 10
-108.546745
 20
64.800858
 40
6.858001
  0
CIRCLE
  8
0
 62
     2
 10
-108.546745
 20
24.800858
 40
6.858001
  0
CIRCLE
  8
0
 62
     2
 10
-106.546745
 20
44.800858
 40
6.858001
  0
CIRCLE
  8
0
 10
-108.546745
 20
64.800858
 40
5.498000
  0
CIRCLE
  8
0
 10
-106.546745
 20
44.800858
 40
5.498000
  0
CIRCLE
  8
0
 10
-108.546745
 20
24.800858
 40
5.498000
  0
CIRCLE
  8
0
 62
     2
 10
-98.546761
 20
75.800873
 40
2.500000
  0
CIRCLE
  8
0
 62
     2
 10
-98.546761
 20
13.800873
 40
2.500000
  0
CIRCLE
  8
0
 10
-98.546761
 20
13.800873
 40
1.749999
  0
CIRCLE
  8
0
 10
-98.546761
 20
75.800873
 40
1.749999
  0
ARC
  8
0
 10
-59.142471
 20
76.101257
 40
0.400002
 50
270.000000
 51
0.000000
  0
ARC
  8
0
 10
-64.042473
 20
75.201263
 40
0.500000
 50
90.000000
 51
180.000000
  0
ARC
  8
0
 62
     4
 10
-82.742477
 20
101.101257
 40
0.500000
 50
90.000000
 51
180.000000
  0
ARC
  8
0
 62
     4
 10
-80.742477
 20
101.101257
 40
0.500000
 50
0.000000
 51
90.000000
  0
ARC
  8
0
 62
     4
 10
-58.542473
 20
106.301262
 40
0.299999
 50
0.000000
 51
90.000000
  0
ARC
  8
0
 10
-59.142471
 20
78.901260
 40
0.400002
 50
270.000000
 51
0.000000
  0
ARC
  8
0
 10
-64.142471
 20
78.101257
 40
0.400002
 50
90.000000
 51
180.000000
  0
ARC
  8
0
 62
     4
 10
112.851509
 20
75.801575
 40
3.498717
 50
59.022316
 51
120.977684
  0
ARC
  8
0
 62
     4
 10
112.851509
 20
13.800953
 40
3.498719
 50
239.022339
 51
300.977661
  0
ARC
  8
0
 10
55.851509
 20
13.795982
 40
3.498722
 50
0.086490
 51
27.310963
  0
ARC
  8
0
 10
55.851501
 20
13.800953
 40
3.498720
 50
152.780640
 51
0.005060
  0
ARC
  8
0
 10
36.851509
 20
13.795982
 40
3.498722
 50
0.086490
 51
27.310963
  0
ARC
  8
0
 10
36.851505
 20
13.800953
 40
3.498720
 50
152.780640
 51
0.005060
  0
CIRCLE
  8
0
 62
     4
 10
106.350227
 20
29.801262
 40
3.000000
  0
CIRCLE
  8
0
 62
     4
 10
119.350227
 20
59.801262
 40
3.000000
  0
CIRCLE
  8
0
 62
     4
 10
106.350227
 20
29.801262
 40
2.799999
  0
CIRCLE
  8
0
 62
     4
 10
119.350227
 20
59.801262
 40
2.799999
  0
CIRCLE
  8
0
 10
87.350227
 20
29.801262
 40
2.799999
  0
CIRCLE
  8
0
 10
100.350227
 20
59.801262
 40
2.799999
  0
CIRCLE
  8
0
 10
68.350227
 20
29.801262
 40
2.799999
  0
CIRCLE
  8
0
 10
81.350227
 20
59.801262
 40
2.799999
  0
CIRCLE
  8
0
 10
49.350227
 20
29.801262
 40
2.799999
  0
CIRCLE
  8
0
 10
62.350227
 20
59.801262
 40
2.799999
  0
CIRCLE
  8
0
 10
93.850227
 20
-2.798737
 40
2.000000
  0
ARC
  8
0
 10
88.300224
 20
-11.498741
 40
0.300000
 50
270.000000
 51
0.000000
  0
ARC
  8
0
 10
99.400230
 20
-11.498741
 40
0.300003
 50
180.000000
 51
270.000000
  0
ARC
  8
0
 10
90.252708
 20
-2.398739
 40
0.400000
 50
270.000000
 51
330.000183
  0
ARC
  8
0
 10
92.331169
 20
-0.398739
 40
0.400000
 50
90.000000
 51
150.000168
  0
ARC
  8
0
 10
95.369286
 20
-0.398739
 40
0.400002
 50
29.999821
 51
90.000000
  0
ARC
  8
0
 10
97.447746
 20
-2.398739
 40
0.400002
 50
209.999832
 51
270.000000
  0
CIRCLE
  8
0
 10
93.850227
 20
-2.798737
 40
0.800000
  0
ARC
  8
0
 62
     4
 10
98.550224
 20
-30.598740
 40
0.299999
 50
270.000000
 51
0.000000
  0
ARC
  8
0
 62
     4
 10
89.150230
 20
-30.598740
 40
0.300003
 50
180.000000
 51
270.000000
  0
CIRCLE
  8
0
 10
93.350227
 20
36.801266
 40
4.283250
  0
CIRCLE
  8
0
 62
     2
 10
93.350227
 20
36.801266
 40
4.864349
  0
CIRCLE
  8
0
 10
94.350227
 20
52.801266
 40
4.283250
  0
CIRCLE
  8
0
 62
     2
 10
94.350227
 20
52.801266
 40
4.864349
  0
ARC
  8
0
 62
     4
 10
89.150230
 20
106.301262
 40
0.300003
 50
90.000000
 51
180.000000
  0
ARC
  8
0
 62
     4
 10
98.550224
 20
106.301262
 40
0.300003
 50
0.000000
 51
90.000000
  0
CIRCLE
  8
0
 10
93.850227
 20
78.501266
 40
0.800000
  0
ARC
  8
0
 10
97.447746
 20
78.101257
 40
0.400002
 50
90.000000
 51
150.000565
  0
ARC
  8
0
 10
95.369286
 20
76.101257
 40
0.400002
 50
270.000000
 51
330.000549
  0
ARC
  8
0
 10
92.331169
 20
76.101257
 40
0.400001
 50
209.999435
 51
270.000000
  0
ARC
  8
0
 10
90.252708
 20
78.101257
 40
0.400001
 50
29.999443
 51
90.000000
  0
ARC
  8
0
 10
99.400230
 20
87.201263
 40
0.300003
 50
90.000000
 51
180.000000
  0
ARC
  8
0
 10
88.300224
 20
87.201263
 40
0.300003
 50
0.000000
 51
90.000000
  0
CIRCLE
  8
0
 10
93.850227
 20
78.501266
 40
2.000000
  0
ARC
  8
0
 10
87.349762
 20
29.801125
 40
3.000469
 50
213.586884
 51
0.002622
  0
ARC
  8
0
 10
87.352524
 20
29.800577
 40
2.997704
 50
0.013088
 51
146.588425
  0
ARC
  8
0
 10
100.350227
 20
59.796261
 40
2.998170
 50
33.504539
 51
326.495453
  0
ARC
  8
0
 10
81.350220
 20
59.796261
 40
2.998170
 50
33.504539
 51
326.495453
  0
ARC
  8
0
 10
68.352516
 20
29.800577
 40
2.997704
 50
0.013088
 51
146.588425
  0
ARC
  8
0
 10
68.349754
 20
29.801125
 40
3.000469
 50
213.586884
 51
0.002622
  0
CIRCLE
  8
0
 10
74.850227
 20
78.501266
 40
2.000000
  0
ARC
  8
0
 10
69.300224
 20
87.201263
 40
0.300003
 50
0.000000
 51
90.000000
  0
ARC
  8
0
 10
80.400223
 20
87.201263
 40
0.300003
 50
90.000000
 51
180.000000
  0
ARC
  8
0
 10
71.252701
 20
78.101257
 40
0.400001
 50
29.999443
 51
90.000000
  0
ARC
  8
0
 10
73.331169
 20
76.101257
 40
0.400001
 50
209.999435
 51
270.000000
  0
ARC
  8
0
 10
76.369286
 20
76.101257
 40
0.400002
 50
270.000000
 51
330.000549
  0
ARC
  8
0
 10
78.447746
 20
78.101257
 40
0.400002
 50
90.000000
 51
150.000565
  0
CIRCLE
  8
0
 10
74.850227
 20
78.501266
 40
0.800000
  0
ARC
  8
0
 62
     4
 10
79.550224
 20
106.301262
 40
0.300003
 50
0.000000
 51
90.000000
  0
ARC
  8
0
 62
     4
 10
70.150223
 20
106.301262
 40
0.300003
 50
90.000000
 51
180.000000
  0
CIRCLE
  8
0
 62
     2
 10
75.350227
 20
52.801266
 40
4.864349
  0
CIRCLE
  8
0
 10
75.350227
 20
52.801266
 40
4.283250
  0
CIRCLE
  8
0
 62
     2
 10
74.350227
 20
36.801266
 40
4.864349
  0
CIRCLE
  8
0
 10
74.350227
 20
36.801266
 40
4.283250
  0
ARC
  8
0
 62
     4
 10
70.150223
 20
-16.698738
 40
0.300003
 50
180.000000
 51
270.000000
  0
ARC
  8
0
 62
     4
 10
79.550224
 20
-16.698738
 40
0.299999
 50
270.000000
 51
0.000000
  0
CIRCLE
  8
0
 10
74.850227
 20
11.101261
 40
0.800000
  0
ARC
  8
0
 10
78.447746
 20
11.501263
 40
0.400002
 50
209.999802
 51
270.000000
  0
ARC
  8
0
 10
76.369286
 20
13.501263
 40
0.400002
 50
29.999798
 51
90.000000
  0
ARC
  8
0
 10
73.331169
 20
13.501263
 40
0.400000
 50
90.000000
 51
150.000198
  0
ARC
  8
0
 10
71.252701
 20
11.501263
 40
0.400000
 50
270.000000
 51
330.000214
  0
ARC
  8
0
 10
80.400223
 20
2.401260
 40
0.300003
 50
180.000000
 51
270.000000
  0
ARC
  8
0
 10
69.300224
 20
2.401260
 40
0.300000
 50
270.000000
 51
0.000000
  0
CIRCLE
  8
0
 10
74.850227
 20
11.101261
 40
2.000000
  0
ARC
  8
0
 10
62.350220
 20
59.796261
 40
2.998170
 50
33.504539
 51
326.495453
  0
ARC
  8
0
 10
49.352520
 20
29.800577
 40
2.997707
 50
0.013088
 51
146.588379
  0
ARC
  8
0
 10
49.349758
 20
29.801125
 40
3.000466
 50
213.586929
 51
0.002622
  0
CIRCLE
  8
0
 10
55.850227
 20
78.501266
 40
2.000000
  0
ARC
  8
0
 10
50.300224
 20
87.201263
 40
0.299999
 50
0.000000
 51
90.000000
  0
ARC
  8
0
 10
61.400223
 20
87.201263
 40
0.300003
 50
90.000000
 51
180.000000
  0
ARC
  8
0
 10
52.252705
 20
78.101257
 40
0.399997
 50
29.999716
 51
90.000000
  0
ARC
  8
0
 10
54.331165
 20
76.101257
 40
0.399997
 50
209.999710
 51
270.000000
  0
ARC
  8
0
 10
57.369286
 20
76.101257
 40
0.400002
 50
270.000000
 51
330.000275
  0
ARC
  8
0
 10
59.447746
 20
78.101257
 40
0.400002
 50
90.000000
 51
150.000290
  0
CIRCLE
  8
0
 10
55.850227
 20
78.501266
 40
0.800000
  0
ARC
  8
0
 62
     4
 10
60.550224
 20
106.301262
 40
0.299999
 50
0.000000
 51
90.000000
  0
ARC
  8
0
 62
     4
 10
51.150223
 20
106.301262
 40
0.300003
 50
90.000000
 51
180.000000
  0
ARC
  8
0
 10
51.976791
 20
17.626377
 40
0.673455
 50
299.677094
 51
359.564606
  0
ARC
  8
0
 10
47.716717
 20
17.622307
 40
0.666489
 50
180.089859
 51
240.668137
  0
ARC
  8
0
 10
47.348122
 20
15.899158
 40
0.497899
 50
179.757904
 51
270.242310
  0
ARC
  8
0
 10
64.347641
 20
15.903843
 40
0.502588
 50
270.293976
 51
359.705688
  0
ARC
  8
0
 10
53.548119
 20
15.899155
 40
0.497899
 50
179.757690
 51
270.242310
  0
ARC
  8
0
 10
49.850227
 20
21.401730
 40
5.006523
 50
240.570068
 51
299.429932
  0
ARC
  8
0
 10
47.348122
 20
19.299156
 40
0.497899
 50
179.757690
 51
270.242310
  0
ARC
  8
0
 10
52.548103
 20
18.299141
 40
0.502125
 50
0.241800
 51
89.757980
  0
CIRCLE
  8
0
 62
     2
 10
56.350227
 20
52.801266
 40
4.864349
  0
CIRCLE
  8
0
 10
56.350227
 20
52.801266
 40
4.283250
  0
CIRCLE
  8
0
 62
     2
 10
55.350227
 20
36.801266
 40
4.864349
  0
CIRCLE
  8
0
 10
55.350227
 20
36.801266
 40
4.283250
  0
ARC
  8
0
 10
43.350220
 20
59.796261
 40
2.998173
 50
33.504501
 51
326.495514
  0
ARC
  8
0
 10
30.352520
 20
29.800577
 40
2.997707
 50
0.013088
 51
146.588394
  0
ARC
  8
0
 10
30.349758
 20
29.801125
 40
3.000468
 50
213.586914
 51
0.002622
  0
CIRCLE
  8
0
 10
36.850227
 20
78.501266
 40
2.000000
  0
ARC
  8
0
 10
31.300224
 20
87.201263
 40
0.299999
 50
0.000000
 51
90.000000
  0
ARC
  8
0
 10
42.400223
 20
87.201263
 40
0.300003
 50
90.000000
 51
180.000000
  0
ARC
  8
0
 10
33.252705
 20
78.101257
 40
0.399997
 50
29.999716
 51
90.000000
  0
ARC
  8
0
 10
35.331165
 20
76.101257
 40
0.399997
 50
209.999710
 51
270.000000
  0
ARC
  8
0
 10
38.369286
 20
76.101257
 40
0.400002
 50
270.000000
 51
330.000275
  0
ARC
  8
0
 10
40.447746
 20
78.101257
 40
0.400002
 50
90.000000
 51
150.000290
  0
CIRCLE
  8
0
 10
36.850227
 20
78.501266
 40
0.800000
  0
ARC
  8
0
 62
     4
 10
41.550224
 20
106.301262
 40
0.299999
 50
0.000000
 51
90.000000
  0
ARC
  8
0
 62
     4
 10
32.150227
 20
106.301262
 40
0.300003
 50
90.000000
 51
180.000000
  0
ARC
  8
0
 10
32.976791
 20
17.626377
 40
0.673455
 50
299.677094
 51
359.564606
  0
ARC
  8
0
 10
28.716717
 20
17.622307
 40
0.666491
 50
180.089859
 51
240.668289
  0
ARC
  8
0
 10
28.348122
 20
15.899158
 40
0.497901
 50
179.757904
 51
270.242096
  0
ARC
  8
0
 10
45.347641
 20
15.903843
 40
0.502588
 50
270.294403
 51
359.705688
  0
ARC
  8
0
 10
34.548119
 20
15.899155
 40
0.497899
 50
179.757690
 51
270.242310
  0
ARC
  8
0
 10
30.850225
 20
21.401730
 40
5.006523
 50
240.570068
 51
299.429962
  0
ARC
  8
0
 10
28.348120
 20
19.299156
 40
0.497899
 50
179.757690
 51
270.242310
  0
ARC
  8
0
 10
33.548103
 20
18.299141
 40
0.502125
 50
0.241800
 51
89.757980
  0
CIRCLE
  8
0
 62
     2
 10
36.855522
 20
51.801720
 40
4.864349
  0
CIRCLE
  8
0
 10
36.855522
 20
51.801720
 40
4.283250
  0
CIRCLE
  8
0
 10
43.350227
 20
59.801262
 40
2.799999
  0
CIRCLE
  8
0
 10
30.350225
 20
29.801262
 40
2.799999
  0
CIRCLE
  8
0
 10
22.852600
 20
34.805862
 40
2.100010
  0
CIRCLE
  8
0
 10
22.852600
 20
54.805969
 40
2.100010
  0
CIRCLE
  8
0
 10
126.853165
 20
34.805862
 40
2.100010
  0
CIRCLE
  8
0
 10
126.853165
 20
54.805969
 40
2.100010
  0
TEXT
  8
0
 10
-179.349716
 20
-184.669998
 40
6.300000
  1
389
 50
0.000000
 41
1.052632
 51
0.000000
  7
STANDARD
  0
TEXT
  8
0
 10
-210.849716
 20
-184.669998
 40
6.300000
  1
399
 50
0.000000
 41
1.052632
 51
0.000000
  7
STANDARD
  0
TEXT
  8
0
 10
-270.600006
 20
-184.669998
 40
6.300000
  1
G180M20FE
 50
0.000000
 41
0.877193
 51
0.000000
  7
STANDARD
  0
TEXT
  8
0
 10
-265.350006
 20
-74.669998
 40
6.300000
  1
G180M9FE
 50
0.000000
 41
0.877193
 51
0.000000
  7
STANDARD
  0
TEXT
  8
0
 10
-265.350006
 20
-64.669998
 40
6.300000
  1
G180M8FE
 50
0.000000
 41
0.877193
 51
0.000000
  7
STANDARD
  0
TEXT
  8
0
 10
-265.350006
 20
-54.670002
 40
6.300000
  1
G180M7FE
 50
0.000000
 41
0.877193
 51
0.000000
  7
STANDARD
  0
TEXT
  8
0
 10
-265.350006
 20
-44.670002
 40
6.300000
  1
G180M6FE
 50
0.000000
 41
0.877193
 51
0.000000
  7
STANDARD
  0
TEXT
  8
0
 10
-265.350006
 20
-34.670002
 40
6.300000
  1
G180M5FE
 50
0.000000
 41
0.877193
 51
0.000000
  7
STANDARD
  0
TEXT
  8
0
 10
-265.350006
 20
-24.670000
 40
6.300000
  1
G180M4FE
 50
0.000000
 41
0.877193
 51
0.000000
  7
STANDARD
  0
TEXT
  8
0
 10
-265.350006
 20
-14.670000
 40
6.300000
  1
G180M3FE
 50
0.000000
 41
0.877193
 51
0.000000
  7
STANDARD
  0
TEXT
  8
0
 10
-265.350006
 20
-4.670001
 40
6.300000
  1
G180M2FE
 50
0.000000
 41
0.877193
 51
0.000000
  7
STANDARD
  0
TEXT
  8
0
 10
-270.600006
 20
-94.669998
 40
6.300000
  1
G180M11FE
 50
0.000000
 41
0.877193
 51
0.000000
  7
STANDARD
  0
TEXT
  8
0
 10
-270.600006
 20
-84.669998
 40
6.300000
  1
G180M10FE
 50
0.000000
 41
0.877193
 51
0.000000
  7
STANDARD
  0
TEXT
  8
0
 10
-270.600006
 20
-174.669998
 40
6.300000
  1
G180M19FE
 50
0.000000
 41
0.877193
 51
0.000000
  7
STANDARD
  0
TEXT
  8
0
 10
-270.600006
 20
-164.669998
 40
6.300000
  1
G180M18FE
 50
0.000000
 41
0.877193
 51
0.000000
  7
STANDARD
  0
TEXT
  8
0
 10
-270.600006
 20
-154.669998
 40
6.300000
  1
G180M17FE
 50
0.000000
 41
0.877193
 51
0.000000
  7
STANDARD
  0
TEXT
  8
0
 10
-270.600006
 20
-144.669998
 40
6.300000
  1
G180M16FE
 50
0.000000
 41
0.877193
 51
0.000000
  7
STANDARD
  0
TEXT
  8
0
 10
-270.600006
 20
-134.669998
 40
6.300000
  1
G180M15FE
 50
0.000000
 41
0.877193
 51
0.000000
  7
STANDARD
  0
TEXT
  8
0
 10
-270.600006
 20
-124.669998
 40
6.300000
  1
G180M14FE
 50
0.000000
 41
0.877193
 51
0.000000
  7
STANDARD
  0
TEXT
  8
0
 10
-270.600006
 20
-114.669998
 40
6.300000
  1
G180M13FE
 50
0.000000
 41
0.877193
 51
0.000000
  7
STANDARD
  0
TEXT
  8
0
 10
-270.600006
 20
-104.669998
 40
6.300000
  1
G180M12FE
 50
0.000000
 41
0.877193
 51
0.000000
  7
STANDARD
  0
TEXT
  8
0
 10
-257.499725
 20
17.830000
 40
6.300000
  1
DIMENSION LIST
 50
0.000000
 41
1.052632
 51
0.000000
  7
STANDARD
  0
TEXT
  8
0
 10
-179.349716
 20
-174.669998
 40
6.300000
  1
370
 50
0.000000
 41
1.052632
 51
0.000000
  7
STANDARD
  0
TEXT
  8
0
 10
-179.349716
 20
-164.669998
 40
6.300000
  1
351
 50
0.000000
 41
1.052632
 51
0.000000
  7
STANDARD
  0
TEXT
  8
0
 10
-179.349716
 20
-154.669998
 40
6.300000
  1
332
 50
0.000000
 41
1.052632
 51
0.000000
  7
STANDARD
  0
TEXT
  8
0
 10
-179.349716
 20
-144.669998
 40
6.300000
  1
313
 50
0.000000
 41
1.052632
 51
0.000000
  7
STANDARD
  0
TEXT
  8
0
 10
-179.349716
 20
-134.669998
 40
6.300000
  1
294
 50
0.000000
 41
1.052632
 51
0.000000
  7
STANDARD
  0
TEXT
  8
0
 10
-179.349716
 20
-124.669998
 40
6.300000
  1
275
 50
0.000000
 41
1.052632
 51
0.000000
  7
STANDARD
  0
TEXT
  8
0
 10
-179.349716
 20
-114.669998
 40
6.300000
  1
256
 50
0.000000
 41
1.052632
 51
0.000000
  7
STANDARD
  0
TEXT
  8
0
 10
-179.349716
 20
-104.669998
 40
6.300000
  1
237
 50
0.000000
 41
1.052632
 51
0.000000
  7
STANDARD
  0
TEXT
  8
0
 10
-179.349716
 20
-94.669998
 40
6.300000
  1
218
 50
0.000000
 41
1.052632
 51
0.000000
  7
STANDARD
  0
TEXT
  8
0
 10
-179.349716
 20
-84.669998
 40
6.300000
  1
199
 50
0.000000
 41
1.052632
 51
0.000000
  7
STANDARD
  0
TEXT
  8
0
 10
-179.349716
 20
-74.669998
 40
6.300000
  1
180
 50
0.000000
 41
1.052632
 51
0.000000
  7
STANDARD
  0
TEXT
  8
0
 10
-179.349716
 20
-64.669998
 40
6.300000
  1
161
 50
0.000000
 41
1.052632
 51
0.000000
  7
STANDARD
  0
TEXT
  8
0
 10
-179.349716
 20
-54.670002
 40
6.300000
  1
142
 50
0.000000
 41
1.052632
 51
0.000000
  7
STANDARD
  0
TEXT
  8
0
 10
-179.349716
 20
-44.670002
 40
6.300000
  1
123
 50
0.000000
 41
1.052632
 51
0.000000
  7
STANDARD
  0
TEXT
  8
0
 10
-179.349716
 20
-34.670002
 40
6.300000
  1
104
 50
0.000000
 41
1.052632
 51
0.000000
  7
STANDARD
  0
TEXT
  8
0
 10
-173.049713
 20
-24.670000
 40
6.300000
  1
85
 50
0.000000
 41
1.052632
 51
0.000000
  7
STANDARD
  0
TEXT
  8
0
 10
-173.049713
 20
-14.670001
 40
6.300000
  1
66
 50
0.000000
 41
1.052632
 51
0.000000
  7
STANDARD
  0
TEXT
  8
0
 10
-173.049713
 20
-4.670001
 40
6.300000
  1
47
 50
0.000000
 41
1.052632
 51
0.000000
  7
STANDARD
  0
TEXT
  8
0
 10
-210.849716
 20
-174.669998
 40
6.300000
  1
380
 50
0.000000
 41
1.052632
 51
0.000000
  7
STANDARD
  0
TEXT
  8
0
 10
-210.849716
 20
-164.669998
 40
6.300000
  1
361
 50
0.000000
 41
1.052632
 51
0.000000
  7
STANDARD
  0
TEXT
  8
0
 10
-210.849716
 20
-154.669998
 40
6.300000
  1
342
 50
0.000000
 41
1.052632
 51
0.000000
  7
STANDARD
  0
TEXT
  8
0
 10
-210.849716
 20
-144.669998
 40
6.300000
  1
323
 50
0.000000
 41
1.052632
 51
0.000000
  7
STANDARD
  0
TEXT
  8
0
 10
-210.849716
 20
-134.669998
 40
6.300000
  1
304
 50
0.000000
 41
1.052632
 51
0.000000
  7
STANDARD
  0
TEXT
  8
0
 10
-210.849716
 20
-124.669998
 40
6.300000
  1
285
 50
0.000000
 41
1.052632
 51
0.000000
  7
STANDARD
  0
TEXT
  8
0
 10
-210.849716
 20
-114.669998
 40
6.300000
  1
266
 50
0.000000
 41
1.052632
 51
0.000000
  7
STANDARD
  0
TEXT
  8
0
 10
-210.849716
 20
-104.669998
 40
6.300000
  1
247
 50
0.000000
 41
1.052632
 51
0.000000
  7
STANDARD
  0
TEXT
  8
0
 10
-210.849716
 20
-94.669998
 40
6.300000
  1
228
 50
0.000000
 41
1.052632
 51
0.000000
  7
STANDARD
  0
TEXT
  8
0
 10
-210.849716
 20
-84.669998
 40
6.300000
  1
209
 50
0.000000
 41
1.052632
 51
0.000000
  7
STANDARD
  0
TEXT
  8
0
 10
-210.849716
 20
-74.669998
 40
6.300000
  1
190
 50
0.000000
 41
1.052632
 51
0.000000
  7
STANDARD
  0
TEXT
  8
0
 10
-210.849716
 20
-64.669998
 40
6.300000
  1
171
 50
0.000000
 41
1.052632
 51
0.000000
  7
STANDARD
  0
TEXT
  8
0
 10
-210.849716
 20
-54.670002
 40
6.300000
  1
152
 50
0.000000
 41
1.052632
 51
0.000000
  7
STANDARD
  0
TEXT
  8
0
 10
-210.849716
 20
-44.670002
 40
6.300000
  1
133
 50
0.000000
 41
1.052632
 51
0.000000
  7
STANDARD
  0
TEXT
  8
0
 10
-210.849716
 20
-34.670002
 40
6.300000
  1
114
 50
0.000000
 41
1.052632
 51
0.000000
  7
STANDARD
  0
TEXT
  8
0
 10
-204.549713
 20
-24.670000
 40
6.300000
  1
95
 50
0.000000
 41
1.052632
 51
0.000000
  7
STANDARD
  0
TEXT
  8
0
 10
-204.549713
 20
-14.670001
 40
6.300000
  1
76
 50
0.000000
 41
1.052632
 51
0.000000
  7
STANDARD
  0
TEXT
  8
0
 10
-204.549713
 20
-4.670001
 40
6.300000
  1
57
 50
0.000000
 41
1.052632
 51
0.000000
  7
STANDARD
  0
TEXT
  8
0
 10
-173.049713
 20
5.329999
 40
6.300000
  1
P
 50
0.000000
 41
1.052632
 51
0.000000
  7
STANDARD
  0
TEXT
  8
0
 10
-203.049713
 20
5.329999
 40
6.300000
  1
L
 50
0.000000
 41
1.052632
 51
0.000000
  7
STANDARD
  0
TEXT
  8
0
 10
-254.999725
 20
5.329999
 40
6.300000
  1
TYPE
 50
0.000000
 41
1.052632
 51
0.000000
  7
STANDARD
  0
TEXT
  8
0
 10
196.250259
 20
180.830002
 40
6.300000
  1
Ver. 1.0
 50
0.000000
 41
1.052632
 51
0.000000
  7
STANDARD
  0
TEXT
  8
0
 10
167.564651
 20
-192.100006
 40
9.000000
  1
KOGANEI CORP.
 50
0.000000
 41
1.052632
 51
0.000000
  7
STANDARD
  0
TEXT
  8
0
 10
-256.549713
 20
180.830002
 40
6.300000
  1
G180 SERIES
 50
0.000000
 41
1.052632
 51
0.000000
  7
STANDARD
  0
TEXT
  8
0
 10
-270.049713
 20
155.830002
 40
6.300000
  1
MODEL:G180MFE
 50
0.000000
 41
1.052632
 51
0.000000
  7
STANDARD
  0
LINE
  8
0
 62
     2
 10
55.700230
 20
-99.628731
 11
40.095394
 21
-72.600372
  0
LINE
  8
0
 62
     2
 10
40.095394
 20
-72.600372
 11
-2.164720
 21
-72.600372
  0
LINE
  8
0
 62
     2
 10
55.700230
 20
-99.628731
 11
54.923771
 21
-96.730957
  0
LINE
  8
0
 62
     2
 10
55.700230
 20
-99.628731
 11
53.578911
 21
-97.507408
  0
TEXT
  8
0
 62
     2
 10
-1.914720
 20
-71.600372
 40
3.200000
  1
G180-4E1-PSL
 50
0.000000
 41
1.052632
 51
0.000000
  7
STANDARD
  0
LINE
  8
0
 62
     2
 10
36.700222
 20
-99.628738
 11
30.803690
 21
-89.415634
  0
LINE
  8
0
 62
     2
 10
30.803690
 20
-89.415634
 11
-3.558928
 21
-89.415634
  0
LINE
  8
0
 62
     2
 10
36.700222
 20
-99.628738
 11
35.923767
 21
-96.730957
  0
LINE
  8
0
 62
     2
 10
36.700222
 20
-99.628738
 11
34.578903
 21
-97.507416
  0
TEXT
  8
0
 62
     2
 10
-3.308928
 20
-88.415634
 40
3.200000
  1
G180E1-PSL
 50
0.000000
 41
1.052632
 51
0.000000
  7
STANDARD
  0
LINE
  8
0
 62
     2
 10
112.700218
 20
-129.728729
 11
119.941414
 21
-117.186623
  0
LINE
  8
0
 62
     2
 10
119.941414
 20
-117.186623
 11
132.455109
 21
-117.186623
  0
LINE
  8
0
 62
     2
 10
112.700218
 20
-129.728729
 11
114.821541
 21
-127.607407
  0
LINE
  8
0
 62
     2
 10
112.700218
 20
-129.728729
 11
113.476677
 21
-126.830956
  0
TEXT
  8
0
 62
     2
 10
122.191109
 20
-116.186623
 40
3.200000
  1
-BP
 50
0.000000
 41
1.052632
 51
0.000000
  7
STANDARD
  0
LINE
  8
0
 62
     2
 10
75.362679
 20
-99.628738
 11
90.895874
 21
-72.724449
  0
LINE
  8
0
 62
     2
 10
90.895874
 20
-72.724449
 11
134.188660
 21
-72.724449
  0
LINE
  8
0
 62
     2
 10
75.362679
 20
-99.628738
 11
77.484001
 21
-97.507416
  0
LINE
  8
0
 62
     2
 10
75.362679
 20
-99.628738
 11
76.139137
 21
-96.730965
  0
TEXT
  8
0
 62
     2
 10
95.124657
 20
-71.724449
 40
3.200000
  1
G180-4E2-PSL
 50
0.000000
 41
1.052632
 51
0.000000
  7
STANDARD
  0
LINE
  8
0
 62
     2
 10
94.362686
 20
-99.628738
 11
100.259216
 21
-89.415642
  0
LINE
  8
0
 62
     2
 10
100.259216
 20
-89.415642
 11
140.877213
 21
-89.415642
  0
LINE
  8
0
 62
     2
 10
94.362686
 20
-99.628738
 11
96.484009
 21
-97.507416
  0
LINE
  8
0
 62
     2
 10
94.362686
 20
-99.628738
 11
95.139145
 21
-96.730957
  0
TEXT
  8
0
 62
     2
 10
101.813210
 20
-88.415642
 40
3.200000
  1
G183-4E2-PSL
 50
0.000000
 41
1.052632
 51
0.000000
  7
STANDARD
  0
TEXT
  8
0
 62
     2
 10
18.543224
 20
153.731262
 40
3.200000
  1
5
 50
0.000000
 41
1.052632
 51
0.000000
  7
STANDARD
  0
LINE
  8
0
 62
     2
 10
17.850225
 20
152.731262
 11
22.850225
 21
152.731262
  0
LINE
  8
0
 62
     2
 10
17.850225
 20
152.731262
 11
14.952448
 21
151.954803
  0
LINE
  8
0
 62
     2
 10
17.850225
 20
152.731262
 11
14.952448
 21
153.507721
  0
LINE
  8
0
 62
     2
 10
17.850225
 20
152.731262
 11
11.850225
 21
152.731262
  0
LINE
  8
0
 62
     2
 10
22.850225
 20
152.731262
 11
25.748003
 21
153.507721
  0
LINE
  8
0
 62
     2
 10
22.850225
 20
152.731262
 11
25.748003
 21
151.954803
  0
LINE
  8
0
 62
     2
 10
22.850225
 20
152.731262
 11
28.850225
 21
152.731262
  0
LINE
  8
0
 62
     2
 10
17.850225
 20
53.801262
 11
17.850225
 21
154.231262
  0
LINE
  8
0
 62
     2
 10
22.850225
 20
54.801262
 11
22.850225
 21
154.231262
  0
TEXT
  8
0
 62
     2
 10
73.043228
 20
153.731262
 40
3.200000
  1
P
 50
0.000000
 41
1.052632
 51
0.000000
  7
STANDARD
  0
LINE
  8
0
 62
     2
 10
22.850225
 20
152.731262
 11
126.850227
 21
152.731262
  0
LINE
  8
0
 62
     2
 10
22.850225
 20
152.731262
 11
25.748003
 21
153.507721
  0
LINE
  8
0
 62
     2
 10
22.850225
 20
152.731262
 11
25.748003
 21
151.954803
  0
LINE
  8
0
 62
     2
 10
126.850227
 20
152.731262
 11
123.952454
 21
151.954803
  0
LINE
  8
0
 62
     2
 10
126.850227
 20
152.731262
 11
123.952454
 21
153.507721
  0
LINE
  8
0
 62
     2
 10
22.850225
 20
34.801262
 11
22.850225
 21
154.231262
  0
LINE
  8
0
 62
     2
 10
126.850227
 20
54.801262
 11
126.850227
 21
154.231262
  0
TEXT
  8
0
 62
     2
 10
136.813446
 20
153.731262
 40
3.200000
  1
5
 50
0.000000
 41
1.052632
 51
0.000000
  7
STANDARD
  0
LINE
  8
0
 62
     2
 10
131.850220
 20
152.731262
 11
139.763458
 21
152.731262
  0
LINE
  8
0
 62
     2
 10
126.850227
 20
152.731262
 11
131.850220
 21
152.731262
  0
LINE
  8
0
 62
     2
 10
126.850227
 20
152.731262
 11
123.952454
 21
151.954803
  0
LINE
  8
0
 62
     2
 10
126.850227
 20
152.731262
 11
123.952454
 21
153.507721
  0
LINE
  8
0
 62
     2
 10
126.850227
 20
152.731262
 11
120.850227
 21
152.731262
  0
LINE
  8
0
 62
     2
 10
131.850220
 20
152.731262
 11
134.748001
 21
153.507721
  0
LINE
  8
0
 62
     2
 10
131.850220
 20
152.731262
 11
134.748001
 21
151.954803
  0
LINE
  8
0
 62
     2
 10
131.850220
 20
152.731262
 11
137.850220
 21
152.731262
  0
LINE
  8
0
 62
     2
 10
126.850227
 20
34.801262
 11
126.850227
 21
154.231262
  0
LINE
  8
0
 62
     2
 10
131.850220
 20
53.801262
 11
131.850220
 21
154.231262
  0
TEXT
  8
0
 62
     2
 10
73.043228
 20
163.731262
 40
3.200000
  1
L
 50
0.000000
 41
1.052632
 51
0.000000
  7
STANDARD
  0
LINE
  8
0
 62
     2
 10
17.850225
 20
162.731262
 11
131.850220
 21
162.731262
  0
LINE
  8
0
 62
     2
 10
17.850225
 20
162.731262
 11
20.748003
 21
163.507721
  0
LINE
  8
0
 62
     2
 10
17.850225
 20
162.731262
 11
20.748003
 21
161.954803
  0
LINE
  8
0
 62
     2
 10
131.850220
 20
162.731262
 11
128.952438
 21
161.954803
  0
LINE
  8
0
 62
     2
 10
131.850220
 20
162.731262
 11
128.952438
 21
163.507721
  0
LINE
  8
0
 62
     2
 10
17.850225
 20
81.801262
 11
17.850225
 21
164.231262
  0
LINE
  8
0
 62
     2
 10
131.850220
 20
81.801262
 11
131.850220
 21
164.231262
  0
ENDSEC
  0
EOF
