  0
SECTION
  2
HEADER
  0
ENDSEC
  0
SECTION
  2
TABLES
  0
TABLE
  2
LTYPE
 70
     4
  0
LTYPE
  2
CONTINUOUS
 70
    64
  3
Solid line
 72
    65
 73
     0
 40
0.000000
  0
LTYPE
  2
DASHED
 70
    64
  3
__ __ __ __ __ __ __ __ __ __ __ __ __ __ __
 72
    65
 73
     2
 40
3.500000
 49
2.000000
 49
-1.500000
  0
LTYPE
  2
CENTER
 70
    64
  3
____ _ ____ _ ____ _ ____ _ ____ _ ____ _ ____
 72
    65
 73
     4
 40
17.500000
 49
13.000000
 49
-1.500000
 49
1.500000
 49
-1.500000
  0
LTYPE
  2
PHANTOM
 70
    64
  3
_____ _ _ _____ _ _ _____ _ _ _____ _ _ ____  
 72
    65
 73
     6
 40
15.500000
 49
8.000000
 49
-1.500000
 49
1.500000
 49
-1.500000
 49
1.500000
 49
-1.500000
  0
LTYPE
  2
DASHED1
 70
    64
  3
__ __ __ __ __ __ __ __ __ __ __ __ __ __ __
 72
    65
 73
     2
 40
1.500000
 49
1.000000
 49
-0.500000
  0
LTYPE
  2
DASHED2
 70
    64
  3
__ __ __ __ __ __ __ __ __ __ __ __ __ __ __
 72
    65
 73
     2
 40
3.500000
 49
2.500000
 49
-1.000000
  0
LTYPE
  2
DASHED3
 70
    64
  3
__ __ __ __ __ __ __ __ __ __ __ __ __ __ __
 72
    65
 73
     2
 40
6.000000
 49
4.000000
 49
-2.000000
  0
LTYPE
  2
DASHED4
 70
    64
  3
__ __ __ __ __ __ __ __ __ __ __ __ __ __ __
 72
    65
 73
     2
 40
12.000000
 49
10.000000
 49
-2.000000
  0
LTYPE
  2
DASHED5
 70
    64
  3
__ __ __ __ __ __ __ __ __ __ __ __ __ __ __
 72
    65
 73
     2
 40
17.000000
 49
15.000000
 49
-2.000000
  0
LTYPE
  2
DASHED6
 70
    64
  3
__ __ __ __ __ __ __ __ __ __ __ __ __ __ __
 72
    65
 73
     2
 40
29.000000
 49
27.000000
 49
-2.000000
  0
LTYPE
  2
PHANTOM1
 70
    64
  3
_____ _ _ _____ _ _ _____ _ _ _____ _ _ ____  
 72
    65
 73
     6
 40
31.000000
 49
25.000000
 49
-1.500000
 49
1.000000
 49
-1.000000
 49
1.000000
 49
-1.500000
  0
LTYPE
  2
PHANTOM2
 70
    64
  3
_____ _ _ _____ _ _ _____ _ _ _____ _ _ ____  
 72
    65
 73
     6
 40
36.000000
 49
27.000000
 49
-1.500000
 49
2.500000
 49
-1.000000
 49
2.500000
 49
-1.500000
  0
LTYPE
  2
PHANTOM3
 70
    64
  3
_____ _ _ _____ _ _ _____ _ _ _____ _ _ ____  
 72
    65
 73
     6
 40
78.000000
 49
64.000000
 49
-2.000000
 49
4.000000
 49
-2.000000
 49
4.000000
 49
-2.000000
  0
LTYPE
  2
CENTER1
 70
    64
  3
____ _ ____ _ ____ _ ____ _ ____ _ ____ _ ____
 72
    65
 73
     4
 40
19.000000
 49
14.000000
 49
-1.000000
 49
3.000000
 49
-1.000000
  0
LTYPE
  2
CENTER2
 70
    64
  3
____ _ ____ _ ____ _ ____ _ ____ _ ____ _ ____
 72
    65
 73
     4
 40
28.500000
 49
25.000000
 49
-1.000000
 49
1.500000
 49
-1.000000
  0
LTYPE
  2
CENTER3
 70
    64
  3
____ _ ____ _ ____ _ ____ _ ____ _ ____ _ ____
 72
    65
 73
     4
 40
31.500000
 49
27.000000
 49
-1.000000
 49
2.500000
 49
-1.000000
  0
LTYPE
  2
CENTER4
 70
    64
  3
____ _ ____ _ ____ _ ____ _ ____ _ ____ _ ____
 72
    65
 73
     4
 40
50.000000
 49
45.000000
 49
-1.000000
 49
3.000000
 49
-1.000000
  0
LTYPE
  2
CENTER5
 70
    64
  3
____ _ ____ _ ____ _ ____ _ ____ _ ____ _ ____
 72
    65
 73
     4
 40
100.000000
 49
92.000000
 49
-2.000000
 49
4.000000
 49
-2.000000
  0
LTYPE
  2
SBK1
 70
    64
  3
______ _ _ _ ______ _ _ _ ______ _ _ _ _____  
 72
    65
 73
     8
 40
60.500000
 49
45.000000
 49
-2.000000
 49
2.500000
 49
-2.000000
 49
2.500000
 49
-2.000000
 49
2.500000
 49
-2.000000
  0
LTYPE
  2
SBK2
 70
    64
  3
______ _ _ _ ______ _ _ _ ______ _ _ _ _____  
 72
    65
 73
     8
 40
84.000000
 49
64.000000
 49
-2.000000
 49
4.000000
 49
-2.000000
 49
4.000000
 49
-2.000000
 49
4.000000
 49
-2.000000
  0
LTYPE
  2
STCH
 70
    64
  3
__ __ __ __ __ __ __ __ __ __ __ __ __ __ __
 72
    65
 73
     2
 40
3.000000
 49
1.000000
 49
-2.000000
  0
LTYPE
  2
MTCH
 70
    64
  3
_____ _ _ _____ _ _ _____ _ _ _____ _ _ ____  
 72
    65
 73
     6
 40
80.000000
 49
66.000000
 49
-2.000000
 49
4.000000
 49
-2.000000
 49
4.000000
 49
-2.000000
  0
ENDTAB
  0
TABLE
  2
LAYER
 70
     1
  0
LAYER
  2
0
 70
     0
 62
     7
  6
CONTINUOUS
  0
ENDTAB
  0
TABLE
  2
STYLE
 70
     1
  0
STYLE
  2
STANDARD
 70
     0
 40
0.000000
 41
1.000000
 50
0.000000
 71
     0
 42
0.200000
  3
txt
  4
BIGFONT
  0
ENDTAB
  0
TABLE
  2
VIEW
 70
     0
  0
ENDTAB
  0
ENDSEC
  0
SECTION
  2
BLOCKS
  0
ENDSEC
  0
SECTION
  2
ENTITIES
  0
LINE
  8
0
 10
-12.389642
 20
-93.630409
 11
-12.889641
 21
-95.000404
  0
LINE
  8
0
 10
-12.889642
 20
-100.130402
 11
-12.889642
 21
-95.000404
  0
LINE
  8
0
 10
-12.889642
 20
-88.260399
 11
-12.889642
 21
-83.130402
  0
LINE
  8
0
 10
-12.889645
 20
-88.260399
 11
-12.389644
 21
-89.630409
  0
LINE
  8
0
 10
-12.389642
 20
-93.630402
 11
-12.389642
 21
-89.630402
  0
LINE
  8
0
 10
7.910357
 20
-83.130402
 11
7.910357
 21
-85.630402
  0
LINE
  8
0
 10
11.110358
 20
-88.830399
 11
13.610358
 21
-88.830399
  0
LINE
  8
0
 10
-12.389642
 20
-94.430405
 11
-9.889642
 21
-94.430405
  0
LINE
  8
0
 10
-6.689642
 20
-97.630402
 11
-6.689642
 21
-100.130402
  0
LINE
  8
0
 10
14.110358
 20
-83.130402
 11
14.110358
 21
-100.130402
  0
LINE
  8
0
 10
-12.389642
 20
-82.630402
 11
13.610358
 21
-82.630402
  0
LINE
  8
0
 10
-12.389642
 20
-100.630402
 11
13.610358
 21
-100.630402
  0
LINE
  8
0
 10
10.047859
 20
-84.562904
 11
12.172859
 21
-86.687904
  0
LINE
  8
0
 10
12.143206
 20
-84.537605
 11
10.045354
 21
-86.685402
  0
LINE
  8
0
 10
-8.822260
 20
-96.537605
 11
-10.920105
 21
-98.685402
  0
LINE
  8
0
 10
-10.917610
 20
-96.562904
 11
-8.792607
 21
-98.687912
  0
LINE
  8
0
 10
19.510361
 20
-82.630402
 11
13.610358
 21
-82.630402
  0
LINE
  8
0
 10
19.510361
 20
-100.630402
 11
13.610358
 21
-100.630402
  0
LINE
  8
0
 10
19.510361
 20
-94.996979
 11
14.610358
 21
-94.996979
  0
LINE
  8
0
 10
19.510361
 20
-88.263824
 11
14.610358
 21
-88.263824
  0
LINE
  8
0
 10
19.510361
 20
-89.880402
 11
14.610358
 21
-89.880402
  0
LINE
  8
0
 10
19.510361
 20
-93.380402
 11
14.610358
 21
-93.380402
  0
LINE
  8
0
 10
19.910358
 20
-83.030403
 11
19.910358
 21
-100.230400
  0
LINE
  8
0
 62
     4
 10
20.110359
 20
-86.630402
 11
19.910358
 21
-86.630402
  0
LINE
  8
0
 62
     4
 10
20.110359
 20
-96.630402
 11
19.910358
 21
-96.630402
  0
LINE
  8
0
 62
     4
 10
20.410358
 20
-96.330399
 11
20.410358
 21
-86.930405
  0
LINE
  8
0
  6
CENTER
 62
     2
 10
-14.889642
 20
-91.630402
 11
22.546413
 21
-91.630402
  0
LINE
  8
0
 10
-10.889640
 20
90.154419
 11
-8.475426
 21
87.740204
  0
LINE
  8
0
 10
-8.889643
 20
90.154419
 11
-11.303856
 21
87.740204
  0
LINE
  8
0
 10
6.696149
 20
102.568626
 11
9.110357
 21
100.154419
  0
LINE
  8
0
 10
9.524577
 20
102.568634
 11
7.110363
 21
100.154419
  0
LINE
  8
0
 10
-11.789641
 20
92.154419
 11
-11.789641
 21
100.781189
  0
LINE
  8
0
 10
19.910358
 20
100.154419
 11
19.910358
 21
104.154419
  0
LINE
  8
0
 10
-6.889642
 20
89.154419
 11
19.910358
 21
89.154419
  0
LINE
  8
0
 10
11.015096
 20
100.404419
 11
19.910358
 21
100.404419
  0
LINE
  8
0
 10
11.110358
 20
101.154419
 11
19.910358
 21
101.154419
  0
LINE
  8
0
 10
-11.589642
 20
92.154419
 11
-12.889642
 21
92.154419
  0
LINE
  8
0
 10
-6.889642
 20
89.154419
 11
-6.889642
 21
86.154419
  0
LINE
  8
0
 10
5.110358
 20
101.154419
 11
5.110358
 21
104.154419
  0
LINE
  8
0
 10
11.110358
 20
101.154419
 11
11.110358
 21
104.154419
  0
LINE
  8
0
 10
-12.389642
 20
92.154419
 11
-12.389642
 21
100.854416
  0
LINE
  8
0
 10
-12.089642
 20
101.154419
 11
5.110358
 21
101.154419
  0
LINE
  8
0
 10
-12.889642
 20
104.154419
 11
19.910358
 21
104.154419
  0
LINE
  8
0
 10
-12.889642
 20
86.154419
 11
19.910358
 21
86.154419
  0
LINE
  8
0
 10
19.910358
 20
86.154419
 11
19.910358
 21
90.154419
  0
LINE
  8
0
 10
-12.889642
 20
86.154419
 11
-12.889642
 21
104.154419
  0
LINE
  8
0
 10
-11.789641
 20
100.404419
 11
5.205621
 21
100.404419
  0
LINE
  8
0
 10
-6.984904
 20
89.904419
 11
19.910358
 21
89.904419
  0
LINE
  8
0
 62
     4
 10
-11.589642
 20
90.154419
 11
-11.589642
 21
100.154419
  0
LINE
  8
0
 62
     4
 10
2.910358
 20
99.854416
 11
2.910358
 21
100.154419
  0
LINE
  8
0
 62
     4
 10
2.810358
 20
99.854416
 11
2.810358
 21
100.154419
  0
LINE
  8
0
 62
     4
 10
8.210359
 20
92.654419
 11
8.210359
 21
90.454422
  0
LINE
  8
0
 62
     4
 10
7.210359
 20
92.654419
 11
7.210359
 21
92.254417
  0
LINE
  8
0
 62
     4
 10
8.010358
 20
97.654419
 11
8.010358
 21
92.654419
  0
LINE
  8
0
 62
     4
 10
9.210359
 20
97.654419
 11
9.210359
 21
92.654419
  0
LINE
  8
0
 62
     4
 10
6.710359
 20
98.854416
 11
6.710359
 21
91.454422
  0
LINE
  8
0
 62
     4
 10
2.410358
 20
99.854416
 11
7.710359
 21
99.854416
  0
LINE
  8
0
 62
     4
 10
2.410358
 20
90.454422
 11
7.710359
 21
90.454422
  0
LINE
  8
0
 62
     4
 10
2.410358
 20
99.854416
 11
2.410358
 21
90.454422
  0
LINE
  8
0
 62
     4
 10
4.110358
 20
98.244415
 11
3.610358
 21
98.244415
  0
LINE
  8
0
 62
     4
 10
4.110358
 20
97.144417
 11
3.610358
 21
97.144417
  0
LINE
  8
0
 62
     4
 10
6.210359
 20
98.644417
 11
6.210359
 21
96.744415
  0
LINE
  8
0
 62
     4
 10
4.110358
 20
98.570419
 11
4.110358
 21
96.820419
  0
LINE
  8
0
 62
     4
 10
3.610358
 20
98.244415
 11
3.610358
 21
97.144417
  0
LINE
  8
0
 62
     4
 10
7.710359
 20
93.904419
 11
6.710359
 21
93.904419
  0
LINE
  8
0
 62
     4
 10
7.710359
 20
96.404419
 11
6.710359
 21
96.404419
  0
LINE
  8
0
 62
     4
 10
7.710359
 20
99.854416
 11
7.710359
 21
98.854416
  0
LINE
  8
0
 62
     4
 10
6.710359
 20
98.854416
 11
7.710359
 21
98.854416
  0
LINE
  8
0
 62
     4
 10
7.710359
 20
90.454422
 11
7.710359
 21
91.454422
  0
LINE
  8
0
 62
     4
 10
6.710359
 20
91.454422
 11
7.710359
 21
91.454422
  0
LINE
  8
0
 62
     4
 10
6.210358
 20
96.744415
 11
4.322359
 21
96.620422
  0
LINE
  8
0
 62
     4
 10
4.322359
 20
98.770424
 11
6.210358
 21
98.644424
  0
LINE
  8
0
 62
     4
 10
6.210359
 20
96.104416
 11
6.210359
 21
94.204422
  0
LINE
  8
0
 62
     4
 10
4.322358
 20
96.230415
 11
6.210357
 21
96.104416
  0
LINE
  8
0
 62
     4
 10
4.110358
 20
96.030418
 11
4.110358
 21
94.280418
  0
LINE
  8
0
 62
     4
 10
4.110358
 20
95.704422
 11
3.610358
 21
95.704422
  0
LINE
  8
0
 62
     4
 10
3.610358
 20
95.704422
 11
3.610358
 21
94.604416
  0
LINE
  8
0
 62
     4
 10
4.110358
 20
94.604416
 11
3.610358
 21
94.604416
  0
LINE
  8
0
 62
     4
 10
6.210358
 20
94.204422
 11
4.322358
 21
94.080421
  0
LINE
  8
0
 62
     4
 10
5.610358
 20
95.554420
 11
4.810359
 21
95.554420
  0
LINE
  8
0
 62
     4
 10
5.610358
 20
94.754417
 11
5.610358
 21
95.554420
  0
LINE
  8
0
 62
     4
 10
5.610358
 20
94.754417
 11
4.810359
 21
94.754417
  0
LINE
  8
0
 62
     4
 10
4.810359
 20
94.754417
 11
4.810359
 21
95.554420
  0
LINE
  8
0
 62
     4
 10
6.210359
 20
93.564423
 11
6.210359
 21
91.664421
  0
LINE
  8
0
 62
     4
 10
4.322358
 20
93.690422
 11
6.210359
 21
93.564423
  0
LINE
  8
0
 62
     4
 10
4.110358
 20
93.490417
 11
4.110358
 21
91.740417
  0
LINE
  8
0
 62
     4
 10
4.110358
 20
93.164421
 11
3.610358
 21
93.164421
  0
LINE
  8
0
 62
     4
 10
3.610358
 20
93.164421
 11
3.610358
 21
92.064423
  0
LINE
  8
0
 62
     4
 10
4.110358
 20
92.064423
 11
3.610358
 21
92.064423
  0
LINE
  8
0
 62
     4
 10
6.210359
 20
91.664421
 11
4.322357
 21
91.540421
  0
LINE
  8
0
 62
     4
 10
9.210359
 20
97.654419
 11
6.710359
 21
97.654419
  0
LINE
  8
0
 62
     4
 10
9.210359
 20
92.654419
 11
6.710359
 21
92.654419
  0
LINE
  8
0
 62
     4
 10
7.710359
 20
98.054420
 11
7.710359
 21
92.254417
  0
LINE
  8
0
 62
     4
 10
7.210359
 20
92.254417
 11
8.210359
 21
92.254417
  0
LINE
  8
0
 62
     4
 10
7.210359
 20
98.054420
 11
8.210359
 21
98.054420
  0
LINE
  8
0
 62
     4
 10
7.210359
 20
98.054420
 11
7.210359
 21
97.654419
  0
LINE
  8
0
 62
     4
 10
8.210359
 20
99.854416
 11
8.210359
 21
97.654419
  0
LINE
  8
0
 62
     4
 10
20.410358
 20
90.454422
 11
20.410358
 21
99.854416
  0
LINE
  8
0
 62
     4
 10
2.910358
 20
90.154419
 11
2.910358
 21
90.454422
  0
LINE
  8
0
 62
     1
 10
15.410357
 20
93.654419
 11
20.410358
 21
93.654419
  0
LINE
  8
0
 62
     1
 10
15.410357
 20
96.654419
 11
15.410357
 21
93.654419
  0
LINE
  8
0
 62
     1
 10
15.410357
 20
96.654419
 11
20.410358
 21
96.654419
  0
LINE
  8
0
 62
     4
 10
-5.630457
 20
97.548790
 11
-5.189640
 21
97.804420
  0
LINE
  8
0
 62
     4
 10
-5.189643
 20
92.504417
 11
-5.630460
 21
92.760048
  0
LINE
  8
0
 62
     4
 10
-4.380455
 20
96.298790
 11
-3.939638
 21
96.554420
  0
LINE
  8
0
 62
     4
 10
-5.189638
 20
97.804420
 11
-3.939642
 21
96.554420
  0
LINE
  8
0
 62
     4
 10
-4.380456
 20
96.298790
 11
-5.630457
 21
97.548790
  0
LINE
  8
0
 62
     4
 10
-4.380461
 20
94.010056
 11
-3.939641
 21
93.754417
  0
LINE
  8
0
 62
     4
 10
1.501176
 20
90.154419
 11
1.501176
 21
100.154419
  0
LINE
  8
0
 62
     4
 10
-4.380459
 20
94.010048
 11
-5.630457
 21
92.760048
  0
LINE
  8
0
 62
     4
 10
-5.630459
 20
90.154419
 11
-5.630459
 21
92.760048
  0
LINE
  8
0
 62
     4
 10
-5.630459
 20
97.548790
 11
-5.630459
 21
100.154419
  0
LINE
  8
0
 62
     4
 10
-4.380459
 20
96.298790
 11
-4.380459
 21
94.010048
  0
LINE
  8
0
 62
     4
 10
-5.189642
 20
90.154419
 11
-5.189642
 21
92.504417
  0
LINE
  8
0
 62
     4
 10
-5.189641
 20
92.504417
 11
-3.939642
 21
93.754417
  0
LINE
  8
0
 62
     4
 10
-3.939642
 20
96.554420
 11
-3.939642
 21
93.754417
  0
LINE
  8
0
 62
     4
 10
-5.189642
 20
97.804420
 11
-5.189642
 21
100.154419
  0
LINE
  8
0
 62
     4
 10
2.312280
 20
100.154419
 11
2.312280
 21
90.154419
  0
LINE
  8
0
 62
     4
 10
2.810358
 20
90.154419
 11
2.810358
 21
90.454422
  0
LINE
  8
0
 62
     4
 10
-1.489642
 20
91.654419
 11
-1.489642
 21
90.154419
  0
LINE
  8
0
 62
     4
 10
-4.689642
 20
90.154419
 11
-4.689642
 21
91.654419
  0
LINE
  8
0
 62
     4
 10
-4.689642
 20
98.654419
 11
-4.689642
 21
100.154419
  0
LINE
  8
0
 62
     4
 10
-1.489642
 20
100.154419
 11
-1.489642
 21
98.654419
  0
LINE
  8
0
  6
CENTER
 62
     2
 10
-1.339642
 20
92.654419
 11
-1.339642
 21
97.654419
  0
LINE
  8
0
 62
     4
 10
-1.639642
 20
93.328903
 11
-1.639642
 21
96.979935
  0
LINE
  8
0
 62
     4
 10
-1.039641
 20
95.154419
 11
-1.039641
 21
96.979935
  0
LINE
  8
0
 62
     4
 10
-1.039641
 20
93.328903
 11
-1.039641
 21
95.154419
  0
LINE
  8
0
 62
     4
 10
-3.796748
 20
99.361519
 11
-2.382535
 21
97.947304
  0
LINE
  8
0
 62
     4
 10
-2.382536
 20
99.361526
 11
-3.796748
 21
97.947311
  0
LINE
  8
0
 62
     4
 10
-2.382534
 20
90.947304
 11
-3.796747
 21
92.361519
  0
LINE
  8
0
 62
     4
 10
-3.796747
 20
90.947304
 11
-2.382532
 21
92.361526
  0
LINE
  8
0
 62
     4
 10
20.110359
 20
90.154419
 11
-11.589642
 21
90.154419
  0
LINE
  8
0
 62
     4
 10
20.110359
 20
100.154419
 11
-11.589642
 21
100.154419
  0
LINE
  8
0
  6
CENTER
 62
     2
 10
-17.743313
 20
95.154419
 11
22.546413
 21
95.154419
  0
LINE
  8
0
 10
-12.889642
 20
103.654419
 11
-12.889642
 21
86.654419
  0
LINE
  8
0
  6
CENTER
 62
     2
 10
96.098671
 20
52.445717
 11
96.098671
 21
-55.733055
  0
LINE
  8
0
 10
87.098671
 20
-43.068283
 11
105.098671
 21
-43.068283
  0
LINE
  8
0
  6
CENTER
 62
     2
 10
102.598671
 20
-2.478284
 11
102.598671
 21
-11.488285
  0
LINE
  8
0
  6
CENTER
 62
     2
 10
89.598671
 20
-32.958282
 11
89.598671
 21
-41.368282
  0
LINE
  8
0
  6
CENTER
 62
     2
 10
86.678673
 20
-37.068283
 11
93.748672
 21
-37.068283
  0
LINE
  8
0
  6
CENTER
 62
     2
 10
98.514618
 20
-7.068285
 11
105.678673
 21
-7.068285
  0
LINE
  8
0
 10
87.098671
 20
-1.068285
 11
87.098671
 21
-50.968285
  0
LINE
  8
0
 10
105.098671
 20
-1.068285
 11
105.098671
 21
-50.968285
  0
LINE
  8
0
 10
101.348671
 20
20.131716
 11
90.848671
 21
20.131716
  0
LINE
  8
0
 10
105.098671
 20
-1.068285
 11
87.098671
 21
-1.068285
  0
LINE
  8
0
  6
CENTER
 62
     2
 10
92.993889
 20
11.631716
 11
99.989822
 21
11.631716
  0
LINE
  8
0
 10
92.501152
 20
11.631716
 11
87.098671
 21
11.631716
  0
LINE
  8
0
 10
99.696190
 20
11.631716
 11
105.098671
 21
11.631716
  0
LINE
  8
0
 10
87.098671
 20
17.631716
 11
87.098671
 21
-1.068285
  0
LINE
  8
0
 10
105.098671
 20
17.631716
 11
105.098671
 21
-1.068285
  0
LINE
  8
0
 10
102.098663
 20
20.631714
 11
105.098663
 21
17.631714
  0
LINE
  8
0
 10
87.098671
 20
17.631714
 11
90.098671
 21
20.631718
  0
LINE
  8
0
 10
90.098671
 20
20.631716
 11
90.548668
 21
20.631716
  0
LINE
  8
0
 10
90.848671
 20
20.131716
 11
90.848671
 21
20.331715
  0
LINE
  8
0
 10
101.348671
 20
20.131716
 11
101.348671
 21
20.331715
  0
LINE
  8
0
 10
94.579613
 20
8.831715
 11
97.617729
 21
8.831715
  0
LINE
  8
0
 10
97.964142
 20
9.031711
 11
99.349785
 21
11.431710
  0
LINE
  8
0
 10
92.847557
 20
11.431713
 11
94.233200
 21
9.031713
  0
LINE
  8
0
 10
101.648674
 20
20.631716
 11
102.098671
 21
20.631716
  0
LINE
  8
0
 62
     4
 10
101.098671
 20
21.031715
 11
91.098671
 21
21.031715
  0
LINE
  8
0
 62
     4
 10
91.398674
 20
39.731716
 11
100.798668
 21
39.731716
  0
LINE
  8
0
 62
     4
 10
91.098671
 20
21.331715
 11
101.098671
 21
21.331715
  0
LINE
  8
0
 62
     4
 10
91.098671
 20
20.131716
 11
91.098671
 21
45.231716
  0
LINE
  8
0
 62
     4
 10
101.098671
 20
20.131716
 11
101.098671
 21
45.231716
  0
LINE
  8
0
 62
     4
 10
101.098671
 20
45.231716
 11
98.598671
 21
45.231716
  0
LINE
  8
0
 62
     4
 10
98.998672
 20
39.731716
 11
98.998672
 21
45.231716
  0
LINE
  8
0
 62
     4
 10
93.198669
 20
39.731716
 11
93.198669
 21
45.231716
  0
LINE
  8
0
 62
     1
 10
97.598671
 20
36.731716
 11
97.598671
 21
39.731716
  0
LINE
  8
0
 62
     1
 10
97.598671
 20
36.731716
 11
94.598671
 21
36.731716
  0
LINE
  8
0
 62
     1
 10
94.598671
 20
36.731716
 11
94.598671
 21
39.731716
  0
LINE
  8
0
 62
     4
 10
98.598671
 20
40.831718
 11
93.598671
 21
40.831718
  0
LINE
  8
0
 62
     4
 10
100.798668
 20
50.331718
 11
91.398674
 21
50.331718
  0
LINE
  8
0
 62
     4
 10
98.598671
 20
49.331718
 11
93.598671
 21
49.331718
  0
LINE
  8
0
 62
     4
 10
100.798668
 20
45.331718
 11
100.798668
 21
50.331718
  0
LINE
  8
0
 62
     4
 10
98.598671
 20
40.831718
 11
98.598671
 21
49.331718
  0
LINE
  8
0
 62
     4
 10
93.598671
 20
48.620392
 11
98.598671
 21
48.620392
  0
LINE
  8
0
 62
     4
 10
93.598671
 20
48.331718
 11
98.598671
 21
48.331718
  0
LINE
  8
0
 62
     4
 10
99.698669
 20
45.331718
 11
99.698669
 21
50.331718
  0
LINE
  8
0
 62
     4
 10
92.498672
 20
45.331718
 11
92.498672
 21
50.331718
  0
LINE
  8
0
 62
     4
 10
93.598671
 20
40.831718
 11
93.598671
 21
49.331718
  0
LINE
  8
0
 62
     4
 10
91.398674
 20
45.331718
 11
91.398674
 21
50.331718
  0
LINE
  8
0
 62
     4
 10
93.598671
 20
45.231716
 11
91.098671
 21
45.231716
  0
LINE
  8
0
 62
     4
 10
93.598671
 20
41.697742
 11
98.598671
 21
41.697742
  0
LINE
  8
0
 10
93.298668
 20
-48.568283
 11
93.298668
 21
-50.968285
  0
LINE
  8
0
 10
87.598671
 20
-51.468285
 11
104.598671
 21
-51.468285
  0
LINE
  8
0
 10
87.298668
 20
-48.068283
 11
92.798668
 21
-48.068283
  0
LINE
  8
0
 10
87.298668
 20
-49.248283
 11
87.298668
 21
-48.068283
  0
LINE
  8
0
 10
92.898674
 20
-49.248283
 11
92.898674
 21
-48.068283
  0
LINE
  8
0
 62
     4
 10
100.798668
 20
45.331718
 11
98.598671
 21
45.331718
  0
LINE
  8
0
 62
     4
 10
93.598671
 20
45.331718
 11
91.398674
 21
45.331718
  0
LINE
  8
0
 62
     4
 10
100.198669
 20
45.331718
 11
100.198669
 21
45.231716
  0
LINE
  8
0
 62
     4
 10
91.998672
 20
45.331718
 11
91.998672
 21
45.231716
  0
LINE
  8
0
 62
     4
 10
94.273674
 20
50.331718
 11
94.273674
 21
56.416382
  0
LINE
  8
0
 62
     4
 10
92.843674
 20
50.331718
 11
92.843674
 21
56.797718
  0
LINE
  8
0
 62
     1
 10
101.678673
 20
54.441719
 11
90.580360
 21
57.401268
  0
LINE
  8
0
 62
     1
 10
101.678673
 20
55.681713
 11
90.580360
 21
58.641266
  0
LINE
  8
0
 62
     4
 10
94.273674
 20
57.656387
 11
94.273674
 21
60.861717
  0
LINE
  8
0
 62
     4
 10
92.843674
 20
58.037720
 11
92.843674
 21
60.861717
  0
LINE
  8
0
 62
     4
 10
93.958672
 20
60.861717
 11
93.958672
 21
65.861717
  0
LINE
  8
0
 62
     4
 10
93.158669
 20
60.861717
 11
93.158669
 21
65.861717
  0
LINE
  8
0
 62
     4
 10
94.273674
 20
60.861717
 11
92.843674
 21
60.861717
  0
LINE
  8
0
 62
     4
 10
93.958672
 20
65.861717
 11
93.158669
 21
65.861717
  0
LINE
  8
0
 62
     4
 10
99.353668
 20
50.331718
 11
99.353668
 21
55.061718
  0
LINE
  8
0
 62
     4
 10
97.923668
 20
50.331718
 11
97.923668
 21
55.431717
  0
LINE
  8
0
 62
     4
 10
98.238670
 20
65.861717
 11
99.038673
 21
65.861717
  0
LINE
  8
0
 62
     4
 10
97.923668
 20
60.861717
 11
99.353668
 21
60.861717
  0
LINE
  8
0
 62
     4
 10
99.038673
 20
60.861717
 11
99.038673
 21
65.861717
  0
LINE
  8
0
 62
     4
 10
98.238670
 20
60.861717
 11
98.238670
 21
65.861717
  0
LINE
  8
0
 62
     4
 10
97.923668
 20
56.671719
 11
97.923668
 21
60.861717
  0
LINE
  8
0
 62
     4
 10
99.353668
 20
56.291718
 11
99.353668
 21
60.861717
  0
LINE
  8
0
  6
CENTER
 62
     2
 10
90.448669
 20
-14.068285
 11
102.078674
 21
-14.068285
  0
LINE
  8
0
  6
CENTER
 62
     2
 10
96.598671
 20
-7.938284
 11
96.598671
 21
-20.518284
  0
LINE
  8
0
  6
CENTER
 62
     2
 10
90.008667
 20
-30.068285
 11
102.168671
 21
-30.068285
  0
LINE
  8
0
  6
CENTER
 62
     2
 10
95.598671
 20
-23.488285
 11
95.598671
 21
-36.228283
  0
LINE
  8
0
 62
     4
 10
-102.621407
 20
57.656387
 11
-102.621407
 21
60.861717
  0
LINE
  8
0
 62
     4
 10
-102.936409
 20
60.861717
 11
-102.936409
 21
65.861717
  0
LINE
  8
0
 62
     4
 10
-103.736412
 20
60.861717
 11
-103.736412
 21
65.861717
  0
LINE
  8
0
 62
     4
 10
-104.051407
 20
58.037720
 11
-104.051407
 21
60.861717
  0
LINE
  8
0
 62
     4
 10
-98.971413
 20
60.861717
 11
-97.541412
 21
60.861717
  0
LINE
  8
0
 62
     4
 10
-98.656410
 20
60.861717
 11
-98.656410
 21
65.861717
  0
LINE
  8
0
 62
     4
 10
-98.971413
 20
56.671719
 11
-98.971413
 21
60.861717
  0
LINE
  8
0
 62
     4
 10
-102.621407
 20
60.861717
 11
-104.051407
 21
60.861717
  0
LINE
  8
0
  6
CENTER
 62
     2
 10
-108.606407
 20
-35.268284
 11
-94.876411
 21
-35.268284
  0
LINE
  8
0
  6
CENTER
 62
     2
 10
-107.976410
 20
-22.068285
 11
-94.456406
 21
-22.068285
  0
LINE
  8
0
  6
CENTER
 62
     2
 10
-107.776413
 20
-8.868284
 11
-94.456406
 21
-8.868284
  0
LINE
  8
0
 62
     1
 10
-95.216415
 20
55.681717
 11
-106.314720
 21
58.641266
  0
LINE
  8
0
 62
     1
 10
-95.216408
 20
54.441715
 11
-106.314720
 21
57.401268
  0
LINE
  8
0
 10
-109.296410
 20
-51.468285
 11
-92.296410
 21
-51.468285
  0
LINE
  8
0
 10
-109.596413
 20
-48.068283
 11
-104.096413
 21
-48.068283
  0
LINE
  8
0
  6
CENTER
 62
     2
 10
-109.796410
 20
-7.068285
 11
-104.796410
 21
-7.068285
  0
LINE
  8
0
 10
-109.796410
 20
-43.068283
 11
-91.796410
 21
-43.068283
  0
LINE
  8
0
 10
-109.796410
 20
-1.068285
 11
-91.796410
 21
-1.068285
  0
LINE
  8
0
 10
-106.796410
 20
20.631716
 11
-97.796410
 21
20.631716
  0
LINE
  8
0
 62
     4
 10
-105.796410
 20
31.631716
 11
-95.796410
 21
31.631716
  0
LINE
  8
0
 62
     4
 10
-105.796410
 20
35.131718
 11
-95.796410
 21
35.131718
  0
LINE
  8
0
 62
     4
 10
-105.796410
 20
39.731716
 11
-95.796410
 21
39.731716
  0
LINE
  8
0
 62
     4
 10
-105.796410
 20
45.731716
 11
-95.796410
 21
45.731716
  0
LINE
  8
0
 62
     4
 10
-105.496407
 20
45.831718
 11
-96.096413
 21
45.831718
  0
LINE
  8
0
 62
     4
 10
-105.496407
 20
50.331718
 11
-96.096413
 21
50.331718
  0
LINE
  8
0
 62
     4
 10
-105.496407
 20
49.331718
 11
-96.096413
 21
49.331718
  0
LINE
  8
0
 62
     4
 10
-105.496407
 20
49.620392
 11
-96.096413
 21
49.620392
  0
LINE
  8
0
  6
CENTER
 62
     2
 10
-98.796410
 20
8.831715
 11
-102.796410
 21
8.831715
  0
LINE
  8
0
 10
-97.596413
 20
14.431715
 11
-97.596413
 21
15.974178
  0
LINE
  8
0
 10
-91.996407
 20
14.431715
 11
-91.996407
 21
15.974178
  0
LINE
  8
0
 10
-91.796410
 20
14.431715
 11
-97.796410
 21
14.431715
  0
LINE
  8
0
 10
-97.796410
 20
20.631716
 11
-97.796410
 21
14.431715
  0
LINE
  8
0
 62
     4
 10
-103.496407
 20
21.831715
 11
-101.069740
 21
21.831715
  0
LINE
  8
0
 62
     4
 10
-100.523079
 20
21.831715
 11
-98.096413
 21
21.831715
  0
LINE
  8
0
 62
     4
 10
-104.796410
 20
20.831715
 11
-96.796410
 21
20.831715
  0
LINE
  8
0
 62
     4
 10
-97.896408
 20
21.631716
 11
-97.896408
 21
20.831715
  0
LINE
  8
0
 62
     4
 10
-103.696411
 20
21.631716
 11
-103.696411
 21
20.831715
  0
LINE
  8
0
 62
     4
 10
-101.069740
 20
21.831715
 11
-101.069740
 21
20.831715
  0
LINE
  8
0
 62
     4
 10
-100.523079
 20
21.831715
 11
-100.523079
 21
20.831715
  0
LINE
  8
0
 62
     4
 10
-96.696411
 20
45.831718
 11
-96.696411
 21
45.731716
  0
LINE
  8
0
 62
     4
 10
-96.096413
 20
50.331718
 11
-96.096413
 21
45.831718
  0
LINE
  8
0
 62
     4
 10
-104.796410
 20
22.931715
 11
-96.796410
 21
22.931715
  0
LINE
  8
0
 62
     4
 10
-96.496407
 20
21.131716
 11
-96.496407
 21
22.631716
  0
LINE
  8
0
 62
     4
 10
-103.096413
 20
22.931715
 11
-103.096413
 21
21.831715
  0
LINE
  8
0
 62
     4
 10
-98.496407
 20
22.931715
 11
-98.496407
 21
21.831715
  0
LINE
  8
0
 62
     4
 10
-100.449745
 20
22.931715
 11
-100.449745
 21
21.831715
  0
LINE
  8
0
 62
     4
 10
-100.596413
 20
22.931715
 11
-100.596413
 21
20.831715
  0
LINE
  8
0
 62
     4
 10
-100.996407
 20
22.931715
 11
-100.996407
 21
20.831715
  0
LINE
  8
0
 62
     4
 10
-101.143074
 20
22.931715
 11
-101.143074
 21
21.831715
  0
LINE
  8
0
 62
     4
 10
-95.796410
 20
20.131716
 11
-95.796410
 21
45.731716
  0
LINE
  8
0
 10
-95.246407
 20
20.631716
 11
-94.796410
 21
20.631716
  0
LINE
  8
0
 10
-95.546410
 20
20.131716
 11
-95.546410
 21
20.331715
  0
LINE
  8
0
 10
-94.796410
 20
20.631718
 11
-91.796410
 21
17.631720
  0
LINE
  8
0
 10
-91.796410
 20
17.631716
 11
-91.796410
 21
-50.968285
  0
LINE
  8
0
 10
-95.546410
 20
20.131716
 11
-97.796410
 21
20.131716
  0
LINE
  8
0
  6
CENTER
 62
     2
 10
-96.876411
 20
-37.068283
 11
-91.796410
 21
-37.068283
  0
LINE
  8
0
  6
CENTER
 62
     2
 10
-94.296410
 20
-34.358284
 11
-94.296410
 21
-39.878284
  0
LINE
  8
0
 10
-103.996407
 20
-49.248283
 11
-103.996407
 21
-48.068283
  0
LINE
  8
0
 10
-103.596413
 20
-48.568283
 11
-103.596413
 21
-50.968285
  0
LINE
  8
0
 62
     4
 10
-97.541412
 20
50.331718
 11
-97.541412
 21
55.061718
  0
LINE
  8
0
 62
     4
 10
-98.971413
 20
50.331718
 11
-98.971413
 21
55.431717
  0
LINE
  8
0
 62
     4
 10
-97.541412
 20
56.291718
 11
-97.541412
 21
60.861717
  0
LINE
  8
0
 62
     4
 10
-97.856407
 20
60.861717
 11
-97.856407
 21
65.861717
  0
LINE
  8
0
 62
     4
 10
-98.656410
 20
65.861717
 11
-97.856407
 21
65.861717
  0
LINE
  8
0
 62
     4
 10
-102.621407
 20
50.331718
 11
-102.621407
 21
56.416382
  0
LINE
  8
0
 62
     4
 10
-104.051407
 20
50.331718
 11
-104.051407
 21
56.797718
  0
LINE
  8
0
 62
     4
 10
-102.936409
 20
65.861717
 11
-103.736412
 21
65.861717
  0
LINE
  8
0
  6
CENTER
 62
     2
 10
-100.796410
 20
53.074120
 11
-100.796410
 21
-55.733055
  0
LINE
  8
0
  6
CENTER
 62
     2
 10
-100.296410
 20
-2.458284
 11
-100.296410
 21
-15.118284
  0
LINE
  8
0
  6
CENTER
 62
     2
 10
-101.296410
 20
-28.718285
 11
-101.296410
 21
-41.308285
  0
LINE
  8
0
 62
     4
 10
-104.896408
 20
45.831718
 11
-104.896408
 21
45.731716
  0
LINE
  8
0
 62
     4
 10
-105.496407
 20
50.331718
 11
-105.496407
 21
45.831718
  0
LINE
  8
0
 62
     4
 10
-105.096413
 20
21.131716
 11
-105.096413
 21
22.631716
  0
LINE
  8
0
 62
     4
 10
-105.796410
 20
20.631716
 11
-105.796410
 21
45.731716
  0
LINE
  8
0
 10
-109.796410
 20
17.631716
 11
-106.796410
 21
20.631718
  0
LINE
  8
0
 10
-109.796410
 20
17.631716
 11
-109.796410
 21
-50.968285
  0
LINE
  8
0
  6
CENTER
 62
     2
 10
-107.296410
 20
-4.318285
 11
-107.296410
 21
-9.488285
  0
LINE
  8
0
 10
-109.596413
 20
-49.248283
 11
-109.596413
 21
-48.068283
  0
LINE
  8
0
 10
-12.889642
 20
-50.968285
 11
-12.889642
 21
20.131716
  0
LINE
  8
0
 10
14.110358
 20
-50.968285
 11
14.110358
 21
11.231714
  0
LINE
  8
0
 10
19.510361
 20
11.631716
 11
14.510358
 21
11.631716
  0
LINE
  8
0
 10
-11.789641
 20
20.131716
 11
-6.889642
 21
20.131716
  0
LINE
  8
0
 10
-11.589642
 20
20.631716
 11
-12.389642
 21
20.631716
  0
LINE
  8
0
 62
     4
 10
8.710359
 20
41.797741
 11
8.710359
 21
48.331718
  0
LINE
  8
0
 62
     4
 10
8.210360
 20
40.931717
 11
8.710361
 21
41.797741
  0
LINE
  8
0
 62
     4
 10
8.710358
 20
48.331715
 11
9.210357
 21
48.620388
  0
LINE
  8
0
 62
     4
 10
9.210359
 20
48.620392
 11
9.210359
 21
49.331718
  0
LINE
  8
0
 62
     4
 10
2.910358
 20
45.231716
 11
8.210359
 21
45.231716
  0
LINE
  8
0
 62
     4
 10
2.910358
 20
45.331718
 11
2.910358
 21
49.331718
  0
LINE
  8
0
 62
     4
 10
7.710359
 20
45.331718
 11
2.910358
 21
45.331718
  0
LINE
  8
0
 62
     4
 10
7.710359
 20
45.231716
 11
7.710359
 21
50.331718
  0
LINE
  8
0
  6
PHANTOM
 62
     4
 10
7.710359
 20
46.131718
 11
7.710359
 21
47.630333
  0
LINE
  8
0
 62
     4
 10
8.010115
 20
49.331718
 11
7.710358
 21
47.631714
  0
LINE
  8
0
 62
     4
 10
2.410358
 20
50.331718
 11
7.710359
 21
50.331718
  0
LINE
  8
0
 62
     4
 10
3.610358
 20
45.231716
 11
3.610358
 21
45.331718
  0
LINE
  8
0
 62
     4
 10
2.410358
 20
49.620392
 11
2.410358
 21
50.331718
  0
LINE
  8
0
 62
     4
 10
2.910357
 20
49.331715
 11
2.410358
 21
49.620388
  0
LINE
  8
0
 62
     4
 10
8.010114
 20
49.331718
 11
9.210359
 21
49.331718
  0
LINE
  8
0
 62
     4
 10
8.210359
 20
45.231716
 11
8.210359
 21
39.731716
  0
LINE
  8
0
 62
     4
 10
2.910358
 20
45.231716
 11
2.910358
 21
33.831718
  0
LINE
  8
0
 62
     4
 10
8.210359
 20
39.731716
 11
20.110359
 21
39.731716
  0
LINE
  8
0
 62
     4
 10
20.410358
 20
21.331715
 11
20.410358
 21
39.431717
  0
LINE
  8
0
 62
     4
 10
-10.889642
 20
23.331715
 11
-10.089642
 21
23.331715
  0
LINE
  8
0
 62
     4
 10
-10.089642
 20
30.931715
 11
-10.889642
 21
30.931715
  0
LINE
  8
0
 62
     4
 10
-10.089642
 20
30.931715
 11
-10.089642
 21
23.331715
  0
LINE
  8
0
 62
     4
 10
-11.589642
 20
20.131716
 11
-11.589642
 21
31.631716
  0
LINE
  8
0
 62
     4
 10
-10.889642
 20
30.931715
 11
-10.889642
 21
23.331715
  0
LINE
  8
0
 62
     4
 10
-1.489642
 20
35.131718
 11
-1.489642
 21
34.131718
  0
LINE
  8
0
 62
     4
 10
-1.589642
 20
34.231716
 11
-1.589642
 21
34.131718
  0
LINE
  8
0
 62
     4
 10
-4.089642
 20
34.731716
 11
-2.089642
 21
34.731716
  0
LINE
  8
0
 62
     4
 10
-5.806786
 20
31.631714
 11
-5.189642
 21
35.131714
  0
LINE
  8
0
 62
     4
 10
-4.689642
 20
35.131718
 11
-4.689642
 21
34.131718
  0
LINE
  8
0
 62
     4
 10
-4.589642
 20
34.231716
 11
-4.589642
 21
34.131718
  0
LINE
  8
0
 62
     4
 10
-4.689642
 20
34.131718
 11
-1.489642
 21
34.131718
  0
LINE
  8
0
 62
     4
 10
-11.589642
 20
31.631716
 11
-5.806786
 21
31.631716
  0
LINE
  8
0
 62
     4
 10
20.410357
 20
21.031715
 11
20.110357
 21
21.331715
  0
LINE
  8
0
 62
     4
 10
20.410358
 20
21.331715
 11
18.910358
 21
21.331715
  0
LINE
  8
0
 62
     4
 10
20.410358
 20
20.131716
 11
20.410358
 21
21.031715
  0
LINE
  8
0
 62
     4
 10
18.910358
 20
33.831718
 11
2.810358
 21
33.831718
  0
LINE
  8
0
 62
     4
 10
-5.189642
 20
35.131718
 11
1.501176
 21
35.131718
  0
LINE
  8
0
 62
     4
 10
18.910358
 20
33.831718
 11
18.910358
 21
21.331715
  0
LINE
  8
0
 62
     4
 10
2.910358
 20
39.131718
 11
2.810358
 21
39.131718
  0
LINE
  8
0
 62
     4
 10
2.312280
 20
39.731716
 11
2.810358
 21
39.731716
  0
LINE
  8
0
 62
     4
 10
2.810358
 20
33.831718
 11
2.810358
 21
39.731716
  0
LINE
  8
0
 62
     4
 10
1.501176
 20
35.131718
 11
2.312280
 21
39.731716
  0
LINE
  8
0
 10
19.510361
 20
8.831715
 11
14.610358
 21
8.831715
  0
LINE
  8
0
 10
19.910358
 20
20.631716
 11
-6.889642
 21
20.631716
  0
LINE
  8
0
 10
-12.889642
 20
20.131716
 11
-12.389643
 21
20.631716
  0
LINE
  8
0
 10
19.910358
 20
9.231714
 11
19.910358
 21
20.631716
  0
LINE
  8
0
 62
     4
 10
20.410358
 20
20.131716
 11
19.910358
 21
20.131716
  0
LINE
  8
0
 10
-6.889642
 20
14.431715
 11
-6.889642
 21
20.631716
  0
LINE
  8
0
 10
-7.089642
 20
14.431715
 11
-7.089642
 21
15.974178
  0
LINE
  8
0
 10
-12.889642
 20
14.431715
 11
-6.889642
 21
14.431715
  0
LINE
  8
0
 10
-12.689642
 20
14.431715
 11
-12.689642
 21
15.974178
  0
LINE
  8
0
 10
11.110358
 20
-8.718285
 11
11.110358
 21
-5.408285
  0
LINE
  8
0
 10
11.110358
 20
-5.408285
 11
14.110358
 21
-5.408285
  0
LINE
  8
0
 10
11.110358
 20
-8.718285
 11
14.110358
 21
-8.718285
  0
LINE
  8
0
 10
-12.889642
 20
-1.068285
 11
14.110358
 21
-1.068285
  0
LINE
  8
0
 10
-12.889642
 20
-43.068283
 11
14.110358
 21
-43.068283
  0
LINE
  8
0
 10
7.910357
 20
-48.568283
 11
7.910357
 21
-50.968285
  0
LINE
  8
0
 10
-12.389642
 20
-51.468285
 11
13.610358
 21
-51.468285
  0
LINE
  8
0
 10
8.310359
 20
-49.248283
 11
8.310359
 21
-48.068283
  0
LINE
  8
0
 10
13.910357
 20
-49.248283
 11
13.910357
 21
-48.068283
  0
LINE
  8
0
 10
8.410357
 20
-48.068283
 11
13.910357
 21
-48.068283
  0
LINE
  8
0
 62
     4
 10
4.495358
 20
50.331718
 11
4.495358
 21
55.929718
  0
LINE
  8
0
 62
     4
 10
5.925359
 20
50.331718
 11
5.925359
 21
55.548382
  0
LINE
  8
0
 62
     4
 10
4.495358
 20
57.169716
 11
4.495358
 21
60.761719
  0
LINE
  8
0
 62
     4
 10
5.925359
 20
56.788383
 11
5.925359
 21
60.761719
  0
LINE
  8
0
 62
     4
 10
5.610358
 20
60.761719
 11
5.610358
 21
65.761719
  0
LINE
  8
0
 62
     4
 10
4.810359
 20
60.761719
 11
4.810359
 21
65.761719
  0
LINE
  8
0
 62
     4
 10
5.925359
 20
60.761719
 11
4.495358
 21
60.761719
  0
LINE
  8
0
 62
     4
 10
5.610358
 20
65.761719
 11
4.810359
 21
65.761719
  0
LINE
  8
0
 10
-11.789641
 20
20.131716
 11
-11.789641
 21
20.631716
  0
LINE
  8
0
  6
CENTER
 62
     2
 10
5.110358
 20
-37.068283
 11
11.440358
 21
-37.068283
  0
LINE
  8
0
  6
CENTER
 62
     2
 10
5.110358
 20
-7.068285
 11
15.130359
 21
-7.068285
  0
LINE
  8
0
  6
CENTER
 62
     2
 10
8.110358
 20
-3.538285
 11
8.110358
 21
-11.555807
  0
LINE
  8
0
 62
     1
 10
7.904574
 20
56.260586
 11
2.707442
 21
57.646488
  0
LINE
  8
0
 62
     1
 10
7.824797
 20
55.041866
 11
2.527554
 21
56.454464
  0
LINE
  8
0
  6
CENTER
 62
     2
 10
8.110358
 20
-32.709911
 11
8.110358
 21
-41.731518
  0
LINE
  8
0
 10
-194.250000
 20
132.600006
 11
194.800003
 21
132.600006
  0
LINE
  8
0
 10
194.800003
 20
132.600006
 11
194.800003
 21
-133.500000
  0
LINE
  8
0
 10
-194.250000
 20
132.600006
 11
-194.250000
 21
-133.500000
  0
LINE
  8
0
 10
-194.250000
 20
-133.500000
 11
194.800003
 21
-133.500000
  0
LINE
  8
0
 10
109.800003
 20
-118.500000
 11
109.800003
 21
-133.500000
  0
LINE
  8
0
 10
109.800003
 20
-118.500000
 11
194.800003
 21
-118.500000
  0
LINE
  8
0
 10
109.800003
 20
132.600006
 11
109.800003
 21
117.600006
  0
LINE
  8
0
 10
109.800003
 20
117.600006
 11
194.800003
 21
117.600006
  0
LINE
  8
0
 10
-194.250000
 20
117.600006
 11
-109.250000
 21
117.600006
  0
LINE
  8
0
 10
-109.250000
 20
132.600006
 11
-109.250000
 21
117.600006
  0
CIRCLE
  8
0
 10
11.103400
 20
-85.630432
 40
2.800000
  0
CIRCLE
  8
0
 10
-9.896601
 20
-97.630432
 40
2.800000
  0
ARC
  8
0
 10
13.606843
 20
-89.333916
 40
0.503527
 50
0.400216
 51
89.600113
  0
ARC
  8
0
 10
7.406852
 20
-83.133911
 40
0.503519
 50
0.399354
 51
89.600975
  0
ARC
  8
0
 10
-6.193128
 20
-100.133888
 40
0.496527
 50
179.597656
 51
270.402222
  0
ARC
  8
0
 10
-9.893140
 20
-97.633896
 40
3.203500
 50
0.062496
 51
89.937439
  0
ARC
  8
0
 10
11.106864
 20
-85.633896
 40
3.196508
 50
179.937363
 51
270.062622
  0
ARC
  8
0
 10
13.606875
 20
-100.126923
 40
0.503491
 50
270.396332
 51
359.604095
  0
ARC
  8
0
 10
13.606843
 20
-83.133919
 40
0.503528
 50
0.400215
 51
89.599892
  0
ARC
  8
0
 10
14.610358
 20
-93.880402
 40
0.500000
 50
90.000000
 51
180.000000
  0
ARC
  8
0
 10
14.610358
 20
-95.496979
 40
0.500000
 50
90.000000
 51
180.000000
  0
ARC
  8
0
 10
14.610358
 20
-89.380402
 40
0.500000
 50
180.000000
 51
270.000000
  0
ARC
  8
0
 10
14.610358
 20
-87.763824
 40
0.500000
 50
180.000000
 51
270.000000
  0
ARC
  8
0
 10
19.510361
 20
-92.980400
 40
0.400002
 50
270.000000
 51
0.000000
  0
ARC
  8
0
 10
19.510361
 20
-94.596985
 40
0.400002
 50
270.000000
 51
0.000000
  0
ARC
  8
0
 10
19.510361
 20
-90.280403
 40
0.400000
 50
0.000000
 51
90.000000
  0
ARC
  8
0
 10
19.510361
 20
-88.663818
 40
0.400000
 50
0.000000
 51
90.000000
  0
ARC
  8
0
 10
19.510361
 20
-83.030403
 40
0.400000
 50
0.000000
 51
90.000000
  0
ARC
  8
0
 10
19.510361
 20
-100.230400
 40
0.400002
 50
270.000000
 51
0.000000
  0
ARC
  8
0
 62
     4
 10
20.110359
 20
-86.930405
 40
0.299999
 50
0.000000
 51
90.000000
  0
ARC
  8
0
 62
     4
 10
20.110359
 20
-96.330399
 40
0.300003
 50
270.000000
 51
0.000000
  0
ARC
  8
0
 10
-12.393120
 20
-93.933876
 40
0.496534
 50
238.239395
 51
270.401337
  0
ARC
  8
0
 10
-12.393118
 20
-100.133881
 40
0.496536
 50
179.598557
 51
270.401123
  0
ARC
  8
0
 10
-12.393092
 20
-83.126953
 40
0.496563
 50
89.601875
 51
180.397903
  0
ARC
  8
0
 10
-9.889642
 20
89.154419
 40
2.800001
 50
127.383179
 51
20.924833
  0
ARC
  8
0
 10
8.110358
 20
101.154419
 40
2.800000
 50
339.075165
 51
200.924835
  0
ARC
  8
0
 10
-12.089642
 20
100.854416
 40
0.300003
 50
90.000000
 51
180.000000
  0
ARC
  8
0
 10
8.110358
 20
101.154419
 40
3.000000
 50
340.528778
 51
0.000000
  0
ARC
  8
0
 10
-9.889642
 20
89.154419
 40
3.000000
 50
0.000000
 51
19.471220
  0
ARC
  8
0
 10
8.110358
 20
101.154419
 40
3.000000
 50
180.000000
 51
199.471222
  0
CIRCLE
  8
0
 62
     4
 10
5.210359
 20
92.614418
 40
0.750000
  0
CIRCLE
  8
0
 62
     4
 10
5.210359
 20
97.694420
 40
0.750000
  0
ARC
  8
0
 62
     4
 10
4.311023
 20
98.570076
 40
0.200668
 50
86.761612
 51
179.901978
  0
ARC
  8
0
 62
     4
 10
4.310023
 20
96.819702
 40
0.199666
 50
179.794205
 51
273.541779
  0
ARC
  8
0
 62
     4
 10
4.311023
 20
96.030075
 40
0.200668
 50
86.761612
 51
179.901978
  0
ARC
  8
0
 62
     4
 10
4.310023
 20
94.279701
 40
0.199666
 50
179.794205
 51
273.541779
  0
ARC
  8
0
 62
     4
 10
4.311023
 20
93.490074
 40
0.200668
 50
86.761612
 51
179.901978
  0
ARC
  8
0
 62
     4
 10
4.310023
 20
91.739700
 40
0.199666
 50
179.794205
 51
273.541779
  0
ARC
  8
0
 62
     4
 10
7.910357
 20
90.454422
 40
0.300003
 50
270.000000
 51
0.000000
  0
ARC
  8
0
 62
     4
 10
7.910357
 20
99.854416
 40
0.300000
 50
0.000000
 51
90.000000
  0
ARC
  8
0
 62
     4
 10
20.110359
 20
99.854416
 40
0.299999
 50
0.000000
 51
90.000000
  0
ARC
  8
0
 62
     4
 10
20.110359
 20
90.454422
 40
0.300003
 50
270.000000
 51
0.000000
  0
CIRCLE
  8
0
 62
     4
 10
-1.339642
 20
95.154419
 40
2.050000
  0
ARC
  8
0
 62
     4
 10
-3.089642
 20
98.654419
 40
1.600000
 50
180.000000
 51
0.000000
  0
ARC
  8
0
 62
     4
 10
-3.089642
 20
91.654419
 40
1.600000
 50
0.000000
 51
180.000000
  0
CIRCLE
  8
0
 62
     4
 10
-1.339642
 20
95.154419
 40
1.900000
  0
CIRCLE
  8
0
 62
     4
 10
-1.339642
 20
95.154419
 40
1.850000
  0
ARC
  8
0
 62
     4
 10
-1.339642
 20
95.154419
 40
0.800003
 50
292.024231
 51
67.975777
  0
ARC
  8
0
 62
     4
 10
-1.339642
 20
95.154419
 40
0.800003
 50
112.024223
 51
247.975784
  0
CIRCLE
  8
0
 62
     4
 10
-3.089642
 20
98.654419
 40
1.500000
  0
CIRCLE
  8
0
 62
     4
 10
-3.089642
 20
91.654419
 40
1.500000
  0
CIRCLE
  8
0
 10
89.598671
 20
-37.068279
 40
1.599999
  0
CIRCLE
  8
0
 10
102.598671
 20
-7.068282
 40
1.599999
  0
ARC
  8
0
 10
102.598671
 20
-7.073285
 40
2.998170
 50
33.504562
 51
326.495422
  0
ARC
  8
0
 10
89.600967
 20
-37.068970
 40
2.997704
 50
0.013124
 51
146.588455
  0
ARC
  8
0
 10
89.598206
 20
-37.068420
 40
3.000469
 50
213.586884
 51
0.002622
  0
CIRCLE
  8
0
 10
96.098671
 20
11.631716
 40
2.000000
  0
ARC
  8
0
 10
90.548668
 20
20.331715
 40
0.300003
 50
0.000000
 51
90.000000
  0
ARC
  8
0
 10
101.648674
 20
20.331715
 40
0.299999
 50
90.000000
 51
180.000000
  0
ARC
  8
0
 10
92.501152
 20
11.231714
 40
0.400002
 50
29.999798
 51
90.000000
  0
ARC
  8
0
 10
94.579613
 20
9.231714
 40
0.400002
 50
209.999802
 51
270.000000
  0
ARC
  8
0
 10
97.617729
 20
9.231714
 40
0.400000
 50
270.000000
 51
330.000214
  0
ARC
  8
0
 10
99.696190
 20
11.231714
 40
0.400000
 50
90.000000
 51
150.000198
  0
CIRCLE
  8
0
 10
96.098671
 20
11.631716
 40
0.800000
  0
ARC
  8
0
 62
     4
 10
100.798668
 20
39.431717
 40
0.300003
 50
0.000000
 51
90.000000
  0
ARC
  8
0
 62
     4
 10
91.398674
 20
39.431717
 40
0.299999
 50
90.000000
 51
180.000000
  0
ARC
  8
0
 10
92.225235
 20
-49.243168
 40
0.673455
 50
299.677094
 51
359.564789
  0
ARC
  8
0
 10
87.965164
 20
-49.247238
 40
0.666489
 50
180.089859
 51
240.668213
  0
ARC
  8
0
 10
87.596565
 20
-50.970387
 40
0.497899
 50
179.757690
 51
270.242310
  0
ARC
  8
0
 10
104.596092
 20
-50.965702
 40
0.502589
 50
270.293976
 51
359.705597
  0
ARC
  8
0
 10
93.796570
 20
-50.970390
 40
0.497899
 50
179.757690
 51
270.242310
  0
ARC
  8
0
 10
90.098671
 20
-45.467815
 40
5.006522
 50
240.570068
 51
299.429932
  0
ARC
  8
0
 10
87.596565
 20
-47.570389
 40
0.497899
 50
179.757690
 51
270.242310
  0
ARC
  8
0
 10
92.796555
 20
-48.570404
 40
0.502125
 50
0.242017
 51
89.757980
  0
CIRCLE
  8
0
 62
     2
 10
96.598671
 20
-14.068281
 40
4.864349
  0
CIRCLE
  8
0
 10
96.598671
 20
-14.068281
 40
4.283250
  0
CIRCLE
  8
0
 62
     2
 10
95.598671
 20
-30.068281
 40
4.864349
  0
CIRCLE
  8
0
 10
95.598671
 20
-30.068281
 40
4.283250
  0
CIRCLE
  8
0
 10
-101.296410
 20
-35.268291
 40
4.283250
  0
CIRCLE
  8
0
 62
     2
 10
-101.296410
 20
-35.268291
 40
4.864349
  0
CIRCLE
  8
0
 10
-100.796410
 20
-22.068281
 40
4.283250
  0
CIRCLE
  8
0
 62
     2
 10
-100.796410
 20
-22.068281
 40
4.864349
  0
CIRCLE
  8
0
 62
     2
 10
-100.296410
 20
-8.868284
 40
4.864349
  0
ARC
  8
0
 10
-106.796410
 20
-45.467815
 40
5.006522
 50
240.570068
 51
299.429932
  0
ARC
  8
0
 62
     4
 10
-104.796410
 20
22.631716
 40
0.299999
 50
90.000000
 51
180.000000
  0
ARC
  8
0
 62
     4
 10
-104.796410
 20
21.131716
 40
0.300003
 50
180.000000
 51
270.000000
  0
CIRCLE
  8
0
 10
-100.796410
 20
8.831715
 40
0.900000
  0
ARC
  8
0
 10
-94.796410
 20
11.831715
 40
5.000001
 50
55.944172
 51
124.055824
  0
ARC
  8
0
 62
     4
 10
-96.796410
 20
21.131716
 40
0.299999
 50
270.000000
 51
0.000000
  0
ARC
  8
0
 62
     4
 10
-98.096413
 20
21.631716
 40
0.199997
 50
0.000000
 51
90.000000
  0
ARC
  8
0
 62
     4
 10
-103.496407
 20
21.631716
 40
0.200001
 50
90.000000
 51
180.000000
  0
ARC
  8
0
 62
     4
 10
-96.796410
 20
22.631716
 40
0.300003
 50
0.000000
 51
90.000000
  0
ARC
  8
0
 10
-95.246407
 20
20.331715
 40
0.299999
 50
90.000000
 51
180.000000
  0
CIRCLE
  8
0
 10
-94.301102
 20
-37.067825
 40
1.599999
  0
ARC
  8
0
 10
-104.669846
 20
-49.243168
 40
0.673455
 50
299.677094
 51
359.564789
  0
ARC
  8
0
 10
-103.098518
 20
-50.970390
 40
0.497899
 50
179.757690
 51
270.242310
  0
ARC
  8
0
 10
-104.098526
 20
-48.570404
 40
0.502125
 50
0.242017
 51
89.757980
  0
ARC
  8
0
 10
-92.298988
 20
-50.965702
 40
0.502589
 50
270.293976
 51
359.705597
  0
CIRCLE
  8
0
 10
-100.296410
 20
-8.868284
 40
4.283250
  0
CIRCLE
  8
0
 10
-107.301094
 20
-7.067827
 40
1.599999
  0
ARC
  8
0
 10
-108.929916
 20
-49.247238
 40
0.666489
 50
180.089859
 51
240.668213
  0
ARC
  8
0
 10
-109.298515
 20
-47.570389
 40
0.497899
 50
179.757690
 51
270.242310
  0
ARC
  8
0
 10
-109.298515
 20
-50.970387
 40
0.497899
 50
179.757690
 51
270.242310
  0
ARC
  8
0
 10
14.510358
 20
11.231714
 40
0.400000
 50
90.000000
 51
180.000000
  0
ARC
  8
0
 10
19.510361
 20
12.031715
 40
0.400000
 50
270.000000
 51
0.000000
  0
ARC
  8
0
 62
     4
 10
20.110359
 20
39.431717
 40
0.299999
 50
0.000000
 51
90.000000
  0
ARC
  8
0
 62
     4
 10
-2.089642
 20
34.231716
 40
0.500000
 50
0.000000
 51
90.000000
  0
ARC
  8
0
 62
     4
 10
-4.089642
 20
34.231716
 40
0.500000
 50
90.000000
 51
180.000000
  0
ARC
  8
0
 10
14.610358
 20
8.331715
 40
0.500000
 50
90.000000
 51
180.000000
  0
ARC
  8
0
 10
19.510361
 20
9.231714
 40
0.400000
 50
270.000000
 51
0.000000
  0
ARC
  8
0
 10
-9.889642
 20
11.831715
 40
5.000000
 50
55.944199
 51
124.055794
  0
ARC
  8
0
 10
8.984244
 20
-49.242901
 40
0.673908
 50
180.457626
 51
240.300659
  0
ARC
  8
0
 10
13.244317
 20
-49.247501
 40
0.666042
 50
299.308960
 51
359.932739
  0
ARC
  8
0
 10
11.110358
 20
-45.467815
 40
5.006522
 50
240.570053
 51
299.429962
  0
ARC
  8
0
 10
7.412766
 20
-50.970692
 40
0.497599
 50
269.722717
 51
0.277163
  0
ARC
  8
0
 10
13.612765
 20
-50.970688
 40
0.497599
 50
269.722961
 51
0.277162
  0
ARC
  8
0
 10
-12.386750
 20
-50.965393
 40
0.502900
 50
180.329437
 51
269.670563
  0
ARC
  8
0
 10
13.612765
 20
-47.570690
 40
0.497599
 50
269.722717
 51
0.277163
  0
ARC
  8
0
 10
8.412784
 20
-48.570709
 40
0.502432
 50
90.276672
 51
179.723328
  0
CIRCLE
  8
0
 10
8.110343
 20
-37.068279
 40
1.599999
  0
CIRCLE
  8
0
 10
8.110343
 20
-7.068282
 40
1.599999
  0
TEXT
  8
0
 10
-186.892654
 20
104.550003
 40
4.500000
  1
MODEL:G180-4E1-81-PSL
 50
0.000000
 41
1.052632
 51
0.000000
  7
STANDARD
  0
TEXT
  8
0
 10
133.907150
 20
122.050003
 40
4.500000
  1
Ver. 1.0
 50
0.000000
 41
1.052632
 51
0.000000
  7
STANDARD
  0
TEXT
  8
0
 10
113.700287
 20
-130.669998
 40
6.300000
  1
KOGANEI CORP.
 50
0.000000
 41
1.052632
 51
0.000000
  7
STANDARD
  0
TEXT
  8
0
 10
-176.892654
 20
122.050003
 40
4.500000
  1
G180 SERIES
 50
0.000000
 41
1.052632
 51
0.000000
  7
STANDARD
  0
ENDSEC
  0
EOF
