  0
SECTION
  2
HEADER
  0
ENDSEC
  0
SECTION
  2
TABLES
  0
TABLE
  2
LTYPE
 70
     4
  0
LTYPE
  2
CONTINUOUS
 70
    64
  3
Solid line
 72
    65
 73
     0
 40
0.000000
  0
LTYPE
  2
DASHED
 70
    64
  3
__ __ __ __ __ __ __ __ __ __ __ __ __ __ __
 72
    65
 73
     2
 40
3.500000
 49
2.000000
 49
-1.500000
  0
LTYPE
  2
CENTER
 70
    64
  3
____ _ ____ _ ____ _ ____ _ ____ _ ____ _ ____
 72
    65
 73
     4
 40
17.500000
 49
13.000000
 49
-1.500000
 49
1.500000
 49
-1.500000
  0
LTYPE
  2
PHANTOM
 70
    64
  3
_____ _ _ _____ _ _ _____ _ _ _____ _ _ ____  
 72
    65
 73
     6
 40
15.500000
 49
8.000000
 49
-1.500000
 49
1.500000
 49
-1.500000
 49
1.500000
 49
-1.500000
  0
LTYPE
  2
DASHED1
 70
    64
  3
__ __ __ __ __ __ __ __ __ __ __ __ __ __ __
 72
    65
 73
     2
 40
1.500000
 49
1.000000
 49
-0.500000
  0
LTYPE
  2
DASHED2
 70
    64
  3
__ __ __ __ __ __ __ __ __ __ __ __ __ __ __
 72
    65
 73
     2
 40
3.500000
 49
2.500000
 49
-1.000000
  0
LTYPE
  2
DASHED3
 70
    64
  3
__ __ __ __ __ __ __ __ __ __ __ __ __ __ __
 72
    65
 73
     2
 40
6.000000
 49
4.000000
 49
-2.000000
  0
LTYPE
  2
DASHED4
 70
    64
  3
__ __ __ __ __ __ __ __ __ __ __ __ __ __ __
 72
    65
 73
     2
 40
12.000000
 49
10.000000
 49
-2.000000
  0
LTYPE
  2
DASHED5
 70
    64
  3
__ __ __ __ __ __ __ __ __ __ __ __ __ __ __
 72
    65
 73
     2
 40
17.000000
 49
15.000000
 49
-2.000000
  0
LTYPE
  2
DASHED6
 70
    64
  3
__ __ __ __ __ __ __ __ __ __ __ __ __ __ __
 72
    65
 73
     2
 40
29.000000
 49
27.000000
 49
-2.000000
  0
LTYPE
  2
PHANTOM1
 70
    64
  3
_____ _ _ _____ _ _ _____ _ _ _____ _ _ ____  
 72
    65
 73
     6
 40
31.000000
 49
25.000000
 49
-1.500000
 49
1.000000
 49
-1.000000
 49
1.000000
 49
-1.500000
  0
LTYPE
  2
PHANTOM2
 70
    64
  3
_____ _ _ _____ _ _ _____ _ _ _____ _ _ ____  
 72
    65
 73
     6
 40
36.000000
 49
27.000000
 49
-1.500000
 49
2.500000
 49
-1.000000
 49
2.500000
 49
-1.500000
  0
LTYPE
  2
PHANTOM3
 70
    64
  3
_____ _ _ _____ _ _ _____ _ _ _____ _ _ ____  
 72
    65
 73
     6
 40
78.000000
 49
64.000000
 49
-2.000000
 49
4.000000
 49
-2.000000
 49
4.000000
 49
-2.000000
  0
LTYPE
  2
CENTER1
 70
    64
  3
____ _ ____ _ ____ _ ____ _ ____ _ ____ _ ____
 72
    65
 73
     4
 40
19.000000
 49
14.000000
 49
-1.000000
 49
3.000000
 49
-1.000000
  0
LTYPE
  2
CENTER2
 70
    64
  3
____ _ ____ _ ____ _ ____ _ ____ _ ____ _ ____
 72
    65
 73
     4
 40
28.500000
 49
25.000000
 49
-1.000000
 49
1.500000
 49
-1.000000
  0
LTYPE
  2
CENTER3
 70
    64
  3
____ _ ____ _ ____ _ ____ _ ____ _ ____ _ ____
 72
    65
 73
     4
 40
31.500000
 49
27.000000
 49
-1.000000
 49
2.500000
 49
-1.000000
  0
LTYPE
  2
CENTER4
 70
    64
  3
____ _ ____ _ ____ _ ____ _ ____ _ ____ _ ____
 72
    65
 73
     4
 40
50.000000
 49
45.000000
 49
-1.000000
 49
3.000000
 49
-1.000000
  0
LTYPE
  2
CENTER5
 70
    64
  3
____ _ ____ _ ____ _ ____ _ ____ _ ____ _ ____
 72
    65
 73
     4
 40
100.000000
 49
92.000000
 49
-2.000000
 49
4.000000
 49
-2.000000
  0
LTYPE
  2
SBK1
 70
    64
  3
______ _ _ _ ______ _ _ _ ______ _ _ _ _____  
 72
    65
 73
     8
 40
60.500000
 49
45.000000
 49
-2.000000
 49
2.500000
 49
-2.000000
 49
2.500000
 49
-2.000000
 49
2.500000
 49
-2.000000
  0
LTYPE
  2
SBK2
 70
    64
  3
______ _ _ _ ______ _ _ _ ______ _ _ _ _____  
 72
    65
 73
     8
 40
84.000000
 49
64.000000
 49
-2.000000
 49
4.000000
 49
-2.000000
 49
4.000000
 49
-2.000000
 49
4.000000
 49
-2.000000
  0
LTYPE
  2
STCH
 70
    64
  3
__ __ __ __ __ __ __ __ __ __ __ __ __ __ __
 72
    65
 73
     2
 40
3.000000
 49
1.000000
 49
-2.000000
  0
LTYPE
  2
MTCH
 70
    64
  3
_____ _ _ _____ _ _ _____ _ _ _____ _ _ ____  
 72
    65
 73
     6
 40
80.000000
 49
66.000000
 49
-2.000000
 49
4.000000
 49
-2.000000
 49
4.000000
 49
-2.000000
  0
ENDTAB
  0
TABLE
  2
LAYER
 70
     1
  0
LAYER
  2
0
 70
     0
 62
     7
  6
CONTINUOUS
  0
ENDTAB
  0
TABLE
  2
STYLE
 70
     1
  0
STYLE
  2
STANDARD
 70
     0
 40
0.000000
 41
1.000000
 50
0.000000
 71
     0
 42
0.200000
  3
txt
  4
BIGFONT
  0
ENDTAB
  0
TABLE
  2
VIEW
 70
     0
  0
ENDTAB
  0
ENDSEC
  0
SECTION
  2
BLOCKS
  0
ENDSEC
  0
SECTION
  2
ENTITIES
  0
POINT
  8
0
 10
20.410358
 20
90.154419
  0
POINT
  8
0
 10
-12.889642
 20
90.154419
  0
POINT
  8
0
 10
22.287022
 20
-0.547231
  0
POINT
  8
0
 10
-11.012979
 20
-0.547231
  0
POINT
  8
0
 10
-11.012979
 20
-0.547231
  0
POINT
  8
0
 10
-11.012979
 20
-0.547231
  0
POINT
  8
0
 10
-11.012979
 20
-0.547231
  0
POINT
  8
0
 10
-11.012979
 20
-0.547231
  0
POINT
  8
0
 10
-11.012979
 20
-0.547231
  0
POINT
  8
0
 10
-11.012979
 20
-0.547231
  0
POINT
  8
0
 10
129.475342
 20
-0.547231
  0
POINT
  8
0
 10
114.475334
 20
-0.547231
  0
POINT
  8
0
 10
-79.919746
 20
-0.547231
  0
POINT
  8
0
 10
-79.919746
 20
-0.547231
  0
POINT
  8
0
 10
-95.419746
 20
-0.547231
  0
POINT
  8
0
 10
-95.419746
 20
-0.547231
  0
LINE
  8
0
 10
-10.889638
 20
85.154419
 11
-8.475424
 21
82.740204
  0
LINE
  8
0
 10
-8.889638
 20
85.154419
 11
-11.303851
 21
82.740204
  0
LINE
  8
0
 10
6.696146
 20
97.568634
 11
9.110360
 21
95.154419
  0
LINE
  8
0
 10
9.524573
 20
97.568634
 11
7.110360
 21
95.154419
  0
LINE
  8
0
 10
-11.789641
 20
87.154419
 11
-11.789641
 21
95.781189
  0
LINE
  8
0
 10
19.910358
 20
95.154419
 11
19.910358
 21
99.154419
  0
LINE
  8
0
 10
-6.889642
 20
84.154419
 11
19.910358
 21
84.154419
  0
LINE
  8
0
 10
11.015096
 20
95.404419
 11
19.910358
 21
95.404419
  0
LINE
  8
0
 10
11.110358
 20
96.154419
 11
19.910358
 21
96.154419
  0
LINE
  8
0
 10
-11.589642
 20
87.154419
 11
-12.889642
 21
87.154419
  0
LINE
  8
0
 10
-6.889642
 20
84.154419
 11
-6.889642
 21
81.154419
  0
LINE
  8
0
 10
5.110358
 20
96.154419
 11
5.110358
 21
99.154419
  0
LINE
  8
0
 10
11.110358
 20
96.154419
 11
11.110358
 21
99.154419
  0
LINE
  8
0
 10
-12.389642
 20
87.154419
 11
-12.389642
 21
95.854416
  0
LINE
  8
0
 10
-12.089642
 20
96.154419
 11
5.110358
 21
96.154419
  0
LINE
  8
0
 10
-12.889642
 20
99.154419
 11
19.910358
 21
99.154419
  0
LINE
  8
0
 10
-12.889642
 20
81.154419
 11
19.910358
 21
81.154419
  0
LINE
  8
0
 10
19.910358
 20
81.154419
 11
19.910358
 21
85.154419
  0
LINE
  8
0
 10
-12.889642
 20
81.154419
 11
-12.889642
 21
99.154419
  0
LINE
  8
0
 10
-11.789641
 20
95.404419
 11
5.205621
 21
95.404419
  0
LINE
  8
0
 10
-6.984904
 20
84.904419
 11
19.910358
 21
84.904419
  0
LINE
  8
0
 62
     4
 10
-11.589642
 20
85.154419
 11
-11.589642
 21
95.154419
  0
LINE
  8
0
 62
     4
 10
2.910358
 20
94.854416
 11
2.910358
 21
95.154419
  0
LINE
  8
0
 62
     4
 10
2.810358
 20
94.854416
 11
2.810358
 21
95.154419
  0
LINE
  8
0
 62
     4
 10
8.210359
 20
87.654419
 11
8.210359
 21
85.454422
  0
LINE
  8
0
 62
     4
 10
7.210359
 20
87.654419
 11
7.210359
 21
87.254417
  0
LINE
  8
0
 62
     4
 10
8.010358
 20
92.654419
 11
8.010358
 21
87.654419
  0
LINE
  8
0
 62
     4
 10
9.210359
 20
92.654419
 11
9.210359
 21
87.654419
  0
LINE
  8
0
 62
     4
 10
6.710359
 20
93.854416
 11
6.710359
 21
86.454422
  0
LINE
  8
0
 62
     4
 10
2.410358
 20
94.854416
 11
7.710359
 21
94.854416
  0
LINE
  8
0
 62
     4
 10
2.410358
 20
85.454422
 11
7.710359
 21
85.454422
  0
LINE
  8
0
 62
     4
 10
2.410358
 20
94.854416
 11
2.410358
 21
85.454422
  0
LINE
  8
0
 62
     4
 10
4.110358
 20
93.244415
 11
3.610358
 21
93.244415
  0
LINE
  8
0
 62
     4
 10
4.110358
 20
92.144417
 11
3.610358
 21
92.144417
  0
LINE
  8
0
 62
     4
 10
6.210359
 20
93.644417
 11
6.210359
 21
91.744415
  0
LINE
  8
0
 62
     4
 10
4.110358
 20
93.570419
 11
4.110358
 21
91.820419
  0
LINE
  8
0
 62
     4
 10
3.610358
 20
93.244415
 11
3.610358
 21
92.144417
  0
LINE
  8
0
 62
     4
 10
7.710359
 20
88.904419
 11
6.710359
 21
88.904419
  0
LINE
  8
0
 62
     4
 10
7.710359
 20
91.404419
 11
6.710359
 21
91.404419
  0
LINE
  8
0
 62
     4
 10
7.710359
 20
94.854416
 11
7.710359
 21
93.854416
  0
LINE
  8
0
 62
     4
 10
6.710359
 20
93.854416
 11
7.710359
 21
93.854416
  0
LINE
  8
0
 62
     4
 10
7.710359
 20
85.454422
 11
7.710359
 21
86.454422
  0
LINE
  8
0
 62
     4
 10
6.710359
 20
86.454422
 11
7.710359
 21
86.454422
  0
LINE
  8
0
 62
     4
 10
6.210358
 20
91.744423
 11
4.322359
 21
91.620430
  0
LINE
  8
0
 62
     4
 10
4.322359
 20
93.770416
 11
6.210358
 21
93.644417
  0
LINE
  8
0
 62
     4
 10
6.210359
 20
91.104416
 11
6.210359
 21
89.204422
  0
LINE
  8
0
 62
     4
 10
4.322359
 20
91.230415
 11
6.210357
 21
91.104416
  0
LINE
  8
0
 62
     4
 10
4.110358
 20
91.030418
 11
4.110358
 21
89.280418
  0
LINE
  8
0
 62
     4
 10
4.110358
 20
90.704422
 11
3.610358
 21
90.704422
  0
LINE
  8
0
 62
     4
 10
3.610358
 20
90.704422
 11
3.610358
 21
89.604416
  0
LINE
  8
0
 62
     4
 10
4.110358
 20
89.604416
 11
3.610358
 21
89.604416
  0
LINE
  8
0
 62
     4
 10
6.210358
 20
89.204422
 11
4.322358
 21
89.080421
  0
LINE
  8
0
 62
     4
 10
5.610358
 20
90.554420
 11
4.810359
 21
90.554420
  0
LINE
  8
0
 62
     4
 10
5.610358
 20
89.754417
 11
5.610358
 21
90.554420
  0
LINE
  8
0
 62
     4
 10
5.610358
 20
89.754417
 11
4.810359
 21
89.754417
  0
LINE
  8
0
 62
     4
 10
4.810359
 20
89.754417
 11
4.810359
 21
90.554420
  0
LINE
  8
0
 62
     4
 10
6.210359
 20
88.564423
 11
6.210359
 21
86.664421
  0
LINE
  8
0
 62
     4
 10
4.322358
 20
88.690422
 11
6.210359
 21
88.564423
  0
LINE
  8
0
 62
     4
 10
4.110358
 20
88.490417
 11
4.110358
 21
86.740417
  0
LINE
  8
0
 62
     4
 10
4.110358
 20
88.164421
 11
3.610358
 21
88.164421
  0
LINE
  8
0
 62
     4
 10
3.610358
 20
88.164421
 11
3.610358
 21
87.064423
  0
LINE
  8
0
 62
     4
 10
4.110358
 20
87.064423
 11
3.610358
 21
87.064423
  0
LINE
  8
0
 62
     4
 10
6.210359
 20
86.664421
 11
4.322358
 21
86.540421
  0
LINE
  8
0
 62
     4
 10
9.210359
 20
92.654419
 11
6.710359
 21
92.654419
  0
LINE
  8
0
 62
     4
 10
9.210359
 20
87.654419
 11
6.710359
 21
87.654419
  0
LINE
  8
0
 62
     4
 10
7.710359
 20
93.054420
 11
7.710359
 21
87.254417
  0
LINE
  8
0
 62
     4
 10
7.210359
 20
87.254417
 11
8.210359
 21
87.254417
  0
LINE
  8
0
 62
     4
 10
7.210359
 20
93.054420
 11
8.210359
 21
93.054420
  0
LINE
  8
0
 62
     4
 10
7.210359
 20
93.054420
 11
7.210359
 21
92.654419
  0
LINE
  8
0
 62
     4
 10
8.210359
 20
94.854416
 11
8.210359
 21
92.654419
  0
LINE
  8
0
 62
     4
 10
20.410358
 20
85.454422
 11
20.410358
 21
94.854416
  0
LINE
  8
0
 62
     4
 10
2.910358
 20
85.154419
 11
2.910358
 21
85.454422
  0
LINE
  8
0
 62
     1
 10
15.410357
 20
88.654419
 11
20.410358
 21
88.654419
  0
LINE
  8
0
 62
     1
 10
15.410357
 20
91.654419
 11
15.410357
 21
88.654419
  0
LINE
  8
0
 62
     1
 10
15.410357
 20
91.654419
 11
20.410358
 21
91.654419
  0
LINE
  8
0
 62
     4
 10
-5.630458
 20
92.548790
 11
-5.189641
 21
92.804420
  0
LINE
  8
0
 62
     4
 10
-5.189643
 20
87.504417
 11
-5.630460
 21
87.760048
  0
LINE
  8
0
 62
     4
 10
-4.380455
 20
91.298790
 11
-3.939639
 21
91.554420
  0
LINE
  8
0
 62
     4
 10
-5.189643
 20
92.804420
 11
-3.939642
 21
91.554420
  0
LINE
  8
0
 62
     4
 10
-4.380462
 20
91.298790
 11
-5.630457
 21
92.548790
  0
LINE
  8
0
 62
     4
 10
-4.380461
 20
89.010048
 11
-3.939644
 21
88.754417
  0
LINE
  8
0
 62
     4
 10
1.501176
 20
85.154419
 11
1.501176
 21
95.154419
  0
LINE
  8
0
 62
     4
 10
-4.380462
 20
89.010048
 11
-5.630460
 21
87.760048
  0
LINE
  8
0
 62
     4
 10
-5.630459
 20
85.154419
 11
-5.630459
 21
87.760048
  0
LINE
  8
0
 62
     4
 10
-5.630459
 20
92.548790
 11
-5.630459
 21
95.154419
  0
LINE
  8
0
 62
     4
 10
-4.380459
 20
91.298790
 11
-4.380459
 21
89.010048
  0
LINE
  8
0
 62
     4
 10
-5.189642
 20
85.154419
 11
-5.189642
 21
87.504417
  0
LINE
  8
0
 62
     4
 10
-5.189638
 20
87.504417
 11
-3.939639
 21
88.754410
  0
LINE
  8
0
 62
     4
 10
-3.939642
 20
91.554420
 11
-3.939642
 21
88.754417
  0
LINE
  8
0
 62
     4
 10
-5.189642
 20
92.804420
 11
-5.189642
 21
95.154419
  0
LINE
  8
0
 62
     4
 10
2.312280
 20
95.154419
 11
2.312280
 21
85.154419
  0
LINE
  8
0
 62
     4
 10
2.810358
 20
85.154419
 11
2.810358
 21
85.454422
  0
LINE
  8
0
 62
     4
 10
-1.489642
 20
86.654419
 11
-1.489642
 21
85.154419
  0
LINE
  8
0
 62
     4
 10
-4.689642
 20
85.154419
 11
-4.689642
 21
86.654419
  0
LINE
  8
0
 62
     4
 10
-4.689642
 20
93.654419
 11
-4.689642
 21
95.154419
  0
LINE
  8
0
 62
     4
 10
-1.489642
 20
95.154419
 11
-1.489642
 21
93.654419
  0
LINE
  8
0
  6
CENTER
 62
     2
 10
-1.339642
 20
87.654419
 11
-1.339642
 21
92.654419
  0
LINE
  8
0
 62
     4
 10
-1.639642
 20
88.328903
 11
-1.639642
 21
91.979935
  0
LINE
  8
0
 62
     4
 10
-1.039641
 20
88.328903
 11
-1.039641
 21
91.979935
  0
LINE
  8
0
 62
     4
 10
-3.796751
 20
94.361526
 11
-2.382538
 21
92.947311
  0
LINE
  8
0
 62
     4
 10
-2.382533
 20
94.361526
 11
-3.796745
 21
92.947311
  0
LINE
  8
0
 62
     4
 10
-2.382534
 20
85.947311
 11
-3.796750
 21
87.361526
  0
LINE
  8
0
 62
     4
 10
-3.796747
 20
85.947311
 11
-2.382535
 21
87.361526
  0
LINE
  8
0
 62
     4
 10
20.110359
 20
85.154419
 11
-11.589642
 21
85.154419
  0
LINE
  8
0
 62
     4
 10
20.110359
 20
95.154419
 11
-11.589642
 21
95.154419
  0
LINE
  8
0
  6
CENTER
 62
     2
 10
-17.743313
 20
90.154419
 11
22.546413
 21
90.154419
  0
LINE
  8
0
 10
-12.889642
 20
98.654419
 11
-12.889642
 21
81.654419
  0
LINE
  8
0
  6
CENTER
 62
     2
 10
107.975334
 20
59.605267
 11
107.975334
 21
-90.946968
  0
LINE
  8
0
 62
     4
 10
109.800331
 20
-87.947235
 11
109.800331
 21
-94.031898
  0
LINE
  8
0
 62
     4
 10
111.230331
 20
-87.947235
 11
111.230331
 21
-94.413231
  0
LINE
  8
0
 62
     4
 10
104.720337
 20
-87.947235
 11
104.720337
 21
-92.677231
  0
LINE
  8
0
 62
     4
 10
106.150337
 20
-87.947235
 11
106.150337
 21
-93.058563
  0
LINE
  8
0
 10
113.225334
 20
-57.747231
 11
102.725334
 21
-57.747231
  0
LINE
  8
0
  6
CENTER
 62
     2
 10
104.870552
 20
-49.247231
 11
111.866486
 21
-49.247231
  0
LINE
  8
0
 10
104.377815
 20
-49.247231
 11
98.975334
 21
-49.247231
  0
LINE
  8
0
 10
111.572853
 20
-49.247231
 11
116.975334
 21
-49.247231
  0
LINE
  8
0
 10
113.975334
 20
-58.247231
 11
116.975334
 21
-55.247231
  0
LINE
  8
0
 10
98.975334
 20
-55.247227
 11
101.975334
 21
-58.247231
  0
LINE
  8
0
 10
101.975334
 20
-58.247231
 11
102.425331
 21
-58.247231
  0
LINE
  8
0
 10
102.725334
 20
-57.747231
 11
102.725334
 21
-57.947231
  0
LINE
  8
0
 10
113.225334
 20
-57.747231
 11
113.225334
 21
-57.947231
  0
LINE
  8
0
 10
106.456276
 20
-46.447231
 11
109.494392
 21
-46.447231
  0
LINE
  8
0
 10
109.840805
 20
-46.647228
 11
111.226448
 21
-49.047230
  0
LINE
  8
0
 10
104.724220
 20
-49.047230
 11
106.109863
 21
-46.647232
  0
LINE
  8
0
 10
113.525337
 20
-58.247231
 11
113.975334
 21
-58.247231
  0
LINE
  8
0
 62
     4
 10
112.975334
 20
-58.647228
 11
102.975334
 21
-58.647228
  0
LINE
  8
0
 62
     4
 10
103.275337
 20
-77.347237
 11
112.675331
 21
-77.347237
  0
LINE
  8
0
 62
     4
 10
102.975334
 20
-58.947231
 11
112.975334
 21
-58.947231
  0
LINE
  8
0
 62
     4
 10
102.975334
 20
-57.747231
 11
102.975334
 21
-82.847237
  0
LINE
  8
0
 62
     4
 10
112.975334
 20
-57.747231
 11
112.975334
 21
-82.847237
  0
LINE
  8
0
 62
     4
 10
112.975334
 20
-82.847237
 11
110.475334
 21
-82.847237
  0
LINE
  8
0
 62
     4
 10
110.875336
 20
-77.347237
 11
110.875336
 21
-82.847237
  0
LINE
  8
0
 62
     4
 10
105.075333
 20
-77.347237
 11
105.075333
 21
-82.847237
  0
LINE
  8
0
 62
     1
 10
109.475334
 20
-74.347237
 11
109.475334
 21
-77.347237
  0
LINE
  8
0
 62
     1
 10
109.475334
 20
-74.347237
 11
106.475334
 21
-74.347237
  0
LINE
  8
0
 62
     1
 10
106.475334
 20
-74.347237
 11
106.475334
 21
-77.347237
  0
LINE
  8
0
 62
     4
 10
110.475334
 20
-78.447235
 11
105.475334
 21
-78.447235
  0
LINE
  8
0
 62
     4
 10
112.675331
 20
-87.947235
 11
103.275337
 21
-87.947235
  0
LINE
  8
0
 62
     4
 10
110.475334
 20
-86.947235
 11
105.475334
 21
-86.947235
  0
LINE
  8
0
 62
     4
 10
112.675331
 20
-82.947235
 11
112.675331
 21
-87.947235
  0
LINE
  8
0
 62
     4
 10
110.475334
 20
-78.447235
 11
110.475334
 21
-86.947235
  0
LINE
  8
0
 62
     4
 10
105.475334
 20
-86.235909
 11
110.475334
 21
-86.235909
  0
LINE
  8
0
 62
     4
 10
105.475334
 20
-85.947235
 11
110.475334
 21
-85.947235
  0
LINE
  8
0
 62
     4
 10
111.575333
 20
-82.947235
 11
111.575333
 21
-87.947235
  0
LINE
  8
0
 62
     4
 10
104.375336
 20
-82.947235
 11
104.375336
 21
-87.947235
  0
LINE
  8
0
 62
     4
 10
105.475334
 20
-78.447235
 11
105.475334
 21
-86.947235
  0
LINE
  8
0
 62
     4
 10
103.275337
 20
-82.947235
 11
103.275337
 21
-87.947235
  0
LINE
  8
0
 62
     4
 10
105.475334
 20
-82.847237
 11
102.975334
 21
-82.847237
  0
LINE
  8
0
 62
     4
 10
105.475334
 20
-79.313255
 11
110.475334
 21
-79.313255
  0
LINE
  8
0
 62
     4
 10
112.675331
 20
-82.947235
 11
110.475334
 21
-82.947235
  0
LINE
  8
0
 62
     4
 10
105.475334
 20
-82.947235
 11
103.275337
 21
-82.947235
  0
LINE
  8
0
 62
     4
 10
112.075333
 20
-82.947235
 11
112.075333
 21
-82.847237
  0
LINE
  8
0
 62
     4
 10
103.875336
 20
-82.947235
 11
103.875336
 21
-82.847237
  0
LINE
  8
0
  6
CENTER
 62
     2
 10
107.475334
 20
-16.967232
 11
107.475334
 21
-29.707232
  0
LINE
  8
0
  6
CENTER
 62
     2
 10
101.885330
 20
-23.547232
 11
114.045334
 21
-23.547232
  0
LINE
  8
0
  6
CENTER
 62
     2
 10
108.475334
 20
-1.417231
 11
108.475334
 21
-13.997231
  0
LINE
  8
0
  6
CENTER
 62
     2
 10
102.325333
 20
-7.547231
 11
113.955338
 21
-7.547231
  0
LINE
  8
0
 62
     4
 10
111.230331
 20
62.812771
 11
111.230331
 21
67.382767
  0
LINE
  8
0
 62
     4
 10
109.800331
 20
63.192772
 11
109.800331
 21
67.382767
  0
LINE
  8
0
 62
     4
 10
110.115334
 20
67.382767
 11
110.115334
 21
72.382767
  0
LINE
  8
0
 62
     4
 10
110.915337
 20
67.382767
 11
110.915337
 21
72.382767
  0
LINE
  8
0
 62
     4
 10
109.800331
 20
67.382767
 11
111.230331
 21
67.382767
  0
LINE
  8
0
 62
     4
 10
110.115334
 20
72.382767
 11
110.915337
 21
72.382767
  0
LINE
  8
0
 62
     4
 10
109.800331
 20
56.852772
 11
109.800331
 21
61.952770
  0
LINE
  8
0
 62
     4
 10
111.230331
 20
56.852772
 11
111.230331
 21
61.582771
  0
LINE
  8
0
 62
     4
 10
105.835335
 20
72.382767
 11
105.035332
 21
72.382767
  0
LINE
  8
0
 62
     4
 10
106.150337
 20
67.382767
 11
104.720337
 21
67.382767
  0
LINE
  8
0
 62
     4
 10
105.035332
 20
67.382767
 11
105.035332
 21
72.382767
  0
LINE
  8
0
 62
     4
 10
105.835335
 20
67.382767
 11
105.835335
 21
72.382767
  0
LINE
  8
0
 62
     4
 10
104.720337
 20
64.558769
 11
104.720337
 21
67.382767
  0
LINE
  8
0
 62
     4
 10
106.150337
 20
64.177437
 11
106.150337
 21
67.382767
  0
LINE
  8
0
 62
     1
 10
113.555336
 20
62.202770
 11
102.457031
 21
65.162323
  0
LINE
  8
0
 62
     1
 10
113.555336
 20
60.962769
 11
102.457024
 21
63.922318
  0
LINE
  8
0
 62
     4
 10
104.720337
 20
56.852772
 11
104.720337
 21
63.318771
  0
LINE
  8
0
 62
     4
 10
106.150337
 20
56.852772
 11
106.150337
 21
62.937435
  0
LINE
  8
0
 62
     4
 10
103.875336
 20
51.852772
 11
103.875336
 21
51.752769
  0
LINE
  8
0
 62
     4
 10
112.075333
 20
51.852772
 11
112.075333
 21
51.752769
  0
LINE
  8
0
 62
     4
 10
105.475334
 20
51.852772
 11
103.275337
 21
51.852772
  0
LINE
  8
0
 62
     4
 10
112.675331
 20
51.852772
 11
110.475334
 21
51.852772
  0
LINE
  8
0
 62
     4
 10
105.475334
 20
48.218796
 11
110.475334
 21
48.218796
  0
LINE
  8
0
 62
     4
 10
105.475334
 20
51.752769
 11
102.975334
 21
51.752769
  0
LINE
  8
0
 62
     4
 10
103.275337
 20
51.852772
 11
103.275337
 21
56.852772
  0
LINE
  8
0
 62
     4
 10
105.475334
 20
47.352772
 11
105.475334
 21
55.852772
  0
LINE
  8
0
 62
     4
 10
104.375336
 20
51.852772
 11
104.375336
 21
56.852772
  0
LINE
  8
0
 62
     4
 10
111.575333
 20
51.852772
 11
111.575333
 21
56.852772
  0
LINE
  8
0
 62
     4
 10
105.475334
 20
54.852772
 11
110.475334
 21
54.852772
  0
LINE
  8
0
 62
     4
 10
105.475334
 20
55.141445
 11
110.475334
 21
55.141445
  0
LINE
  8
0
 62
     4
 10
110.475334
 20
47.352772
 11
110.475334
 21
55.852772
  0
LINE
  8
0
 62
     4
 10
112.675331
 20
51.852772
 11
112.675331
 21
56.852772
  0
LINE
  8
0
 62
     4
 10
110.475334
 20
55.852772
 11
105.475334
 21
55.852772
  0
LINE
  8
0
 62
     4
 10
112.675331
 20
56.852772
 11
103.275337
 21
56.852772
  0
LINE
  8
0
 62
     4
 10
110.475334
 20
47.352772
 11
105.475334
 21
47.352772
  0
LINE
  8
0
 62
     1
 10
106.475334
 20
43.252769
 11
106.475334
 21
46.252769
  0
LINE
  8
0
 62
     1
 10
109.475334
 20
43.252769
 11
106.475334
 21
43.252769
  0
LINE
  8
0
 62
     1
 10
109.475334
 20
43.252769
 11
109.475334
 21
46.252769
  0
LINE
  8
0
 62
     4
 10
105.075333
 20
46.252769
 11
105.075333
 21
51.752769
  0
LINE
  8
0
 62
     4
 10
110.875336
 20
46.252769
 11
110.875336
 21
51.752769
  0
LINE
  8
0
 62
     4
 10
112.975334
 20
51.752769
 11
110.475334
 21
51.752769
  0
LINE
  8
0
 62
     4
 10
112.975334
 20
26.652769
 11
112.975334
 21
51.752769
  0
LINE
  8
0
 62
     4
 10
102.975334
 20
26.652769
 11
102.975334
 21
51.752769
  0
LINE
  8
0
 62
     4
 10
102.975334
 20
27.852768
 11
112.975334
 21
27.852768
  0
LINE
  8
0
 62
     4
 10
103.275337
 20
46.252769
 11
112.675331
 21
46.252769
  0
LINE
  8
0
 62
     4
 10
112.975334
 20
27.552769
 11
102.975334
 21
27.552769
  0
LINE
  8
0
 10
113.525337
 20
27.152769
 11
113.975334
 21
27.152769
  0
LINE
  8
0
 10
104.724220
 20
17.952772
 11
106.109863
 21
15.552773
  0
LINE
  8
0
 10
109.840805
 20
15.552764
 11
111.226448
 21
17.952766
  0
LINE
  8
0
 10
106.456276
 20
15.352769
 11
109.494392
 21
15.352769
  0
LINE
  8
0
 10
113.225334
 20
26.652769
 11
113.225334
 21
26.852768
  0
LINE
  8
0
 10
102.725334
 20
26.652769
 11
102.725334
 21
26.852768
  0
LINE
  8
0
 10
101.975334
 20
27.152769
 11
102.425331
 21
27.152769
  0
LINE
  8
0
 10
98.975334
 20
24.152771
 11
101.975334
 21
27.152769
  0
LINE
  8
0
 10
113.975334
 20
27.152769
 11
116.975334
 21
24.152769
  0
LINE
  8
0
 10
111.572853
 20
18.152769
 11
116.975334
 21
18.152769
  0
LINE
  8
0
 10
104.377815
 20
18.152769
 11
98.975334
 21
18.152769
  0
LINE
  8
0
  6
CENTER
 62
     2
 10
104.870552
 20
18.152769
 11
111.866486
 21
18.152769
  0
LINE
  8
0
 10
116.975334
 20
5.452769
 11
98.975334
 21
5.452769
  0
LINE
  8
0
 10
113.225334
 20
26.652769
 11
102.725334
 21
26.652769
  0
LINE
  8
0
 10
116.975334
 20
24.152769
 11
116.975334
 21
-55.247231
  0
LINE
  8
0
 10
98.975334
 20
24.152769
 11
98.975334
 21
-55.247231
  0
LINE
  8
0
  6
CENTER
 62
     2
 10
110.467110
 20
-0.547231
 11
117.555336
 21
-0.547231
  0
LINE
  8
0
  6
CENTER
 62
     2
 10
98.555336
 20
-30.547232
 11
105.625336
 21
-30.547232
  0
LINE
  8
0
  6
CENTER
 62
     2
 10
101.475334
 20
-26.437231
 11
101.475334
 21
-34.847229
  0
LINE
  8
0
  6
CENTER
 62
     2
 10
114.475334
 20
4.042769
 11
114.475334
 21
-4.967231
  0
LINE
  8
0
 10
98.975334
 20
-36.547230
 11
116.975334
 21
-36.547230
  0
LINE
  8
0
 62
     1
 10
102.395340
 20
-92.057228
 11
113.493652
 21
-95.016777
  0
LINE
  8
0
 62
     1
 10
102.395340
 20
-93.297234
 11
113.493652
 21
-96.256783
  0
LINE
  8
0
 62
     4
 10
106.150337
 20
-94.298569
 11
106.150337
 21
-98.477234
  0
LINE
  8
0
 62
     4
 10
104.720337
 20
-93.917236
 11
104.720337
 21
-98.477234
  0
LINE
  8
0
 62
     4
 10
105.835335
 20
-98.477234
 11
105.835335
 21
-103.477234
  0
LINE
  8
0
 62
     4
 10
105.035332
 20
-98.477234
 11
105.035332
 21
-103.477234
  0
LINE
  8
0
 62
     4
 10
106.150337
 20
-98.477234
 11
104.720337
 21
-98.477234
  0
LINE
  8
0
 62
     4
 10
105.835335
 20
-103.477234
 11
105.035332
 21
-103.477234
  0
LINE
  8
0
 62
     4
 10
110.115334
 20
-103.477234
 11
110.915337
 21
-103.477234
  0
LINE
  8
0
 62
     4
 10
109.800331
 20
-98.477234
 11
111.230331
 21
-98.477234
  0
LINE
  8
0
 62
     4
 10
110.915337
 20
-98.477234
 11
110.915337
 21
-103.477234
  0
LINE
  8
0
 62
     4
 10
110.115334
 20
-98.477234
 11
110.115334
 21
-103.477234
  0
LINE
  8
0
 62
     4
 10
109.800331
 20
-95.271904
 11
109.800331
 21
-98.477234
  0
LINE
  8
0
 62
     4
 10
111.230331
 20
-95.653236
 11
111.230331
 21
-98.477234
  0
LINE
  8
0
  6
CENTER
 62
     2
 10
-88.919746
 20
59.605267
 11
-88.919746
 21
-90.946968
  0
LINE
  8
0
 62
     4
 10
-92.174744
 20
-87.947235
 11
-92.174744
 21
-92.677231
  0
LINE
  8
0
 62
     4
 10
-90.744743
 20
-87.947235
 11
-90.744743
 21
-93.058563
  0
LINE
  8
0
 62
     4
 10
-87.094749
 20
-87.947235
 11
-87.094749
 21
-94.031898
  0
LINE
  8
0
 62
     4
 10
-85.664749
 20
-87.947235
 11
-85.664749
 21
-94.413231
  0
LINE
  8
0
 62
     2
 10
-86.919746
 20
-46.447231
 11
-90.919746
 21
-46.447231
  0
LINE
  8
0
 10
-97.719749
 20
-52.047230
 11
-97.719749
 21
-53.589691
  0
LINE
  8
0
 10
-92.119743
 20
-52.047230
 11
-92.119743
 21
-53.589691
  0
LINE
  8
0
 10
-91.919746
 20
-58.247231
 11
-91.919746
 21
-52.047230
  0
LINE
  8
0
 62
     4
 10
-91.619743
 20
-59.447231
 11
-89.193077
 21
-59.447231
  0
LINE
  8
0
 62
     4
 10
-88.646416
 20
-59.447231
 11
-86.219749
 21
-59.447231
  0
LINE
  8
0
 62
     4
 10
-92.919746
 20
-58.447231
 11
-84.919746
 21
-58.447231
  0
LINE
  8
0
 62
     4
 10
-86.019745
 20
-59.247231
 11
-86.019745
 21
-58.447231
  0
LINE
  8
0
 62
     4
 10
-91.819748
 20
-59.247231
 11
-91.819748
 21
-58.447231
  0
LINE
  8
0
 62
     4
 10
-89.193077
 20
-59.447231
 11
-89.193077
 21
-58.447231
  0
LINE
  8
0
 62
     4
 10
-88.646416
 20
-59.447231
 11
-88.646416
 21
-58.447231
  0
LINE
  8
0
 62
     4
 10
-93.619743
 20
-87.235909
 11
-84.219749
 21
-87.235909
  0
LINE
  8
0
 62
     4
 10
-93.619743
 20
-86.947235
 11
-84.219749
 21
-86.947235
  0
LINE
  8
0
 62
     4
 10
-93.019745
 20
-83.447235
 11
-93.019745
 21
-83.347237
  0
LINE
  8
0
 62
     4
 10
-84.819748
 20
-83.447235
 11
-84.819748
 21
-83.347237
  0
LINE
  8
0
 62
     4
 10
-93.619743
 20
-87.947235
 11
-93.619743
 21
-83.447235
  0
LINE
  8
0
 62
     4
 10
-84.219749
 20
-87.947235
 11
-84.219749
 21
-83.447235
  0
LINE
  8
0
 62
     4
 10
-93.619743
 20
-87.947235
 11
-84.219749
 21
-87.947235
  0
LINE
  8
0
 62
     4
 10
-93.619743
 20
-83.447235
 11
-84.219749
 21
-83.447235
  0
LINE
  8
0
 62
     4
 10
-93.919746
 20
-83.347237
 11
-83.919746
 21
-83.347237
  0
LINE
  8
0
 62
     4
 10
-93.919746
 20
-77.347237
 11
-83.919746
 21
-77.347237
  0
LINE
  8
0
 62
     4
 10
-93.919746
 20
-72.747231
 11
-83.919746
 21
-72.747231
  0
LINE
  8
0
 62
     4
 10
-93.919746
 20
-69.247231
 11
-83.919746
 21
-69.247231
  0
LINE
  8
0
 62
     4
 10
-92.919746
 20
-60.547230
 11
-84.919746
 21
-60.547230
  0
LINE
  8
0
 62
     4
 10
-84.619743
 20
-58.747231
 11
-84.619743
 21
-60.247231
  0
LINE
  8
0
 62
     4
 10
-91.219749
 20
-60.547230
 11
-91.219749
 21
-59.447231
  0
LINE
  8
0
 62
     4
 10
-86.619743
 20
-60.547230
 11
-86.619743
 21
-59.447231
  0
LINE
  8
0
 62
     4
 10
-88.573082
 20
-60.547230
 11
-88.573082
 21
-59.447231
  0
LINE
  8
0
 62
     4
 10
-88.719749
 20
-60.547230
 11
-88.719749
 21
-58.447231
  0
LINE
  8
0
 62
     4
 10
-89.119743
 20
-60.547230
 11
-89.119743
 21
-58.447231
  0
LINE
  8
0
 62
     4
 10
-89.266411
 20
-60.547230
 11
-89.266411
 21
-59.447231
  0
LINE
  8
0
 62
     4
 10
-93.219749
 20
-58.747231
 11
-93.219749
 21
-60.247231
  0
LINE
  8
0
 62
     4
 10
-83.919746
 20
-58.247231
 11
-83.919746
 21
-83.347237
  0
LINE
  8
0
 62
     4
 10
-93.919746
 20
-57.747231
 11
-93.919746
 21
-83.347237
  0
LINE
  8
0
 10
-94.469749
 20
-58.247231
 11
-94.919746
 21
-58.247231
  0
LINE
  8
0
 10
-94.169746
 20
-57.747231
 11
-94.169746
 21
-57.947231
  0
LINE
  8
0
 10
-82.919746
 20
-58.247231
 11
-91.919746
 21
-58.247231
  0
LINE
  8
0
 10
-94.169746
 20
-57.747231
 11
-91.919746
 21
-57.747231
  0
LINE
  8
0
 10
-94.919746
 20
-58.247227
 11
-97.919739
 21
-55.247227
  0
LINE
  8
0
 10
-79.919746
 20
-55.247227
 11
-82.919746
 21
-58.247231
  0
LINE
  8
0
 10
-97.919746
 20
-52.047230
 11
-91.919746
 21
-52.047230
  0
LINE
  8
0
  6
CENTER
 62
     2
 10
-89.419746
 20
-22.197231
 11
-89.419746
 21
-34.787231
  0
LINE
  8
0
  6
CENTER
 62
     2
 10
-95.333206
 20
-28.747232
 11
-82.999748
 21
-28.747232
  0
LINE
  8
0
  6
CENTER
 62
     2
 10
-95.176208
 20
-15.547231
 11
-82.589287
 21
-15.547231
  0
LINE
  8
0
  6
CENTER
 62
     2
 10
-94.200554
 20
-2.347231
 11
-82.579742
 21
-2.347231
  0
LINE
  8
0
  6
CENTER
 62
     2
 10
-88.419746
 20
4.062769
 11
-88.419746
 21
-8.597231
  0
LINE
  8
0
 62
     4
 10
-90.744743
 20
67.382767
 11
-92.174744
 21
67.382767
  0
LINE
  8
0
 62
     4
 10
-90.744743
 20
64.177437
 11
-90.744743
 21
67.382767
  0
LINE
  8
0
 62
     4
 10
-91.059746
 20
67.382767
 11
-91.059746
 21
72.382767
  0
LINE
  8
0
 62
     4
 10
-91.859749
 20
67.382767
 11
-91.859749
 21
72.382767
  0
LINE
  8
0
 62
     4
 10
-91.059746
 20
72.382767
 11
-91.859749
 21
72.382767
  0
LINE
  8
0
 62
     4
 10
-92.174744
 20
64.558769
 11
-92.174744
 21
67.382767
  0
LINE
  8
0
 62
     4
 10
-92.174744
 20
56.852772
 11
-92.174744
 21
63.318771
  0
LINE
  8
0
 62
     4
 10
-90.744743
 20
56.852772
 11
-90.744743
 21
62.937435
  0
LINE
  8
0
 62
     4
 10
-86.779747
 20
72.382767
 11
-85.979744
 21
72.382767
  0
LINE
  8
0
 62
     4
 10
-87.094749
 20
67.382767
 11
-85.664749
 21
67.382767
  0
LINE
  8
0
 62
     4
 10
-85.979744
 20
67.382767
 11
-85.979744
 21
72.382767
  0
LINE
  8
0
 62
     4
 10
-86.779747
 20
67.382767
 11
-86.779747
 21
72.382767
  0
LINE
  8
0
 62
     4
 10
-87.094749
 20
63.192772
 11
-87.094749
 21
67.382767
  0
LINE
  8
0
 62
     4
 10
-85.664749
 20
62.812771
 11
-85.664749
 21
67.382767
  0
LINE
  8
0
 62
     4
 10
-87.094749
 20
56.852772
 11
-87.094749
 21
61.952770
  0
LINE
  8
0
 62
     4
 10
-85.664749
 20
56.852772
 11
-85.664749
 21
61.582771
  0
LINE
  8
0
 62
     1
 10
-83.339745
 20
62.202774
 11
-94.438049
 21
65.162323
  0
LINE
  8
0
 62
     1
 10
-83.339745
 20
60.962769
 11
-94.438057
 21
63.922321
  0
LINE
  8
0
  6
CENTER
 62
     2
 10
-95.419746
 20
2.202769
 11
-95.419746
 21
-2.967231
  0
LINE
  8
0
  6
CENTER
 62
     2
 10
-82.419746
 20
-27.837233
 11
-82.419746
 21
-33.357231
  0
LINE
  8
0
  6
CENTER
 62
     2
 10
-97.919746
 20
-0.547231
 11
-92.919746
 21
-0.547231
  0
LINE
  8
0
 62
     2
 10
-84.999748
 20
-30.547232
 11
-79.919746
 21
-30.547232
  0
LINE
  8
0
 10
-97.919746
 20
-36.547230
 11
-79.919746
 21
-36.547230
  0
LINE
  8
0
 10
-97.919746
 20
5.452769
 11
-79.919746
 21
5.452769
  0
LINE
  8
0
 10
-83.669746
 20
26.652769
 11
-85.919746
 21
26.652769
  0
LINE
  8
0
 10
-97.919746
 20
24.152769
 11
-97.919746
 21
-55.247231
  0
LINE
  8
0
 10
-79.919746
 20
24.152769
 11
-79.919746
 21
-55.247231
  0
LINE
  8
0
 10
-82.919746
 20
27.152769
 11
-79.919746
 21
24.152765
  0
LINE
  8
0
 10
-97.919746
 20
24.152771
 11
-94.919746
 21
27.152771
  0
LINE
  8
0
 10
-94.919746
 20
27.152769
 11
-85.919746
 21
27.152769
  0
LINE
  8
0
 10
-83.669746
 20
26.652769
 11
-83.669746
 21
26.852768
  0
LINE
  8
0
 10
-83.369743
 20
27.152769
 11
-82.919746
 21
27.152769
  0
LINE
  8
0
 62
     4
 10
-83.919746
 20
26.652769
 11
-83.919746
 21
52.252769
  0
LINE
  8
0
 62
     4
 10
-93.919746
 20
27.152769
 11
-93.919746
 21
52.252769
  0
LINE
  8
0
 62
     4
 10
-93.219749
 20
27.652769
 11
-93.219749
 21
29.152769
  0
LINE
  8
0
 62
     4
 10
-89.266411
 20
29.452768
 11
-89.266411
 21
28.352768
  0
LINE
  8
0
 62
     4
 10
-89.119743
 20
29.452768
 11
-89.119743
 21
27.352768
  0
LINE
  8
0
 62
     4
 10
-88.719749
 20
29.452768
 11
-88.719749
 21
27.352768
  0
LINE
  8
0
 62
     4
 10
-88.573082
 20
29.452768
 11
-88.573082
 21
28.352768
  0
LINE
  8
0
 62
     4
 10
-86.619743
 20
29.452768
 11
-86.619743
 21
28.352768
  0
LINE
  8
0
 62
     4
 10
-91.219749
 20
29.452768
 11
-91.219749
 21
28.352768
  0
LINE
  8
0
 62
     4
 10
-84.619743
 20
27.652769
 11
-84.619743
 21
29.152769
  0
LINE
  8
0
 62
     4
 10
-92.919746
 20
29.452768
 11
-84.919746
 21
29.452768
  0
LINE
  8
0
 62
     4
 10
-93.919746
 20
38.152771
 11
-83.919746
 21
38.152771
  0
LINE
  8
0
 62
     4
 10
-93.919746
 20
41.652771
 11
-83.919746
 21
41.652771
  0
LINE
  8
0
 62
     4
 10
-93.919746
 20
46.252769
 11
-83.919746
 21
46.252769
  0
LINE
  8
0
 62
     4
 10
-93.919746
 20
52.252769
 11
-83.919746
 21
52.252769
  0
LINE
  8
0
 62
     4
 10
-93.619743
 20
52.352772
 11
-84.219749
 21
52.352772
  0
LINE
  8
0
 62
     4
 10
-93.619743
 20
56.852772
 11
-84.219749
 21
56.852772
  0
LINE
  8
0
 62
     4
 10
-84.219749
 20
56.852772
 11
-84.219749
 21
52.352772
  0
LINE
  8
0
 62
     4
 10
-93.619743
 20
56.852772
 11
-93.619743
 21
52.352772
  0
LINE
  8
0
 62
     4
 10
-84.819748
 20
52.352772
 11
-84.819748
 21
52.252769
  0
LINE
  8
0
 62
     4
 10
-93.019745
 20
52.352772
 11
-93.019745
 21
52.252769
  0
LINE
  8
0
 62
     4
 10
-93.619743
 20
55.852772
 11
-84.219749
 21
55.852772
  0
LINE
  8
0
 62
     4
 10
-93.619743
 20
56.141445
 11
-84.219749
 21
56.141445
  0
LINE
  8
0
 62
     4
 10
-88.646416
 20
28.352768
 11
-88.646416
 21
27.352768
  0
LINE
  8
0
 62
     4
 10
-89.193077
 20
28.352768
 11
-89.193077
 21
27.352768
  0
LINE
  8
0
 62
     4
 10
-91.819748
 20
28.152769
 11
-91.819748
 21
27.352768
  0
LINE
  8
0
 62
     4
 10
-86.019745
 20
28.152769
 11
-86.019745
 21
27.352768
  0
LINE
  8
0
 62
     4
 10
-92.919746
 20
27.352768
 11
-84.919746
 21
27.352768
  0
LINE
  8
0
 62
     4
 10
-88.646416
 20
28.352768
 11
-86.219749
 21
28.352768
  0
LINE
  8
0
 62
     4
 10
-91.619743
 20
28.352768
 11
-89.193077
 21
28.352768
  0
LINE
  8
0
 10
-85.919746
 20
27.152769
 11
-85.919746
 21
20.952768
  0
LINE
  8
0
 10
-79.919746
 20
20.952768
 11
-85.919746
 21
20.952768
  0
LINE
  8
0
 10
-80.119743
 20
20.952768
 11
-80.119743
 21
22.495232
  0
LINE
  8
0
 10
-85.719749
 20
20.952768
 11
-85.719749
 21
22.495232
  0
LINE
  8
0
  6
CENTER
 62
     2
 10
-86.919746
 20
15.352769
 11
-90.919746
 21
15.352769
  0
LINE
  8
0
 62
     1
 10
-94.499748
 20
-92.057236
 11
-83.401436
 21
-95.016785
  0
LINE
  8
0
 62
     1
 10
-94.499748
 20
-93.297234
 11
-83.401428
 21
-96.256783
  0
LINE
  8
0
 62
     4
 10
-85.664749
 20
-95.653236
 11
-85.664749
 21
-98.477234
  0
LINE
  8
0
 62
     4
 10
-87.094749
 20
-95.271904
 11
-87.094749
 21
-98.477234
  0
LINE
  8
0
 62
     4
 10
-86.779747
 20
-98.477234
 11
-86.779747
 21
-103.477234
  0
LINE
  8
0
 62
     4
 10
-85.979744
 20
-98.477234
 11
-85.979744
 21
-103.477234
  0
LINE
  8
0
 62
     4
 10
-87.094749
 20
-98.477234
 11
-85.664749
 21
-98.477234
  0
LINE
  8
0
 62
     4
 10
-86.779747
 20
-83.477234
 11
-85.979744
 21
-83.477234
  0
LINE
  8
0
 62
     4
 10
-92.174744
 20
-93.917236
 11
-92.174744
 21
-98.477234
  0
LINE
  8
0
 62
     4
 10
-91.059746
 20
-83.477234
 11
-91.859749
 21
-83.477234
  0
LINE
  8
0
 62
     4
 10
-91.859749
 20
-98.477234
 11
-91.859749
 21
-103.477234
  0
LINE
  8
0
 62
     4
 10
-91.059746
 20
-98.477234
 11
-91.059746
 21
-103.477234
  0
LINE
  8
0
 62
     4
 10
-90.744743
 20
-94.298569
 11
-90.744743
 21
-98.477234
  0
LINE
  8
0
 62
     4
 10
-90.744743
 20
-98.477234
 11
-92.174744
 21
-98.477234
  0
LINE
  8
0
 62
     4
 10
-91.859749
 20
-103.477234
 11
-91.059746
 21
-103.477234
  0
LINE
  8
0
 62
     4
 10
-86.779747
 20
-103.477234
 11
-85.979744
 21
-103.477234
  0
LINE
  8
0
 62
     4
 10
7.802022
 20
-87.947235
 11
7.802022
 21
-93.027237
  0
LINE
  8
0
 62
     4
 10
6.372022
 20
-87.947235
 11
6.372022
 21
-92.455231
  0
LINE
  8
0
 10
21.387024
 20
-49.247231
 11
16.387020
 21
-49.247231
  0
LINE
  8
0
 10
-9.912978
 20
-57.747231
 11
-5.012979
 21
-57.747231
  0
LINE
  8
0
 10
-9.712978
 20
-58.247231
 11
-10.512979
 21
-58.247231
  0
LINE
  8
0
 62
     4
 10
10.587022
 20
-79.413261
 11
10.587022
 21
-85.947235
  0
LINE
  8
0
 62
     4
 10
10.087024
 20
-78.547234
 11
10.587026
 21
-79.413254
  0
LINE
  8
0
 62
     4
 10
10.587020
 20
-85.947227
 11
11.087021
 21
-86.235909
  0
LINE
  8
0
 62
     4
 10
11.087022
 20
-86.235909
 11
11.087022
 21
-86.947235
  0
LINE
  8
0
 62
     4
 10
4.787022
 20
-82.847237
 11
10.087022
 21
-82.847237
  0
LINE
  8
0
 62
     4
 10
4.787022
 20
-82.947235
 11
4.787022
 21
-86.947235
  0
LINE
  8
0
 62
     4
 10
9.587022
 20
-82.947235
 11
4.787022
 21
-82.947235
  0
LINE
  8
0
 62
     4
 10
9.587022
 20
-82.847237
 11
9.587022
 21
-87.947235
  0
LINE
  8
0
  6
PHANTOM
 62
     4
 10
9.587022
 20
-83.747231
 11
9.587022
 21
-85.245850
  0
LINE
  8
0
 62
     4
 10
9.886776
 20
-86.947220
 11
9.587023
 21
-85.247231
  0
LINE
  8
0
 62
     4
 10
4.287022
 20
-87.947235
 11
9.587022
 21
-87.947235
  0
LINE
  8
0
 62
     4
 10
5.487021
 20
-82.847237
 11
5.487021
 21
-82.947235
  0
LINE
  8
0
 62
     4
 10
4.287022
 20
-87.235909
 11
4.287022
 21
-87.947235
  0
LINE
  8
0
 62
     4
 10
4.787022
 20
-86.947227
 11
4.287021
 21
-87.235909
  0
LINE
  8
0
 62
     4
 10
9.886777
 20
-86.947235
 11
11.087022
 21
-86.947235
  0
LINE
  8
0
 62
     4
 10
10.087022
 20
-82.847237
 11
10.087022
 21
-77.347237
  0
LINE
  8
0
 62
     4
 10
4.787022
 20
-82.847237
 11
4.787022
 21
-71.447235
  0
LINE
  8
0
 62
     4
 10
10.087022
 20
-77.347237
 11
21.987022
 21
-77.347237
  0
LINE
  8
0
 62
     4
 10
22.287022
 20
-58.947231
 11
22.287022
 21
-77.047234
  0
LINE
  8
0
 62
     4
 10
-9.012979
 20
-60.947231
 11
-8.212978
 21
-60.947231
  0
LINE
  8
0
 62
     4
 10
-8.212978
 20
-68.547234
 11
-9.012979
 21
-68.547234
  0
LINE
  8
0
 62
     4
 10
-8.212978
 20
-68.547234
 11
-8.212978
 21
-60.947231
  0
LINE
  8
0
 62
     4
 10
-9.712978
 20
-57.747231
 11
-9.712978
 21
-69.247231
  0
LINE
  8
0
 62
     4
 10
-9.012979
 20
-68.547234
 11
-9.012979
 21
-60.947231
  0
LINE
  8
0
 62
     4
 10
0.387021
 20
-72.747231
 11
0.387021
 21
-71.747231
  0
LINE
  8
0
 62
     4
 10
0.287022
 20
-71.847237
 11
0.287022
 21
-71.747231
  0
LINE
  8
0
 62
     4
 10
-2.212978
 20
-72.347237
 11
-0.212978
 21
-72.347237
  0
LINE
  8
0
 62
     4
 10
-3.930123
 20
-69.247223
 11
-3.312979
 21
-72.747223
  0
LINE
  8
0
 62
     4
 10
-2.812979
 20
-72.747231
 11
-2.812979
 21
-71.747231
  0
LINE
  8
0
 62
     4
 10
-2.712978
 20
-71.847237
 11
-2.712978
 21
-71.747231
  0
LINE
  8
0
 62
     4
 10
-2.812979
 20
-71.747231
 11
0.387021
 21
-71.747231
  0
LINE
  8
0
 62
     4
 10
-9.712978
 20
-69.247231
 11
-3.930123
 21
-69.247231
  0
LINE
  8
0
 62
     4
 10
22.287024
 20
-58.647232
 11
21.987022
 21
-58.947231
  0
LINE
  8
0
 62
     4
 10
22.287022
 20
-58.947231
 11
20.787022
 21
-58.947231
  0
LINE
  8
0
 62
     4
 10
22.287022
 20
-57.747231
 11
22.287022
 21
-58.647228
  0
LINE
  8
0
 62
     4
 10
20.787022
 20
-71.447235
 11
4.687021
 21
-71.447235
  0
LINE
  8
0
 62
     4
 10
-3.312979
 20
-72.747231
 11
3.377839
 21
-72.747231
  0
LINE
  8
0
 62
     4
 10
20.787022
 20
-71.447235
 11
20.787022
 21
-58.947231
  0
LINE
  8
0
 62
     4
 10
4.787022
 20
-76.747231
 11
4.687021
 21
-76.747231
  0
LINE
  8
0
 62
     4
 10
4.188943
 20
-77.347237
 11
4.687021
 21
-77.347237
  0
LINE
  8
0
 62
     4
 10
4.687021
 20
-71.447235
 11
4.687021
 21
-77.347237
  0
LINE
  8
0
 62
     4
 10
3.377840
 20
-72.747231
 11
4.188943
 21
-77.347229
  0
LINE
  8
0
 10
21.387024
 20
-46.447231
 11
16.487022
 21
-46.447231
  0
LINE
  8
0
 10
21.787022
 20
-58.247231
 11
-5.012979
 21
-58.247231
  0
LINE
  8
0
 10
-11.012980
 20
-57.747231
 11
-10.512979
 21
-58.247231
  0
LINE
  8
0
 10
21.787022
 20
-46.847229
 11
21.787022
 21
-58.247231
  0
LINE
  8
0
 62
     4
 10
22.287022
 20
-57.747231
 11
21.787022
 21
-57.747231
  0
LINE
  8
0
 10
-5.012979
 20
-52.047230
 11
-5.012979
 21
-58.247231
  0
LINE
  8
0
 10
-5.212978
 20
-52.047230
 11
-5.212978
 21
-53.589691
  0
LINE
  8
0
 10
-11.012979
 20
-52.047230
 11
-5.012979
 21
-52.047230
  0
LINE
  8
0
 10
-10.812979
 20
-52.047230
 11
-10.812979
 21
-53.589691
  0
LINE
  8
0
 10
-9.912978
 20
-57.747231
 11
-9.912978
 21
-58.247231
  0
LINE
  8
0
  6
CENTER
 62
     2
 10
9.987021
 20
2.982769
 11
9.987021
 21
-35.981670
  0
LINE
  8
0
  6
CENTER
 62
     2
 10
6.987021
 20
-0.547231
 11
17.007023
 21
-0.547231
  0
LINE
  8
0
  6
CENTER
 62
     2
 10
6.987021
 20
-30.547232
 11
13.317021
 21
-30.547232
  0
LINE
  8
0
 10
-9.912978
 20
26.652769
 11
-9.912978
 21
27.152769
  0
LINE
  8
0
 62
     4
 10
7.487021
 20
72.282768
 11
6.687022
 21
72.282768
  0
LINE
  8
0
 62
     4
 10
7.802022
 20
67.282768
 11
6.372022
 21
67.282768
  0
LINE
  8
0
 62
     4
 10
6.687022
 20
67.282768
 11
6.687022
 21
72.282768
  0
LINE
  8
0
 62
     4
 10
7.487021
 20
67.282768
 11
7.487021
 21
72.282768
  0
LINE
  8
0
 62
     4
 10
7.802022
 20
63.796101
 11
7.802022
 21
67.282768
  0
LINE
  8
0
 62
     4
 10
6.372022
 20
64.177437
 11
6.372022
 21
67.282768
  0
LINE
  8
0
 62
     4
 10
7.802022
 20
56.852772
 11
7.802022
 21
62.556103
  0
LINE
  8
0
 62
     4
 10
6.372022
 20
56.852772
 11
6.372022
 21
62.937435
  0
LINE
  8
0
 10
-11.012979
 20
-36.547230
 11
15.987021
 21
-36.547230
  0
LINE
  8
0
 10
-11.012979
 20
5.452769
 11
15.987021
 21
5.452769
  0
LINE
  8
0
 10
12.987021
 20
-2.197231
 11
15.987021
 21
-2.197231
  0
LINE
  8
0
 10
12.987021
 20
1.112769
 11
15.987021
 21
1.112769
  0
LINE
  8
0
 10
12.987021
 20
-2.197231
 11
12.987021
 21
1.112769
  0
LINE
  8
0
 10
-10.812979
 20
20.952768
 11
-10.812979
 21
22.495232
  0
LINE
  8
0
 10
-11.012979
 20
20.952768
 11
-5.012979
 21
20.952768
  0
LINE
  8
0
 10
-5.212978
 20
20.952768
 11
-5.212978
 21
22.495232
  0
LINE
  8
0
 10
-5.012979
 20
20.952768
 11
-5.012979
 21
27.152769
  0
LINE
  8
0
 62
     4
 10
22.287022
 20
26.652769
 11
21.787022
 21
26.652769
  0
LINE
  8
0
 10
21.787022
 20
15.752769
 11
21.787022
 21
27.152769
  0
LINE
  8
0
 10
-11.012980
 20
26.652771
 11
-10.512980
 21
27.152769
  0
LINE
  8
0
 10
21.787022
 20
27.152769
 11
-5.012979
 21
27.152769
  0
LINE
  8
0
 10
21.387024
 20
15.352769
 11
16.487022
 21
15.352769
  0
LINE
  8
0
 62
     4
 10
3.377839
 20
41.652771
 11
4.188943
 21
46.252769
  0
LINE
  8
0
 62
     4
 10
4.687021
 20
40.352772
 11
4.687021
 21
46.252769
  0
LINE
  8
0
 62
     4
 10
4.188943
 20
46.252769
 11
4.687021
 21
46.252769
  0
LINE
  8
0
 62
     4
 10
4.787022
 20
45.652771
 11
4.687021
 21
45.652771
  0
LINE
  8
0
 62
     4
 10
20.787022
 20
40.352772
 11
20.787022
 21
27.852768
  0
LINE
  8
0
 62
     4
 10
-3.312979
 20
41.652771
 11
3.377839
 21
41.652771
  0
LINE
  8
0
 62
     4
 10
20.787022
 20
40.352772
 11
4.687021
 21
40.352772
  0
LINE
  8
0
 62
     4
 10
22.287022
 20
26.652769
 11
22.287022
 21
27.552769
  0
LINE
  8
0
 62
     4
 10
22.287022
 20
27.852768
 11
20.787022
 21
27.852768
  0
LINE
  8
0
 62
     4
 10
22.287020
 20
27.552769
 11
21.987020
 21
27.852768
  0
LINE
  8
0
 62
     4
 10
-9.712978
 20
38.152771
 11
-3.930123
 21
38.152771
  0
LINE
  8
0
 62
     4
 10
-2.812979
 20
40.652771
 11
0.387021
 21
40.652771
  0
LINE
  8
0
 62
     4
 10
-2.712978
 20
40.752769
 11
-2.712978
 21
40.652771
  0
LINE
  8
0
 62
     4
 10
-2.812979
 20
41.652771
 11
-2.812979
 21
40.652771
  0
LINE
  8
0
 62
     4
 10
-3.930123
 20
38.152767
 11
-3.312978
 21
41.652767
  0
LINE
  8
0
 62
     4
 10
-2.212978
 20
41.252769
 11
-0.212978
 21
41.252769
  0
LINE
  8
0
 62
     4
 10
0.287022
 20
40.752769
 11
0.287022
 21
40.652771
  0
LINE
  8
0
 62
     4
 10
0.387021
 20
41.652771
 11
0.387021
 21
40.652771
  0
LINE
  8
0
 62
     4
 10
-9.012979
 20
37.452770
 11
-9.012979
 21
29.852768
  0
LINE
  8
0
 62
     4
 10
-9.712978
 20
26.652769
 11
-9.712978
 21
38.152771
  0
LINE
  8
0
 62
     4
 10
-8.212978
 20
37.452770
 11
-8.212978
 21
29.852768
  0
LINE
  8
0
 62
     4
 10
-8.212978
 20
37.452770
 11
-9.012979
 21
37.452770
  0
LINE
  8
0
 62
     4
 10
-9.012979
 20
29.852768
 11
-8.212978
 21
29.852768
  0
LINE
  8
0
 62
     4
 10
22.287022
 20
27.852768
 11
22.287022
 21
45.952770
  0
LINE
  8
0
 62
     4
 10
10.087022
 20
46.252769
 11
21.987022
 21
46.252769
  0
LINE
  8
0
 62
     4
 10
4.787022
 20
51.752769
 11
4.787022
 21
40.352772
  0
LINE
  8
0
 62
     4
 10
10.087022
 20
51.752769
 11
10.087022
 21
46.252769
  0
LINE
  8
0
 62
     4
 10
9.886777
 20
55.852772
 11
11.087022
 21
55.852772
  0
LINE
  8
0
 62
     4
 10
4.787020
 20
55.852768
 11
4.287019
 21
56.141441
  0
LINE
  8
0
 62
     4
 10
4.287022
 20
56.141445
 11
4.287022
 21
56.852772
  0
LINE
  8
0
 62
     4
 10
5.487021
 20
51.752769
 11
5.487021
 21
51.852772
  0
LINE
  8
0
 62
     4
 10
4.287022
 20
56.852772
 11
9.587022
 21
56.852772
  0
LINE
  8
0
 62
     4
 10
9.886777
 20
55.852768
 11
9.587022
 21
54.152767
  0
LINE
  8
0
  6
PHANTOM
 62
     4
 10
9.587022
 20
52.652771
 11
9.587022
 21
54.151386
  0
LINE
  8
0
 62
     4
 10
9.587022
 20
51.752769
 11
9.587022
 21
56.852772
  0
LINE
  8
0
 62
     4
 10
9.587022
 20
51.852772
 11
4.787022
 21
51.852772
  0
LINE
  8
0
 62
     4
 10
4.787022
 20
51.852772
 11
4.787022
 21
55.852772
  0
LINE
  8
0
 62
     4
 10
4.787022
 20
51.752769
 11
10.087022
 21
51.752769
  0
LINE
  8
0
 62
     4
 10
11.087022
 20
55.141445
 11
11.087022
 21
55.852772
  0
LINE
  8
0
 62
     4
 10
10.587019
 20
54.852764
 11
11.087022
 21
55.141445
  0
LINE
  8
0
 62
     4
 10
10.087023
 20
47.452770
 11
10.587024
 21
48.318794
  0
LINE
  8
0
 62
     4
 10
10.587022
 20
48.318794
 11
10.587022
 21
54.852772
  0
LINE
  8
0
 10
-9.712978
 20
27.152769
 11
-10.512979
 21
27.152769
  0
LINE
  8
0
 10
-9.912978
 20
26.652769
 11
-5.012979
 21
26.652769
  0
LINE
  8
0
 10
21.387024
 20
18.152769
 11
16.387020
 21
18.152769
  0
LINE
  8
0
 10
15.987021
 20
-48.847229
 11
15.987021
 21
17.752768
  0
LINE
  8
0
 10
-11.012979
 20
-57.747231
 11
-11.012979
 21
26.652769
  0
LINE
  8
0
 62
     1
 10
10.127020
 20
-93.957230
 11
4.127022
 21
-91.557228
  0
LINE
  8
0
 62
     1
 10
10.127019
 20
-95.197235
 11
4.127021
 21
-92.797234
  0
LINE
  8
0
 62
     4
 10
6.372022
 20
-93.695236
 11
6.372022
 21
-98.377235
  0
LINE
  8
0
 62
     4
 10
7.802022
 20
-94.267235
 11
7.802022
 21
-98.377235
  0
LINE
  8
0
 62
     4
 10
7.802022
 20
-98.377235
 11
6.372022
 21
-98.377235
  0
LINE
  8
0
 62
     1
 10
9.404808
 20
63.368694
 11
5.187634
 21
64.493271
  0
LINE
  8
0
 62
     1
 10
9.725523
 20
62.043175
 11
4.948157
 21
63.317139
  0
LINE
  8
0
 62
     4
 10
6.687022
 20
-98.377235
 11
6.687022
 21
-103.377235
  0
LINE
  8
0
 62
     4
 10
7.487021
 20
-98.377235
 11
7.487021
 21
-103.377235
  0
LINE
  8
0
 62
     4
 10
6.687022
 20
-103.377235
 11
7.487021
 21
-103.377235
  0
LINE
  8
0
 10
-194.250000
 20
132.600006
 11
194.800003
 21
132.600006
  0
LINE
  8
0
 10
194.800003
 20
132.600006
 11
194.800003
 21
-133.500000
  0
LINE
  8
0
 10
-194.250000
 20
132.600006
 11
-194.250000
 21
-133.500000
  0
LINE
  8
0
 10
-194.250000
 20
-133.500000
 11
194.800003
 21
-133.500000
  0
LINE
  8
0
 10
109.800003
 20
-118.500000
 11
109.800003
 21
-133.500000
  0
LINE
  8
0
 10
109.800003
 20
-118.500000
 11
194.800003
 21
-118.500000
  0
LINE
  8
0
 10
109.800003
 20
132.600006
 11
109.800003
 21
117.600006
  0
LINE
  8
0
 10
109.800003
 20
117.600006
 11
194.800003
 21
117.600006
  0
LINE
  8
0
 10
-194.250000
 20
117.600006
 11
-109.250000
 21
117.600006
  0
LINE
  8
0
 10
-109.250000
 20
132.600006
 11
-109.250000
 21
117.600006
  0
ARC
  8
0
 10
-9.889642
 20
84.154419
 40
2.800001
 50
127.383179
 51
20.924833
  0
ARC
  8
0
 10
8.110358
 20
96.154419
 40
2.800000
 50
339.075165
 51
200.924835
  0
ARC
  8
0
 10
-12.089642
 20
95.854416
 40
0.300003
 50
90.000000
 51
180.000000
  0
ARC
  8
0
 10
8.110358
 20
96.154419
 40
3.000000
 50
340.528778
 51
0.000000
  0
ARC
  8
0
 10
-9.889642
 20
84.154419
 40
3.000000
 50
0.000000
 51
19.471220
  0
ARC
  8
0
 10
8.110358
 20
96.154419
 40
3.000000
 50
180.000000
 51
199.471222
  0
CIRCLE
  8
0
 62
     4
 10
5.210359
 20
87.614418
 40
0.750000
  0
CIRCLE
  8
0
 62
     4
 10
5.210359
 20
92.694420
 40
0.750000
  0
ARC
  8
0
 62
     4
 10
4.311023
 20
93.570076
 40
0.200668
 50
86.761612
 51
179.901978
  0
ARC
  8
0
 62
     4
 10
4.310023
 20
91.819702
 40
0.199666
 50
179.794205
 51
273.541779
  0
ARC
  8
0
 62
     4
 10
4.311023
 20
91.030075
 40
0.200668
 50
86.761612
 51
179.901978
  0
ARC
  8
0
 62
     4
 10
4.310023
 20
89.279701
 40
0.199666
 50
179.794205
 51
273.541779
  0
ARC
  8
0
 62
     4
 10
4.311023
 20
88.490074
 40
0.200668
 50
86.761612
 51
179.901978
  0
ARC
  8
0
 62
     4
 10
4.310023
 20
86.739700
 40
0.199666
 50
179.794205
 51
273.541779
  0
ARC
  8
0
 62
     4
 10
7.910357
 20
85.454422
 40
0.300003
 50
270.000000
 51
0.000000
  0
ARC
  8
0
 62
     4
 10
7.910357
 20
94.854416
 40
0.300000
 50
0.000000
 51
90.000000
  0
ARC
  8
0
 62
     4
 10
20.110359
 20
94.854416
 40
0.299999
 50
0.000000
 51
90.000000
  0
ARC
  8
0
 62
     4
 10
20.110359
 20
85.454422
 40
0.300003
 50
270.000000
 51
0.000000
  0
CIRCLE
  8
0
 62
     4
 10
-1.339642
 20
90.154419
 40
2.050000
  0
ARC
  8
0
 62
     4
 10
-3.089642
 20
93.654419
 40
1.600000
 50
180.000000
 51
0.000000
  0
ARC
  8
0
 62
     4
 10
-3.089642
 20
86.654419
 40
1.600000
 50
0.000000
 51
180.000000
  0
CIRCLE
  8
0
 62
     4
 10
-1.339642
 20
90.154419
 40
1.900000
  0
CIRCLE
  8
0
 62
     4
 10
-1.339642
 20
90.154419
 40
1.850000
  0
ARC
  8
0
 62
     4
 10
-1.339642
 20
90.154419
 40
0.800003
 50
292.024231
 51
67.975777
  0
ARC
  8
0
 62
     4
 10
-1.339642
 20
90.154419
 40
0.800003
 50
112.024223
 51
247.975784
  0
CIRCLE
  8
0
 62
     4
 10
-3.089642
 20
93.654419
 40
1.500000
  0
CIRCLE
  8
0
 62
     4
 10
-3.089642
 20
86.654419
 40
1.500000
  0
CIRCLE
  8
0
 10
107.975334
 20
-49.247231
 40
2.000000
  0
ARC
  8
0
 10
102.425331
 20
-57.947231
 40
0.299999
 50
270.000000
 51
0.000000
  0
ARC
  8
0
 10
113.525337
 20
-57.947231
 40
0.300003
 50
180.000000
 51
270.000000
  0
ARC
  8
0
 10
104.377815
 20
-48.847229
 40
0.400002
 50
270.000000
 51
330.000092
  0
ARC
  8
0
 10
106.456276
 20
-46.847229
 40
0.400002
 50
90.000000
 51
150.000092
  0
ARC
  8
0
 10
109.494392
 20
-46.847229
 40
0.400003
 50
29.999916
 51
90.000000
  0
ARC
  8
0
 10
111.572853
 20
-48.847229
 40
0.400003
 50
209.999908
 51
270.000000
  0
CIRCLE
  8
0
 10
107.975334
 20
-49.247231
 40
0.800000
  0
ARC
  8
0
 62
     4
 10
112.675331
 20
-77.047234
 40
0.300003
 50
270.000000
 51
0.000000
  0
ARC
  8
0
 62
     4
 10
103.275337
 20
-77.047234
 40
0.300003
 50
180.000000
 51
270.000000
  0
CIRCLE
  8
0
 10
107.475334
 20
-23.547228
 40
4.283250
  0
CIRCLE
  8
0
 62
     2
 10
107.475334
 20
-23.547228
 40
4.864349
  0
CIRCLE
  8
0
 10
108.475334
 20
-7.547228
 40
4.283250
  0
CIRCLE
  8
0
 62
     2
 10
108.475334
 20
-7.547228
 40
4.864349
  0
ARC
  8
0
 62
     4
 10
103.275337
 20
45.952770
 40
0.299999
 50
90.000000
 51
180.000000
  0
ARC
  8
0
 62
     4
 10
112.675331
 20
45.952770
 40
0.300003
 50
0.000000
 51
90.000000
  0
CIRCLE
  8
0
 10
107.975334
 20
18.152769
 40
0.800000
  0
ARC
  8
0
 10
111.572853
 20
17.752768
 40
0.400000
 50
90.000000
 51
150.000092
  0
ARC
  8
0
 10
109.494392
 20
15.752769
 40
0.400000
 50
270.000000
 51
330.000214
  0
ARC
  8
0
 10
106.456276
 20
15.752769
 40
0.400002
 50
209.999802
 51
270.000000
  0
ARC
  8
0
 10
104.377815
 20
17.752768
 40
0.400003
 50
29.999916
 51
90.000000
  0
ARC
  8
0
 10
113.525337
 20
26.852768
 40
0.299999
 50
90.000000
 51
180.000000
  0
ARC
  8
0
 10
102.425331
 20
26.852768
 40
0.300003
 50
0.000000
 51
90.000000
  0
CIRCLE
  8
0
 10
107.975334
 20
18.152769
 40
2.000000
  0
ARC
  8
0
 10
101.474869
 20
-30.547369
 40
3.000468
 50
213.586853
 51
0.002622
  0
ARC
  8
0
 10
101.477631
 20
-30.547916
 40
2.997704
 50
0.013088
 51
146.588425
  0
ARC
  8
0
 10
114.475334
 20
-0.552231
 40
2.998170
 50
33.504559
 51
326.495422
  0
CIRCLE
  8
0
 10
114.475334
 20
-0.547228
 40
1.599999
  0
CIRCLE
  8
0
 10
101.475334
 20
-30.547228
 40
1.599999
  0
CIRCLE
  8
0
 10
-88.919746
 20
-46.447231
 40
0.900000
  0
ARC
  8
0
 62
     4
 10
-84.919746
 20
-58.747231
 40
0.300003
 50
0.000000
 51
90.000000
  0
ARC
  8
0
 62
     4
 10
-92.919746
 20
-58.747231
 40
0.299999
 50
90.000000
 51
180.000000
  0
ARC
  8
0
 62
     4
 10
-86.219749
 20
-59.247231
 40
0.200001
 50
270.000000
 51
0.000000
  0
ARC
  8
0
 62
     4
 10
-91.619743
 20
-59.247231
 40
0.199997
 50
180.000000
 51
270.000000
  0
ARC
  8
0
 62
     4
 10
-84.919746
 20
-60.247231
 40
0.299999
 50
270.000000
 51
0.000000
  0
ARC
  8
0
 62
     4
 10
-92.919746
 20
-60.247231
 40
0.300003
 50
180.000000
 51
270.000000
  0
ARC
  8
0
 10
-94.469749
 20
-57.947231
 40
0.299999
 50
270.000000
 51
0.000000
  0
ARC
  8
0
 10
-94.919746
 20
-49.447231
 40
5.000002
 50
235.944183
 51
304.055817
  0
CIRCLE
  8
0
 10
-89.419746
 20
-28.747240
 40
4.283250
  0
CIRCLE
  8
0
 62
     2
 10
-89.419746
 20
-28.747240
 40
4.864349
  0
CIRCLE
  8
0
 10
-88.919746
 20
-15.547228
 40
4.283250
  0
CIRCLE
  8
0
 62
     2
 10
-88.919746
 20
-15.547228
 40
4.864349
  0
CIRCLE
  8
0
 10
-88.419746
 20
-2.347231
 40
4.283250
  0
CIRCLE
  8
0
 62
     2
 10
-88.419746
 20
-2.347231
 40
4.864349
  0
CIRCLE
  8
0
 10
-95.424431
 20
-0.546774
 40
1.599999
  0
CIRCLE
  8
0
 10
-82.424438
 20
-30.546774
 40
1.599999
  0
ARC
  8
0
 10
-83.369743
 20
26.852768
 40
0.299999
 50
90.000000
 51
180.000000
  0
ARC
  8
0
 62
     4
 10
-92.919746
 20
29.152769
 40
0.299999
 50
90.000000
 51
180.000000
  0
ARC
  8
0
 62
     4
 10
-84.919746
 20
29.152769
 40
0.300003
 50
0.000000
 51
90.000000
  0
ARC
  8
0
 62
     4
 10
-91.619743
 20
28.152769
 40
0.200001
 50
90.000000
 51
180.000000
  0
ARC
  8
0
 62
     4
 10
-86.219749
 20
28.152769
 40
0.199997
 50
0.000000
 51
90.000000
  0
ARC
  8
0
 62
     4
 10
-92.919746
 20
27.652769
 40
0.300003
 50
180.000000
 51
270.000000
  0
ARC
  8
0
 62
     4
 10
-84.919746
 20
27.652769
 40
0.299999
 50
270.000000
 51
0.000000
  0
ARC
  8
0
 10
-82.919746
 20
18.352768
 40
5.000002
 50
55.944176
 51
124.055824
  0
CIRCLE
  8
0
 10
-88.919746
 20
15.352769
 40
0.900000
  0
ARC
  8
0
 10
16.387020
 20
-48.847229
 40
0.400000
 50
180.000000
 51
270.000000
  0
ARC
  8
0
 10
21.387024
 20
-49.647228
 40
0.400000
 50
0.000000
 51
90.000000
  0
ARC
  8
0
 62
     4
 10
21.987022
 20
-77.047234
 40
0.300003
 50
270.000000
 51
0.000000
  0
ARC
  8
0
 62
     4
 10
-0.212978
 20
-71.847237
 40
0.500000
 50
270.000000
 51
0.000000
  0
ARC
  8
0
 62
     4
 10
-2.212978
 20
-71.847237
 40
0.500000
 50
180.000000
 51
270.000000
  0
ARC
  8
0
 10
16.487022
 20
-45.947231
 40
0.500000
 50
180.000000
 51
270.000000
  0
ARC
  8
0
 10
21.387024
 20
-46.847229
 40
0.400000
 50
0.000000
 51
90.000000
  0
ARC
  8
0
 10
-8.012979
 20
-49.447231
 40
5.000000
 50
235.944199
 51
304.055786
  0
CIRCLE
  8
0
 10
9.987006
 20
-0.547228
 40
1.599999
  0
CIRCLE
  8
0
 10
9.987006
 20
-30.547228
 40
1.599999
  0
ARC
  8
0
 10
-8.012979
 20
18.352768
 40
5.000000
 50
55.944206
 51
124.055794
  0
ARC
  8
0
 10
21.387024
 20
15.752769
 40
0.400000
 50
270.000000
 51
0.000000
  0
ARC
  8
0
 10
16.487022
 20
14.852769
 40
0.500000
 50
90.000000
 51
180.000000
  0
ARC
  8
0
 62
     4
 10
-2.212978
 20
40.752769
 40
0.500000
 50
90.000000
 51
180.000000
  0
ARC
  8
0
 62
     4
 10
-0.212978
 20
40.752769
 40
0.500000
 50
0.000000
 51
90.000000
  0
ARC
  8
0
 62
     4
 10
21.987022
 20
45.952770
 40
0.299999
 50
0.000000
 51
90.000000
  0
ARC
  8
0
 10
21.387024
 20
18.552769
 40
0.400000
 50
270.000000
 51
0.000000
  0
ARC
  8
0
 10
16.387020
 20
17.752768
 40
0.400000
 50
90.000000
 51
180.000000
  0
TEXT
  8
0
 10
-186.892654
 20
104.550003
 40
4.500000
  1
MODEL:G180-4E2-81-PSL
 50
0.000000
 41
1.052632
 51
0.000000
  7
STANDARD
  0
TEXT
  8
0
 10
133.907150
 20
122.050003
 40
4.500000
  1
Ver. 1.0
 50
0.000000
 41
1.052632
 51
0.000000
  7
STANDARD
  0
TEXT
  8
0
 10
113.700287
 20
-130.669998
 40
6.300000
  1
KOGANEI CORP.
 50
0.000000
 41
1.052632
 51
0.000000
  7
STANDARD
  0
TEXT
  8
0
 10
-176.892654
 20
122.050003
 40
4.500000
  1
G180 SERIES
 50
0.000000
 41
1.052632
 51
0.000000
  7
STANDARD
  0
ENDSEC
  0
EOF
