  0
SECTION
  2
HEADER
  0
ENDSEC
  0
SECTION
  2
TABLES
  0
TABLE
  2
LTYPE
 70
     4
  0
LTYPE
  2
CONTINUOUS
 70
    64
  3
Solid line
 72
    65
 73
     0
 40
0.000000
  0
LTYPE
  2
DASHED
 70
    64
  3
__ __ __ __ __ __ __ __ __ __ __ __ __ __ __
 72
    65
 73
     2
 40
3.500000
 49
2.000000
 49
-1.500000
  0
LTYPE
  2
CENTER
 70
    64
  3
____ _ ____ _ ____ _ ____ _ ____ _ ____ _ ____
 72
    65
 73
     4
 40
17.500000
 49
13.000000
 49
-1.500000
 49
1.500000
 49
-1.500000
  0
LTYPE
  2
PHANTOM
 70
    64
  3
_____ _ _ _____ _ _ _____ _ _ _____ _ _ ____  
 72
    65
 73
     6
 40
15.500000
 49
8.000000
 49
-1.500000
 49
1.500000
 49
-1.500000
 49
1.500000
 49
-1.500000
  0
LTYPE
  2
DASHED1
 70
    64
  3
__ __ __ __ __ __ __ __ __ __ __ __ __ __ __
 72
    65
 73
     2
 40
1.500000
 49
1.000000
 49
-0.500000
  0
LTYPE
  2
DASHED2
 70
    64
  3
__ __ __ __ __ __ __ __ __ __ __ __ __ __ __
 72
    65
 73
     2
 40
3.500000
 49
2.500000
 49
-1.000000
  0
LTYPE
  2
DASHED3
 70
    64
  3
__ __ __ __ __ __ __ __ __ __ __ __ __ __ __
 72
    65
 73
     2
 40
6.000000
 49
4.000000
 49
-2.000000
  0
LTYPE
  2
DASHED4
 70
    64
  3
__ __ __ __ __ __ __ __ __ __ __ __ __ __ __
 72
    65
 73
     2
 40
12.000000
 49
10.000000
 49
-2.000000
  0
LTYPE
  2
DASHED5
 70
    64
  3
__ __ __ __ __ __ __ __ __ __ __ __ __ __ __
 72
    65
 73
     2
 40
17.000000
 49
15.000000
 49
-2.000000
  0
LTYPE
  2
DASHED6
 70
    64
  3
__ __ __ __ __ __ __ __ __ __ __ __ __ __ __
 72
    65
 73
     2
 40
29.000000
 49
27.000000
 49
-2.000000
  0
LTYPE
  2
PHANTOM1
 70
    64
  3
_____ _ _ _____ _ _ _____ _ _ _____ _ _ ____  
 72
    65
 73
     6
 40
31.000000
 49
25.000000
 49
-1.500000
 49
1.000000
 49
-1.000000
 49
1.000000
 49
-1.500000
  0
LTYPE
  2
PHANTOM2
 70
    64
  3
_____ _ _ _____ _ _ _____ _ _ _____ _ _ ____  
 72
    65
 73
     6
 40
36.000000
 49
27.000000
 49
-1.500000
 49
2.500000
 49
-1.000000
 49
2.500000
 49
-1.500000
  0
LTYPE
  2
PHANTOM3
 70
    64
  3
_____ _ _ _____ _ _ _____ _ _ _____ _ _ ____  
 72
    65
 73
     6
 40
78.000000
 49
64.000000
 49
-2.000000
 49
4.000000
 49
-2.000000
 49
4.000000
 49
-2.000000
  0
LTYPE
  2
CENTER1
 70
    64
  3
____ _ ____ _ ____ _ ____ _ ____ _ ____ _ ____
 72
    65
 73
     4
 40
19.000000
 49
14.000000
 49
-1.000000
 49
3.000000
 49
-1.000000
  0
LTYPE
  2
CENTER2
 70
    64
  3
____ _ ____ _ ____ _ ____ _ ____ _ ____ _ ____
 72
    65
 73
     4
 40
28.500000
 49
25.000000
 49
-1.000000
 49
1.500000
 49
-1.000000
  0
LTYPE
  2
CENTER3
 70
    64
  3
____ _ ____ _ ____ _ ____ _ ____ _ ____ _ ____
 72
    65
 73
     4
 40
31.500000
 49
27.000000
 49
-1.000000
 49
2.500000
 49
-1.000000
  0
LTYPE
  2
CENTER4
 70
    64
  3
____ _ ____ _ ____ _ ____ _ ____ _ ____ _ ____
 72
    65
 73
     4
 40
50.000000
 49
45.000000
 49
-1.000000
 49
3.000000
 49
-1.000000
  0
LTYPE
  2
CENTER5
 70
    64
  3
____ _ ____ _ ____ _ ____ _ ____ _ ____ _ ____
 72
    65
 73
     4
 40
100.000000
 49
92.000000
 49
-2.000000
 49
4.000000
 49
-2.000000
  0
LTYPE
  2
SBK1
 70
    64
  3
______ _ _ _ ______ _ _ _ ______ _ _ _ _____  
 72
    65
 73
     8
 40
60.500000
 49
45.000000
 49
-2.000000
 49
2.500000
 49
-2.000000
 49
2.500000
 49
-2.000000
 49
2.500000
 49
-2.000000
  0
LTYPE
  2
SBK2
 70
    64
  3
______ _ _ _ ______ _ _ _ ______ _ _ _ _____  
 72
    65
 73
     8
 40
84.000000
 49
64.000000
 49
-2.000000
 49
4.000000
 49
-2.000000
 49
4.000000
 49
-2.000000
 49
4.000000
 49
-2.000000
  0
LTYPE
  2
STCH
 70
    64
  3
__ __ __ __ __ __ __ __ __ __ __ __ __ __ __
 72
    65
 73
     2
 40
3.000000
 49
1.000000
 49
-2.000000
  0
LTYPE
  2
MTCH
 70
    64
  3
_____ _ _ _____ _ _ _____ _ _ _____ _ _ ____  
 72
    65
 73
     6
 40
80.000000
 49
66.000000
 49
-2.000000
 49
4.000000
 49
-2.000000
 49
4.000000
 49
-2.000000
  0
ENDTAB
  0
TABLE
  2
LAYER
 70
     1
  0
LAYER
  2
0
 70
     0
 62
     7
  6
CONTINUOUS
  0
ENDTAB
  0
TABLE
  2
STYLE
 70
     1
  0
STYLE
  2
STANDARD
 70
     0
 40
0.000000
 41
1.000000
 50
0.000000
 71
     0
 42
0.200000
  3
txt
  4
BIGFONT
  0
ENDTAB
  0
TABLE
  2
VIEW
 70
     0
  0
ENDTAB
  0
ENDSEC
  0
SECTION
  2
BLOCKS
  0
ENDSEC
  0
SECTION
  2
ENTITIES
  0
LINE
  8
0
 10
-262.247223
 20
-180.000046
 11
-262.247223
 21
180.000046
  0
LINE
  8
0
 10
262.247223
 20
180.000046
 11
262.247223
 21
-180.000046
  0
LINE
  8
0
 10
-262.247223
 20
-180.000046
 11
262.247223
 21
-180.000046
  0
LINE
  8
0
 10
-262.247223
 20
180.000046
 11
262.247223
 21
180.000046
  0
LINE
  8
0
 10
-262.247223
 20
159.775299
 11
-154.382050
 21
159.775299
  0
LINE
  8
0
 10
-154.382050
 20
159.775299
 11
-154.382050
 21
180.000046
  0
LINE
  8
0
 10
154.382034
 20
-159.775345
 11
262.247223
 21
-159.775345
  0
LINE
  8
0
 10
154.382034
 20
159.775299
 11
262.247223
 21
159.775299
  0
LINE
  8
0
 10
154.382034
 20
180.000046
 11
154.382034
 21
159.775299
  0
LINE
  8
0
 10
154.382034
 20
-159.775345
 11
154.382034
 21
-180.000046
  0
TEXT
  8
0
 10
160.213089
 20
165.487701
 40
6.000000
  1
DATE : SEP ,1992
 50
0.000000
 41
1.052631
 51
0.000000
  7
STANDARD
  0
TEXT
  8
0
 10
-240.564621
 20
164.587692
 40
7.000000
  1
GA SERIES
 50
0.000000
 41
1.052632
 51
0.000000
  7
STANDARD
  0
TEXT
  8
0
 10
162.064636
 20
-175.187698
 40
7.000000
  1
KOGANEI CORP.
 50
0.000000
 41
1.052632
 51
0.000000
  7
STANDARD
  0
TEXT
  8
0
 10
-245.534195
 20
129.334793
 40
8.000000
  1
MODEL:GADA20X50-K2-S2
 50
0.000000
 41
1.052632
 51
0.000000
  7
STANDARD
  0
POINT
  8
0
 10
-134.237396
 20
45.210693
  0
POINT
  8
0
 10
-149.737411
 20
45.210693
  0
LINE
  8
0
 10
-195.618057
 20
45.210693
 11
-124.428055
 21
45.210693
  0
LINE
  8
0
 10
-149.737411
 20
113.758156
 11
-149.737411
 21
-19.855392
  0
LINE
  8
0
 10
-163.737411
 20
87.210701
 11
-153.737411
 21
87.210701
  0
LINE
  8
0
 10
-145.737411
 20
87.210701
 11
-136.207535
 21
87.210701
  0
LINE
  8
0
 10
-145.737411
 20
67.210701
 11
-136.207535
 21
67.210701
  0
LINE
  8
0
 10
-163.737411
 20
67.210701
 11
-153.737411
 21
67.210701
  0
LINE
  8
0
 10
-158.737411
 20
92.210701
 11
-158.737411
 21
82.210701
  0
LINE
  8
0
 10
-140.737411
 20
92.210701
 11
-140.737411
 21
82.210701
  0
LINE
  8
0
 10
-140.737411
 20
72.210701
 11
-140.737411
 21
62.210701
  0
LINE
  8
0
 10
-158.737411
 20
72.210701
 11
-158.737411
 21
62.210701
  0
LINE
  8
0
 10
-141.237411
 20
50.118172
 11
-141.237411
 21
45.210693
  0
LINE
  8
0
 10
-158.237411
 20
50.118172
 11
-158.237411
 21
45.210693
  0
LINE
  8
0
 10
-158.237442
 20
50.118244
 11
-149.737442
 21
55.025719
  0
LINE
  8
0
 10
-149.737427
 20
55.025650
 11
-141.237427
 21
50.118172
  0
LINE
  8
0
 10
-163.737411
 20
3.210686
 11
-153.737411
 21
3.210686
  0
LINE
  8
0
 10
-145.737411
 20
3.210686
 11
-136.207535
 21
3.210686
  0
LINE
  8
0
 10
-145.737411
 20
23.210686
 11
-136.207535
 21
23.210686
  0
LINE
  8
0
 10
-163.737411
 20
23.210686
 11
-153.737411
 21
23.210686
  0
LINE
  8
0
 10
-158.737411
 20
-1.756588
 11
-158.737411
 21
8.210686
  0
LINE
  8
0
 10
-140.737411
 20
-1.756588
 11
-140.737411
 21
8.210686
  0
LINE
  8
0
 10
-140.737411
 20
18.210686
 11
-140.737411
 21
28.210686
  0
LINE
  8
0
 10
-158.737411
 20
18.210686
 11
-158.737411
 21
28.210686
  0
LINE
  8
0
 10
-141.237411
 20
40.303215
 11
-141.237411
 21
45.210693
  0
LINE
  8
0
 10
-158.237411
 20
40.303215
 11
-158.237411
 21
45.210693
  0
LINE
  8
0
 10
-158.237427
 20
40.303200
 11
-149.737442
 21
35.395729
  0
LINE
  8
0
 10
-149.737518
 20
35.395836
 11
-141.237503
 21
40.303318
  0
LINE
  8
0
 10
-175.737411
 20
96.210701
 11
-175.737411
 21
-5.789307
  0
LINE
  8
0
 10
-135.237411
 20
96.210701
 11
-135.237411
 21
-5.789307
  0
LINE
  8
0
 10
-175.737411
 20
96.210701
 11
-135.237411
 21
96.210701
  0
LINE
  8
0
 10
-175.737411
 20
-5.789307
 11
-135.237411
 21
-5.789307
  0
LINE
  8
0
 10
-184.237411
 20
97.210701
 11
-184.237411
 21
-6.789307
  0
LINE
  8
0
 10
-134.237411
 20
97.210701
 11
-134.237411
 21
-6.789307
  0
LINE
  8
0
 10
-184.237411
 20
97.210701
 11
-134.237411
 21
97.210701
  0
LINE
  8
0
 10
-184.237411
 20
-6.789307
 11
-134.237411
 21
-6.789307
  0
LINE
  8
0
 10
-187.237411
 20
99.210701
 11
-187.237411
 21
80.210701
  0
LINE
  8
0
 10
-132.237411
 20
99.210701
 11
-132.237411
 21
71.710701
  0
LINE
  8
0
 10
-187.237411
 20
99.210701
 11
-173.237411
 21
99.210701
  0
LINE
  8
0
 10
-187.237411
 20
80.210701
 11
-186.237411
 21
80.210701
  0
LINE
  8
0
 10
-187.237411
 20
10.210693
 11
-186.237411
 21
10.210693
  0
LINE
  8
0
 10
-186.237411
 20
80.210701
 11
-186.237411
 21
10.210693
  0
LINE
  8
0
 10
-187.237411
 20
10.210693
 11
-187.237411
 21
-8.789314
  0
LINE
  8
0
 10
-173.237411
 20
99.210701
 11
-173.237411
 21
98.210701
  0
LINE
  8
0
 10
-146.237411
 20
99.210701
 11
-146.237411
 21
98.210701
  0
LINE
  8
0
 10
-173.237411
 20
98.210701
 11
-146.237411
 21
98.210701
  0
LINE
  8
0
 10
-146.237411
 20
99.210701
 11
-132.237411
 21
99.210701
  0
LINE
  8
0
 10
-187.237411
 20
-8.789314
 11
-173.237411
 21
-8.789314
  0
LINE
  8
0
 10
-173.237411
 20
-8.789314
 11
-173.237411
 21
-7.789314
  0
LINE
  8
0
 10
-173.237411
 20
-7.789314
 11
-146.237411
 21
-7.789314
  0
LINE
  8
0
 10
-146.237411
 20
-8.789314
 11
-132.237411
 21
-8.789314
  0
LINE
  8
0
 10
-146.237411
 20
-8.789314
 11
-146.237411
 21
-7.789314
  0
LINE
  8
0
 10
-132.237473
 20
71.710754
 11
-134.237473
 21
69.710739
  0
LINE
  8
0
 10
-132.237381
 20
18.710701
 11
-134.237381
 21
20.710707
  0
LINE
  8
0
 10
-132.237411
 20
18.710693
 11
-132.237411
 21
-8.789314
  0
CIRCLE
  8
0
 10
-140.737411
 20
23.210686
 40
2.200000
  0
CIRCLE
  8
0
 10
-158.737411
 20
23.210686
 40
2.200000
  0
CIRCLE
  8
0
 10
-158.737411
 20
87.210701
 40
3.300000
  0
CIRCLE
  8
0
 10
-140.737411
 20
87.210701
 40
3.300000
  0
CIRCLE
  8
0
 10
-140.737411
 20
67.210701
 40
3.000000
  0
CIRCLE
  8
0
 10
-158.737411
 20
67.210701
 40
3.000000
  0
CIRCLE
  8
0
 10
-158.737411
 20
67.210701
 40
2.200000
  0
CIRCLE
  8
0
 10
-140.737411
 20
67.210701
 40
2.200000
  0
CIRCLE
  8
0
 10
-149.737411
 20
45.210693
 40
4.000000
  0
CIRCLE
  8
0
 10
-149.737411
 20
45.210693
 40
3.250000
  0
CIRCLE
  8
0
 10
-158.737411
 20
3.210686
 40
3.300000
  0
CIRCLE
  8
0
 10
-140.737411
 20
3.210686
 40
3.300000
  0
CIRCLE
  8
0
 10
-140.737411
 20
23.210686
 40
3.000000
  0
CIRCLE
  8
0
 10
-158.737411
 20
23.210686
 40
3.000000
  0
POINT
  8
0
 10
-32.737389
 20
-89.789307
  0
POINT
  8
0
 10
176.262604
 20
-89.789307
  0
LINE
  8
0
 10
-32.737389
 20
-75.289307
 11
-32.737389
 21
-115.789299
  0
LINE
  8
0
 10
-20.737389
 20
-75.289307
 11
-20.737389
 21
-115.789299
  0
LINE
  8
0
 10
2.262611
 20
-74.289307
 11
2.262611
 21
-124.289299
  0
LINE
  8
0
 10
10.262611
 20
-72.289307
 11
10.262611
 21
-127.289299
  0
LINE
  8
0
 10
164.262604
 20
-73.289307
 11
164.262604
 21
-115.789299
  0
LINE
  8
0
 10
174.262604
 20
-73.289307
 11
174.262604
 21
-115.789299
  0
LINE
  8
0
 10
-37.569969
 20
-89.789307
 11
180.030029
 21
-89.789307
  0
LINE
  8
0
 10
-20.737389
 20
-83.789307
 11
2.262611
 21
-83.789307
  0
LINE
  8
0
 10
-20.737389
 20
-95.789307
 11
2.262611
 21
-95.789307
  0
LINE
  8
0
 10
102.262611
 20
-83.789307
 11
164.262604
 21
-83.789307
  0
LINE
  8
0
 10
102.262611
 20
-95.789307
 11
164.262604
 21
-95.789307
  0
LINE
  8
0
 10
116.262611
 20
-105.489311
 11
116.262611
 21
-115.089317
  0
LINE
  8
0
 10
111.262611
 20
-104.989304
 11
111.262611
 21
-115.589317
  0
LINE
  8
0
 10
110.562614
 20
-104.289314
 11
106.262596
 21
-104.289314
  0
LINE
  8
0
 10
110.562614
 20
-116.289314
 11
106.262596
 21
-116.289314
  0
LINE
  8
0
 10
125.962608
 20
-108.789314
 11
116.262611
 21
-108.789314
  0
LINE
  8
0
 10
125.962608
 20
-111.789314
 11
116.262611
 21
-111.789314
  0
LINE
  8
0
 10
126.262611
 20
-109.089317
 11
126.262611
 21
-111.489311
  0
LINE
  8
0
 10
115.762611
 20
-104.989304
 11
111.262611
 21
-104.989304
  0
LINE
  8
0
 10
115.762611
 20
-115.589317
 11
111.262611
 21
-115.589317
  0
LINE
  8
0
 10
115.762657
 20
-104.989304
 11
116.262672
 21
-105.489311
  0
LINE
  8
0
 10
116.262825
 20
-115.089493
 11
115.762825
 21
-115.589493
  0
LINE
  8
0
 10
111.262627
 20
-104.989311
 11
110.562630
 21
-104.289307
  0
LINE
  8
0
 10
111.262825
 20
-115.589539
 11
110.562843
 21
-116.289520
  0
LINE
  8
0
 10
110.562614
 20
-104.289307
 11
110.562614
 21
-116.289299
  0
LINE
  8
0
 10
115.762611
 20
-104.989304
 11
115.762611
 21
-115.589317
  0
LINE
  8
0
 10
111.104118
 20
-115.747810
 11
106.262596
 21
-115.747810
  0
LINE
  8
0
 10
111.104118
 20
-104.830811
 11
106.262596
 21
-104.830811
  0
LINE
  8
0
 10
129.662476
 20
-110.289299
 11
-24.749962
 21
-110.289299
  0
LINE
  8
0
 10
126.262672
 20
-109.089302
 11
125.962669
 21
-108.789299
  0
LINE
  8
0
 10
126.262840
 20
-111.489479
 11
125.962822
 21
-111.789497
  0
LINE
  8
0
 10
125.962593
 20
-111.789330
 11
125.962593
 21
-108.789314
  0
LINE
  8
0
 10
120.762611
 20
-76.289291
 11
120.762611
 21
-83.789307
  0
LINE
  8
0
 10
136.762604
 20
-76.289291
 11
120.762611
 21
-76.289291
  0
LINE
  8
0
 10
136.762604
 20
-103.289291
 11
120.762611
 21
-103.289291
  0
LINE
  8
0
 10
136.762604
 20
-103.289291
 11
136.762604
 21
-95.789307
  0
LINE
  8
0
 10
136.762604
 20
-99.789291
 11
136.762604
 21
-95.789307
  0
LINE
  8
0
 10
136.762604
 20
-79.789307
 11
137.762604
 21
-79.789307
  0
LINE
  8
0
 10
136.762604
 20
-99.789307
 11
137.762604
 21
-99.789307
  0
LINE
  8
0
 10
137.762604
 20
-79.789307
 11
137.762604
 21
-83.789307
  0
LINE
  8
0
 10
128.762604
 20
-74.477539
 11
128.762604
 21
-84.286369
  0
LINE
  8
0
 10
102.262611
 20
-100.489311
 11
120.762611
 21
-100.489311
  0
LINE
  8
0
 10
102.262611
 20
-79.089302
 11
120.762611
 21
-79.089302
  0
LINE
  8
0
 10
120.762611
 20
-95.789307
 11
120.762611
 21
-103.289291
  0
LINE
  8
0
 10
136.762604
 20
-83.789307
 11
136.762604
 21
-79.789291
  0
LINE
  8
0
 10
137.762604
 20
-95.789307
 11
137.762604
 21
-99.789307
  0
LINE
  8
0
 10
136.762604
 20
-83.789307
 11
136.762604
 21
-76.289291
  0
LINE
  8
0
 10
-5.237389
 20
-76.289307
 11
-5.237389
 21
-83.789307
  0
LINE
  8
0
 10
-5.237389
 20
-76.289307
 11
2.262611
 21
-76.289307
  0
LINE
  8
0
 10
-5.237389
 20
-103.289307
 11
-1.737389
 21
-103.289307
  0
LINE
  8
0
 10
-5.237389
 20
-95.789307
 11
-5.237389
 21
-103.289307
  0
LINE
  8
0
 10
-15.737389
 20
-81.289307
 11
-15.737389
 21
-83.789307
  0
LINE
  8
0
 10
-20.737389
 20
-81.289307
 11
-15.737389
 21
-81.289307
  0
LINE
  8
0
 10
-20.737389
 20
-98.289307
 11
-15.737389
 21
-98.289307
  0
LINE
  8
0
 10
-15.737389
 20
-95.789307
 11
-15.737389
 21
-98.289307
  0
LINE
  8
0
 10
-32.737389
 20
-115.789299
 11
-20.737389
 21
-115.789299
  0
LINE
  8
0
 10
-32.737389
 20
-75.289307
 11
-20.737389
 21
-75.289307
  0
LINE
  8
0
 10
2.262611
 20
-124.289299
 11
10.262611
 21
-124.289299
  0
LINE
  8
0
 10
2.262611
 20
-74.289307
 11
10.262611
 21
-74.289307
  0
LINE
  8
0
 10
10.262611
 20
-127.289299
 11
102.262611
 21
-127.289299
  0
LINE
  8
0
 10
10.262611
 20
-72.289307
 11
102.262611
 21
-72.289307
  0
LINE
  8
0
 10
102.262611
 20
-72.289307
 11
102.262611
 21
-127.289299
  0
LINE
  8
0
 10
164.262604
 20
-115.789299
 11
174.262604
 21
-115.789299
  0
LINE
  8
0
 10
164.262604
 20
-73.289307
 11
174.262604
 21
-73.289307
  0
LINE
  8
0
 10
164.262604
 20
-110.789299
 11
174.262604
 21
-110.789299
  0
LINE
  8
0
 10
10.262611
 20
-113.289299
 11
102.262611
 21
-113.289299
  0
LINE
  8
0
 10
10.262611
 20
-86.289307
 11
102.262611
 21
-86.289307
  0
LINE
  8
0
 10
105.972450
 20
-118.372215
 11
102.552773
 21
-118.372215
  0
LINE
  8
0
 10
105.972450
 20
-114.330772
 11
102.552773
 21
-114.330772
  0
LINE
  8
0
 10
105.972450
 20
-106.247879
 11
102.552773
 21
-106.247879
  0
LINE
  8
0
 10
105.972450
 20
-102.206436
 11
102.552773
 21
-102.206436
  0
LINE
  8
0
 10
106.262596
 20
-117.289299
 11
106.262596
 21
-103.289307
  0
LINE
  8
0
 10
106.262520
 20
-117.289284
 11
105.972359
 21
-118.372177
  0
LINE
  8
0
 10
105.972420
 20
-102.206375
 11
106.262581
 21
-103.289276
  0
LINE
  8
0
 10
102.262657
 20
-117.289291
 11
102.552818
 21
-118.372177
  0
LINE
  8
0
 10
102.552620
 20
-102.206284
 11
102.262459
 21
-103.289177
  0
LINE
  8
0
 10
1.972557
 20
-118.372299
 11
2.262714
 21
-117.289406
  0
LINE
  8
0
 10
-15.737389
 20
-115.589317
 11
-15.737389
 21
-104.989304
  0
LINE
  8
0
 10
-15.037392
 20
-116.289299
 11
-1.737389
 21
-116.289299
  0
LINE
  8
0
 10
-15.037392
 20
-104.289299
 11
-1.737389
 21
-104.289299
  0
LINE
  8
0
 10
-20.237389
 20
-115.589317
 11
-15.737389
 21
-115.589317
  0
LINE
  8
0
 10
-20.237389
 20
-104.989296
 11
-15.737389
 21
-104.989296
  0
LINE
  8
0
 10
-20.237448
 20
-115.589371
 11
-20.737459
 21
-115.089363
  0
LINE
  8
0
 10
-20.737362
 20
-105.489319
 11
-20.237362
 21
-104.989319
  0
LINE
  8
0
 10
-15.737444
 20
-115.589363
 11
-15.037436
 21
-116.289368
  0
LINE
  8
0
 10
-15.737383
 20
-104.989311
 11
-15.037397
 21
-104.289322
  0
LINE
  8
0
 10
-15.037392
 20
-116.289299
 11
-15.037392
 21
-104.289307
  0
LINE
  8
0
 10
-20.237389
 20
-115.589317
 11
-20.237389
 21
-104.989304
  0
LINE
  8
0
 10
-15.578896
 20
-104.830803
 11
-1.737389
 21
-104.830803
  0
LINE
  8
0
 10
-15.578896
 20
-115.747795
 11
-1.737389
 21
-115.747795
  0
LINE
  8
0
 10
-1.447227
 20
-102.206413
 11
1.972450
 21
-102.206413
  0
LINE
  8
0
 10
-1.447227
 20
-106.247856
 11
1.972450
 21
-106.247856
  0
LINE
  8
0
 10
-1.447227
 20
-114.330742
 11
1.972450
 21
-114.330742
  0
LINE
  8
0
 10
-1.447227
 20
-118.372185
 11
1.972450
 21
-118.372185
  0
LINE
  8
0
 10
-1.737389
 20
-103.289299
 11
-1.737389
 21
-117.289299
  0
LINE
  8
0
 10
-1.737345
 20
-103.289322
 11
-1.447186
 21
-102.206429
  0
LINE
  8
0
 10
-1.447178
 20
-118.372208
 11
-1.737337
 21
-117.289322
  0
LINE
  8
0
 10
2.262577
 20
-103.289299
 11
1.972416
 21
-102.206406
  0
LINE
  8
0
 10
32.418724
 20
-119.789299
 11
42.853531
 21
-119.789299
  0
LINE
  8
0
 10
37.262611
 20
-73.721924
 11
37.262611
 21
-84.761650
  0
LINE
  8
0
 10
67.262611
 20
-74.175613
 11
67.262611
 21
-85.366570
  0
LINE
  8
0
 10
31.662575
 20
-79.789307
 11
43.912132
 21
-79.789307
  0
LINE
  8
0
 10
37.262611
 20
-115.461166
 11
37.262611
 21
-124.534912
  0
LINE
  8
0
 10
67.262611
 20
-114.856247
 11
67.262611
 21
-124.988602
  0
LINE
  8
0
 10
61.757172
 20
-119.789299
 11
71.889526
 21
-119.789299
  0
LINE
  8
0
 10
61.757172
 20
-79.789307
 11
73.401817
 21
-79.789307
  0
LINE
  8
0
 10
176.262604
 20
-83.789307
 11
176.262604
 21
-95.789307
  0
LINE
  8
0
 10
174.262604
 20
-83.789307
 11
176.262604
 21
-83.789307
  0
LINE
  8
0
 10
174.262604
 20
-95.789307
 11
176.262604
 21
-95.789307
  0
ARC
  8
0
 10
-4.918739
 20
-116.351494
 40
7.181354
 50
346.307861
 51
16.342848
  0
ARC
  8
0
 10
5.443962
 20
-104.227104
 40
7.181355
 50
166.357117
 51
196.342850
  0
CIRCLE
  8
0
 10
37.262611
 20
-79.789307
 40
3.000000
  0
CIRCLE
  8
0
 10
67.262611
 20
-79.789307
 40
3.000000
  0
CIRCLE
  8
0
 10
67.262611
 20
-119.789299
 40
3.000000
  0
CIRCLE
  8
0
 10
37.262611
 20
-119.789299
 40
3.000000
  0
CIRCLE
  8
0
 10
37.262611
 20
-79.789307
 40
2.000000
  0
CIRCLE
  8
0
 10
67.262611
 20
-79.789307
 40
2.000000
  0
CIRCLE
  8
0
 10
67.262611
 20
-119.789299
 40
2.000000
  0
CIRCLE
  8
0
 10
37.262611
 20
-119.789299
 40
2.000000
  0
ARC
  8
0
 10
99.081261
 20
-104.227112
 40
7.181352
 50
343.657135
 51
13.633616
  0
ARC
  8
0
 10
99.081261
 20
-116.351494
 40
7.181351
 50
346.357178
 51
16.342857
  0
ARC
  8
0
 10
77.972427
 20
-110.289299
 40
28.290184
 50
351.786835
 51
8.213186
  0
ARC
  8
0
 10
109.443962
 20
-104.227112
 40
7.181362
 50
166.307892
 51
196.342850
  0
ARC
  8
0
 10
109.443962
 20
-116.351494
 40
7.181354
 50
163.657089
 51
193.654221
  0
ARC
  8
0
 10
130.552765
 20
-110.289314
 40
28.290171
 50
171.786789
 51
188.213165
  0
ARC
  8
0
 10
-4.918739
 20
-104.227104
 40
7.181357
 50
343.657104
 51
13.654220
  0
ARC
  8
0
 10
26.552795
 20
-110.289299
 40
28.290178
 50
171.786819
 51
188.213165
  0
ARC
  8
0
 10
-26.027557
 20
-110.289299
 40
28.290182
 50
351.786804
 51
8.213156
  0
ARC
  8
0
 10
5.443962
 20
-116.351494
 40
7.181355
 50
163.657150
 51
193.633560
  0
POINT
  8
0
 10
-32.737385
 20
45.210686
  0
LINE
  8
0
 10
-32.737385
 20
96.210693
 11
-32.737385
 21
-5.789314
  0
LINE
  8
0
 10
-20.737385
 20
96.210693
 11
-20.737385
 21
-5.789314
  0
LINE
  8
0
 10
2.262615
 20
97.210693
 11
2.262615
 21
-6.789314
  0
LINE
  8
0
 10
10.262615
 20
99.210693
 11
10.262615
 21
58.710701
  0
LINE
  8
0
 10
-41.551243
 20
77.210693
 11
182.952713
 21
77.210693
  0
LINE
  8
0
 10
-20.737385
 20
71.210693
 11
2.262615
 21
71.210693
  0
LINE
  8
0
 10
102.262619
 20
83.210693
 11
164.262619
 21
83.210693
  0
LINE
  8
0
 10
102.262619
 20
71.210693
 11
164.262619
 21
71.210693
  0
LINE
  8
0
 10
174.262619
 20
87.210693
 11
174.262619
 21
3.210678
  0
LINE
  8
0
 10
164.262619
 20
87.210693
 11
164.262619
 21
3.210678
  0
LINE
  8
0
 10
164.262619
 20
87.210693
 11
174.262619
 21
87.210693
  0
LINE
  8
0
 10
6.762615
 20
61.710686
 11
6.762615
 21
28.710686
  0
LINE
  8
0
 10
67.262619
 20
101.210693
 11
67.262619
 21
91.210693
  0
LINE
  8
0
  6
DASHED
 10
64.262619
 20
99.210693
 11
64.262619
 21
95.210693
  0
LINE
  8
0
  6
DASHED
 10
65.262619
 20
99.210693
 11
65.262619
 21
93.210693
  0
LINE
  8
0
  6
DASHED
 10
69.262619
 20
99.210693
 11
69.262619
 21
93.210693
  0
LINE
  8
0
  6
DASHED
 10
70.262619
 20
99.210693
 11
70.262619
 21
95.210693
  0
LINE
  8
0
 10
173.512619
 20
93.210693
 11
165.012619
 21
93.210693
  0
LINE
  8
0
 10
173.512619
 20
93.210693
 11
173.512619
 21
87.210693
  0
LINE
  8
0
 10
165.012619
 20
93.210693
 11
165.012619
 21
87.210693
  0
LINE
  8
0
 10
-5.237385
 20
58.710693
 11
-5.237385
 21
31.710701
  0
LINE
  8
0
 10
1.531780
 20
60.799156
 11
-4.031605
 21
60.799156
  0
LINE
  8
0
 10
1.762615
 20
29.622223
 11
-4.031620
 21
29.622223
  0
LINE
  8
0
 10
2.262615
 20
31.710434
 11
1.762615
 21
31.710434
  0
LINE
  8
0
 10
-5.237413
 20
58.710732
 11
-4.031643
 21
60.799194
  0
LINE
  8
0
 10
-4.031599
 20
29.622246
 11
-5.237377
 21
31.710718
  0
LINE
  8
0
 10
1.762615
 20
37.416473
 11
-4.031620
 21
37.416473
  0
LINE
  8
0
 10
1.762615
 20
53.004929
 11
-4.031605
 21
53.004929
  0
LINE
  8
0
 10
1.762615
 20
29.622238
 11
1.762615
 21
60.799156
  0
LINE
  8
0
 10
1.762615
 20
31.710434
 11
2.262615
 21
31.710434
  0
LINE
  8
0
 10
1.762615
 20
58.710693
 11
2.262615
 21
58.710693
  0
LINE
  8
0
 10
-4.031620
 20
29.622223
 11
1.762615
 21
29.622223
  0
LINE
  8
0
 10
-4.031605
 20
60.799156
 11
1.762615
 21
60.799156
  0
LINE
  8
0
 10
22.762615
 20
58.710701
 11
22.762615
 21
31.710701
  0
LINE
  8
0
 10
6.762615
 20
58.710701
 11
22.762615
 21
58.710701
  0
LINE
  8
0
 10
6.762615
 20
31.710701
 11
22.762615
 21
31.710701
  0
LINE
  8
0
 10
120.762619
 20
58.710701
 11
120.762619
 21
31.710701
  0
LINE
  8
0
 10
136.762619
 20
58.710701
 11
120.762619
 21
58.710701
  0
LINE
  8
0
 10
136.762619
 20
31.710701
 11
120.762619
 21
31.710701
  0
LINE
  8
0
 10
136.762619
 20
31.710701
 11
136.762619
 21
58.710701
  0
LINE
  8
0
 10
136.762619
 20
35.210701
 11
136.762619
 21
55.210701
  0
LINE
  8
0
 10
136.762619
 20
55.210686
 11
137.762619
 21
55.210686
  0
LINE
  8
0
 10
136.762619
 20
35.210686
 11
137.762619
 21
35.210686
  0
LINE
  8
0
 10
137.762619
 20
55.210686
 11
137.762619
 21
35.210686
  0
LINE
  8
0
 10
22.762615
 20
34.510689
 11
120.762619
 21
34.510689
  0
LINE
  8
0
 10
22.762615
 20
55.910683
 11
120.762619
 21
55.910683
  0
LINE
  8
0
 10
-5.237385
 20
49.210670
 11
-15.737385
 21
49.210670
  0
LINE
  8
0
 10
-15.737385
 20
41.210709
 11
-5.237385
 21
41.210709
  0
LINE
  8
0
 10
-20.385044
 20
55.025642
 11
-16.089725
 21
55.025642
  0
LINE
  8
0
 10
-20.385044
 20
50.118164
 11
-16.089725
 21
50.118164
  0
LINE
  8
0
 10
-15.737385
 20
53.710686
 11
-15.737385
 21
45.210686
  0
LINE
  8
0
 10
-20.737343
 20
53.710674
 11
-20.385002
 21
55.025631
  0
LINE
  8
0
 10
-15.737392
 20
53.710693
 11
-16.089735
 21
55.025650
  0
LINE
  8
0
 10
14.762615
 20
51.331398
 11
14.762615
 21
39.210686
  0
LINE
  8
0
 10
128.762619
 20
51.210686
 11
128.762619
 21
38.098846
  0
LINE
  8
0
 10
10.262615
 20
-8.789314
 11
10.262615
 21
31.710670
  0
LINE
  8
0
 10
-41.551243
 20
13.210678
 11
183.798904
 21
13.210678
  0
LINE
  8
0
 10
-20.737385
 20
7.210678
 11
2.262615
 21
7.210678
  0
LINE
  8
0
 10
-20.737385
 20
19.210678
 11
2.262615
 21
19.210678
  0
LINE
  8
0
 10
102.262619
 20
7.210678
 11
164.262619
 21
7.210678
  0
LINE
  8
0
 10
102.262619
 20
19.210678
 11
164.262619
 21
19.210678
  0
LINE
  8
0
 10
164.262619
 20
3.210678
 11
174.262619
 21
3.210678
  0
LINE
  8
0
 10
173.512619
 20
-2.789322
 11
165.012619
 21
-2.789322
  0
LINE
  8
0
 10
173.512619
 20
-2.789322
 11
173.512619
 21
3.210678
  0
LINE
  8
0
 10
165.012619
 20
-2.789322
 11
165.012619
 21
3.210678
  0
LINE
  8
0
 10
-20.385044
 20
40.303207
 11
-16.089725
 21
40.303207
  0
LINE
  8
0
 10
1.531780
 20
29.622215
 11
-4.031605
 21
29.622215
  0
LINE
  8
0
 10
-15.737385
 20
36.710686
 11
-15.737385
 21
45.210686
  0
LINE
  8
0
 10
-20.385044
 20
35.395729
 11
-16.089725
 21
35.395729
  0
LINE
  8
0
 10
-20.737379
 20
36.710701
 11
-20.385038
 21
35.395744
  0
LINE
  8
0
 10
-15.737352
 20
36.710693
 11
-16.089695
 21
35.395737
  0
LINE
  8
0
 10
-47.520657
 20
45.210686
 11
184.293869
 21
45.210686
  0
LINE
  8
0
 10
-32.737385
 20
-5.789314
 11
-20.737385
 21
-5.789314
  0
LINE
  8
0
 10
-32.737385
 20
96.210693
 11
-20.737385
 21
96.210693
  0
LINE
  8
0
 10
2.262615
 20
97.210693
 11
10.262615
 21
97.210693
  0
LINE
  8
0
 10
2.262615
 20
-6.789314
 11
10.262615
 21
-6.789314
  0
LINE
  8
0
 10
10.262615
 20
-8.789314
 11
102.262619
 21
-8.789314
  0
LINE
  8
0
 10
10.262615
 20
99.210693
 11
102.262619
 21
99.210693
  0
LINE
  8
0
 10
6.762615
 20
28.710686
 11
102.262619
 21
28.710686
  0
LINE
  8
0
 10
6.762615
 20
61.710686
 11
102.262619
 21
61.710686
  0
LINE
  8
0
 10
10.262615
 20
18.710686
 11
102.262619
 21
18.710686
  0
LINE
  8
0
 10
10.262615
 20
71.710693
 11
102.262619
 21
71.710693
  0
LINE
  8
0
 10
102.262619
 20
-8.789314
 11
102.262619
 21
34.510689
  0
LINE
  8
0
 10
102.262619
 20
99.210693
 11
102.262619
 21
55.910683
  0
LINE
  8
0
 10
164.262619
 20
66.210686
 11
174.262619
 21
66.210686
  0
LINE
  8
0
 10
164.262619
 20
24.210686
 11
174.262619
 21
24.210686
  0
LINE
  8
0
 10
164.262619
 20
56.210686
 11
174.262619
 21
56.210686
  0
LINE
  8
0
 10
164.262619
 20
34.210686
 11
174.262619
 21
34.210686
  0
LINE
  8
0
 10
37.262615
 20
101.210693
 11
37.262615
 21
91.210693
  0
LINE
  8
0
  6
DASHED
 10
34.262615
 20
99.210693
 11
34.262615
 21
95.210693
  0
LINE
  8
0
  6
DASHED
 10
35.262615
 20
99.210693
 11
35.262615
 21
93.210693
  0
LINE
  8
0
  6
DASHED
 10
39.262615
 20
99.210693
 11
39.262615
 21
93.210693
  0
LINE
  8
0
  6
DASHED
 10
40.262615
 20
99.210693
 11
40.262615
 21
95.210693
  0
LINE
  8
0
  6
DASHED
 10
34.262615
 20
-8.789322
 11
34.262615
 21
-4.789322
  0
LINE
  8
0
 10
37.262615
 20
-10.789322
 11
37.262615
 21
-0.789322
  0
LINE
  8
0
  6
DASHED
 10
35.262615
 20
-8.789322
 11
35.262615
 21
-2.789322
  0
LINE
  8
0
  6
DASHED
 10
39.262615
 20
-8.789322
 11
39.262615
 21
-2.789322
  0
LINE
  8
0
  6
DASHED
 10
40.262615
 20
-8.789322
 11
40.262615
 21
-4.789322
  0
LINE
  8
0
  6
DASHED
 10
64.262619
 20
-8.789322
 11
64.262619
 21
-4.789322
  0
LINE
  8
0
  6
DASHED
 10
65.262619
 20
-8.789322
 11
65.262619
 21
-2.789322
  0
LINE
  8
0
 10
67.262619
 20
-10.789322
 11
67.262619
 21
-0.789322
  0
LINE
  8
0
  6
DASHED
 10
69.262619
 20
-8.789322
 11
69.262619
 21
-2.789322
  0
LINE
  8
0
  6
DASHED
 10
70.262619
 20
-8.789322
 11
70.262619
 21
-4.789322
  0
LINE
  8
0
 10
-20.737385
 20
83.210693
 11
2.262615
 21
83.210693
  0
LINE
  8
0
 10
28.262615
 20
101.846436
 11
28.262615
 21
84.143097
  0
LINE
  8
0
 10
76.262619
 20
102.696190
 11
76.262619
 21
83.859848
  0
LINE
  8
0
 10
20.686741
 20
92.210693
 11
35.982418
 21
92.210693
  0
LINE
  8
0
 10
68.981430
 20
92.210693
 11
83.710602
 21
92.210693
  0
LINE
  8
0
 10
76.262619
 20
5.948322
 11
76.262619
 21
-12.321518
  0
LINE
  8
0
 10
28.262615
 20
5.523441
 11
28.262615
 21
-12.463142
  0
LINE
  8
0
 10
20.181808
 20
-1.789322
 11
35.052608
 21
-1.789322
  0
LINE
  8
0
 10
68.618134
 20
-1.789322
 11
84.905197
 21
-1.789322
  0
LINE
  8
0
 10
176.262619
 20
83.210693
 11
176.262619
 21
71.210693
  0
LINE
  8
0
 10
176.262619
 20
19.210678
 11
176.262619
 21
7.210678
  0
LINE
  8
0
 10
174.262619
 20
19.210678
 11
176.262619
 21
19.210678
  0
LINE
  8
0
 10
174.262619
 20
7.210678
 11
176.262619
 21
7.210678
  0
LINE
  8
0
 10
174.262619
 20
83.210693
 11
176.262619
 21
83.210693
  0
LINE
  8
0
 10
174.262619
 20
71.210693
 11
176.262619
 21
71.210693
  0
ARC
  8
0
 10
13.615002
 20
45.210686
 40
34.352386
 50
171.786804
 51
179.999954
  0
ARC
  8
0
 10
-50.089680
 20
45.210686
 40
34.352291
 50
0.000000
 51
8.213224
  0
ARC
  8
0
 10
-5.741302
 20
53.367905
 40
14.999999
 50
178.690567
 51
192.512268
  0
ARC
  8
0
 10
-30.733467
 20
53.367912
 40
15.000000
 50
0.000000
 51
1.309412
  0
ARC
  8
0
 10
-30.733467
 20
53.367912
 40
15.000001
 50
347.487671
 51
0.000000
  0
CIRCLE
  8
0
 10
14.762615
 20
45.210686
 40
5.000000
  0
CIRCLE
  8
0
 10
128.762619
 20
45.210686
 40
5.000000
  0
CIRCLE
  8
0
 10
128.762619
 20
45.210686
 40
4.000000
  0
CIRCLE
  8
0
 10
14.762615
 20
45.210686
 40
4.000000
  0
ARC
  8
0
 10
-50.089680
 20
45.210686
 40
34.352291
 50
351.786713
 51
359.999939
  0
ARC
  8
0
 10
-30.733467
 20
37.053459
 40
15.000000
 50
359.999939
 51
12.512280
  0
ARC
  8
0
 10
-30.733467
 20
37.053459
 40
15.000000
 50
358.690521
 51
359.999939
  0
ARC
  8
0
 10
-5.741302
 20
37.053467
 40
14.999999
 50
167.487656
 51
181.309357
  0
ARC
  8
0
 10
13.615002
 20
45.210686
 40
34.352386
 50
179.999985
 51
188.213135
  0
CIRCLE
  8
0
 10
28.262615
 20
92.210693
 40
3.300000
  0
CIRCLE
  8
0
 10
76.262619
 20
92.210693
 40
3.300000
  0
CIRCLE
  8
0
 10
76.262619
 20
-1.789322
 40
3.300000
  0
CIRCLE
  8
0
 10
28.262615
 20
-1.789322
 40
3.300000
  0
CIRCLE
  8
0
 10
28.262615
 20
-1.789322
 40
5.500000
  0
CIRCLE
  8
0
 10
76.262619
 20
-1.789322
 40
5.500000
  0
CIRCLE
  8
0
 10
76.262619
 20
92.210693
 40
5.500000
  0
CIRCLE
  8
0
 10
28.262615
 20
92.210693
 40
5.500000
  0
CIRCLE
  8
0
  6
DASHED
 10
28.262615
 20
92.210693
 40
4.000000
  0
CIRCLE
  8
0
  6
DASHED
 10
76.262619
 20
92.210693
 40
4.000000
  0
CIRCLE
  8
0
  6
DASHED
 10
76.262619
 20
-1.789322
 40
4.000000
  0
CIRCLE
  8
0
  6
DASHED
 10
28.262615
 20
-1.789322
 40
4.000000
  0
POLYLINE
  8
0
 66
     1
  0
VERTEX
  8
0
 10
-4.031620
 20
37.416473
  0
VERTEX
  8
0
 10
-4.306532
 20
38.364124
  0
VERTEX
  8
0
 10
-4.547844
 20
39.322426
  0
VERTEX
  8
0
 10
-4.754615
 20
40.289860
  0
VERTEX
  8
0
 10
-4.925901
 20
41.264896
  0
VERTEX
  8
0
 10
-5.060763
 20
42.246021
  0
VERTEX
  8
0
 10
-5.158259
 20
43.231712
  0
VERTEX
  8
0
 10
-5.217446
 20
44.220448
  0
VERTEX
  8
0
 10
-5.237385
 20
45.210701
  0
VERTEX
  8
0
 10
-5.217445
 20
46.200954
  0
VERTEX
  8
0
 10
-5.158256
 20
47.189690
  0
VERTEX
  8
0
 10
-5.060758
 20
48.175381
  0
VERTEX
  8
0
 10
-4.925894
 20
49.156506
  0
VERTEX
  8
0
 10
-4.754604
 20
50.131546
  0
VERTEX
  8
0
 10
-4.547832
 20
51.098976
  0
VERTEX
  8
0
 10
-4.306518
 20
52.057278
  0
VERTEX
  8
0
 10
-4.031605
 20
53.004929
  0
SEQEND
  0
POLYLINE
  8
0
 66
     1
  0
VERTEX
  8
0
 10
-4.031605
 20
60.799156
  0
VERTEX
  8
0
 10
-4.431769
 20
60.081390
  0
VERTEX
  8
0
 10
-4.765148
 20
59.322517
  0
VERTEX
  8
0
 10
-5.019022
 20
58.532818
  0
VERTEX
  8
0
 10
-5.180674
 20
57.722569
  0
VERTEX
  8
0
 10
-5.237385
 20
56.902039
  0
VERTEX
  8
0
 10
-5.180675
 20
56.081512
  0
VERTEX
  8
0
 10
-5.019023
 20
55.271263
  0
VERTEX
  8
0
 10
-4.765148
 20
54.481564
  0
VERTEX
  8
0
 10
-4.431769
 20
53.722694
  0
VERTEX
  8
0
 10
-4.031605
 20
53.004929
  0
SEQEND
  0
POLYLINE
  8
0
 66
     1
  0
VERTEX
  8
0
 10
-4.031620
 20
37.416473
  0
VERTEX
  8
0
 10
-4.431782
 20
36.698708
  0
VERTEX
  8
0
 10
-4.765157
 20
35.939838
  0
VERTEX
  8
0
 10
-5.019028
 20
35.150139
  0
VERTEX
  8
0
 10
-5.180676
 20
34.339890
  0
VERTEX
  8
0
 10
-5.237385
 20
33.519363
  0
VERTEX
  8
0
 10
-5.180676
 20
32.698837
  0
VERTEX
  8
0
 10
-5.019028
 20
31.888584
  0
VERTEX
  8
0
 10
-4.765157
 20
31.098885
  0
VERTEX
  8
0
 10
-4.431782
 20
30.340012
  0
VERTEX
  8
0
 10
-4.031620
 20
29.622246
  0
SEQEND
  0
ENDSEC
  0
EOF
