  0
SECTION
  2
HEADER
  0
ENDSEC
  0
SECTION
  2
TABLES
  0
TABLE
  2
LTYPE
 70
     4
  0
LTYPE
  2
CONTINUOUS
 70
    64
  3
Solid line
 72
    65
 73
     0
 40
0.000000
  0
LTYPE
  2
DASHED
 70
    64
  3
__ __ __ __ __ __ __ __ __ __ __ __ __ __ __
 72
    65
 73
     2
 40
3.500000
 49
2.000000
 49
-1.500000
  0
LTYPE
  2
CENTER
 70
    64
  3
____ _ ____ _ ____ _ ____ _ ____ _ ____ _ ____
 72
    65
 73
     4
 40
17.500000
 49
13.000000
 49
-1.500000
 49
1.500000
 49
-1.500000
  0
LTYPE
  2
PHANTOM
 70
    64
  3
_____ _ _ _____ _ _ _____ _ _ _____ _ _ ____  
 72
    65
 73
     6
 40
15.500000
 49
8.000000
 49
-1.500000
 49
1.500000
 49
-1.500000
 49
1.500000
 49
-1.500000
  0
LTYPE
  2
DASHED1
 70
    64
  3
__ __ __ __ __ __ __ __ __ __ __ __ __ __ __
 72
    65
 73
     2
 40
1.500000
 49
1.000000
 49
-0.500000
  0
LTYPE
  2
DASHED2
 70
    64
  3
__ __ __ __ __ __ __ __ __ __ __ __ __ __ __
 72
    65
 73
     2
 40
3.500000
 49
2.500000
 49
-1.000000
  0
LTYPE
  2
DASHED3
 70
    64
  3
__ __ __ __ __ __ __ __ __ __ __ __ __ __ __
 72
    65
 73
     2
 40
6.000000
 49
4.000000
 49
-2.000000
  0
LTYPE
  2
DASHED4
 70
    64
  3
__ __ __ __ __ __ __ __ __ __ __ __ __ __ __
 72
    65
 73
     2
 40
12.000000
 49
10.000000
 49
-2.000000
  0
LTYPE
  2
DASHED5
 70
    64
  3
__ __ __ __ __ __ __ __ __ __ __ __ __ __ __
 72
    65
 73
     2
 40
17.000000
 49
15.000000
 49
-2.000000
  0
LTYPE
  2
DASHED6
 70
    64
  3
__ __ __ __ __ __ __ __ __ __ __ __ __ __ __
 72
    65
 73
     2
 40
29.000000
 49
27.000000
 49
-2.000000
  0
LTYPE
  2
PHANTOM1
 70
    64
  3
_____ _ _ _____ _ _ _____ _ _ _____ _ _ ____  
 72
    65
 73
     6
 40
31.000000
 49
25.000000
 49
-1.500000
 49
1.000000
 49
-1.000000
 49
1.000000
 49
-1.500000
  0
LTYPE
  2
PHANTOM2
 70
    64
  3
_____ _ _ _____ _ _ _____ _ _ _____ _ _ ____  
 72
    65
 73
     6
 40
36.000000
 49
27.000000
 49
-1.500000
 49
2.500000
 49
-1.000000
 49
2.500000
 49
-1.500000
  0
LTYPE
  2
PHANTOM3
 70
    64
  3
_____ _ _ _____ _ _ _____ _ _ _____ _ _ ____  
 72
    65
 73
     6
 40
78.000000
 49
64.000000
 49
-2.000000
 49
4.000000
 49
-2.000000
 49
4.000000
 49
-2.000000
  0
LTYPE
  2
CENTER1
 70
    64
  3
____ _ ____ _ ____ _ ____ _ ____ _ ____ _ ____
 72
    65
 73
     4
 40
19.000000
 49
14.000000
 49
-1.000000
 49
3.000000
 49
-1.000000
  0
LTYPE
  2
CENTER2
 70
    64
  3
____ _ ____ _ ____ _ ____ _ ____ _ ____ _ ____
 72
    65
 73
     4
 40
28.500000
 49
25.000000
 49
-1.000000
 49
1.500000
 49
-1.000000
  0
LTYPE
  2
CENTER3
 70
    64
  3
____ _ ____ _ ____ _ ____ _ ____ _ ____ _ ____
 72
    65
 73
     4
 40
31.500000
 49
27.000000
 49
-1.000000
 49
2.500000
 49
-1.000000
  0
LTYPE
  2
CENTER4
 70
    64
  3
____ _ ____ _ ____ _ ____ _ ____ _ ____ _ ____
 72
    65
 73
     4
 40
50.000000
 49
45.000000
 49
-1.000000
 49
3.000000
 49
-1.000000
  0
LTYPE
  2
CENTER5
 70
    64
  3
____ _ ____ _ ____ _ ____ _ ____ _ ____ _ ____
 72
    65
 73
     4
 40
100.000000
 49
92.000000
 49
-2.000000
 49
4.000000
 49
-2.000000
  0
LTYPE
  2
SBK1
 70
    64
  3
______ _ _ _ ______ _ _ _ ______ _ _ _ _____  
 72
    65
 73
     8
 40
60.500000
 49
45.000000
 49
-2.000000
 49
2.500000
 49
-2.000000
 49
2.500000
 49
-2.000000
 49
2.500000
 49
-2.000000
  0
LTYPE
  2
SBK2
 70
    64
  3
______ _ _ _ ______ _ _ _ ______ _ _ _ _____  
 72
    65
 73
     8
 40
84.000000
 49
64.000000
 49
-2.000000
 49
4.000000
 49
-2.000000
 49
4.000000
 49
-2.000000
 49
4.000000
 49
-2.000000
  0
LTYPE
  2
STCH
 70
    64
  3
__ __ __ __ __ __ __ __ __ __ __ __ __ __ __
 72
    65
 73
     2
 40
3.000000
 49
1.000000
 49
-2.000000
  0
LTYPE
  2
MTCH
 70
    64
  3
_____ _ _ _____ _ _ _____ _ _ _____ _ _ ____  
 72
    65
 73
     6
 40
80.000000
 49
66.000000
 49
-2.000000
 49
4.000000
 49
-2.000000
 49
4.000000
 49
-2.000000
  0
ENDTAB
  0
TABLE
  2
LAYER
 70
     1
  0
LAYER
  2
0
 70
     0
 62
     7
  6
CONTINUOUS
  0
ENDTAB
  0
TABLE
  2
STYLE
 70
     1
  0
STYLE
  2
STANDARD
 70
     0
 40
0.000000
 41
1.000000
 50
0.000000
 71
     0
 42
0.200000
  3
txt
  4
BIGFONT
  0
ENDTAB
  0
TABLE
  2
VIEW
 70
     0
  0
ENDTAB
  0
ENDSEC
  0
SECTION
  2
BLOCKS
  0
ENDSEC
  0
SECTION
  2
ENTITIES
  0
LINE
  8
0
 10
-262.247223
 20
-180.000046
 11
-262.247223
 21
180.000046
  0
LINE
  8
0
 10
262.247223
 20
180.000046
 11
262.247223
 21
-180.000046
  0
LINE
  8
0
 10
-262.247223
 20
-180.000046
 11
262.247223
 21
-180.000046
  0
LINE
  8
0
 10
-262.247223
 20
180.000046
 11
262.247223
 21
180.000046
  0
LINE
  8
0
 10
-262.247223
 20
159.775299
 11
-154.382050
 21
159.775299
  0
LINE
  8
0
 10
-154.382050
 20
159.775299
 11
-154.382050
 21
180.000046
  0
LINE
  8
0
 10
154.382034
 20
-159.775345
 11
262.247223
 21
-159.775345
  0
LINE
  8
0
 10
154.382034
 20
159.775299
 11
262.247223
 21
159.775299
  0
LINE
  8
0
 10
154.382034
 20
180.000046
 11
154.382034
 21
159.775299
  0
LINE
  8
0
 10
154.382034
 20
-159.775345
 11
154.382034
 21
-180.000046
  0
TEXT
  8
0
 10
160.213089
 20
165.487701
 40
6.000000
  1
DATE : SEP ,1992
 50
0.000000
 41
1.052631
 51
0.000000
  7
STANDARD
  0
TEXT
  8
0
 10
-240.564621
 20
164.587692
 40
7.000000
  1
GA SERIES
 50
0.000000
 41
1.052632
 51
0.000000
  7
STANDARD
  0
TEXT
  8
0
 10
162.064636
 20
-175.187698
 40
7.000000
  1
KOGANEI CORP.
 50
0.000000
 41
1.052632
 51
0.000000
  7
STANDARD
  0
TEXT
  8
0
 10
-237.434799
 20
127.233246
 40
8.000000
  1
MODEL:GADA25X50-K2-S2
 50
0.000000
 41
1.052632
 51
0.000000
  7
STANDARD
  0
POINT
  8
0
 10
-163.739731
 20
42.911263
  0
POINT
  8
0
 10
-144.239731
 20
42.911263
  0
LINE
  8
0
 10
-215.699326
 20
42.911263
 11
-132.232651
 21
42.911263
  0
LINE
  8
0
 10
-163.739731
 20
118.689522
 11
-163.739731
 21
-27.677757
  0
LINE
  8
0
 10
-173.239731
 20
48.396095
 11
-173.239731
 21
37.426445
  0
LINE
  8
0
 10
-154.239731
 20
48.396095
 11
-154.239731
 21
37.426437
  0
LINE
  8
0
 10
-173.239777
 20
48.396214
 11
-163.739761
 21
53.881046
  0
LINE
  8
0
 10
-163.739746
 20
53.880920
 11
-154.239777
 21
48.396103
  0
LINE
  8
0
 10
-173.239761
 20
37.426414
 11
-163.739777
 21
31.941597
  0
LINE
  8
0
 10
-163.739624
 20
31.941467
 11
-154.239639
 21
37.426281
  0
LINE
  8
0
 10
-175.739731
 20
98.911263
 11
-175.739731
 21
86.911263
  0
LINE
  8
0
 10
-151.739731
 20
98.911263
 11
-151.739731
 21
86.911263
  0
LINE
  8
0
 10
-151.739731
 20
73.911263
 11
-151.739731
 21
61.911263
  0
LINE
  8
0
 10
-181.739731
 20
92.911263
 11
-169.739731
 21
92.911263
  0
LINE
  8
0
 10
-157.739731
 20
92.911263
 11
-146.684631
 21
92.911263
  0
LINE
  8
0
 10
-157.739731
 20
67.911263
 11
-146.684631
 21
67.911263
  0
LINE
  8
0
 10
-181.739731
 20
67.911263
 11
-169.739731
 21
67.911263
  0
LINE
  8
0
 10
-175.739731
 20
73.911263
 11
-175.739731
 21
61.911263
  0
LINE
  8
0
 10
-175.739731
 20
-13.351231
 11
-175.739731
 21
-1.088737
  0
LINE
  8
0
 10
-151.739731
 20
-13.351231
 11
-151.739731
 21
-1.088737
  0
LINE
  8
0
 10
-151.739731
 20
11.911263
 11
-151.739731
 21
23.911263
  0
LINE
  8
0
 10
-181.739731
 20
-7.088737
 11
-169.739731
 21
-7.088737
  0
LINE
  8
0
 10
-157.739731
 20
-7.088737
 11
-146.684631
 21
-7.088737
  0
LINE
  8
0
 10
-157.739731
 20
17.911263
 11
-146.684631
 21
17.911263
  0
LINE
  8
0
 10
-181.739731
 20
17.911263
 11
-169.739731
 21
17.911263
  0
LINE
  8
0
 10
-175.739731
 20
11.911263
 11
-175.739731
 21
23.911263
  0
LINE
  8
0
 10
-195.239731
 20
104.411263
 11
-195.239731
 21
-18.588737
  0
LINE
  8
0
 10
-145.239731
 20
104.411263
 11
-145.239731
 21
-18.588737
  0
LINE
  8
0
 10
-195.239731
 20
-18.588737
 11
-145.239731
 21
-18.588737
  0
LINE
  8
0
 10
-195.239731
 20
104.411263
 11
-145.239731
 21
104.411263
  0
LINE
  8
0
 10
-202.239731
 20
105.411263
 11
-202.239731
 21
-19.588737
  0
LINE
  8
0
 10
-144.239731
 20
105.411263
 11
-144.239731
 21
-19.588737
  0
LINE
  8
0
 10
-202.239731
 20
105.411263
 11
-144.239731
 21
105.411263
  0
LINE
  8
0
 10
-202.239731
 20
-19.588737
 11
-144.239731
 21
-19.588737
  0
LINE
  8
0
 10
-206.739731
 20
106.911263
 11
-206.739731
 21
82.911263
  0
LINE
  8
0
 10
-142.739731
 20
106.911263
 11
-142.739731
 21
72.411263
  0
LINE
  8
0
 10
-206.739731
 20
106.911263
 11
-190.739731
 21
106.911263
  0
LINE
  8
0
 10
-206.739731
 20
2.911263
 11
-205.239731
 21
2.911263
  0
LINE
  8
0
 10
-206.739731
 20
82.911263
 11
-205.239731
 21
82.911263
  0
LINE
  8
0
 10
-205.239731
 20
82.911263
 11
-205.239731
 21
2.911263
  0
LINE
  8
0
 10
-206.739731
 20
2.911263
 11
-206.739731
 21
-21.088737
  0
LINE
  8
0
 10
-190.739731
 20
106.911263
 11
-190.739731
 21
105.911263
  0
LINE
  8
0
 10
-158.739731
 20
106.911263
 11
-158.739731
 21
105.911263
  0
LINE
  8
0
 10
-190.739731
 20
105.911263
 11
-158.739731
 21
105.911263
  0
LINE
  8
0
 10
-158.739731
 20
106.911263
 11
-142.739731
 21
106.911263
  0
LINE
  8
0
 10
-206.739731
 20
-21.088737
 11
-190.739731
 21
-21.088737
  0
LINE
  8
0
 10
-190.739731
 20
-21.088737
 11
-190.739731
 21
-20.088737
  0
LINE
  8
0
 10
-190.739731
 20
-20.088737
 11
-158.739731
 21
-20.088737
  0
LINE
  8
0
 10
-158.739731
 20
-21.088737
 11
-142.739731
 21
-21.088737
  0
LINE
  8
0
 10
-158.739731
 20
-21.088737
 11
-158.739731
 21
-20.088737
  0
LINE
  8
0
 10
-142.739838
 20
72.411385
 11
-144.239838
 21
70.911392
  0
LINE
  8
0
 10
-142.739731
 20
13.411308
 11
-144.239716
 21
14.911295
  0
LINE
  8
0
 10
-142.739731
 20
13.411263
 11
-142.739731
 21
-21.088737
  0
CIRCLE
  8
0
 10
-175.739731
 20
17.911263
 40
3.000000
  0
CIRCLE
  8
0
 10
-151.739731
 20
-7.088737
 40
3.300000
  0
CIRCLE
  8
0
 10
-163.739731
 20
42.911263
 40
5.000000
  0
CIRCLE
  8
0
 10
-163.739731
 20
42.911263
 40
4.375000
  0
CIRCLE
  8
0
 10
-175.739731
 20
92.911263
 40
3.300000
  0
CIRCLE
  8
0
 10
-175.739731
 20
67.911263
 40
2.500000
  0
CIRCLE
  8
0
 10
-151.739731
 20
67.911263
 40
2.500000
  0
CIRCLE
  8
0
 10
-151.739731
 20
67.911263
 40
3.000000
  0
CIRCLE
  8
0
 10
-175.739731
 20
67.911263
 40
3.000000
  0
CIRCLE
  8
0
 10
-151.739731
 20
92.911263
 40
3.300000
  0
CIRCLE
  8
0
 10
-175.739731
 20
-7.088737
 40
3.300000
  0
CIRCLE
  8
0
 10
-175.739731
 20
17.911263
 40
2.500000
  0
CIRCLE
  8
0
 10
-151.739731
 20
17.911263
 40
2.500000
  0
CIRCLE
  8
0
 10
-151.739731
 20
17.911263
 40
3.000000
  0
POINT
  8
0
 10
-53.239777
 20
-97.088745
  0
POINT
  8
0
 10
190.760239
 20
-97.088745
  0
LINE
  8
0
  6
CENTER
 10
111.260223
 20
-80.460022
 11
111.260223
 21
-95.580017
  0
LINE
  8
0
 10
-41.239777
 20
-78.588745
 11
-41.239777
 21
-129.588745
  0
LINE
  8
0
 10
-15.239777
 20
-77.588745
 11
-15.239777
 21
-135.588745
  0
LINE
  8
0
 10
-5.239777
 20
-76.088745
 11
-5.239777
 21
-140.088745
  0
LINE
  8
0
 10
176.760239
 20
-78.588745
 11
176.760239
 21
-128.588745
  0
LINE
  8
0
 10
188.760239
 20
-78.588745
 11
188.760239
 21
-128.588745
  0
LINE
  8
0
 10
122.260223
 20
-115.088745
 11
111.760208
 21
-115.088745
  0
LINE
  8
0
 10
123.760223
 20
-116.588745
 11
111.760208
 21
-116.588745
  0
LINE
  8
0
 10
122.260223
 20
-115.088745
 11
122.260223
 21
-131.088745
  0
LINE
  8
0
 10
122.260284
 20
-115.088707
 11
123.760284
 21
-116.588707
  0
LINE
  8
0
 10
128.760223
 20
-116.588745
 11
123.760223
 21
-116.588745
  0
LINE
  8
0
 10
123.760223
 20
-116.588745
 11
123.760223
 21
-129.588745
  0
LINE
  8
0
 10
128.760223
 20
-129.588745
 11
123.760223
 21
-129.588745
  0
LINE
  8
0
 10
123.760223
 20
-129.588745
 11
111.760208
 21
-129.588745
  0
LINE
  8
0
 10
122.260223
 20
-131.088745
 11
111.760208
 21
-131.088745
  0
LINE
  8
0
 10
123.760147
 20
-129.588730
 11
122.260147
 21
-131.088745
  0
LINE
  8
0
 10
128.760223
 20
-120.588745
 11
143.760223
 21
-120.588745
  0
LINE
  8
0
 10
128.760223
 20
-125.588745
 11
143.760223
 21
-125.588745
  0
LINE
  8
0
 10
143.760223
 20
-120.588745
 11
143.760223
 21
-125.588745
  0
LINE
  8
0
 10
120.260223
 20
-86.088745
 11
120.260223
 21
-89.088745
  0
LINE
  8
0
 10
119.260223
 20
-82.588745
 11
104.760223
 21
-82.588745
  0
LINE
  8
0
 10
119.260223
 20
-86.088745
 11
120.260223
 21
-86.088745
  0
LINE
  8
0
 10
119.260223
 20
-82.588745
 11
119.260223
 21
-89.088745
  0
LINE
  8
0
 10
-41.239777
 20
-105.088745
 11
-15.239777
 21
-105.088745
  0
LINE
  8
0
 10
-41.239777
 20
-89.088745
 11
-15.239777
 21
-89.088745
  0
LINE
  8
0
 10
105.260223
 20
-105.088745
 11
176.760239
 21
-105.088745
  0
LINE
  8
0
 10
105.260223
 20
-89.088745
 11
176.760239
 21
-89.088745
  0
LINE
  8
0
 10
120.260223
 20
-108.088745
 11
120.260223
 21
-105.088745
  0
LINE
  8
0
 10
119.260223
 20
-111.588745
 11
104.760223
 21
-111.588745
  0
LINE
  8
0
 10
119.260223
 20
-108.088745
 11
120.260223
 21
-108.088745
  0
LINE
  8
0
 10
119.260223
 20
-111.588745
 11
119.260223
 21
-105.088745
  0
LINE
  8
0
 10
-66.750015
 20
-97.088745
 11
198.994125
 21
-97.088745
  0
LINE
  8
0
 10
-53.239777
 20
-78.588745
 11
-53.239777
 21
-128.588745
  0
LINE
  8
0
 10
-24.739777
 20
-82.088745
 11
-15.239777
 21
-82.088745
  0
LINE
  8
0
 10
-24.739777
 20
-112.088745
 11
-15.239777
 21
-112.088745
  0
LINE
  8
0
 10
-24.739777
 20
-82.088745
 11
-24.739777
 21
-89.088745
  0
LINE
  8
0
 10
-24.739777
 20
-105.088745
 11
-24.739777
 21
-112.088745
  0
LINE
  8
0
 10
-53.239777
 20
-128.588745
 11
-41.239777
 21
-128.588745
  0
LINE
  8
0
 10
-53.239777
 20
-78.588745
 11
-41.239777
 21
-78.588745
  0
LINE
  8
0
 10
-15.239777
 20
-135.588745
 11
-5.239777
 21
-135.588745
  0
LINE
  8
0
 10
-15.239777
 20
-77.588745
 11
-5.239777
 21
-77.588745
  0
LINE
  8
0
 10
-5.239777
 20
-140.088745
 11
104.760223
 21
-140.088745
  0
LINE
  8
0
 10
-5.239777
 20
-76.088745
 11
104.760223
 21
-76.088745
  0
LINE
  8
0
 10
104.760223
 20
-76.088745
 11
104.760223
 21
-140.088745
  0
LINE
  8
0
 10
-5.239777
 20
-124.088745
 11
104.760223
 21
-124.088745
  0
LINE
  8
0
 10
-5.239777
 20
-92.088745
 11
104.760223
 21
-92.088745
  0
LINE
  8
0
 10
176.760239
 20
-128.588745
 11
188.760239
 21
-128.588745
  0
LINE
  8
0
 10
176.760239
 20
-78.588745
 11
188.760239
 21
-78.588745
  0
LINE
  8
0
 10
110.911713
 20
-134.058426
 11
105.608734
 21
-134.058426
  0
LINE
  8
0
 10
110.911713
 20
-128.516525
 11
105.608734
 21
-128.516525
  0
LINE
  8
0
 10
110.911713
 20
-117.661003
 11
105.608734
 21
-117.661003
  0
LINE
  8
0
 10
110.911713
 20
-112.119133
 11
105.608734
 21
-112.119133
  0
LINE
  8
0
 10
111.760300
 20
-113.588768
 11
110.911789
 21
-112.119110
  0
LINE
  8
0
 10
111.760208
 20
-132.588776
 11
111.760208
 21
-113.588745
  0
LINE
  8
0
 10
111.760101
 20
-132.588684
 11
110.911591
 21
-134.058319
  0
LINE
  8
0
 10
104.760422
 20
-113.588875
 11
105.608948
 21
-112.119202
  0
LINE
  8
0
 10
104.760208
 20
-132.588776
 11
104.760208
 21
-113.588745
  0
LINE
  8
0
 10
104.760269
 20
-132.588776
 11
105.608780
 21
-134.058441
  0
LINE
  8
0
 10
-34.739777
 20
-115.088745
 11
-22.239777
 21
-115.088745
  0
LINE
  8
0
 10
-34.739777
 20
-131.088745
 11
-22.239777
 21
-131.088745
  0
LINE
  8
0
 10
-41.239777
 20
-116.588745
 11
-36.239777
 21
-116.588745
  0
LINE
  8
0
 10
-41.239777
 20
-129.588745
 11
-36.239777
 21
-129.588745
  0
LINE
  8
0
 10
-36.239777
 20
-116.588745
 11
-36.239777
 21
-129.588745
  0
LINE
  8
0
 10
-36.239777
 20
-116.588745
 11
-22.239777
 21
-116.588745
  0
LINE
  8
0
 10
-36.239777
 20
-129.588745
 11
-22.239777
 21
-129.588745
  0
LINE
  8
0
 10
-34.739662
 20
-115.088852
 11
-36.239674
 21
-116.588860
  0
LINE
  8
0
 10
-36.239822
 20
-129.588806
 11
-34.739822
 21
-131.088806
  0
LINE
  8
0
 10
-34.739777
 20
-115.088745
 11
-34.739777
 21
-131.088745
  0
LINE
  8
0
 10
-15.239853
 20
-113.588699
 11
-16.088364
 21
-112.119034
  0
LINE
  8
0
 10
-15.239777
 20
-113.588699
 11
-15.239777
 21
-132.588730
  0
LINE
  8
0
 10
-15.239887
 20
-132.588654
 11
-16.088406
 21
-134.058334
  0
LINE
  8
0
 10
-21.391266
 20
-117.660965
 11
-16.088287
 21
-117.660965
  0
LINE
  8
0
 10
-21.391266
 20
-128.516495
 11
-16.088287
 21
-128.516495
  0
LINE
  8
0
 10
-21.391266
 20
-134.058365
 11
-16.088287
 21
-134.058365
  0
LINE
  8
0
 10
-22.239843
 20
-132.588715
 11
-21.391331
 21
-134.058380
  0
LINE
  8
0
 10
-22.239777
 20
-113.588699
 11
-22.239777
 21
-132.588730
  0
LINE
  8
0
 10
-22.239653
 20
-113.588776
 11
-21.391148
 21
-112.119141
  0
LINE
  8
0
 10
128.760223
 20
-116.588745
 11
128.760223
 21
-129.588745
  0
LINE
  8
0
 10
190.760239
 20
-89.088745
 11
190.760239
 21
-105.088745
  0
LINE
  8
0
 10
188.760239
 20
-89.088745
 11
190.760239
 21
-89.088745
  0
LINE
  8
0
 10
188.760239
 20
-105.088745
 11
190.760239
 21
-105.088745
  0
LINE
  8
0
 10
24.760223
 20
-78.515701
 11
24.760223
 21
-89.098755
  0
LINE
  8
0
 10
64.760223
 20
-79.348068
 11
64.760223
 21
-89.931129
  0
LINE
  8
0
 10
18.770897
 20
-84.088745
 11
30.899796
 21
-84.088745
  0
LINE
  8
0
 10
18.295250
 20
-132.088745
 11
30.543060
 21
-132.088745
  0
LINE
  8
0
 10
58.368179
 20
-84.088745
 11
71.329453
 21
-84.088745
  0
LINE
  8
0
 10
24.760223
 20
-125.842178
 11
24.760223
 21
-137.257614
  0
LINE
  8
0
 10
64.760223
 20
-127.150200
 11
64.760223
 21
-137.614349
  0
LINE
  8
0
 10
60.032928
 20
-132.088745
 11
71.091629
 21
-132.088745
  0
ARC
  8
0
 10
-20.188080
 20
-131.287430
 40
4.948343
 50
334.057648
 51
34.053883
  0
ARC
  8
0
 10
-17.291473
 20
-131.287430
 40
4.948341
 50
145.946106
 51
205.953949
  0
CIRCLE
  8
0
 10
24.760223
 20
-84.088745
 40
3.000000
  0
CIRCLE
  8
0
 10
64.760223
 20
-84.088745
 40
3.000000
  0
CIRCLE
  8
0
 10
64.760223
 20
-132.088745
 40
3.000000
  0
CIRCLE
  8
0
 10
24.760223
 20
-132.088745
 40
3.000000
  0
CIRCLE
  8
0
 10
24.760223
 20
-84.088745
 40
2.000000
  0
CIRCLE
  8
0
 10
64.760223
 20
-84.088745
 40
2.000000
  0
CIRCLE
  8
0
 10
64.760223
 20
-132.088745
 40
2.000000
  0
CIRCLE
  8
0
 10
24.760223
 20
-132.088745
 40
2.000000
  0
ARC
  8
0
 10
5.186668
 20
-91.188255
 40
30.000002
 50
162.343079
 51
175.986969
  0
ARC
  8
0
 10
5.186668
 20
-102.989235
 40
30.000000
 50
184.012970
 51
197.656860
  0
ARC
  8
0
 10
106.811920
 20
-114.890045
 40
4.948346
 50
325.946136
 51
25.954113
  0
ARC
  8
0
 10
93.975616
 20
-123.088745
 40
17.784567
 50
342.230133
 51
17.769920
  0
ARC
  8
0
 10
106.811920
 20
-131.287476
 40
4.948346
 50
334.067291
 51
34.053860
  0
ARC
  8
0
 10
109.708527
 20
-114.890045
 40
4.948343
 50
154.057663
 51
214.053864
  0
ARC
  8
0
 10
122.544769
 20
-123.088745
 40
17.784555
 50
162.230072
 51
197.769852
  0
ARC
  8
0
 10
109.708527
 20
-131.287476
 40
4.948346
 50
145.946136
 51
205.940369
  0
ARC
  8
0
 10
-33.024323
 20
-123.088730
 40
17.784559
 50
342.230072
 51
17.769867
  0
ARC
  8
0
 10
-4.455170
 20
-123.088730
 40
17.784561
 50
162.230087
 51
197.769867
  0
ARC
  8
0
 10
-17.291473
 20
-114.889999
 40
4.948347
 50
154.067307
 51
214.053879
  0
ARC
  8
0
 10
-20.188080
 20
-114.889999
 40
4.948347
 50
325.946045
 51
25.940462
  0
POINT
  8
0
 10
-53.239758
 20
42.911270
  0
POINT
  8
0
 10
188.760254
 20
42.911270
  0
LINE
  8
0
 10
-5.239758
 20
106.911270
 11
-5.239758
 21
57.411270
  0
LINE
  8
0
 10
24.760242
 20
110.448303
 11
24.760242
 21
93.928314
  0
LINE
  8
0
 10
-41.239758
 20
88.911270
 11
-15.239758
 21
88.911270
  0
LINE
  8
0
 10
-41.239758
 20
72.911270
 11
-15.239758
 21
72.911270
  0
LINE
  8
0
 10
104.760239
 20
88.911270
 11
176.760254
 21
88.911270
  0
LINE
  8
0
 10
104.760239
 20
72.911270
 11
176.760254
 21
72.911270
  0
LINE
  8
0
 10
-40.845959
 20
53.880928
 11
-35.633549
 21
53.880928
  0
LINE
  8
0
 10
-40.845959
 20
48.396103
 11
-35.633541
 21
48.396103
  0
LINE
  8
0
 10
-35.239758
 20
52.411270
 11
-35.239758
 21
42.911270
  0
LINE
  8
0
 10
-41.239746
 20
52.411263
 11
-40.845955
 21
53.880920
  0
LINE
  8
0
 10
-35.633553
 20
53.880932
 11
-35.239761
 21
52.411293
  0
LINE
  8
0
 10
-33.739758
 20
47.911270
 11
-33.739758
 21
42.911270
  0
LINE
  8
0
 10
-31.739758
 20
47.911270
 11
-31.739758
 21
42.911270
  0
LINE
  8
0
 10
-31.739758
 20
47.911270
 11
-35.239758
 21
47.911270
  0
LINE
  8
0
 10
-30.739758
 20
48.911270
 11
-24.739758
 21
48.911270
  0
LINE
  8
0
 10
-33.739758
 20
47.211273
 11
-35.239758
 21
47.211273
  0
LINE
  8
0
 10
-31.739645
 20
47.911133
 11
-30.739643
 21
48.911133
  0
LINE
  8
0
 10
-33.739830
 20
47.211399
 11
-32.527393
 21
47.911400
  0
LINE
  8
0
 10
177.760254
 20
99.911270
 11
187.760254
 21
99.911270
  0
LINE
  8
0
 10
177.760254
 20
92.911270
 11
177.760254
 21
99.911270
  0
LINE
  8
0
 10
187.760254
 20
92.911270
 11
187.760254
 21
99.911270
  0
LINE
  8
0
 10
-2.739758
 20
50.339035
 11
-2.739758
 21
35.083748
  0
LINE
  8
0
 10
-70.849991
 20
80.911270
 11
202.774460
 21
80.911270
  0
LINE
  8
0
 10
-60.849995
 20
42.911270
 11
206.488693
 21
42.911270
  0
LINE
  8
0
  6
DASHED
 10
20.760242
 20
106.911270
 11
20.760242
 21
100.911270
  0
LINE
  8
0
  6
DASHED
 10
28.760242
 20
106.911270
 11
28.760242
 21
100.911270
  0
LINE
  8
0
  6
DASHED
 10
21.760242
 20
106.911270
 11
21.760242
 21
98.911270
  0
LINE
  8
0
  6
DASHED
 10
27.760242
 20
106.911270
 11
27.760242
 21
98.911270
  0
LINE
  8
0
 10
176.760254
 20
92.911270
 11
176.760254
 21
-7.088730
  0
LINE
  8
0
 10
188.760254
 20
92.911270
 11
188.760254
 21
-7.088730
  0
LINE
  8
0
 10
-15.239758
 20
105.411270
 11
-15.239758
 21
-19.588730
  0
LINE
  8
0
 10
-10.739758
 20
57.411270
 11
5.260242
 21
57.411270
  0
LINE
  8
0
 10
-10.739758
 20
62.411270
 11
-10.739758
 21
23.411270
  0
LINE
  8
0
 10
5.260242
 20
57.411270
 11
5.260242
 21
28.411270
  0
LINE
  8
0
 10
-23.400005
 20
60.231781
 11
-15.739758
 21
60.231781
  0
LINE
  8
0
 10
-23.400005
 20
51.571526
 11
-15.739758
 21
51.571526
  0
LINE
  8
0
 10
-15.739758
 20
57.911270
 11
-15.239758
 21
57.911270
  0
LINE
  8
0
 10
-24.739740
 20
57.911266
 11
-23.400007
 21
60.231762
  0
LINE
  8
0
 10
-15.239758
 20
42.911270
 11
-15.239758
 21
57.911270
  0
LINE
  8
0
 10
-15.739758
 20
42.911270
 11
-15.739758
 21
60.231781
  0
LINE
  8
0
 10
-24.739758
 20
42.911270
 11
-24.739758
 21
57.911270
  0
LINE
  8
0
 10
-5.239758
 20
-21.088730
 11
-5.239758
 21
28.411270
  0
LINE
  8
0
 10
-41.239758
 20
-18.588730
 11
-41.239758
 21
104.411270
  0
LINE
  8
0
 10
-40.845959
 20
31.941612
 11
-35.633549
 21
31.941612
  0
LINE
  8
0
 10
-40.845959
 20
37.426437
 11
-35.633541
 21
37.426437
  0
LINE
  8
0
 10
-35.239758
 20
33.411270
 11
-35.239758
 21
42.911270
  0
LINE
  8
0
 10
-41.239750
 20
33.411282
 11
-40.845955
 21
31.941626
  0
LINE
  8
0
 10
-35.633549
 20
31.941618
 11
-35.239758
 21
33.411266
  0
LINE
  8
0
 10
-33.739758
 20
37.911270
 11
-33.739758
 21
42.911270
  0
LINE
  8
0
 10
-31.739758
 20
37.911270
 11
-31.739758
 21
42.911270
  0
LINE
  8
0
 10
-31.739758
 20
37.911270
 11
-35.239758
 21
37.911270
  0
LINE
  8
0
 10
-30.739758
 20
36.911270
 11
-24.739758
 21
36.911270
  0
LINE
  8
0
 10
-31.739775
 20
37.911285
 11
-30.739773
 21
36.911285
  0
LINE
  8
0
 10
-33.739742
 20
38.611259
 11
-32.527309
 21
37.911266
  0
LINE
  8
0
 10
-30.739758
 20
36.911270
 11
-30.739758
 21
48.911270
  0
LINE
  8
0
 10
-70.849991
 20
4.911270
 11
202.302887
 21
4.911270
  0
LINE
  8
0
 10
-53.239758
 20
-18.588730
 11
-53.239758
 21
104.411270
  0
LINE
  8
0
 10
-10.739758
 20
28.411270
 11
5.260242
 21
28.411270
  0
LINE
  8
0
 10
-23.400005
 20
25.590759
 11
-15.739758
 21
25.590759
  0
LINE
  8
0
 10
-23.400005
 20
34.251015
 11
-15.739758
 21
34.251015
  0
LINE
  8
0
 10
-15.739758
 20
27.911270
 11
-15.239758
 21
27.911270
  0
LINE
  8
0
 10
-24.739742
 20
27.911282
 11
-23.400005
 21
25.590778
  0
LINE
  8
0
 10
-15.239758
 20
42.911270
 11
-15.239758
 21
27.911270
  0
LINE
  8
0
 10
-15.739758
 20
42.911270
 11
-15.739758
 21
25.590759
  0
LINE
  8
0
 10
-24.739758
 20
42.911270
 11
-24.739758
 21
27.911270
  0
LINE
  8
0
 10
-41.239758
 20
12.911270
 11
-15.239758
 21
12.911270
  0
LINE
  8
0
 10
-41.239758
 20
-3.088730
 11
-15.239758
 21
-3.088730
  0
LINE
  8
0
 10
104.760239
 20
12.911270
 11
176.760254
 21
12.911270
  0
LINE
  8
0
 10
104.760239
 20
-3.088730
 11
176.760254
 21
-3.088730
  0
LINE
  8
0
 10
120.260239
 20
53.911270
 11
120.260239
 21
31.911270
  0
LINE
  8
0
 10
119.260239
 20
57.411270
 11
103.260239
 21
57.411270
  0
LINE
  8
0
 10
119.260239
 20
53.911270
 11
120.260239
 21
53.911270
  0
LINE
  8
0
 10
103.260239
 20
57.411270
 11
103.260239
 21
28.411270
  0
LINE
  8
0
 10
119.260239
 20
57.411270
 11
119.260239
 21
28.411270
  0
LINE
  8
0
 10
111.260239
 20
35.129082
 11
111.260239
 21
50.646408
  0
LINE
  8
0
 10
119.260239
 20
28.411270
 11
103.260239
 21
28.411270
  0
LINE
  8
0
 10
119.260239
 20
31.911270
 11
120.260239
 21
31.911270
  0
LINE
  8
0
 10
5.260242
 20
56.211273
 11
103.260239
 21
56.211273
  0
LINE
  8
0
 10
5.260242
 20
29.611267
 11
103.260239
 21
29.611267
  0
LINE
  8
0
 10
-53.239758
 20
-18.588730
 11
-41.239758
 21
-18.588730
  0
LINE
  8
0
 10
-53.239758
 20
104.411270
 11
-41.239758
 21
104.411270
  0
LINE
  8
0
 10
-15.239758
 20
-19.588730
 11
-5.239758
 21
-19.588730
  0
LINE
  8
0
 10
-15.239758
 20
105.411270
 11
-5.239758
 21
105.411270
  0
LINE
  8
0
 10
-5.239758
 20
-21.088730
 11
104.760239
 21
-21.088730
  0
LINE
  8
0
 10
-5.239758
 20
106.911270
 11
104.760239
 21
106.911270
  0
LINE
  8
0
 10
104.760239
 20
-21.088730
 11
104.760239
 21
28.411270
  0
LINE
  8
0
 10
104.760239
 20
106.911270
 11
104.760239
 21
57.411270
  0
LINE
  8
0
 10
-10.739758
 20
62.411270
 11
104.760239
 21
62.411270
  0
LINE
  8
0
 10
-10.739758
 20
23.411270
 11
104.760239
 21
23.411270
  0
LINE
  8
0
 10
-5.239758
 20
13.411270
 11
104.760239
 21
13.411270
  0
LINE
  8
0
 10
-5.239758
 20
72.411270
 11
104.760239
 21
72.411270
  0
LINE
  8
0
 10
176.760254
 20
17.911270
 11
188.760254
 21
17.911270
  0
LINE
  8
0
 10
176.760254
 20
67.911270
 11
188.760254
 21
67.911270
  0
LINE
  8
0
 10
176.760254
 20
27.911270
 11
188.760254
 21
27.911270
  0
LINE
  8
0
 10
176.760254
 20
57.911270
 11
188.760254
 21
57.911270
  0
LINE
  8
0
 10
177.760254
 20
-14.088730
 11
187.760254
 21
-14.088730
  0
LINE
  8
0
 10
177.760254
 20
-7.088730
 11
177.760254
 21
-14.088730
  0
LINE
  8
0
 10
187.760254
 20
-7.088730
 11
187.760254
 21
-14.088730
  0
LINE
  8
0
 10
176.760254
 20
92.911270
 11
188.760254
 21
92.911270
  0
LINE
  8
0
 10
176.760254
 20
-7.088730
 11
188.760254
 21
-7.088730
  0
LINE
  8
0
  6
DASHED
 10
60.760242
 20
106.911270
 11
60.760242
 21
100.911270
  0
LINE
  8
0
  6
DASHED
 10
61.760242
 20
106.911270
 11
61.760242
 21
98.911270
  0
LINE
  8
0
 10
64.760239
 20
110.448303
 11
64.760239
 21
93.928314
  0
LINE
  8
0
  6
DASHED
 10
67.760239
 20
106.911270
 11
67.760239
 21
98.911270
  0
LINE
  8
0
  6
DASHED
 10
68.760239
 20
106.911270
 11
68.760239
 21
100.911270
  0
LINE
  8
0
  6
DASHED
 10
68.760239
 20
-21.088730
 11
68.760239
 21
-15.088730
  0
LINE
  8
0
  6
DASHED
 10
20.760242
 20
-21.088730
 11
20.760242
 21
-15.088730
  0
LINE
  8
0
  6
DASHED
 10
21.760242
 20
-21.088730
 11
21.760242
 21
-13.088730
  0
LINE
  8
0
 10
24.760242
 20
-24.625763
 11
24.760242
 21
-8.105774
  0
LINE
  8
0
  6
DASHED
 10
27.760242
 20
-21.088730
 11
27.760242
 21
-13.088730
  0
LINE
  8
0
  6
DASHED
 10
28.760242
 20
-21.088730
 11
28.760242
 21
-15.088730
  0
LINE
  8
0
  6
DASHED
 10
60.760242
 20
-21.088730
 11
60.760242
 21
-15.088730
  0
LINE
  8
0
  6
DASHED
 10
61.760242
 20
-21.088730
 11
61.760242
 21
-13.088730
  0
LINE
  8
0
 10
64.760239
 20
-24.625763
 11
64.760239
 21
-8.105774
  0
LINE
  8
0
  6
DASHED
 10
67.760239
 20
-21.088730
 11
67.760239
 21
-13.088730
  0
LINE
  8
0
 10
-15.239758
 20
94.411301
 11
-15.239758
 21
75.411270
  0
LINE
  8
0
 10
-15.239758
 20
10.411301
 11
-15.239758
 21
-8.588730
  0
LINE
  8
0
 10
190.760254
 20
88.911270
 11
190.760254
 21
72.911270
  0
LINE
  8
0
 10
188.760254
 20
88.911270
 11
190.760254
 21
88.911270
  0
LINE
  8
0
 10
188.760254
 20
72.911270
 11
190.760254
 21
72.911270
  0
LINE
  8
0
 10
188.760254
 20
12.911270
 11
190.760254
 21
12.911270
  0
LINE
  8
0
 10
190.760254
 20
12.911270
 11
190.760254
 21
-3.088730
  0
LINE
  8
0
 10
188.760254
 20
-3.088730
 11
190.760254
 21
-3.088730
  0
LINE
  8
0
 10
5.721424
 20
99.911270
 11
23.282307
 21
99.911270
  0
LINE
  8
0
 10
5.965324
 20
-14.088730
 11
24.745716
 21
-14.088730
  0
LINE
  8
0
 10
14.760242
 20
111.314316
 11
14.760242
 21
89.851013
  0
LINE
  8
0
 10
74.760239
 20
110.582611
 11
74.760239
 21
89.363213
  0
LINE
  8
0
 10
66.208908
 20
99.911270
 11
84.013687
 21
99.911270
  0
LINE
  8
0
 10
66.208908
 20
-14.088730
 11
84.257584
 21
-14.088730
  0
LINE
  8
0
 10
74.760239
 20
-5.758232
 11
74.760239
 21
-24.294716
  0
LINE
  8
0
 10
14.760242
 20
-4.294823
 11
14.760242
 21
-23.563011
  0
ARC
  8
0
 10
-2.846142
 20
42.911270
 40
38.393620
 50
171.786774
 51
179.999969
  0
ARC
  8
0
 10
-73.633743
 20
42.911270
 40
38.393993
 50
0.000000
 51
8.213164
  0
ARC
  8
0
 10
-73.633743
 20
42.911270
 40
38.393993
 50
0.000000
 51
8.213175
  0
ARC
  8
0
 10
-31.493694
 20
51.138519
 40
9.746063
 50
179.999985
 51
196.342957
  0
ARC
  8
0
 10
-44.985912
 20
51.138519
 40
9.746151
 50
343.657166
 51
0.000000
  0
CIRCLE
  8
0
 10
-2.739758
 20
42.911270
 40
4.250000
  0
CIRCLE
  8
0
 10
-2.739758
 20
42.911270
 40
5.000000
  0
ARC
  8
0
 10
-2.846142
 20
42.911270
 40
38.393620
 50
179.999985
 51
188.213181
  0
ARC
  8
0
 10
-73.633743
 20
42.911270
 40
38.393993
 50
351.786774
 51
359.999939
  0
ARC
  8
0
 10
-73.633743
 20
42.911270
 40
38.393997
 50
351.786774
 51
359.999939
  0
ARC
  8
0
 10
-31.493694
 20
34.684021
 40
9.746061
 50
163.656967
 51
179.999954
  0
ARC
  8
0
 10
-44.985912
 20
34.684021
 40
9.746151
 50
359.999969
 51
16.342785
  0
CIRCLE
  8
0
 10
111.260239
 20
42.911270
 40
5.000000
  0
CIRCLE
  8
0
 10
111.260239
 20
42.911270
 40
4.250000
  0
CIRCLE
  8
0
 10
14.760242
 20
99.911270
 40
3.300000
  0
CIRCLE
  8
0
 10
74.760239
 20
99.911270
 40
3.300000
  0
CIRCLE
  8
0
 10
74.760239
 20
-14.088730
 40
3.300000
  0
CIRCLE
  8
0
 10
14.760242
 20
-14.088730
 40
3.300000
  0
CIRCLE
  8
0
 10
14.760242
 20
-14.088730
 40
5.500000
  0
CIRCLE
  8
0
 10
74.760239
 20
-14.088730
 40
5.500000
  0
CIRCLE
  8
0
 10
74.760239
 20
99.911270
 40
5.500000
  0
CIRCLE
  8
0
 10
14.760242
 20
99.911270
 40
5.500000
  0
CIRCLE
  8
0
  6
DASHED
 10
14.760242
 20
99.911270
 40
4.000000
  0
CIRCLE
  8
0
  6
DASHED
 10
74.760239
 20
99.911270
 40
4.000000
  0
CIRCLE
  8
0
  6
DASHED
 10
74.760239
 20
-14.088730
 40
4.000000
  0
CIRCLE
  8
0
  6
DASHED
 10
14.760242
 20
-14.088730
 40
4.000000
  0
POLYLINE
  8
0
 66
     1
  0
VERTEX
  8
0
 10
-23.400005
 20
34.251015
  0
VERTEX
  8
0
 10
-23.844633
 20
33.453499
  0
VERTEX
  8
0
 10
-24.215054
 20
32.610310
  0
VERTEX
  8
0
 10
-24.497135
 20
31.732866
  0
VERTEX
  8
0
 10
-24.676746
 20
30.832588
  0
VERTEX
  8
0
 10
-24.739758
 20
29.920891
  0
VERTEX
  8
0
 10
-24.676746
 20
29.009193
  0
VERTEX
  8
0
 10
-24.497135
 20
28.108912
  0
VERTEX
  8
0
 10
-24.215054
 20
27.231468
  0
VERTEX
  8
0
 10
-23.844633
 20
26.388277
  0
VERTEX
  8
0
 10
-23.400005
 20
25.590759
  0
SEQEND
  0
POLYLINE
  8
0
 66
     1
  0
VERTEX
  8
0
 10
-23.400005
 20
34.251015
  0
VERTEX
  8
0
 10
-23.673349
 20
35.186352
  0
VERTEX
  8
0
 10
-23.917288
 20
36.131187
  0
VERTEX
  8
0
 10
-24.131084
 20
37.084335
  0
VERTEX
  8
0
 10
-24.314007
 20
38.044605
  0
VERTEX
  8
0
 10
-24.465317
 20
39.010815
  0
VERTEX
  8
0
 10
-24.584282
 20
39.981773
  0
VERTEX
  8
0
 10
-24.670168
 20
40.956291
  0
VERTEX
  8
0
 10
-24.722239
 20
41.933189
  0
VERTEX
  8
0
 10
-24.739758
 20
42.911270
  0
SEQEND
  0
POLYLINE
  8
0
 66
     1
  0
VERTEX
  8
0
 10
-23.400005
 20
51.571526
  0
VERTEX
  8
0
 10
-23.844633
 20
52.369041
  0
VERTEX
  8
0
 10
-24.215054
 20
53.212231
  0
VERTEX
  8
0
 10
-24.497135
 20
54.089676
  0
VERTEX
  8
0
 10
-24.676746
 20
54.989952
  0
VERTEX
  8
0
 10
-24.739758
 20
55.901649
  0
VERTEX
  8
0
 10
-24.676746
 20
56.813347
  0
VERTEX
  8
0
 10
-24.497135
 20
57.713627
  0
VERTEX
  8
0
 10
-24.215054
 20
58.591072
  0
VERTEX
  8
0
 10
-23.844633
 20
59.434265
  0
VERTEX
  8
0
 10
-23.400005
 20
60.231781
  0
SEQEND
  0
POLYLINE
  8
0
 66
     1
  0
VERTEX
  8
0
 10
-23.400005
 20
51.571526
  0
VERTEX
  8
0
 10
-23.673349
 20
50.636189
  0
VERTEX
  8
0
 10
-23.917288
 20
49.691353
  0
VERTEX
  8
0
 10
-24.131084
 20
48.738205
  0
VERTEX
  8
0
 10
-24.314007
 20
47.777935
  0
VERTEX
  8
0
 10
-24.465317
 20
46.811726
  0
VERTEX
  8
0
 10
-24.584282
 20
45.840767
  0
VERTEX
  8
0
 10
-24.670168
 20
44.866249
  0
VERTEX
  8
0
 10
-24.722239
 20
43.889351
  0
VERTEX
  8
0
 10
-24.739758
 20
42.911270
  0
SEQEND
  0
ENDSEC
  0
EOF
