  0
SECTION
  2
HEADER
  0
ENDSEC
  0
SECTION
  2
TABLES
  0
TABLE
  2
LTYPE
 70
     4
  0
LTYPE
  2
CONTINUOUS
 70
    64
  3
Solid line
 72
    65
 73
     0
 40
0.000000
  0
LTYPE
  2
DASHED
 70
    64
  3
__ __ __ __ __ __ __ __ __ __ __ __ __ __ __
 72
    65
 73
     2
 40
3.500000
 49
2.000000
 49
-1.500000
  0
LTYPE
  2
CENTER
 70
    64
  3
____ _ ____ _ ____ _ ____ _ ____ _ ____ _ ____
 72
    65
 73
     4
 40
17.500000
 49
13.000000
 49
-1.500000
 49
1.500000
 49
-1.500000
  0
LTYPE
  2
PHANTOM
 70
    64
  3
_____ _ _ _____ _ _ _____ _ _ _____ _ _ ____  
 72
    65
 73
     6
 40
15.500000
 49
8.000000
 49
-1.500000
 49
1.500000
 49
-1.500000
 49
1.500000
 49
-1.500000
  0
LTYPE
  2
DASHED1
 70
    64
  3
__ __ __ __ __ __ __ __ __ __ __ __ __ __ __
 72
    65
 73
     2
 40
1.500000
 49
1.000000
 49
-0.500000
  0
LTYPE
  2
DASHED2
 70
    64
  3
__ __ __ __ __ __ __ __ __ __ __ __ __ __ __
 72
    65
 73
     2
 40
3.500000
 49
2.500000
 49
-1.000000
  0
LTYPE
  2
DASHED3
 70
    64
  3
__ __ __ __ __ __ __ __ __ __ __ __ __ __ __
 72
    65
 73
     2
 40
6.000000
 49
4.000000
 49
-2.000000
  0
LTYPE
  2
DASHED4
 70
    64
  3
__ __ __ __ __ __ __ __ __ __ __ __ __ __ __
 72
    65
 73
     2
 40
12.000000
 49
10.000000
 49
-2.000000
  0
LTYPE
  2
DASHED5
 70
    64
  3
__ __ __ __ __ __ __ __ __ __ __ __ __ __ __
 72
    65
 73
     2
 40
17.000000
 49
15.000000
 49
-2.000000
  0
LTYPE
  2
DASHED6
 70
    64
  3
__ __ __ __ __ __ __ __ __ __ __ __ __ __ __
 72
    65
 73
     2
 40
29.000000
 49
27.000000
 49
-2.000000
  0
LTYPE
  2
PHANTOM1
 70
    64
  3
_____ _ _ _____ _ _ _____ _ _ _____ _ _ ____  
 72
    65
 73
     6
 40
31.000000
 49
25.000000
 49
-1.500000
 49
1.000000
 49
-1.000000
 49
1.000000
 49
-1.500000
  0
LTYPE
  2
PHANTOM2
 70
    64
  3
_____ _ _ _____ _ _ _____ _ _ _____ _ _ ____  
 72
    65
 73
     6
 40
36.000000
 49
27.000000
 49
-1.500000
 49
2.500000
 49
-1.000000
 49
2.500000
 49
-1.500000
  0
LTYPE
  2
PHANTOM3
 70
    64
  3
_____ _ _ _____ _ _ _____ _ _ _____ _ _ ____  
 72
    65
 73
     6
 40
78.000000
 49
64.000000
 49
-2.000000
 49
4.000000
 49
-2.000000
 49
4.000000
 49
-2.000000
  0
LTYPE
  2
CENTER1
 70
    64
  3
____ _ ____ _ ____ _ ____ _ ____ _ ____ _ ____
 72
    65
 73
     4
 40
19.000000
 49
14.000000
 49
-1.000000
 49
3.000000
 49
-1.000000
  0
LTYPE
  2
CENTER2
 70
    64
  3
____ _ ____ _ ____ _ ____ _ ____ _ ____ _ ____
 72
    65
 73
     4
 40
28.500000
 49
25.000000
 49
-1.000000
 49
1.500000
 49
-1.000000
  0
LTYPE
  2
CENTER3
 70
    64
  3
____ _ ____ _ ____ _ ____ _ ____ _ ____ _ ____
 72
    65
 73
     4
 40
31.500000
 49
27.000000
 49
-1.000000
 49
2.500000
 49
-1.000000
  0
LTYPE
  2
CENTER4
 70
    64
  3
____ _ ____ _ ____ _ ____ _ ____ _ ____ _ ____
 72
    65
 73
     4
 40
50.000000
 49
45.000000
 49
-1.000000
 49
3.000000
 49
-1.000000
  0
LTYPE
  2
CENTER5
 70
    64
  3
____ _ ____ _ ____ _ ____ _ ____ _ ____ _ ____
 72
    65
 73
     4
 40
100.000000
 49
92.000000
 49
-2.000000
 49
4.000000
 49
-2.000000
  0
LTYPE
  2
SBK1
 70
    64
  3
______ _ _ _ ______ _ _ _ ______ _ _ _ _____  
 72
    65
 73
     8
 40
60.500000
 49
45.000000
 49
-2.000000
 49
2.500000
 49
-2.000000
 49
2.500000
 49
-2.000000
 49
2.500000
 49
-2.000000
  0
LTYPE
  2
SBK2
 70
    64
  3
______ _ _ _ ______ _ _ _ ______ _ _ _ _____  
 72
    65
 73
     8
 40
84.000000
 49
64.000000
 49
-2.000000
 49
4.000000
 49
-2.000000
 49
4.000000
 49
-2.000000
 49
4.000000
 49
-2.000000
  0
LTYPE
  2
STCH
 70
    64
  3
__ __ __ __ __ __ __ __ __ __ __ __ __ __ __
 72
    65
 73
     2
 40
3.000000
 49
1.000000
 49
-2.000000
  0
LTYPE
  2
MTCH
 70
    64
  3
_____ _ _ _____ _ _ _____ _ _ _____ _ _ ____  
 72
    65
 73
     6
 40
80.000000
 49
66.000000
 49
-2.000000
 49
4.000000
 49
-2.000000
 49
4.000000
 49
-2.000000
  0
ENDTAB
  0
TABLE
  2
LAYER
 70
     1
  0
LAYER
  2
0
 70
     0
 62
     7
  6
CONTINUOUS
  0
ENDTAB
  0
TABLE
  2
STYLE
 70
     1
  0
STYLE
  2
STANDARD
 70
     0
 40
0.000000
 41
1.000000
 50
0.000000
 71
     0
 42
0.200000
  3
txt
  4
BIGFONT
  0
ENDTAB
  0
TABLE
  2
VIEW
 70
     0
  0
ENDTAB
  0
ENDSEC
  0
SECTION
  2
BLOCKS
  0
ENDSEC
  0
SECTION
  2
ENTITIES
  0
LINE
  8
0
 10
-262.247223
 20
-180.000046
 11
-262.247223
 21
180.000046
  0
LINE
  8
0
 10
262.247223
 20
180.000046
 11
262.247223
 21
-180.000046
  0
LINE
  8
0
 10
-262.247223
 20
-180.000046
 11
262.247223
 21
-180.000046
  0
LINE
  8
0
 10
-262.247223
 20
180.000046
 11
262.247223
 21
180.000046
  0
LINE
  8
0
 10
-262.247223
 20
159.775299
 11
-154.382050
 21
159.775299
  0
LINE
  8
0
 10
-154.382050
 20
159.775299
 11
-154.382050
 21
180.000046
  0
LINE
  8
0
 10
154.382034
 20
-159.775345
 11
262.247223
 21
-159.775345
  0
LINE
  8
0
 10
154.382034
 20
159.775299
 11
262.247223
 21
159.775299
  0
LINE
  8
0
 10
154.382034
 20
180.000046
 11
154.382034
 21
159.775299
  0
LINE
  8
0
 10
154.382034
 20
-159.775345
 11
154.382034
 21
-180.000046
  0
TEXT
  8
0
 10
160.213089
 20
165.487701
 40
6.000000
  1
DATE : SEP ,1992
 50
0.000000
 41
1.052631
 51
0.000000
  7
STANDARD
  0
TEXT
  8
0
 10
-240.564621
 20
164.587692
 40
7.000000
  1
GA SERIES
 50
0.000000
 41
1.052632
 51
0.000000
  7
STANDARD
  0
TEXT
  8
0
 10
162.064636
 20
-175.187698
 40
7.000000
  1
KOGANEI CORP.
 50
0.000000
 41
1.052632
 51
0.000000
  7
STANDARD
  0
TEXT
  8
0
 10
-249.614777
 20
142.806458
 40
8.000000
  1
MODEL:GADA40X50-K2-S2
 50
0.000000
 41
1.052632
 51
0.000000
  7
STANDARD
  0
POINT
  8
0
 10
-184.600891
 20
51.854603
  0
POINT
  8
0
 10
-161.100891
 20
51.854603
  0
LINE
  8
0
 10
-195.600891
 20
58.205460
 11
-195.600891
 21
51.854599
  0
LINE
  8
0
 10
-173.600891
 20
58.205452
 11
-173.600891
 21
51.854599
  0
LINE
  8
0
 10
-184.600861
 20
64.556267
 11
-173.600861
 21
58.205425
  0
LINE
  8
0
 10
-195.600891
 20
58.205559
 11
-184.600876
 21
64.556419
  0
LINE
  8
0
 10
-184.600906
 20
138.106354
 11
-184.600876
 21
-39.737347
  0
LINE
  8
0
 10
-244.763275
 20
51.854588
 11
-153.416779
 21
51.854603
  0
LINE
  8
0
 10
-162.100876
 20
-23.145397
 11
-162.100906
 21
126.854599
  0
LINE
  8
0
 10
-224.100876
 20
-23.145405
 11
-224.100906
 21
126.854599
  0
LINE
  8
0
 10
-162.100876
 20
-23.145397
 11
-224.100876
 21
-23.145405
  0
LINE
  8
0
 10
-162.100906
 20
126.854599
 11
-224.100906
 21
126.854599
  0
LINE
  8
0
 10
-161.100876
 20
-28.645397
 11
-234.100876
 21
-28.645405
  0
LINE
  8
0
 10
-161.100876
 20
-28.645397
 11
-161.100906
 21
132.354614
  0
LINE
  8
0
 10
-234.100876
 20
-28.645405
 11
-234.100906
 21
132.354614
  0
LINE
  8
0
 10
-161.100906
 20
132.354614
 11
-234.100906
 21
132.354614
  0
LINE
  8
0
 10
-159.600876
 20
-30.145405
 11
-159.600891
 21
11.854404
  0
LINE
  8
0
 10
-159.600876
 20
-30.145405
 11
-176.600876
 21
-30.145412
  0
LINE
  8
0
 10
-176.600876
 20
-30.145397
 11
-176.600876
 21
-29.145397
  0
LINE
  8
0
 10
-176.600876
 20
-29.145412
 11
-222.600906
 21
-29.145420
  0
LINE
  8
0
 10
-222.600876
 20
-30.145390
 11
-222.600876
 21
-29.145390
  0
LINE
  8
0
 10
-222.600906
 20
-30.145420
 11
-238.600876
 21
-30.145420
  0
LINE
  8
0
 10
-238.600876
 20
-30.145420
 11
-238.600891
 21
-1.145393
  0
LINE
  8
0
 10
-237.100922
 20
-1.145416
 11
-238.600922
 21
-1.145416
  0
LINE
  8
0
 10
-237.100891
 20
-1.145393
 11
-237.100891
 21
104.854607
  0
LINE
  8
0
 10
-237.100891
 20
104.854591
 11
-238.600891
 21
104.854591
  0
LINE
  8
0
 10
-238.600906
 20
133.854599
 11
-238.600891
 21
104.854607
  0
LINE
  8
0
 10
-222.600906
 20
133.854599
 11
-238.600906
 21
133.854599
  0
LINE
  8
0
 10
-176.600876
 20
132.854599
 11
-222.600906
 21
132.854599
  0
LINE
  8
0
 10
-222.600906
 20
133.854645
 11
-222.600906
 21
132.854645
  0
LINE
  8
0
 10
-176.600906
 20
133.854630
 11
-176.600906
 21
132.854630
  0
LINE
  8
0
 10
-159.600906
 20
133.854614
 11
-176.600876
 21
133.854599
  0
LINE
  8
0
 10
-159.600906
 20
133.854614
 11
-159.600891
 21
91.854553
  0
LINE
  8
0
 10
-159.600784
 20
91.854530
 11
-161.100815
 21
90.354500
  0
LINE
  8
0
 10
-159.601196
 20
11.854340
 11
-161.101044
 21
13.354179
  0
LINE
  8
0
 10
-195.600891
 20
45.503738
 11
-195.600891
 21
51.854599
  0
LINE
  8
0
 10
-195.600845
 20
45.503647
 11
-184.600861
 21
39.152802
  0
LINE
  8
0
 10
-184.600937
 20
39.153023
 11
-173.600937
 21
45.503872
  0
LINE
  8
0
 10
-173.600891
 20
45.503746
 11
-173.600891
 21
51.854599
  0
LINE
  8
0
 10
-207.098267
 20
116.854599
 11
-192.030045
 21
116.854599
  0
LINE
  8
0
 10
-207.666855
 20
-13.145397
 11
-192.030014
 21
-13.145397
  0
LINE
  8
0
 10
-199.600906
 20
124.572830
 11
-199.600906
 21
107.514450
  0
LINE
  8
0
 10
-169.600906
 20
124.572830
 11
-169.600906
 21
109.220291
  0
LINE
  8
0
 10
-176.393204
 20
116.854599
 11
-163.030807
 21
116.854599
  0
LINE
  8
0
 10
-199.600876
 20
-5.070808
 11
-199.600876
 21
-20.139034
  0
LINE
  8
0
 10
-169.600876
 20
-5.639412
 11
-169.600876
 21
-20.423336
  0
LINE
  8
0
 10
-176.677475
 20
-13.145397
 11
-162.100876
 21
-13.145397
  0
LINE
  8
0
 10
-199.600891
 20
89.034546
 11
-199.600891
 21
73.682022
  0
LINE
  8
0
 10
-169.600891
 20
89.887482
 11
-169.600891
 21
73.397713
  0
LINE
  8
0
 10
-208.519791
 20
81.854599
 11
-192.598633
 21
81.854599
  0
LINE
  8
0
 10
-176.961792
 20
81.854599
 11
-164.452316
 21
81.854599
  0
LINE
  8
0
 10
-199.600891
 20
29.045942
 11
-199.600891
 21
15.399239
  0
LINE
  8
0
 10
-169.600891
 20
28.193026
 11
-169.600891
 21
14.262024
  0
LINE
  8
0
 10
-207.098251
 20
21.854595
 11
-192.314331
 21
21.854597
  0
LINE
  8
0
 10
-176.393188
 20
21.854601
 11
-163.599396
 21
21.854603
  0
CIRCLE
  8
0
 10
-199.600906
 20
116.854599
 40
4.500000
  0
CIRCLE
  8
0
 10
-169.600891
 20
81.854599
 40
2.750000
  0
CIRCLE
  8
0
 10
-184.600891
 20
51.854599
 40
7.000000
  0
CIRCLE
  8
0
 10
-184.600891
 20
51.854599
 40
5.500000
  0
CIRCLE
  8
0
 10
-169.600891
 20
81.854599
 40
4.000000
  0
CIRCLE
  8
0
 10
-169.600906
 20
116.854599
 40
4.500000
  0
CIRCLE
  8
0
 10
-199.600891
 20
21.854597
 40
2.750000
  0
CIRCLE
  8
0
 10
-199.600891
 20
81.854599
 40
2.750000
  0
CIRCLE
  8
0
 10
-169.600891
 20
21.854601
 40
4.000000
  0
CIRCLE
  8
0
 10
-169.600891
 20
21.854601
 40
2.750000
  0
CIRCLE
  8
0
 10
-199.600891
 20
21.854597
 40
4.000000
  0
CIRCLE
  8
0
 10
-199.600891
 20
81.854599
 40
4.000000
  0
CIRCLE
  8
0
 10
-169.600876
 20
-13.145397
 40
4.500000
  0
CIRCLE
  8
0
 10
-199.600876
 20
-13.145397
 40
4.500000
  0
POINT
  8
0
 10
210.593399
 20
-93.145409
  0
POINT
  8
0
 10
-71.406540
 20
-93.145409
  0
LINE
  8
0
 10
-28.906559
 20
-115.279243
 11
-28.906559
 21
-103.145409
  0
LINE
  8
0
 10
-37.906559
 20
-72.663918
 11
-37.906559
 21
-83.145409
  0
LINE
  8
0
 10
-36.077236
 20
-69.495415
 11
-28.906551
 21
-69.495415
  0
LINE
  8
0
 10
-28.906555
 20
-72.663918
 11
-28.406555
 21
-72.663918
  0
LINE
  8
0
 10
-36.077240
 20
-81.320412
 11
-28.906555
 21
-81.320412
  0
LINE
  8
0
 10
-37.906616
 20
-72.663895
 11
-36.077282
 21
-69.495407
  0
LINE
  8
0
 10
-28.406563
 20
-113.626900
 11
-28.906563
 21
-113.626900
  0
LINE
  8
0
 10
-28.906563
 20
-104.970406
 11
-36.077248
 21
-104.970406
  0
LINE
  8
0
 10
-36.429470
 20
-116.185181
 11
-37.906528
 21
-113.626854
  0
LINE
  8
0
 10
-89.721069
 20
-93.145409
 11
216.372452
 21
-93.145409
  0
LINE
  8
0
 10
-71.406532
 20
-70.645409
 11
-71.406532
 21
-132.645416
  0
LINE
  8
0
 10
-56.406532
 20
-70.645409
 11
-56.406532
 21
-134.095459
  0
LINE
  8
0
 10
-28.406540
 20
-69.645409
 11
-28.406540
 21
-142.645416
  0
LINE
  8
0
 10
-18.406544
 20
-68.145409
 11
-18.406544
 21
-147.145416
  0
LINE
  8
0
 10
125.593460
 20
-68.145409
 11
125.593460
 21
-147.145416
  0
LINE
  8
0
 10
193.593399
 20
-69.645409
 11
193.593399
 21
-132.645416
  0
LINE
  8
0
 10
208.593399
 20
-69.645409
 11
208.593399
 21
-132.645416
  0
LINE
  8
0
 10
-18.406544
 20
-147.145416
 11
125.593460
 21
-147.145416
  0
LINE
  8
0
 10
-18.406544
 20
-68.145409
 11
125.593460
 21
-68.145409
  0
LINE
  8
0
 10
-18.406544
 20
-131.145416
 11
125.593460
 21
-131.145416
  0
LINE
  8
0
 10
-18.406544
 20
-85.145409
 11
125.593460
 21
-85.145409
  0
LINE
  8
0
 10
-28.406540
 20
-142.645416
 11
-18.406544
 21
-142.645416
  0
LINE
  8
0
 10
-28.406540
 20
-69.645409
 11
-18.406544
 21
-69.645409
  0
LINE
  8
0
 10
-56.406532
 20
-103.145409
 11
-28.406540
 21
-103.145409
  0
LINE
  8
0
 10
-56.406532
 20
-83.145409
 11
-28.406540
 21
-83.145409
  0
LINE
  8
0
 10
125.593475
 20
-83.145409
 11
193.593399
 21
-83.145409
  0
LINE
  8
0
 10
125.593460
 20
-103.145409
 11
193.593399
 21
-103.145409
  0
LINE
  8
0
 10
-71.406532
 20
-132.645416
 11
-56.406532
 21
-132.645416
  0
LINE
  8
0
 10
-71.406532
 20
-70.645409
 11
-56.406532
 21
-70.645409
  0
LINE
  8
0
 10
193.593399
 20
-132.645416
 11
208.593399
 21
-132.645416
  0
LINE
  8
0
 10
193.593399
 20
-69.645409
 11
208.593399
 21
-69.645409
  0
LINE
  8
0
 10
165.093475
 20
-129.645447
 11
145.593475
 21
-129.645447
  0
LINE
  8
0
 10
165.093475
 20
-124.645439
 11
145.593475
 21
-124.645439
  0
LINE
  8
0
 10
165.593460
 20
-129.356750
 11
165.593460
 21
-124.934090
  0
LINE
  8
0
 10
165.093536
 20
-129.645508
 11
165.593552
 21
-129.356842
  0
LINE
  8
0
 10
165.093445
 20
-124.645454
 11
165.593430
 21
-124.934128
  0
LINE
  8
0
 10
165.093460
 20
-129.645416
 11
165.093460
 21
-124.645424
  0
LINE
  8
0
 10
126.575943
 20
-114.443703
 11
132.610977
 21
-114.443703
  0
LINE
  8
0
 10
126.575943
 20
-120.794548
 11
132.610977
 21
-120.794548
  0
LINE
  8
0
 10
125.593460
 20
-116.145432
 11
126.575943
 21
-114.443726
  0
LINE
  8
0
 10
126.575943
 20
-133.496277
 11
132.610977
 21
-133.496277
  0
LINE
  8
0
 10
125.593414
 20
-138.145477
 11
126.575882
 21
-139.847153
  0
LINE
  8
0
 10
126.575943
 20
-139.847107
 11
132.610977
 21
-139.847107
  0
LINE
  8
0
 10
133.593445
 20
-116.145432
 11
132.610962
 21
-114.443718
  0
LINE
  8
0
 10
133.593445
 20
-116.145409
 11
133.593445
 21
-138.145416
  0
LINE
  8
0
 10
133.593460
 20
-138.145386
 11
132.610992
 21
-139.847092
  0
LINE
  8
0
 10
145.593460
 20
-134.095428
 11
145.593460
 21
-120.195427
  0
LINE
  8
0
 10
144.593460
 20
-135.095428
 11
144.593460
 21
-119.195427
  0
LINE
  8
0
 10
145.593567
 20
-134.095505
 11
144.593567
 21
-135.095505
  0
LINE
  8
0
 10
145.593536
 20
-120.195374
 11
144.593536
 21
-119.195374
  0
LINE
  8
0
 10
140.593475
 20
-135.095428
 11
144.593475
 21
-135.095428
  0
LINE
  8
0
 10
140.593475
 20
-119.195442
 11
144.593475
 21
-119.195442
  0
LINE
  8
0
 10
140.593460
 20
-135.095428
 11
140.593460
 21
-119.195427
  0
LINE
  8
0
 10
139.543457
 20
-136.145416
 11
139.543457
 21
-118.145424
  0
LINE
  8
0
 10
140.593430
 20
-135.095337
 11
139.543427
 21
-136.145340
  0
LINE
  8
0
 10
140.593414
 20
-119.195465
 11
139.543411
 21
-118.145470
  0
LINE
  8
0
 10
139.543472
 20
-136.145447
 11
133.593445
 21
-136.145447
  0
LINE
  8
0
 10
140.425476
 20
-135.263428
 11
133.593445
 21
-135.263428
  0
LINE
  8
0
 10
140.355469
 20
-118.957436
 11
133.593445
 21
-118.957436
  0
LINE
  8
0
 10
139.543488
 20
-118.145439
 11
133.593445
 21
-118.145439
  0
LINE
  8
0
 10
-51.406540
 20
-119.195396
 11
-51.406540
 21
-135.095398
  0
LINE
  8
0
 10
-56.406548
 20
-120.195404
 11
-55.406548
 21
-119.195404
  0
LINE
  8
0
 10
-56.406616
 20
-134.095459
 11
-55.406616
 21
-135.095459
  0
LINE
  8
0
 10
-55.406540
 20
-119.195396
 11
-55.406540
 21
-135.095398
  0
LINE
  8
0
 10
-50.356537
 20
-118.145409
 11
-36.406555
 21
-118.145409
  0
LINE
  8
0
 10
-51.406532
 20
-119.195427
 11
-50.356537
 21
-118.145424
  0
LINE
  8
0
 10
-51.406475
 20
-135.095337
 11
-50.356476
 21
-136.145340
  0
LINE
  8
0
 10
-50.356537
 20
-118.145393
 11
-50.356537
 21
-136.145386
  0
LINE
  8
0
 10
-51.406540
 20
-119.195412
 11
-55.406540
 21
-119.195412
  0
LINE
  8
0
 10
-51.406540
 20
-135.095398
 11
-55.406540
 21
-135.095398
  0
LINE
  8
0
 10
-51.238541
 20
-119.027412
 11
-36.406555
 21
-119.027412
  0
LINE
  8
0
 10
-51.168533
 20
-135.333405
 11
-36.406555
 21
-135.333405
  0
LINE
  8
0
 10
-50.356552
 20
-136.145416
 11
-36.406555
 21
-136.145416
  0
LINE
  8
0
 10
-29.389038
 20
-139.847107
 11
-35.424072
 21
-139.847107
  0
LINE
  8
0
 10
-29.389038
 20
-133.496277
 11
-35.424072
 21
-133.496277
  0
LINE
  8
0
 10
-28.406555
 20
-138.145386
 11
-29.389038
 21
-139.847092
  0
LINE
  8
0
 10
-29.389038
 20
-120.794548
 11
-35.424072
 21
-120.794548
  0
LINE
  8
0
 10
-28.406487
 20
-116.145355
 11
-29.388958
 21
-114.443649
  0
LINE
  8
0
 10
-29.389038
 20
-114.443703
 11
-35.424072
 21
-114.443703
  0
LINE
  8
0
 10
-36.406532
 20
-138.145370
 11
-35.424046
 21
-139.847076
  0
LINE
  8
0
 10
-36.406555
 20
-138.145416
 11
-36.406555
 21
-116.145409
  0
LINE
  8
0
 10
-36.406567
 20
-116.145432
 11
-35.424084
 21
-114.443726
  0
LINE
  8
0
 10
-37.906559
 20
-103.145409
 11
-37.906559
 21
-113.626930
  0
LINE
  8
0
 10
-28.906559
 20
-83.145409
 11
-28.906559
 21
-69.495415
  0
LINE
  8
0
 10
210.593399
 20
-83.145409
 11
210.593399
 21
-103.145409
  0
LINE
  8
0
 10
208.593399
 20
-83.145409
 11
210.593399
 21
-83.145409
  0
LINE
  8
0
 10
208.593399
 20
-103.145409
 11
210.593399
 21
-103.145409
  0
LINE
  8
0
 10
16.593460
 20
-64.675179
 11
16.593460
 21
-88.952950
  0
LINE
  8
0
 10
80.593460
 20
-63.753231
 11
80.593460
 21
-87.723686
  0
LINE
  8
0
 10
7.477676
 20
-76.145409
 11
27.145737
 21
-76.145409
  0
LINE
  8
0
 10
9.321556
 20
-139.145416
 11
24.994553
 21
-139.145416
  0
LINE
  8
0
 10
71.706207
 20
-76.145409
 11
91.066971
 21
-76.145409
  0
LINE
  8
0
 10
71.091583
 20
-139.145416
 11
90.452332
 21
-139.145416
  0
LINE
  8
0
 10
16.593460
 20
-127.674454
 11
16.593460
 21
-150.108337
  0
LINE
  8
0
 10
80.593460
 20
-126.752510
 11
80.593460
 21
-151.952209
  0
CIRCLE
  8
0
 10
16.593460
 20
-139.145416
 40
2.500000
  0
CIRCLE
  8
0
 10
80.593460
 20
-139.145416
 40
2.500000
  0
ARC
  8
0
 10
-27.437065
 20
-110.882896
 40
10.469502
 50
145.616028
 51
210.618607
  0
ARC
  8
0
 10
-27.437057
 20
-75.407921
 40
10.469501
 50
145.615524
 51
214.383972
  0
ARC
  8
0
 10
1.227463
 20
-93.145416
 40
39.134022
 50
162.412170
 51
165.194885
  0
ARC
  8
0
 10
127.970642
 20
-117.619133
 40
5.622812
 50
325.615814
 51
25.615784
  0
ARC
  8
0
 10
112.575928
 20
-127.145409
 40
21.017529
 50
342.412048
 51
17.587887
  0
ARC
  8
0
 10
127.970642
 20
-136.671692
 40
5.622803
 50
334.384277
 51
34.384247
  0
ARC
  8
0
 10
131.216248
 20
-117.619133
 40
5.622809
 50
154.384140
 51
214.384186
  0
ARC
  8
0
 10
146.610962
 20
-127.145409
 40
21.017527
 50
162.412079
 51
197.587906
  0
ARC
  8
0
 10
131.216248
 20
-136.671692
 40
5.622817
 50
145.615753
 51
205.615707
  0
ARC
  8
0
 10
-30.783737
 20
-117.619133
 40
5.622809
 50
154.384232
 51
214.384186
  0
ARC
  8
0
 10
-34.029343
 20
-117.619133
 40
5.622812
 50
325.615814
 51
25.615749
  0
ARC
  8
0
 10
-15.389023
 20
-127.145409
 40
21.017527
 50
162.412048
 51
197.587906
  0
ARC
  8
0
 10
-30.783737
 20
-136.671692
 40
5.622814
 50
145.615723
 51
205.615692
  0
ARC
  8
0
 10
-34.029343
 20
-136.671692
 40
5.622806
 50
334.384308
 51
34.384270
  0
ARC
  8
0
 10
-49.424057
 20
-127.145409
 40
21.017529
 50
342.412109
 51
17.587925
  0
ARC
  8
0
 10
1.227463
 20
-93.145416
 40
39.134018
 50
194.805084
 51
197.587769
  0
CIRCLE
  8
0
 10
16.593460
 20
-76.145409
 40
4.000000
  0
CIRCLE
  8
0
 10
80.593460
 20
-76.145409
 40
4.000000
  0
CIRCLE
  8
0
 10
80.593460
 20
-139.145416
 40
4.000000
  0
CIRCLE
  8
0
 10
16.593460
 20
-139.145416
 40
4.000000
  0
CIRCLE
  8
0
 10
16.593460
 20
-76.145409
 40
2.500000
  0
CIRCLE
  8
0
 10
80.593460
 20
-76.145409
 40
2.500000
  0
POINT
  8
0
 10
-71.406525
 20
51.854603
  0
POINT
  8
0
 10
208.593384
 20
51.854603
  0
POINT
  8
0
 10
194.593384
 20
-22.145412
  0
POINT
  8
0
 10
207.593384
 20
-22.145412
  0
POINT
  8
0
 10
194.593414
 20
125.854538
  0
POINT
  8
0
 10
207.593414
 20
125.854538
  0
LINE
  8
0
 10
-84.789322
 20
51.854603
 11
219.155029
 21
51.854603
  0
LINE
  8
0
 10
-18.406540
 20
-28.645397
 11
-28.406540
 21
-28.645397
  0
LINE
  8
0
 10
-18.406528
 20
-30.145382
 11
-18.406528
 21
31.054600
  0
LINE
  8
0
 10
-28.406528
 20
-28.645397
 11
-28.406528
 21
132.354614
  0
LINE
  8
0
 10
-18.406532
 20
26.854618
 11
-23.906532
 21
26.854618
  0
LINE
  8
0
 10
-23.906528
 20
26.854618
 11
-23.906528
 21
76.854614
  0
LINE
  8
0
 10
-18.406525
 20
76.854614
 11
-23.906525
 21
76.854614
  0
LINE
  8
0
 10
-18.406528
 20
72.654602
 11
-18.406528
 21
133.854614
  0
LINE
  8
0
 10
-18.406517
 20
132.354614
 11
-28.406517
 21
132.354614
  0
LINE
  8
0
 10
125.593460
 20
-30.145382
 11
-18.406544
 21
-30.145382
  0
LINE
  8
0
 10
210.593384
 20
11.854618
 11
208.593384
 21
11.854618
  0
LINE
  8
0
 10
125.593475
 20
26.854633
 11
-18.406536
 21
26.854633
  0
LINE
  8
0
 10
125.593475
 20
76.854614
 11
-18.406528
 21
76.854614
  0
LINE
  8
0
 10
125.593491
 20
133.854614
 11
-18.406517
 21
133.854614
  0
LINE
  8
0
 10
210.593384
 20
91.854630
 11
208.593384
 21
91.854630
  0
LINE
  8
0
 10
80.593491
 20
136.753143
 11
80.593491
 21
120.937286
  0
LINE
  8
0
  6
DASHED
 10
77.593506
 20
133.854614
 11
77.593506
 21
124.986481
  0
LINE
  8
0
  6
DASHED
 10
83.593491
 20
133.854614
 11
83.593491
 21
124.986481
  0
LINE
  8
0
  6
DASHED
 10
84.593491
 20
133.854614
 11
84.593491
 21
126.801331
  0
LINE
  8
0
  6
DASHED
 10
76.593506
 20
133.854614
 11
76.593506
 21
127.103821
  0
LINE
  8
0
  6
DASHED
 10
84.593475
 20
-30.145382
 11
84.593475
 21
-22.924206
  0
LINE
  8
0
  6
DASHED
 10
83.593475
 20
-30.145382
 11
83.593475
 21
-21.109356
  0
LINE
  8
0
 10
80.593475
 20
-33.043926
 11
80.593475
 21
-17.228077
  0
LINE
  8
0
  6
DASHED
 10
77.593475
 20
-30.145382
 11
77.593475
 21
-21.109356
  0
LINE
  8
0
  6
DASHED
 10
76.593475
 20
-30.145382
 11
76.593475
 21
-22.621731
  0
LINE
  8
0
  6
DASHED
 10
20.593475
 20
-30.145374
 11
20.593475
 21
-22.924198
  0
LINE
  8
0
  6
DASHED
 10
19.593475
 20
-30.145374
 11
19.593475
 21
-21.109348
  0
LINE
  8
0
 10
16.593475
 20
-33.043919
 11
16.593475
 21
-17.228069
  0
LINE
  8
0
  6
DASHED
 10
13.593475
 20
-30.145374
 11
13.593475
 21
-21.411823
  0
LINE
  8
0
  6
DASHED
 10
12.593475
 20
-30.145374
 11
12.593475
 21
-22.621723
  0
LINE
  8
0
  6
DASHED
 10
12.593506
 20
133.854614
 11
12.593506
 21
127.708786
  0
LINE
  8
0
  6
DASHED
 10
13.593506
 20
133.854614
 11
13.593506
 21
125.591446
  0
LINE
  8
0
 10
16.593491
 20
136.753159
 11
16.593491
 21
120.937302
  0
LINE
  8
0
  6
DASHED
 10
19.593491
 20
133.854614
 11
19.593491
 21
125.288971
  0
LINE
  8
0
  6
DASHED
 10
20.593491
 20
133.854614
 11
20.593491
 21
127.406296
  0
LINE
  8
0
 10
125.593475
 20
-30.145382
 11
125.593475
 21
133.854599
  0
LINE
  8
0
 10
-56.406525
 20
-23.145397
 11
-56.406525
 21
126.854599
  0
LINE
  8
0
 10
-71.406525
 20
-23.145397
 11
-71.406525
 21
126.854599
  0
LINE
  8
0
 10
-56.406532
 20
-23.145397
 11
-71.406532
 21
-23.145397
  0
LINE
  8
0
 10
-56.406509
 20
126.854599
 11
-71.406509
 21
126.854599
  0
LINE
  8
0
 10
-28.406528
 20
11.854610
 11
-56.406525
 21
11.854610
  0
LINE
  8
0
 10
-28.406528
 20
-8.145390
 11
-56.406525
 21
-8.145390
  0
LINE
  8
0
 10
-28.406528
 20
91.854599
 11
-56.406525
 21
91.854599
  0
LINE
  8
0
 10
-28.406528
 20
111.854599
 11
-56.406525
 21
111.854599
  0
LINE
  8
0
 10
193.593384
 20
86.854584
 11
208.593384
 21
86.854584
  0
LINE
  8
0
 10
193.593384
 20
76.854584
 11
208.593384
 21
76.854584
  0
LINE
  8
0
 10
193.593384
 20
26.854588
 11
208.593384
 21
26.854588
  0
LINE
  8
0
 10
193.593384
 20
16.854588
 11
208.593384
 21
16.854588
  0
LINE
  8
0
 10
193.593384
 20
116.854584
 11
208.593384
 21
116.854584
  0
LINE
  8
0
 10
193.593384
 20
-13.145412
 11
208.593384
 21
-13.145412
  0
LINE
  8
0
 10
193.593384
 20
116.854584
 11
193.593384
 21
-13.145412
  0
LINE
  8
0
 10
208.593384
 20
116.854584
 11
208.593384
 21
-13.145412
  0
LINE
  8
0
 10
-23.906525
 20
31.054615
 11
-23.906525
 21
72.654587
  0
LINE
  8
0
 10
-55.555672
 20
64.556305
 11
-49.257378
 21
64.556305
  0
LINE
  8
0
 10
-56.406422
 20
61.380863
 11
-55.555573
 21
64.556274
  0
LINE
  8
0
 10
-55.555672
 20
58.205456
 11
-49.257378
 21
58.205456
  0
LINE
  8
0
 10
-56.406521
 20
42.328339
 11
-55.555668
 21
39.152912
  0
LINE
  8
0
 10
-55.555672
 20
45.503750
 11
-49.257378
 21
45.503750
  0
LINE
  8
0
 10
-55.555672
 20
39.152897
 11
-49.257378
 21
39.152897
  0
LINE
  8
0
 10
-48.406525
 20
42.328339
 11
-49.257385
 21
39.152916
  0
LINE
  8
0
 10
-48.406536
 20
42.328320
 11
-48.406536
 21
51.854603
  0
LINE
  8
0
 10
-48.406532
 20
61.380878
 11
-49.257389
 21
64.556313
  0
LINE
  8
0
 10
-48.406536
 20
61.380886
 11
-48.406536
 21
51.854603
  0
LINE
  8
0
 10
-37.906525
 20
58.854603
 11
-48.406536
 21
58.854603
  0
LINE
  8
0
 10
-47.406532
 20
57.854591
 11
-45.674217
 21
58.854744
  0
LINE
  8
0
 10
-47.406525
 20
44.854603
 11
-47.406525
 21
58.854603
  0
LINE
  8
0
 10
-48.406536
 20
57.854603
 11
-47.406525
 21
57.854603
  0
LINE
  8
0
 10
-45.674255
 20
58.854603
 11
-45.674255
 21
44.854603
  0
LINE
  8
0
 10
-47.406525
 20
45.854603
 11
-48.406536
 21
45.854603
  0
LINE
  8
0
 10
-45.674248
 20
44.854595
 11
-47.406567
 21
45.854744
  0
LINE
  8
0
 10
-48.406536
 20
44.854603
 11
-37.906525
 21
44.854603
  0
LINE
  8
0
 10
-36.077263
 20
75.504593
 11
-28.906578
 21
75.504593
  0
LINE
  8
0
 10
-37.906651
 20
72.336121
 11
-36.077320
 21
75.504608
  0
LINE
  8
0
 10
-37.906586
 20
72.336090
 11
-37.906586
 21
31.373081
  0
LINE
  8
0
 10
-36.077267
 20
63.679600
 11
-28.906582
 21
63.679600
  0
LINE
  8
0
 10
-28.906590
 20
40.029606
 11
-36.077274
 21
40.029606
  0
LINE
  8
0
 10
-28.906593
 20
28.204609
 11
-36.077278
 21
28.204609
  0
LINE
  8
0
 10
-36.077305
 20
28.204660
 11
-37.906628
 21
31.373114
  0
LINE
  8
0
 10
-28.906586
 20
28.204609
 11
-28.906586
 21
75.504593
  0
LINE
  8
0
 10
-28.906578
 20
72.336090
 11
-28.406578
 21
72.336090
  0
LINE
  8
0
 10
-28.406593
 20
31.373112
 11
-28.906593
 21
31.373112
  0
LINE
  8
0
 10
-23.906525
 20
72.654587
 11
106.093475
 21
72.654587
  0
LINE
  8
0
 10
-8.906525
 20
72.654587
 11
-8.906525
 21
31.054615
  0
LINE
  8
0
 10
106.093475
 20
31.054615
 11
-23.906525
 21
31.054615
  0
LINE
  8
0
 10
91.093475
 20
72.654587
 11
91.093475
 21
31.054615
  0
LINE
  8
0
 10
106.093475
 20
31.054615
 11
106.093475
 21
72.654587
  0
LINE
  8
0
 10
106.093475
 20
68.354599
 11
107.093475
 21
68.354599
  0
LINE
  8
0
 10
107.093475
 20
35.354603
 11
107.093475
 21
68.354599
  0
LINE
  8
0
 10
107.093475
 20
35.354603
 11
106.093475
 21
35.354603
  0
LINE
  8
0
 10
210.593384
 20
111.854599
 11
208.593384
 21
111.854599
  0
LINE
  8
0
 10
210.593384
 20
-8.145390
 11
208.593384
 21
-8.145390
  0
LINE
  8
0
 10
207.593414
 20
125.854538
 11
207.593414
 21
116.854584
  0
LINE
  8
0
 10
194.593414
 20
125.854538
 11
194.593414
 21
116.854584
  0
LINE
  8
0
 10
194.593384
 20
-22.145412
 11
194.593384
 21
-13.145412
  0
LINE
  8
0
 10
207.593384
 20
-22.145412
 11
207.593384
 21
-13.145412
  0
LINE
  8
0
 10
210.593384
 20
111.854599
 11
210.593384
 21
91.854630
  0
LINE
  8
0
 10
193.593384
 20
111.854599
 11
125.593475
 21
111.854599
  0
LINE
  8
0
 10
193.593384
 20
91.854630
 11
-18.406525
 21
91.854630
  0
LINE
  8
0
 10
193.593384
 20
11.854618
 11
-18.406528
 21
11.854618
  0
LINE
  8
0
 10
193.593384
 20
-8.145390
 11
125.593475
 21
-8.145390
  0
LINE
  8
0
 10
210.593384
 20
11.854618
 11
210.593384
 21
-8.145390
  0
LINE
  8
0
 10
-8.960094
 20
-20.145382
 11
12.951790
 21
-20.145382
  0
LINE
  8
0
 10
-10.083782
 20
123.854614
 11
11.828102
 21
123.854614
  0
LINE
  8
0
 10
1.593460
 20
137.708450
 11
1.593460
 21
111.301819
  0
LINE
  8
0
 10
95.593475
 20
136.303848
 11
95.593475
 21
111.582748
  0
LINE
  8
0
 10
1.593460
 20
-10.056309
 11
1.593460
 21
-32.530041
  0
LINE
  8
0
 10
95.593475
 20
-9.494465
 11
95.593475
 21
-33.091877
  0
LINE
  8
0
 10
83.744034
 20
123.854614
 11
106.779602
 21
123.854614
  0
LINE
  8
0
 10
86.272339
 20
-20.145382
 11
107.341446
 21
-20.145382
  0
LINE
  8
0
 10
207.593414
 20
125.854538
 11
194.593414
 21
125.854538
  0
LINE
  8
0
 10
194.593384
 20
-22.145412
 11
207.593384
 21
-22.145412
  0
ARC
  8
0
 10
1.227432
 20
51.854595
 40
39.134018
 50
162.412170
 51
197.587753
  0
ARC
  8
0
 10
-27.437096
 20
34.117115
 40
10.469502
 50
145.616028
 51
214.384445
  0
CIRCLE
  8
0
 10
95.593460
 20
-20.145397
 40
4.500000
  0
CIRCLE
  8
0
 10
1.593460
 20
-20.145382
 40
4.500000
  0
CIRCLE
  8
0
 10
1.593475
 20
123.854614
 40
4.500000
  0
CIRCLE
  8
0
 10
95.593475
 20
123.854599
 40
4.500000
  0
CIRCLE
  8
0
 10
95.593460
 20
-20.145397
 40
7.000000
  0
CIRCLE
  8
0
 10
1.593460
 20
-20.145382
 40
7.000000
  0
CIRCLE
  8
0
 10
1.593475
 20
123.854614
 40
7.000000
  0
CIRCLE
  8
0
 10
95.593475
 20
123.854599
 40
7.000000
  0
CIRCLE
  8
0
  6
DASHED
 10
95.593460
 20
-20.145397
 40
5.500000
  0
CIRCLE
  8
0
  6
DASHED
 10
1.593460
 20
-20.145382
 40
5.500000
  0
CIRCLE
  8
0
  6
DASHED
 10
1.593475
 20
123.854614
 40
5.500000
  0
CIRCLE
  8
0
  6
DASHED
 10
95.593475
 20
123.854599
 40
5.500000
  0
CIRCLE
  8
0
 10
98.093475
 20
51.854603
 40
4.000000
  0
CIRCLE
  8
0
 10
98.093475
 20
51.854603
 40
1.750000
  0
CIRCLE
  8
0
 10
-15.906525
 20
51.854603
 40
5.000000
  0
CIRCLE
  8
0
 10
-15.906525
 20
51.854603
 40
1.750000
  0
CIRCLE
  8
0
 10
-15.906525
 20
51.854603
 40
4.000000
  0
CIRCLE
  8
0
 10
98.093475
 20
51.854603
 40
5.000000
  0
ARC
  8
0
 10
-50.055676
 20
61.380886
 40
6.350853
 50
179.999969
 51
210.000000
  0
ARC
  8
0
 10
-32.279392
 20
51.854603
 40
24.127131
 50
164.738541
 51
179.999969
  0
ARC
  8
0
 10
-32.279392
 20
51.854603
 40
24.127132
 50
179.999985
 51
195.261414
  0
ARC
  8
0
 10
-50.055676
 20
42.328320
 40
6.350852
 50
149.999954
 51
179.999969
  0
ARC
  8
0
 10
-72.533653
 20
51.854603
 40
24.127127
 50
344.738464
 51
359.999939
  0
ARC
  8
0
 10
-54.757385
 20
42.328320
 40
6.350853
 50
359.999969
 51
30.000000
  0
ARC
  8
0
 10
-54.757385
 20
61.380886
 40
6.350852
 50
329.999939
 51
0.000000
  0
ARC
  8
0
 10
-72.533653
 20
51.854603
 40
24.127129
 50
0.000000
 51
15.261483
  0
ARC
  8
0
 10
-27.437080
 20
69.592087
 40
10.469501
 50
145.615524
 51
214.383926
  0
ENDSEC
  0
EOF
