  0
SECTION
  2
HEADER
  0
ENDSEC
  0
SECTION
  2
TABLES
  0
TABLE
  2
LTYPE
 70
     4
  0
LTYPE
  2
CONTINUOUS
 70
    64
  3
Solid line
 72
    65
 73
     0
 40
0.000000
  0
LTYPE
  2
DASHED
 70
    64
  3
__ __ __ __ __ __ __ __ __ __ __ __ __ __ __
 72
    65
 73
     2
 40
3.500000
 49
2.000000
 49
-1.500000
  0
LTYPE
  2
CENTER
 70
    64
  3
____ _ ____ _ ____ _ ____ _ ____ _ ____ _ ____
 72
    65
 73
     4
 40
17.500000
 49
13.000000
 49
-1.500000
 49
1.500000
 49
-1.500000
  0
LTYPE
  2
PHANTOM
 70
    64
  3
_____ _ _ _____ _ _ _____ _ _ _____ _ _ ____  
 72
    65
 73
     6
 40
15.500000
 49
8.000000
 49
-1.500000
 49
1.500000
 49
-1.500000
 49
1.500000
 49
-1.500000
  0
LTYPE
  2
DASHED1
 70
    64
  3
__ __ __ __ __ __ __ __ __ __ __ __ __ __ __
 72
    65
 73
     2
 40
1.500000
 49
1.000000
 49
-0.500000
  0
LTYPE
  2
DASHED2
 70
    64
  3
__ __ __ __ __ __ __ __ __ __ __ __ __ __ __
 72
    65
 73
     2
 40
3.500000
 49
2.500000
 49
-1.000000
  0
LTYPE
  2
DASHED3
 70
    64
  3
__ __ __ __ __ __ __ __ __ __ __ __ __ __ __
 72
    65
 73
     2
 40
6.000000
 49
4.000000
 49
-2.000000
  0
LTYPE
  2
DASHED4
 70
    64
  3
__ __ __ __ __ __ __ __ __ __ __ __ __ __ __
 72
    65
 73
     2
 40
12.000000
 49
10.000000
 49
-2.000000
  0
LTYPE
  2
DASHED5
 70
    64
  3
__ __ __ __ __ __ __ __ __ __ __ __ __ __ __
 72
    65
 73
     2
 40
17.000000
 49
15.000000
 49
-2.000000
  0
LTYPE
  2
DASHED6
 70
    64
  3
__ __ __ __ __ __ __ __ __ __ __ __ __ __ __
 72
    65
 73
     2
 40
29.000000
 49
27.000000
 49
-2.000000
  0
LTYPE
  2
PHANTOM1
 70
    64
  3
_____ _ _ _____ _ _ _____ _ _ _____ _ _ ____  
 72
    65
 73
     6
 40
31.000000
 49
25.000000
 49
-1.500000
 49
1.000000
 49
-1.000000
 49
1.000000
 49
-1.500000
  0
LTYPE
  2
PHANTOM2
 70
    64
  3
_____ _ _ _____ _ _ _____ _ _ _____ _ _ ____  
 72
    65
 73
     6
 40
36.000000
 49
27.000000
 49
-1.500000
 49
2.500000
 49
-1.000000
 49
2.500000
 49
-1.500000
  0
LTYPE
  2
PHANTOM3
 70
    64
  3
_____ _ _ _____ _ _ _____ _ _ _____ _ _ ____  
 72
    65
 73
     6
 40
78.000000
 49
64.000000
 49
-2.000000
 49
4.000000
 49
-2.000000
 49
4.000000
 49
-2.000000
  0
LTYPE
  2
CENTER1
 70
    64
  3
____ _ ____ _ ____ _ ____ _ ____ _ ____ _ ____
 72
    65
 73
     4
 40
19.000000
 49
14.000000
 49
-1.000000
 49
3.000000
 49
-1.000000
  0
LTYPE
  2
CENTER2
 70
    64
  3
____ _ ____ _ ____ _ ____ _ ____ _ ____ _ ____
 72
    65
 73
     4
 40
28.500000
 49
25.000000
 49
-1.000000
 49
1.500000
 49
-1.000000
  0
LTYPE
  2
CENTER3
 70
    64
  3
____ _ ____ _ ____ _ ____ _ ____ _ ____ _ ____
 72
    65
 73
     4
 40
31.500000
 49
27.000000
 49
-1.000000
 49
2.500000
 49
-1.000000
  0
LTYPE
  2
CENTER4
 70
    64
  3
____ _ ____ _ ____ _ ____ _ ____ _ ____ _ ____
 72
    65
 73
     4
 40
50.000000
 49
45.000000
 49
-1.000000
 49
3.000000
 49
-1.000000
  0
LTYPE
  2
CENTER5
 70
    64
  3
____ _ ____ _ ____ _ ____ _ ____ _ ____ _ ____
 72
    65
 73
     4
 40
100.000000
 49
92.000000
 49
-2.000000
 49
4.000000
 49
-2.000000
  0
LTYPE
  2
SBK1
 70
    64
  3
______ _ _ _ ______ _ _ _ ______ _ _ _ _____  
 72
    65
 73
     8
 40
60.500000
 49
45.000000
 49
-2.000000
 49
2.500000
 49
-2.000000
 49
2.500000
 49
-2.000000
 49
2.500000
 49
-2.000000
  0
LTYPE
  2
SBK2
 70
    64
  3
______ _ _ _ ______ _ _ _ ______ _ _ _ _____  
 72
    65
 73
     8
 40
84.000000
 49
64.000000
 49
-2.000000
 49
4.000000
 49
-2.000000
 49
4.000000
 49
-2.000000
 49
4.000000
 49
-2.000000
  0
LTYPE
  2
STCH
 70
    64
  3
__ __ __ __ __ __ __ __ __ __ __ __ __ __ __
 72
    65
 73
     2
 40
3.000000
 49
1.000000
 49
-2.000000
  0
LTYPE
  2
MTCH
 70
    64
  3
_____ _ _ _____ _ _ _____ _ _ _____ _ _ ____  
 72
    65
 73
     6
 40
80.000000
 49
66.000000
 49
-2.000000
 49
4.000000
 49
-2.000000
 49
4.000000
 49
-2.000000
  0
ENDTAB
  0
TABLE
  2
LAYER
 70
     1
  0
LAYER
  2
0
 70
     0
 62
     7
  6
CONTINUOUS
  0
ENDTAB
  0
TABLE
  2
STYLE
 70
     1
  0
STYLE
  2
STANDARD
 70
     0
 40
0.000000
 41
1.000000
 50
0.000000
 71
     0
 42
0.200000
  3
txt
  4
BIGFONT
  0
ENDTAB
  0
TABLE
  2
VIEW
 70
     0
  0
ENDTAB
  0
ENDSEC
  0
SECTION
  2
BLOCKS
  0
ENDSEC
  0
SECTION
  2
ENTITIES
  0
LINE
  8
0
  6
CENTER
 62
     1
 10
-107.280685
 20
-1.622514
 11
-107.280685
 21
-9.197331
  0
LINE
  8
0
  6
CENTER
 62
     1
 10
-103.623833
 20
-5.365002
 11
-110.841347
 21
-5.365002
  0
LINE
  8
0
 62
     4
 10
-112.780685
 20
-14.865002
 11
-112.780685
 21
5.134998
  0
LINE
  8
0
 62
     4
 10
-112.780685
 20
5.134998
 11
-98.780685
 21
5.134998
  0
LINE
  8
0
 62
     4
 10
-98.780685
 20
-14.865002
 11
-112.780685
 21
-14.865002
  0
LINE
  8
0
 10
-95.580688
 20
-14.165002
 11
-95.580688
 21
-13.365002
  0
LINE
  8
0
 10
-87.980682
 20
-13.365002
 11
-87.980682
 21
-14.165002
  0
LINE
  8
0
 10
-87.980682
 20
-13.365002
 11
-95.580688
 21
-13.365002
  0
LINE
  8
0
 10
-98.780685
 20
17.134998
 11
-98.780685
 21
-14.865002
  0
LINE
  8
0
 10
-98.780685
 20
-14.865002
 11
-87.280685
 21
-14.865002
  0
LINE
  8
0
 10
-87.980682
 20
-14.165002
 11
-95.580688
 21
-14.165002
  0
LINE
  8
0
  6
CENTER
 62
     2
 10
-91.780685
 20
-16.650007
 11
-91.780685
 21
24.866962
  0
LINE
  8
0
  6
CENTER
 62
     1
 10
-111.406395
 20
1.134998
 11
-114.748222
 21
1.134998
  0
LINE
  8
0
  6
CENTER
 62
     2
 10
-100.419502
 20
-6.365002
 11
-96.821205
 21
-6.365002
  0
LINE
  8
0
  6
CENTER
 62
     1
 10
-111.406395
 20
-10.865002
 11
-114.748222
 21
-10.865002
  0
LINE
  8
0
 10
-98.780685
 20
17.134998
 11
-97.880684
 21
17.134998
  0
LINE
  8
0
 10
-97.880684
 20
17.134996
 11
-97.580696
 21
16.835001
  0
LINE
  8
0
 10
-79.780685
 20
-0.665002
 11
-79.780685
 21
-0.765002
  0
LINE
  8
0
 10
-97.580688
 20
22.134998
 11
-97.580688
 21
15.634998
  0
LINE
  8
0
 10
-79.780685
 20
-0.665002
 11
-79.780685
 21
-0.765002
  0
LINE
  8
0
 10
-53.150684
 20
1.234998
 11
-53.150684
 21
2.034998
  0
LINE
  8
0
 10
-58.150684
 20
0.919998
 11
-58.150684
 21
2.349998
  0
LINE
  8
0
 10
-58.150684
 20
2.034998
 11
-53.150684
 21
2.034998
  0
LINE
  8
0
 10
-58.150684
 20
1.234998
 11
-53.150684
 21
1.234998
  0
LINE
  8
0
 10
-62.329353
 20
0.919998
 11
-58.150684
 21
0.919998
  0
LINE
  8
0
 10
-62.710686
 20
2.349998
 11
-58.150684
 21
2.349998
  0
LINE
  8
0
 62
     2
 10
-63.122913
 20
3.895835
 11
-61.997391
 21
-0.324873
  0
LINE
  8
0
 62
     2
 10
-64.297661
 20
3.651169
 11
-63.192642
 21
-0.492682
  0
LINE
  8
0
 10
-68.580688
 20
2.349998
 11
-63.950684
 21
2.349998
  0
LINE
  8
0
 10
-68.580688
 20
0.919998
 11
-63.569351
 21
0.919998
  0
LINE
  8
0
 10
-87.280685
 20
-14.865002
 11
-87.280685
 21
-9.082146
  0
LINE
  8
0
 10
-87.280685
 20
-9.082146
 11
-83.780685
 21
-8.465001
  0
LINE
  8
0
 10
-85.080688
 20
15.634998
 11
-97.580688
 21
15.634998
  0
LINE
  8
0
 10
-79.780685
 20
-0.665002
 11
-79.780685
 21
-0.765002
  0
LINE
  8
0
 10
-79.180687
 20
-1.263080
 11
-79.180687
 21
-0.765002
  0
LINE
  8
0
 10
-83.780685
 20
-2.074186
 11
-79.180687
 21
-1.263080
  0
LINE
  8
0
 10
-85.080688
 20
-0.765002
 11
-79.180687
 21
-0.765002
  0
LINE
  8
0
 10
-83.780685
 20
-8.465002
 11
-83.780685
 21
-2.074184
  0
LINE
  8
0
 10
-85.080688
 20
15.634998
 11
-85.080688
 21
-0.765002
  0
LINE
  8
0
 10
-97.580688
 20
22.134998
 11
-79.480682
 21
22.134998
  0
LINE
  8
0
 10
-84.780685
 20
-7.965002
 11
-84.780685
 21
-4.765002
  0
LINE
  8
0
 10
-83.780685
 20
-4.765002
 11
-84.780685
 21
-4.765002
  0
LINE
  8
0
 10
-83.780685
 20
-7.965002
 11
-84.780685
 21
-7.965002
  0
LINE
  8
0
 10
-84.680687
 20
-7.865002
 11
-84.780685
 21
-7.865002
  0
LINE
  8
0
 10
-84.680687
 20
-4.865002
 11
-84.780685
 21
-4.865002
  0
LINE
  8
0
 10
-84.180687
 20
-7.365002
 11
-84.180687
 21
-5.365002
  0
LINE
  8
0
 10
-73.680687
 20
-0.665002
 11
-85.080688
 21
-0.665002
  0
LINE
  8
0
 10
-73.680687
 20
4.634998
 11
-79.180687
 21
4.634998
  0
LINE
  8
0
 10
-77.114655
 20
5.134998
 11
-70.580688
 21
5.134998
  0
LINE
  8
0
 10
-69.580681
 20
-0.664999
 11
-69.292007
 21
-1.165000
  0
LINE
  8
0
 10
-69.292007
 20
-1.165002
 11
-68.580688
 21
-1.165002
  0
LINE
  8
0
 10
-70.580688
 20
5.134997
 11
-70.292007
 21
5.634996
  0
LINE
  8
0
 10
-70.292007
 20
5.634998
 11
-69.580688
 21
5.634998
  0
LINE
  8
0
 10
-73.680687
 20
0.034998
 11
-73.580688
 21
0.034998
  0
LINE
  8
0
 10
-68.580688
 20
-1.165002
 11
-68.580688
 21
4.134998
  0
LINE
  8
0
 10
-69.580688
 20
4.434755
 11
-71.280685
 21
4.134998
  0
LINE
  8
0
  6
PHANTOM
 10
-72.780685
 20
4.134998
 11
-71.282074
 21
4.134998
  0
LINE
  8
0
 10
-73.680687
 20
4.134998
 11
-68.580688
 21
4.134998
  0
LINE
  8
0
 10
-73.580688
 20
4.134998
 11
-73.580688
 21
-0.665002
  0
LINE
  8
0
 10
-69.580688
 20
4.434754
 11
-69.580688
 21
5.634998
  0
LINE
  8
0
 10
-73.580688
 20
-0.665002
 11
-69.580688
 21
-0.665002
  0
LINE
  8
0
 10
-73.680687
 20
-0.665002
 11
-73.680687
 21
4.634998
  0
LINE
  8
0
 10
-79.180687
 20
4.634998
 11
-79.180687
 21
21.834999
  0
LINE
  8
0
 10
-77.980675
 20
4.634997
 11
-77.114662
 21
5.134995
  0
LINE
  8
0
 62
     4
 10
83.219315
 20
5.134998
 11
83.219315
 21
-14.865002
  0
LINE
  8
0
 62
     4
 10
83.219315
 20
-14.865002
 11
103.219315
 21
-14.865002
  0
LINE
  8
0
 62
     4
 10
83.219315
 20
5.134998
 11
103.219315
 21
5.134998
  0
LINE
  8
0
  6
CENTER
 62
     1
 10
97.615707
 20
1.134998
 11
102.699379
 21
1.134998
  0
LINE
  8
0
  6
CENTER
 62
     1
 10
97.615707
 20
-10.865002
 11
102.699379
 21
-10.865002
  0
LINE
  8
0
  6
CENTER
 62
     1
 10
100.219315
 20
-8.185589
 11
100.219315
 21
-13.559542
  0
LINE
  8
0
 62
     4
 10
103.219315
 20
5.134998
 11
103.219315
 21
-14.865002
  0
LINE
  8
0
  6
CENTER
 62
     1
 10
100.219315
 20
3.702833
 11
100.219315
 21
-1.449225
  0
LINE
  8
0
  6
CENTER
 62
     2
 10
91.219315
 20
-16.650007
 11
91.219315
 21
24.271051
  0
LINE
  8
0
 10
96.219315
 20
22.134998
 11
86.219315
 21
22.134998
  0
LINE
  8
0
 10
94.219315
 20
21.634998
 11
88.219315
 21
21.634998
  0
LINE
  8
0
 10
94.219315
 20
21.134998
 11
88.219315
 21
21.134998
  0
LINE
  8
0
 10
88.219315
 20
21.634998
 11
88.219315
 21
21.134998
  0
LINE
  8
0
 10
94.219315
 20
21.634998
 11
94.219315
 21
21.134998
  0
LINE
  8
0
 10
86.219315
 20
5.134998
 11
86.219315
 21
22.134998
  0
LINE
  8
0
 10
96.219315
 20
5.134998
 11
96.219315
 21
22.134998
  0
LINE
  8
0
 62
     4
 10
-37.780682
 20
-89.646973
 11
-37.780682
 21
-75.646973
  0
LINE
  8
0
 62
     4
 10
-37.780682
 20
-89.646973
 11
-17.780682
 21
-89.646973
  0
LINE
  8
0
 62
     4
 10
-37.780682
 20
-75.646973
 11
-17.780682
 21
-75.646973
  0
LINE
  8
0
 62
     4
 10
-17.780682
 20
-89.646973
 11
-17.780682
 21
-75.646973
  0
LINE
  8
0
  6
CENTER
 62
     1
 10
-34.780682
 20
-86.666878
 11
-34.780682
 21
-91.094086
  0
LINE
  8
0
 10
-30.080681
 20
-74.646973
 11
-30.080681
 21
-73.146973
  0
LINE
  8
0
 10
-25.507347
 20
-73.946976
 11
-25.507347
 21
-74.946976
  0
LINE
  8
0
 10
-26.054016
 20
-73.946976
 11
-26.054016
 21
-74.946976
  0
LINE
  8
0
 10
-22.880682
 20
-74.146973
 11
-22.880682
 21
-74.946976
  0
LINE
  8
0
 10
-28.680681
 20
-74.146973
 11
-28.680681
 21
-74.946976
  0
LINE
  8
0
 10
-25.980682
 20
-72.846970
 11
-25.980682
 21
-74.946976
  0
LINE
  8
0
 10
-25.580681
 20
-72.846970
 11
-25.580681
 21
-74.946976
  0
LINE
  8
0
 10
-21.480682
 20
-74.646973
 11
-21.480682
 21
-73.146973
  0
LINE
  8
0
 10
-20.780682
 20
-75.646973
 11
-20.780682
 21
-50.046974
  0
LINE
  8
0
 10
-30.780682
 20
-75.646973
 11
-30.780682
 21
-50.046974
  0
LINE
  8
0
  6
CENTER
 62
     2
 10
-25.780682
 20
-43.220627
 11
-25.780682
 21
-91.636696
  0
LINE
  8
0
 10
-30.780682
 20
-50.046974
 11
-20.780682
 21
-50.046974
  0
LINE
  8
0
 10
-30.480682
 20
-49.946972
 11
-21.080681
 21
-49.946972
  0
LINE
  8
0
 10
-21.680681
 20
-49.946972
 11
-21.680681
 21
-50.046974
  0
LINE
  8
0
 10
-29.880682
 20
-49.946972
 11
-29.880682
 21
-50.046974
  0
LINE
  8
0
 10
-30.480682
 20
-45.446972
 11
-30.480682
 21
-49.946972
  0
LINE
  8
0
 10
-27.640682
 20
-39.096432
 11
-27.640682
 21
-35.016972
  0
LINE
  8
0
 10
-29.070683
 20
-38.712120
 11
-29.070683
 21
-35.016972
  0
LINE
  8
0
 10
-29.070683
 20
-45.446972
 11
-29.070683
 21
-39.742119
  0
LINE
  8
0
 10
-27.640682
 20
-45.446972
 11
-27.640682
 21
-40.126431
  0
LINE
  8
0
 10
-28.680681
 20
-35.016972
 11
-28.680681
 21
-30.016972
  0
LINE
  8
0
 10
-27.880682
 20
-35.016972
 11
-27.880682
 21
-30.016972
  0
LINE
  8
0
 10
-29.000681
 20
-35.016972
 11
-27.570683
 21
-35.016972
  0
LINE
  8
0
 10
-28.680681
 20
-30.016972
 11
-27.880682
 21
-30.016972
  0
LINE
  8
0
 10
-22.560680
 20
-40.461681
 11
-22.560680
 21
-35.016972
  0
LINE
  8
0
 10
-23.990681
 20
-40.077370
 11
-23.990681
 21
-35.016972
  0
LINE
  8
0
 10
-23.990681
 20
-45.446972
 11
-23.990681
 21
-41.107368
  0
LINE
  8
0
 10
-22.560680
 20
-45.446972
 11
-22.560680
 21
-41.491680
  0
LINE
  8
0
 10
-22.880682
 20
-35.016972
 11
-22.880682
 21
-30.016972
  0
LINE
  8
0
 10
-23.680681
 20
-35.016972
 11
-23.680681
 21
-30.016972
  0
LINE
  8
0
 10
-22.560680
 20
-35.016972
 11
-23.990681
 21
-35.016972
  0
LINE
  8
0
 10
-22.880682
 20
-30.016972
 11
-23.680681
 21
-30.016972
  0
LINE
  8
0
 62
     2
 10
-21.444403
 20
-41.791679
 11
-30.241495
 21
-39.427460
  0
LINE
  8
0
 62
     2
 10
-21.444403
 20
-40.761681
 11
-30.241495
 21
-38.397461
  0
LINE
  8
0
 10
-30.480682
 20
-46.158298
 11
-21.080681
 21
-46.158298
  0
LINE
  8
0
 10
-30.480682
 20
-46.446972
 11
-21.080681
 21
-46.446972
  0
LINE
  8
0
 10
-21.080681
 20
-45.446972
 11
-21.080681
 21
-49.946972
  0
LINE
  8
0
 10
-30.480682
 20
-45.446972
 11
-21.080681
 21
-45.446972
  0
LINE
  8
0
 10
-20.780682
 20
-56.046974
 11
-30.780682
 21
-56.046974
  0
LINE
  8
0
 10
-20.780682
 20
-60.646973
 11
-30.780682
 21
-60.646973
  0
LINE
  8
0
 10
-20.780682
 20
-64.146973
 11
-30.780682
 21
-64.146973
  0
LINE
  8
0
 10
-21.780682
 20
-72.846970
 11
-29.780682
 21
-72.846970
  0
LINE
  8
0
 10
-25.434013
 20
-72.846970
 11
-25.434013
 21
-73.946976
  0
LINE
  8
0
 10
-26.127350
 20
-72.846970
 11
-26.127350
 21
-73.946976
  0
LINE
  8
0
 10
-28.080681
 20
-72.846970
 11
-28.080681
 21
-73.946976
  0
LINE
  8
0
 10
-23.480682
 20
-72.846970
 11
-23.480682
 21
-73.946976
  0
LINE
  8
0
 10
-23.080681
 20
-73.946976
 11
-25.507347
 21
-73.946976
  0
LINE
  8
0
 10
-26.054016
 20
-73.946976
 11
-28.480682
 21
-73.946976
  0
LINE
  8
0
 10
-30.780682
 20
-55.046974
 11
-20.780682
 21
-55.046974
  0
LINE
  8
0
 10
-21.780682
 20
-74.946976
 11
-29.780682
 21
-74.946976
  0
LINE
  8
0
 10
-20.780682
 20
-75.646973
 11
-30.780682
 21
-75.646973
  0
LINE
  8
0
  6
CENTER
 62
     2
 10
-29.280682
 20
-77.344955
 11
-29.280682
 21
-70.714767
  0
LINE
  8
0
  6
CENTER
 62
     2
 10
-22.280682
 20
-77.344955
 11
-22.280682
 21
-70.714767
  0
LINE
  8
0
 62
     4
 10
-20.780682
 20
71.916969
 11
-17.780682
 21
71.916969
  0
LINE
  8
0
 10
-30.780682
 20
71.916969
 11
-20.780682
 21
71.916969
  0
LINE
  8
0
 62
     4
 10
-37.780682
 20
85.916969
 11
-37.780682
 21
71.916969
  0
LINE
  8
0
 62
     4
 10
-17.780682
 20
85.916969
 11
-17.780682
 21
71.916969
  0
LINE
  8
0
 62
     4
 10
-37.780682
 20
85.916969
 11
-17.780682
 21
85.916969
  0
LINE
  8
0
 62
     4
 10
-37.780682
 20
71.916969
 11
-30.780682
 21
71.916969
  0
LINE
  8
0
  6
CENTER
 62
     2
 10
-25.780682
 20
87.980438
 11
-25.780682
 21
49.516888
  0
LINE
  8
0
  6
CENTER
 62
     1
 10
-34.780682
 20
84.367401
 11
-34.780682
 21
87.064041
  0
LINE
  8
0
  6
CENTER
 62
     2
 10
-22.280682
 20
68.978989
 11
-22.280682
 21
75.298256
  0
LINE
  8
0
  6
CENTER
 62
     2
 10
-29.280682
 20
68.978989
 11
-29.280682
 21
75.298256
  0
LINE
  8
0
 10
-23.640682
 20
26.186970
 11
-22.840683
 21
26.186970
  0
LINE
  8
0
 10
-23.955681
 20
31.186970
 11
-22.525681
 21
31.186970
  0
LINE
  8
0
 10
-22.840683
 20
31.186970
 11
-22.840683
 21
26.186970
  0
LINE
  8
0
 10
-23.640682
 20
31.186970
 11
-23.640682
 21
26.186970
  0
LINE
  8
0
 10
-23.955681
 20
35.365635
 11
-23.955681
 21
31.186970
  0
LINE
  8
0
 10
-22.525681
 20
35.746971
 11
-22.525681
 21
31.186970
  0
LINE
  8
0
 10
-22.525681
 20
41.716969
 11
-22.525681
 21
36.986969
  0
LINE
  8
0
 10
-23.955681
 20
41.716969
 11
-23.955681
 21
36.605637
  0
LINE
  8
0
 10
-29.035683
 20
31.186970
 11
-27.605682
 21
31.186970
  0
LINE
  8
0
 10
-27.605682
 20
34.392303
 11
-27.605682
 21
31.186970
  0
LINE
  8
0
 10
-29.035683
 20
34.010971
 11
-29.035683
 21
31.186970
  0
LINE
  8
0
 10
-27.920681
 20
31.186970
 11
-27.920681
 21
26.186970
  0
LINE
  8
0
 10
-28.720682
 20
31.186970
 11
-28.720682
 21
26.186970
  0
LINE
  8
0
 10
-27.920681
 20
26.186970
 11
-28.720682
 21
26.186970
  0
LINE
  8
0
 10
-27.605682
 20
41.716969
 11
-27.605682
 21
35.632301
  0
LINE
  8
0
 10
-29.035683
 20
41.716969
 11
-29.035683
 21
35.250969
  0
LINE
  8
0
 62
     2
 10
-20.200682
 20
37.606968
 11
-31.298996
 21
34.647419
  0
LINE
  8
0
 62
     2
 10
-20.200682
 20
36.366970
 11
-31.298994
 21
33.407417
  0
LINE
  8
0
 10
-30.780682
 20
71.016968
 11
-20.780682
 21
71.016968
  0
LINE
  8
0
 10
-30.780682
 20
71.916969
 11
-20.780682
 21
71.916969
  0
LINE
  8
0
 10
-21.080681
 20
52.216969
 11
-30.480682
 21
52.216969
  0
LINE
  8
0
 10
-20.780682
 20
70.716972
 11
-30.780682
 21
70.716972
  0
LINE
  8
0
 10
-20.780682
 20
71.916969
 11
-20.780682
 21
46.716969
  0
LINE
  8
0
 10
-30.780682
 20
71.916969
 11
-30.780682
 21
46.716969
  0
LINE
  8
0
 10
-30.780682
 20
46.716969
 11
-28.280682
 21
46.716969
  0
LINE
  8
0
 10
-28.680681
 20
52.216969
 11
-28.680681
 21
46.716969
  0
LINE
  8
0
 10
-22.880682
 20
52.216969
 11
-22.880682
 21
46.716969
  0
LINE
  8
0
 62
     2
 10
-24.280682
 20
55.216969
 11
-27.280682
 21
55.216969
  0
LINE
  8
0
 62
     2
 10
-27.280682
 20
55.216969
 11
-27.280682
 21
52.216969
  0
LINE
  8
0
 62
     2
 10
-24.280682
 20
55.216969
 11
-24.280682
 21
52.216969
  0
LINE
  8
0
 10
-28.280682
 20
51.216969
 11
-23.280682
 21
51.216969
  0
LINE
  8
0
 10
-30.480682
 20
41.716969
 11
-21.080681
 21
41.716969
  0
LINE
  8
0
 10
-28.280682
 20
42.716969
 11
-23.280682
 21
42.716969
  0
LINE
  8
0
 10
-30.480682
 20
46.716969
 11
-30.480682
 21
41.716969
  0
LINE
  8
0
 10
-28.280682
 20
51.216969
 11
-28.280682
 21
42.716969
  0
LINE
  8
0
 10
-23.280682
 20
43.428295
 11
-28.280682
 21
43.428295
  0
LINE
  8
0
 10
-23.280682
 20
43.716969
 11
-28.280682
 21
43.716969
  0
LINE
  8
0
  6
PHANTOM
 10
-25.780682
 20
50.350945
 11
-27.030682
 21
50.350945
  0
LINE
  8
0
 10
-29.380682
 20
46.716969
 11
-29.380682
 21
41.716969
  0
LINE
  8
0
  6
PHANTOM
 10
-25.780682
 20
50.350945
 11
-24.530682
 21
50.350945
  0
LINE
  8
0
 10
-22.180681
 20
46.716969
 11
-22.180681
 21
41.716969
  0
LINE
  8
0
 10
-23.280682
 20
51.216969
 11
-23.280682
 21
42.716969
  0
LINE
  8
0
 10
-21.080681
 20
46.716969
 11
-21.080681
 21
41.716969
  0
LINE
  8
0
 10
-23.280682
 20
50.350945
 11
-28.280682
 21
50.350945
  0
LINE
  8
0
 10
-23.280682
 20
46.716969
 11
-20.780682
 21
46.716969
  0
LINE
  8
0
 62
     4
 10
34.219318
 20
5.134998
 11
48.219318
 21
5.134998
  0
LINE
  8
0
 62
     4
 10
48.219318
 20
-14.865002
 11
48.219318
 21
5.134998
  0
LINE
  8
0
 62
     4
 10
34.219318
 20
-14.865002
 11
48.219318
 21
-14.865002
  0
LINE
  8
0
  6
CENTER
 62
     1
 10
42.719318
 20
-14.176384
 11
42.719318
 21
-7.377602
  0
LINE
  8
0
  6
CENTER
 62
     1
 10
39.203201
 20
-10.865002
 11
46.113438
 21
-10.865002
  0
LINE
  8
0
  6
CENTER
 62
     1
 10
38.219318
 20
-5.148493
 11
38.219318
 21
1.650289
  0
LINE
  8
0
  6
CENTER
 62
     1
 10
34.744984
 20
-1.865002
 11
41.655220
 21
-1.865002
  0
LINE
  8
0
  6
CENTER
 62
     2
 10
27.219318
 20
-16.650007
 11
27.219318
 21
24.866962
  0
LINE
  8
0
 10
23.419319
 20
-14.165002
 11
31.019318
 21
-14.165002
  0
LINE
  8
0
 10
34.219318
 20
-14.865002
 11
22.719318
 21
-14.865002
  0
LINE
  8
0
 10
34.219318
 20
17.134998
 11
34.219318
 21
-14.865002
  0
LINE
  8
0
 10
23.419319
 20
-13.365002
 11
31.019318
 21
-13.365002
  0
LINE
  8
0
 10
23.419319
 20
-13.365002
 11
23.419319
 21
-14.165002
  0
LINE
  8
0
 10
31.019318
 20
-14.165002
 11
31.019318
 21
-13.365002
  0
LINE
  8
0
  6
CENTER
 62
     1
 10
50.376137
 20
-10.865002
 11
46.408375
 21
-10.865002
  0
LINE
  8
0
  6
CENTER
 62
     1
 10
50.376137
 20
1.134998
 11
46.408375
 21
1.134998
  0
LINE
  8
0
  6
CENTER
 62
     2
 10
31.898741
 20
-6.365002
 11
36.083294
 21
-6.365002
  0
LINE
  8
0
 10
34.219318
 20
17.134998
 11
33.319321
 21
17.134998
  0
LINE
  8
0
 10
33.019318
 20
15.634998
 11
33.019318
 21
22.134998
  0
LINE
  8
0
 10
33.319317
 20
17.134998
 11
33.019318
 21
16.834999
  0
LINE
  8
0
 62
     2
 10
-0.241811
 20
3.733263
 11
-1.590682
 21
-1.325001
  0
LINE
  8
0
 62
     2
 10
-1.423398
 20
3.952311
 11
-2.830682
 21
-1.325001
  0
LINE
  8
0
 10
-1.850681
 20
2.349998
 11
-6.410683
 21
2.349998
  0
LINE
  8
0
 10
-2.232014
 20
0.919998
 11
-6.410683
 21
0.919998
  0
LINE
  8
0
 10
-6.410683
 20
1.234998
 11
-11.410683
 21
1.234998
  0
LINE
  8
0
 10
-6.410683
 20
2.034998
 11
-11.410683
 21
2.034998
  0
LINE
  8
0
 10
-6.410683
 20
0.919998
 11
-6.410683
 21
2.349998
  0
LINE
  8
0
 10
4.019318
 20
2.349998
 11
-0.610683
 21
2.349998
  0
LINE
  8
0
 10
4.019318
 20
0.919998
 11
-0.992016
 21
0.919998
  0
LINE
  8
0
 10
13.419319
 20
4.634999
 11
12.553293
 21
5.134999
  0
LINE
  8
0
 10
14.619320
 20
4.634998
 11
14.619320
 21
21.834999
  0
LINE
  8
0
 10
9.119320
 20
-0.665002
 11
9.119320
 21
4.634998
  0
LINE
  8
0
 10
9.019318
 20
-0.665002
 11
5.019318
 21
-0.665002
  0
LINE
  8
0
 10
5.019318
 20
4.434754
 11
5.019318
 21
5.634998
  0
LINE
  8
0
 10
9.019318
 20
4.134998
 11
9.019318
 21
-0.665002
  0
LINE
  8
0
 10
9.119320
 20
4.134998
 11
4.019318
 21
4.134998
  0
LINE
  8
0
  6
PHANTOM
 10
8.219318
 20
4.134998
 11
6.720703
 21
4.134998
  0
LINE
  8
0
 10
5.019319
 20
4.434755
 11
6.719320
 21
4.134998
  0
LINE
  8
0
 10
4.019318
 20
-1.165002
 11
4.019318
 21
4.134998
  0
LINE
  8
0
 10
9.119320
 20
0.034998
 11
9.019318
 21
0.034998
  0
LINE
  8
0
 10
5.730644
 20
5.634998
 11
5.019318
 21
5.634998
  0
LINE
  8
0
 10
6.019318
 20
5.134998
 11
5.730643
 21
5.634999
  0
LINE
  8
0
 10
4.730644
 20
-1.165002
 11
4.019318
 21
-1.165002
  0
LINE
  8
0
 10
5.019317
 20
-0.665001
 11
4.730642
 21
-1.165001
  0
LINE
  8
0
 10
12.553291
 20
5.134998
 11
6.019318
 21
5.134998
  0
LINE
  8
0
 10
9.119320
 20
4.634998
 11
14.619320
 21
4.634998
  0
LINE
  8
0
 10
9.119320
 20
-0.665002
 11
20.519318
 21
-0.665002
  0
LINE
  8
0
 10
19.619318
 20
-7.365002
 11
19.619318
 21
-5.365002
  0
LINE
  8
0
 10
20.119318
 20
-4.865002
 11
20.219318
 21
-4.865002
  0
LINE
  8
0
 10
20.119318
 20
-7.865002
 11
20.219318
 21
-7.865002
  0
LINE
  8
0
 10
19.219318
 20
-7.965002
 11
20.219318
 21
-7.965002
  0
LINE
  8
0
 10
19.219318
 20
-4.765002
 11
20.219318
 21
-4.765002
  0
LINE
  8
0
 10
20.219318
 20
-7.965002
 11
20.219318
 21
-4.765002
  0
LINE
  8
0
 10
20.519318
 20
15.634998
 11
20.519318
 21
-0.765002
  0
LINE
  8
0
 10
19.219318
 20
-8.465002
 11
19.219318
 21
-2.074184
  0
LINE
  8
0
 10
20.519318
 20
-0.765002
 11
14.619320
 21
-0.765002
  0
LINE
  8
0
 10
19.219318
 20
-2.074184
 11
14.619318
 21
-1.263080
  0
LINE
  8
0
 10
14.619320
 20
-1.263080
 11
14.619320
 21
-0.765002
  0
LINE
  8
0
 10
15.219318
 20
-0.665002
 11
15.219318
 21
-0.765002
  0
LINE
  8
0
 10
20.519318
 20
15.634998
 11
33.019318
 21
15.634998
  0
LINE
  8
0
 10
22.719318
 20
-9.082146
 11
19.219318
 21
-8.465001
  0
LINE
  8
0
 10
22.719318
 20
-14.865002
 11
22.719318
 21
-9.082146
  0
LINE
  8
0
 10
-11.410683
 20
2.034998
 11
-11.410683
 21
1.234998
  0
LINE
  8
0
 10
33.019318
 20
22.134998
 11
14.919319
 21
22.134998
  0
LINE
  8
0
 62
     4
 10
-30.780682
 20
-14.865002
 11
-37.780682
 21
-14.865002
  0
LINE
  8
0
 62
     4
 10
-30.780682
 20
5.134998
 11
-37.780682
 21
5.134998
  0
LINE
  8
0
 62
     4
 10
-17.780682
 20
5.134998
 11
-17.780682
 21
-14.865002
  0
LINE
  8
0
  6
CENTER
 62
     1
 10
-34.780682
 20
3.702833
 11
-34.780682
 21
-1.449225
  0
LINE
  8
0
 62
     4
 10
-37.780682
 20
5.134998
 11
-37.780682
 21
-14.865002
  0
LINE
  8
0
 62
     4
 10
-17.780682
 20
5.134998
 11
-20.780682
 21
5.134998
  0
LINE
  8
0
 62
     4
 10
-17.780682
 20
-14.865002
 11
-20.780682
 21
-14.865002
  0
LINE
  8
0
  6
CENTER
 62
     1
 10
-34.780682
 20
-8.185589
 11
-34.780682
 21
-13.887486
  0
LINE
  8
0
  6
CENTER
 62
     1
 10
-32.177078
 20
1.134998
 11
-37.260750
 21
1.134998
  0
LINE
  8
0
  6
CENTER
 62
     1
 10
-32.177078
 20
-10.865002
 11
-37.260750
 21
-10.865002
  0
LINE
  8
0
 10
-30.480682
 20
-0.365002
 11
-30.780682
 21
-0.365002
  0
LINE
  8
0
 10
-30.480682
 20
-0.465002
 11
-30.780682
 21
-0.465002
  0
LINE
  8
0
 10
-23.280682
 20
4.934999
 11
-21.080681
 21
4.934999
  0
LINE
  8
0
 10
-23.280682
 20
3.934999
 11
-22.880682
 21
3.934999
  0
LINE
  8
0
 10
-28.280682
 20
4.734998
 11
-23.280682
 21
4.734998
  0
LINE
  8
0
 10
-28.280682
 20
5.934999
 11
-23.280682
 21
5.934999
  0
LINE
  8
0
 10
-29.480682
 20
3.434999
 11
-22.080681
 21
3.434999
  0
LINE
  8
0
 10
-30.480682
 20
-0.865002
 11
-30.480682
 21
4.434999
  0
LINE
  8
0
 10
-21.080681
 20
-0.865002
 11
-21.080681
 21
4.434999
  0
LINE
  8
0
 10
-30.480682
 20
-0.865002
 11
-21.080681
 21
-0.865002
  0
LINE
  8
0
 10
-28.870682
 20
0.834998
 11
-28.870682
 21
0.334998
  0
LINE
  8
0
 10
-27.770681
 20
0.834998
 11
-27.770681
 21
0.334998
  0
LINE
  8
0
 10
-29.270681
 20
2.934999
 11
-27.370682
 21
2.934999
  0
LINE
  8
0
 10
-29.196682
 20
0.834998
 11
-27.446682
 21
0.834998
  0
LINE
  8
0
 10
-28.870682
 20
0.334998
 11
-27.770681
 21
0.334998
  0
LINE
  8
0
 10
-24.530682
 20
4.434999
 11
-24.530682
 21
3.434999
  0
LINE
  8
0
 10
-27.030682
 20
4.434999
 11
-27.030682
 21
3.434999
  0
LINE
  8
0
 10
-30.480682
 20
4.434999
 11
-29.480682
 21
4.434999
  0
LINE
  8
0
 10
-29.480682
 20
3.434999
 11
-29.480682
 21
4.434999
  0
LINE
  8
0
 10
-21.080681
 20
4.434999
 11
-22.080681
 21
4.434999
  0
LINE
  8
0
 10
-22.080681
 20
3.434999
 11
-22.080681
 21
4.434999
  0
LINE
  8
0
 10
-27.370682
 20
2.934999
 11
-27.246681
 21
1.046999
  0
LINE
  8
0
 10
-29.396681
 20
1.046999
 11
-29.270681
 21
2.934999
  0
LINE
  8
0
 10
-26.730682
 20
2.934999
 11
-24.830681
 21
2.934999
  0
LINE
  8
0
 10
-26.856684
 20
1.046999
 11
-26.730684
 21
2.934999
  0
LINE
  8
0
 10
-26.656681
 20
0.834998
 11
-24.906681
 21
0.834998
  0
LINE
  8
0
 10
-26.330681
 20
0.834998
 11
-26.330681
 21
0.334998
  0
LINE
  8
0
 10
-26.330681
 20
0.334998
 11
-25.230682
 21
0.334998
  0
LINE
  8
0
 10
-25.230682
 20
0.834998
 11
-25.230682
 21
0.334998
  0
LINE
  8
0
 10
-24.830681
 20
2.934998
 11
-24.706682
 21
1.046998
  0
LINE
  8
0
 10
-26.180681
 20
2.334999
 11
-26.180681
 21
1.534998
  0
LINE
  8
0
 10
-25.380682
 20
2.334999
 11
-26.180681
 21
2.334999
  0
LINE
  8
0
 10
-25.380682
 20
2.334999
 11
-25.380682
 21
1.534998
  0
LINE
  8
0
 10
-25.380682
 20
1.534998
 11
-26.180681
 21
1.534998
  0
LINE
  8
0
 10
-24.190681
 20
2.934999
 11
-22.290682
 21
2.934999
  0
LINE
  8
0
 10
-24.316681
 20
1.046998
 11
-24.190681
 21
2.934998
  0
LINE
  8
0
 10
-24.116682
 20
0.834998
 11
-22.366682
 21
0.834998
  0
LINE
  8
0
 10
-23.790682
 20
0.834998
 11
-23.790682
 21
0.334998
  0
LINE
  8
0
 10
-23.790682
 20
0.334998
 11
-22.690681
 21
0.334998
  0
LINE
  8
0
 10
-22.690681
 20
0.834998
 11
-22.690681
 21
0.334998
  0
LINE
  8
0
 10
-22.290682
 20
2.934998
 11
-22.166681
 21
1.046998
  0
LINE
  8
0
 10
-28.280682
 20
5.934999
 11
-28.280682
 21
3.434999
  0
LINE
  8
0
 10
-23.280682
 20
5.934999
 11
-23.280682
 21
3.434999
  0
LINE
  8
0
 10
-28.680681
 20
4.434999
 11
-22.880682
 21
4.434999
  0
LINE
  8
0
 10
-22.880682
 20
3.934999
 11
-22.880682
 21
4.934999
  0
LINE
  8
0
 10
-28.680681
 20
3.934999
 11
-28.680681
 21
4.934999
  0
LINE
  8
0
 10
-28.680681
 20
3.934999
 11
-28.280682
 21
3.934999
  0
LINE
  8
0
 10
-30.480682
 20
4.934999
 11
-28.280682
 21
4.934999
  0
LINE
  8
0
 10
-20.780682
 20
-0.365002
 11
-21.080681
 21
-0.365002
  0
LINE
  8
0
 10
-28.175053
 20
-8.905818
 11
-28.430681
 21
-8.465000
  0
LINE
  8
0
 10
-23.130682
 20
-8.465003
 11
-23.386312
 21
-8.905820
  0
LINE
  8
0
 10
-26.925053
 20
-7.655819
 11
-27.180683
 21
-7.215002
  0
LINE
  8
0
 10
-28.430681
 20
-8.465001
 11
-27.180681
 21
-7.215002
  0
LINE
  8
0
 10
-26.925053
 20
-7.655820
 11
-28.175053
 21
-8.905820
  0
LINE
  8
0
 10
-24.636311
 20
-7.655821
 11
-24.380680
 21
-7.215003
  0
LINE
  8
0
 10
-20.780682
 20
-1.774184
 11
-30.780682
 21
-1.774184
  0
LINE
  8
0
 10
-24.636311
 20
-7.655819
 11
-23.386311
 21
-8.905819
  0
LINE
  8
0
 10
-20.780682
 20
-8.905819
 11
-23.386311
 21
-8.905819
  0
LINE
  8
0
 10
-28.175053
 20
-8.905819
 11
-30.780682
 21
-8.905819
  0
LINE
  8
0
 10
-26.925053
 20
-7.655819
 11
-24.636311
 21
-7.655819
  0
LINE
  8
0
 10
-20.780682
 20
-8.465002
 11
-23.130682
 21
-8.465002
  0
LINE
  8
0
 10
-23.130682
 20
-8.465001
 11
-24.380682
 21
-7.215002
  0
LINE
  8
0
 10
-27.180681
 20
-7.215002
 11
-24.380682
 21
-7.215002
  0
LINE
  8
0
 10
-28.430681
 20
-8.465002
 11
-30.780682
 21
-8.465002
  0
LINE
  8
0
 10
-30.780682
 20
-0.963080
 11
-20.780682
 21
-0.963080
  0
LINE
  8
0
 10
-20.780682
 20
-0.465002
 11
-21.080681
 21
-0.465002
  0
LINE
  8
0
 10
-22.280682
 20
-4.765002
 11
-20.780682
 21
-4.765002
  0
LINE
  8
0
 10
-20.780682
 20
-7.965002
 11
-22.280682
 21
-7.965002
  0
LINE
  8
0
 10
-29.280682
 20
-7.965002
 11
-30.780682
 21
-7.965002
  0
LINE
  8
0
 10
-30.780682
 20
-4.765002
 11
-29.280682
 21
-4.765002
  0
LINE
  8
0
  6
CENTER
 62
     2
 10
-23.280682
 20
-4.615002
 11
-28.280682
 21
-4.615002
  0
LINE
  8
0
 10
-23.955168
 20
-4.915002
 11
-27.606195
 21
-4.915002
  0
LINE
  8
0
 10
-25.780682
 20
-4.315001
 11
-27.606195
 21
-4.315001
  0
LINE
  8
0
 10
-23.955168
 20
-4.315001
 11
-25.780682
 21
-4.315001
  0
LINE
  8
0
 10
-29.987787
 20
-7.072109
 11
-28.573574
 21
-5.657895
  0
LINE
  8
0
 10
-29.987787
 20
-5.657896
 11
-28.573574
 21
-7.072109
  0
LINE
  8
0
 10
-21.573574
 20
-5.657895
 11
-22.987789
 21
-7.072109
  0
LINE
  8
0
 10
-21.573574
 20
-7.072108
 11
-22.987787
 21
-5.657894
  0
LINE
  8
0
 10
-20.780682
 20
-14.865002
 11
-30.780682
 21
-14.865002
  0
LINE
  8
0
 10
-30.780682
 20
21.834999
 11
-30.780682
 21
-14.865002
  0
LINE
  8
0
 10
-21.080681
 20
22.134998
 11
-30.480682
 21
22.134998
  0
LINE
  8
0
 62
     2
 10
-27.280682
 20
17.134998
 11
-24.280682
 21
17.134998
  0
LINE
  8
0
 62
     2
 10
-27.280682
 20
17.134998
 11
-27.280682
 21
22.134998
  0
LINE
  8
0
 62
     2
 10
-24.280682
 20
17.134998
 11
-24.280682
 21
22.134998
  0
LINE
  8
0
 10
-20.780682
 20
21.834999
 11
-20.780682
 21
-14.865002
  0
LINE
  8
0
  6
CENTER
 62
     2
 10
-25.780682
 20
-16.650007
 11
-25.780682
 21
24.866962
  0
LINE
  8
0
 10
-138.399994
 20
94.500000
 11
138.350006
 21
94.500000
  0
LINE
  8
0
 10
138.350006
 20
94.500000
 11
138.350006
 21
-94.800003
  0
LINE
  8
0
 10
-138.399994
 20
-94.800003
 11
138.350006
 21
-94.800003
  0
LINE
  8
0
 10
-138.399994
 20
94.500000
 11
-138.399994
 21
-94.800003
  0
LINE
  8
0
 10
73.350006
 20
-84.800003
 11
138.350006
 21
-84.800003
  0
LINE
  8
0
 10
-138.399994
 20
84.500000
 11
-73.399994
 21
84.500000
  0
LINE
  8
0
 10
73.350006
 20
84.500000
 11
138.350006
 21
84.500000
  0
LINE
  8
0
 10
73.350006
 20
-84.800003
 11
73.350006
 21
-94.800003
  0
LINE
  8
0
 10
73.350006
 20
94.500000
 11
73.350006
 21
84.500000
  0
LINE
  8
0
 10
-73.399994
 20
94.500000
 11
-73.399994
 21
84.500000
  0
CIRCLE
  8
0
 62
     4
 10
-107.280685
 20
-5.365002
 40
2.100000
  0
CIRCLE
  8
0
 62
     4
 10
-107.280685
 20
-5.365002
 40
2.500000
  0
ARC
  8
0
 10
-79.480682
 20
21.834999
 40
0.300003
 50
0.000000
 51
90.000000
  0
ARC
  8
0
 10
-84.680687
 20
-5.365002
 40
0.500000
 50
0.000000
 51
90.000000
  0
ARC
  8
0
 10
-84.680687
 20
-7.365002
 40
0.500000
 50
270.000000
 51
0.000000
  0
CIRCLE
  8
0
 62
     4
 10
100.219315
 20
1.134998
 40
1.700000
  0
CIRCLE
  8
0
 62
     4
 10
100.219315
 20
-10.865002
 40
1.700000
  0
ARC
  8
0
 10
-29.780682
 20
-73.146973
 40
0.300003
 50
90.000000
 51
180.000000
  0
ARC
  8
0
 10
-21.780682
 20
-73.146973
 40
0.299999
 50
0.000000
 51
90.000000
  0
ARC
  8
0
 10
-23.080681
 20
-74.146973
 40
0.200001
 50
0.000000
 51
90.000000
  0
ARC
  8
0
 10
-28.480682
 20
-74.146973
 40
0.199997
 50
90.000000
 51
180.000000
  0
ARC
  8
0
 10
-21.780682
 20
-74.646973
 40
0.300003
 50
270.000000
 51
0.000000
  0
ARC
  8
0
 10
-29.780682
 20
-74.646973
 40
0.299999
 50
180.000000
 51
270.000000
  0
ARC
  8
0
 10
-30.480682
 20
52.516968
 40
0.299999
 50
180.000000
 51
270.000000
  0
ARC
  8
0
 10
-21.080681
 20
52.516968
 40
0.299999
 50
270.000000
 51
0.000000
  0
CIRCLE
  8
0
 62
     4
 10
42.719318
 20
-10.865002
 40
2.500000
  0
CIRCLE
  8
0
 62
     4
 10
42.719318
 20
-10.865002
 40
2.100000
  0
CIRCLE
  8
0
 62
     4
 10
38.219318
 20
-1.865002
 40
2.500000
  0
CIRCLE
  8
0
 62
     4
 10
38.219318
 20
-1.865002
 40
2.100000
  0
ARC
  8
0
 10
20.119318
 20
-7.365002
 40
0.500000
 50
180.000000
 51
270.000000
  0
ARC
  8
0
 10
20.119318
 20
-5.365002
 40
0.500000
 50
90.000000
 51
180.000000
  0
ARC
  8
0
 10
14.919319
 20
21.834999
 40
0.299999
 50
90.000000
 51
180.000000
  0
CIRCLE
  8
0
 62
     4
 10
-34.780682
 20
-10.865002
 40
1.700000
  0
CIRCLE
  8
0
 62
     4
 10
-34.780682
 20
1.134998
 40
1.700000
  0
CIRCLE
  8
0
 10
-23.240681
 20
1.934999
 40
0.750000
  0
CIRCLE
  8
0
 10
-28.320683
 20
1.934999
 40
0.750000
  0
ARC
  8
0
 10
-29.196339
 20
1.035663
 40
0.200665
 50
176.761581
 51
269.901978
  0
ARC
  8
0
 10
-27.445967
 20
1.034664
 40
0.199667
 50
269.794739
 51
3.541817
  0
ARC
  8
0
 10
-26.656338
 20
1.035663
 40
0.200665
 50
176.761581
 51
269.901978
  0
ARC
  8
0
 10
-24.905968
 20
1.034664
 40
0.199667
 50
269.794739
 51
3.541817
  0
ARC
  8
0
 10
-24.116337
 20
1.035663
 40
0.200665
 50
176.761581
 51
269.901978
  0
ARC
  8
0
 10
-22.365967
 20
1.034664
 40
0.199667
 50
269.794739
 51
3.541817
  0
ARC
  8
0
 10
-21.080681
 20
4.634998
 40
0.299999
 50
0.000000
 51
90.000000
  0
ARC
  8
0
 10
-30.480682
 20
4.634998
 40
0.300000
 50
90.000000
 51
180.000000
  0
CIRCLE
  8
0
 10
-25.780682
 20
-4.615002
 40
2.050000
  0
ARC
  8
0
 10
-29.280682
 20
-6.365002
 40
1.600000
 50
270.000000
 51
90.000000
  0
ARC
  8
0
 10
-22.280682
 20
-6.365002
 40
1.600000
 50
90.000000
 51
270.000000
  0
CIRCLE
  8
0
 10
-25.780682
 20
-4.615002
 40
1.900000
  0
CIRCLE
  8
0
 10
-25.780682
 20
-4.615002
 40
1.850000
  0
ARC
  8
0
 10
-25.780682
 20
-4.615002
 40
0.799999
 50
22.024345
 51
157.975662
  0
ARC
  8
0
 10
-25.780682
 20
-4.615002
 40
0.799999
 50
202.024338
 51
337.975647
  0
CIRCLE
  8
0
 10
-29.280682
 20
-6.365002
 40
1.500000
  0
CIRCLE
  8
0
 10
-22.280682
 20
-6.365002
 40
1.500000
  0
ARC
  8
0
 10
-30.480682
 20
21.834999
 40
0.299999
 50
90.000000
 51
180.000000
  0
ARC
  8
0
 10
-21.080681
 20
21.834999
 40
0.299999
 50
0.000000
 51
90.000000
  0
TEXT
  8
0
 10
76.207352
 20
-92.850006
 40
4.500000
  1
KOGANEI CORP.
 50
0.000000
 41
1.052632
 51
0.000000
  7
STANDARD
  0
TEXT
  8
0
 10
92.842865
 20
87.620003
 40
3.200000
  1
Ver. 1.0
 50
0.000000
 41
1.052632
 51
0.000000
  7
STANDARD
  0
TEXT
  8
0
 10
-123.707138
 20
87.620003
 40
3.200000
  1
G010 SERIES
 50
0.000000
 41
1.052632
 51
0.000000
  7
STANDARD
  0
TEXT
  8
0
 10
-130.207001
 20
75.980003
 40
3.200000
  1
MODEL:GA010E1-25
 50
0.000000
 41
1.052632
 51
0.000000
  7
STANDARD
  0
TEXT
  8
0
 10
-130.207001
 20
71.180000
 40
3.200000
  1
           -PL(AC200)
 50
0.000000
 41
1.052632
 51
0.000000
  7
STANDARD
  0
LINE
  8
0
 10
-23.473606
 20
1.222084
 11
-22.527767
 21
2.167922
  0
LINE
  8
0
 10
-23.887938
 20
1.556108
 11
-22.861790
 21
2.582255
  0
LINE
  8
0
 10
-23.900101
 20
2.292298
 11
-23.597979
 21
2.594420
  0
LINE
  8
0
 10
-28.665306
 20
1.268865
 11
-27.654549
 21
2.279624
  0
LINE
  8
0
 10
-29.019594
 20
1.662932
 11
-28.048615
 21
2.633912
  0
ENDSEC
  0
EOF
