  0
SECTION
  2
HEADER
  0
ENDSEC
  0
SECTION
  2
TABLES
  0
TABLE
  2
LTYPE
 70
     4
  0
LTYPE
  2
CONTINUOUS
 70
    64
  3
Solid line
 72
    65
 73
     0
 40
0.000000
  0
LTYPE
  2
DASHED
 70
    64
  3
__ __ __ __ __ __ __ __ __ __ __ __ __ __ __
 72
    65
 73
     2
 40
3.500000
 49
2.000000
 49
-1.500000
  0
LTYPE
  2
CENTER
 70
    64
  3
____ _ ____ _ ____ _ ____ _ ____ _ ____ _ ____
 72
    65
 73
     4
 40
17.500000
 49
13.000000
 49
-1.500000
 49
1.500000
 49
-1.500000
  0
LTYPE
  2
PHANTOM
 70
    64
  3
_____ _ _ _____ _ _ _____ _ _ _____ _ _ ____  
 72
    65
 73
     6
 40
15.500000
 49
8.000000
 49
-1.500000
 49
1.500000
 49
-1.500000
 49
1.500000
 49
-1.500000
  0
LTYPE
  2
DASHED1
 70
    64
  3
__ __ __ __ __ __ __ __ __ __ __ __ __ __ __
 72
    65
 73
     2
 40
1.500000
 49
1.000000
 49
-0.500000
  0
LTYPE
  2
DASHED2
 70
    64
  3
__ __ __ __ __ __ __ __ __ __ __ __ __ __ __
 72
    65
 73
     2
 40
3.500000
 49
2.500000
 49
-1.000000
  0
LTYPE
  2
DASHED3
 70
    64
  3
__ __ __ __ __ __ __ __ __ __ __ __ __ __ __
 72
    65
 73
     2
 40
6.000000
 49
4.000000
 49
-2.000000
  0
LTYPE
  2
DASHED4
 70
    64
  3
__ __ __ __ __ __ __ __ __ __ __ __ __ __ __
 72
    65
 73
     2
 40
12.000000
 49
10.000000
 49
-2.000000
  0
LTYPE
  2
DASHED5
 70
    64
  3
__ __ __ __ __ __ __ __ __ __ __ __ __ __ __
 72
    65
 73
     2
 40
17.000000
 49
15.000000
 49
-2.000000
  0
LTYPE
  2
DASHED6
 70
    64
  3
__ __ __ __ __ __ __ __ __ __ __ __ __ __ __
 72
    65
 73
     2
 40
29.000000
 49
27.000000
 49
-2.000000
  0
LTYPE
  2
PHANTOM1
 70
    64
  3
_____ _ _ _____ _ _ _____ _ _ _____ _ _ ____  
 72
    65
 73
     6
 40
31.000000
 49
25.000000
 49
-1.500000
 49
1.000000
 49
-1.000000
 49
1.000000
 49
-1.500000
  0
LTYPE
  2
PHANTOM2
 70
    64
  3
_____ _ _ _____ _ _ _____ _ _ _____ _ _ ____  
 72
    65
 73
     6
 40
36.000000
 49
27.000000
 49
-1.500000
 49
2.500000
 49
-1.000000
 49
2.500000
 49
-1.500000
  0
LTYPE
  2
PHANTOM3
 70
    64
  3
_____ _ _ _____ _ _ _____ _ _ _____ _ _ ____  
 72
    65
 73
     6
 40
78.000000
 49
64.000000
 49
-2.000000
 49
4.000000
 49
-2.000000
 49
4.000000
 49
-2.000000
  0
LTYPE
  2
CENTER1
 70
    64
  3
____ _ ____ _ ____ _ ____ _ ____ _ ____ _ ____
 72
    65
 73
     4
 40
19.000000
 49
14.000000
 49
-1.000000
 49
3.000000
 49
-1.000000
  0
LTYPE
  2
CENTER2
 70
    64
  3
____ _ ____ _ ____ _ ____ _ ____ _ ____ _ ____
 72
    65
 73
     4
 40
28.500000
 49
25.000000
 49
-1.000000
 49
1.500000
 49
-1.000000
  0
LTYPE
  2
CENTER3
 70
    64
  3
____ _ ____ _ ____ _ ____ _ ____ _ ____ _ ____
 72
    65
 73
     4
 40
31.500000
 49
27.000000
 49
-1.000000
 49
2.500000
 49
-1.000000
  0
LTYPE
  2
CENTER4
 70
    64
  3
____ _ ____ _ ____ _ ____ _ ____ _ ____ _ ____
 72
    65
 73
     4
 40
50.000000
 49
45.000000
 49
-1.000000
 49
3.000000
 49
-1.000000
  0
LTYPE
  2
CENTER5
 70
    64
  3
____ _ ____ _ ____ _ ____ _ ____ _ ____ _ ____
 72
    65
 73
     4
 40
100.000000
 49
92.000000
 49
-2.000000
 49
4.000000
 49
-2.000000
  0
LTYPE
  2
SBK1
 70
    64
  3
______ _ _ _ ______ _ _ _ ______ _ _ _ _____  
 72
    65
 73
     8
 40
60.500000
 49
45.000000
 49
-2.000000
 49
2.500000
 49
-2.000000
 49
2.500000
 49
-2.000000
 49
2.500000
 49
-2.000000
  0
LTYPE
  2
SBK2
 70
    64
  3
______ _ _ _ ______ _ _ _ ______ _ _ _ _____  
 72
    65
 73
     8
 40
84.000000
 49
64.000000
 49
-2.000000
 49
4.000000
 49
-2.000000
 49
4.000000
 49
-2.000000
 49
4.000000
 49
-2.000000
  0
LTYPE
  2
STCH
 70
    64
  3
__ __ __ __ __ __ __ __ __ __ __ __ __ __ __
 72
    65
 73
     2
 40
3.000000
 49
1.000000
 49
-2.000000
  0
LTYPE
  2
MTCH
 70
    64
  3
_____ _ _ _____ _ _ _____ _ _ _____ _ _ ____  
 72
    65
 73
     6
 40
80.000000
 49
66.000000
 49
-2.000000
 49
4.000000
 49
-2.000000
 49
4.000000
 49
-2.000000
  0
ENDTAB
  0
TABLE
  2
LAYER
 70
     1
  0
LAYER
  2
0
 70
     0
 62
     7
  6
CONTINUOUS
  0
ENDTAB
  0
TABLE
  2
STYLE
 70
     1
  0
STYLE
  2
STANDARD
 70
     0
 40
0.000000
 41
1.000000
 50
0.000000
 71
     0
 42
0.200000
  3
txt
  4
BIGFONT
  0
ENDTAB
  0
TABLE
  2
VIEW
 70
     0
  0
ENDTAB
  0
ENDSEC
  0
SECTION
  2
BLOCKS
  0
ENDSEC
  0
SECTION
  2
ENTITIES
  0
LINE
  8
0
 62
     4
 10
83.219315
 20
-9.865002
 11
83.219315
 21
-29.865002
  0
LINE
  8
0
 62
     4
 10
83.219315
 20
-29.865002
 11
103.219315
 21
-29.865002
  0
LINE
  8
0
 62
     4
 10
83.219315
 20
-9.865002
 11
103.219315
 21
-9.865002
  0
LINE
  8
0
  6
CENTER
 62
     1
 10
97.615707
 20
-13.865002
 11
102.699379
 21
-13.865002
  0
LINE
  8
0
  6
CENTER
 62
     1
 10
97.615707
 20
-25.865002
 11
102.699379
 21
-25.865002
  0
LINE
  8
0
  6
CENTER
 62
     1
 10
100.219315
 20
-23.185589
 11
100.219315
 21
-28.559542
  0
LINE
  8
0
 62
     4
 10
103.219315
 20
-9.865002
 11
103.219315
 21
-29.865002
  0
LINE
  8
0
  6
CENTER
 62
     1
 10
100.219315
 20
-11.297168
 11
100.219315
 21
-16.449224
  0
LINE
  8
0
  6
CENTER
 62
     2
 10
91.219315
 20
-31.650007
 11
91.219315
 21
20.265549
  0
LINE
  8
0
 10
95.319313
 20
13.134998
 11
95.319313
 21
13.234999
  0
LINE
  8
0
 10
87.119316
 20
13.134998
 11
87.119316
 21
13.234999
  0
LINE
  8
0
 10
95.919312
 20
13.234999
 11
95.919312
 21
18.234997
  0
LINE
  8
0
 10
86.519318
 20
13.234999
 11
86.519318
 21
18.234997
  0
LINE
  8
0
 10
89.079315
 20
33.764999
 11
88.279312
 21
33.764999
  0
LINE
  8
0
 10
89.394318
 20
28.764999
 11
87.964317
 21
28.764999
  0
LINE
  8
0
 10
88.279312
 20
28.764999
 11
88.279312
 21
33.764999
  0
LINE
  8
0
 10
89.079315
 20
28.764999
 11
89.079315
 21
33.764999
  0
LINE
  8
0
 10
89.394318
 20
25.559666
 11
89.394318
 21
28.764999
  0
LINE
  8
0
 10
87.964317
 20
25.940998
 11
87.964317
 21
28.764999
  0
LINE
  8
0
 10
87.964317
 20
18.234997
 11
87.964317
 21
24.701000
  0
LINE
  8
0
 10
89.394318
 20
18.234997
 11
89.394318
 21
24.319664
  0
LINE
  8
0
 10
94.474312
 20
28.764999
 11
93.044312
 21
28.764999
  0
LINE
  8
0
 10
93.044312
 20
24.586330
 11
93.044312
 21
28.764999
  0
LINE
  8
0
 10
94.474312
 20
24.204998
 11
94.474312
 21
28.764999
  0
LINE
  8
0
 10
93.359314
 20
28.764999
 11
93.359314
 21
33.764999
  0
LINE
  8
0
 10
94.159317
 20
28.764999
 11
94.159317
 21
33.764999
  0
LINE
  8
0
 10
93.359314
 20
33.764999
 11
94.159317
 21
33.764999
  0
LINE
  8
0
 62
     2
 10
96.799316
 20
23.584999
 11
85.701004
 21
26.544550
  0
LINE
  8
0
 62
     2
 10
96.799316
 20
22.344997
 11
85.701004
 21
25.304548
  0
LINE
  8
0
 10
93.044312
 20
18.234997
 11
93.044312
 21
23.346333
  0
LINE
  8
0
 10
94.474312
 20
18.234997
 11
94.474312
 21
22.965000
  0
LINE
  8
0
 10
86.519318
 20
18.234997
 11
95.919312
 21
18.234997
  0
LINE
  8
0
 10
86.519318
 20
17.523674
 11
95.919312
 21
17.523674
  0
LINE
  8
0
 10
86.519318
 20
17.234999
 11
95.919312
 21
17.234999
  0
LINE
  8
0
 10
86.519318
 20
13.234999
 11
95.919312
 21
13.234999
  0
LINE
  8
0
 10
86.219315
 20
13.134998
 11
96.219315
 21
13.134998
  0
LINE
  8
0
 10
96.219315
 20
7.134998
 11
86.219315
 21
7.134998
  0
LINE
  8
0
 10
94.219315
 20
6.634998
 11
88.219315
 21
6.634998
  0
LINE
  8
0
 10
94.219315
 20
6.134998
 11
88.219315
 21
6.134998
  0
LINE
  8
0
 10
88.219315
 20
6.634998
 11
88.219315
 21
6.134998
  0
LINE
  8
0
 10
94.219315
 20
6.634998
 11
94.219315
 21
6.134998
  0
LINE
  8
0
 10
86.219315
 20
-9.865002
 11
86.219315
 21
13.134998
  0
LINE
  8
0
 10
96.219315
 20
-9.865002
 11
96.219315
 21
13.134998
  0
LINE
  8
0
 62
     4
 10
-38.780682
 20
-81.646973
 11
-38.780682
 21
-67.646973
  0
LINE
  8
0
 62
     4
 10
-38.780682
 20
-81.646973
 11
-18.780682
 21
-81.646973
  0
LINE
  8
0
 62
     4
 10
-38.780682
 20
-67.646973
 11
-31.780682
 21
-67.646973
  0
LINE
  8
0
  6
CENTER
 62
     2
 10
-30.280682
 20
-64.019241
 11
-30.280682
 21
-69.299263
  0
LINE
  8
0
  6
CENTER
 62
     2
 10
-23.280682
 20
-64.019241
 11
-23.280682
 21
-69.299263
  0
LINE
  8
0
 62
     4
 10
-18.780682
 20
-81.646973
 11
-18.780682
 21
-67.646973
  0
LINE
  8
0
  6
CENTER
 62
     2
 10
-26.780682
 20
-83.710442
 11
-26.780682
 21
-43.973080
  0
LINE
  8
0
 62
     4
 10
-21.780682
 20
-67.646973
 11
-18.780682
 21
-67.646973
  0
LINE
  8
0
  6
CENTER
 62
     1
 10
-35.780682
 20
-79.557114
 11
-35.780682
 21
-83.339447
  0
LINE
  8
0
 10
-31.780682
 20
-67.646973
 11
-31.780682
 21
-48.046974
  0
LINE
  8
0
 10
-21.780682
 20
-67.646973
 11
-21.780682
 21
-48.046974
  0
LINE
  8
0
 10
-21.780682
 20
-48.046974
 11
-31.780682
 21
-48.046974
  0
LINE
  8
0
 10
-21.780682
 20
-52.646973
 11
-31.780682
 21
-52.646973
  0
LINE
  8
0
 10
-21.780682
 20
-56.146973
 11
-31.780682
 21
-56.146973
  0
LINE
  8
0
 10
-22.780682
 20
-66.946976
 11
-30.780682
 21
-66.946976
  0
LINE
  8
0
 10
-22.780682
 20
-64.846970
 11
-30.780682
 21
-64.846970
  0
LINE
  8
0
 10
-22.480682
 20
-66.646973
 11
-22.480682
 21
-65.146973
  0
LINE
  8
0
 10
-26.434013
 20
-64.846970
 11
-26.434013
 21
-65.946976
  0
LINE
  8
0
 10
-26.580681
 20
-64.846970
 11
-26.580681
 21
-66.946976
  0
LINE
  8
0
 10
-26.980682
 20
-64.846970
 11
-26.980682
 21
-66.946976
  0
LINE
  8
0
 10
-27.127350
 20
-64.846970
 11
-27.127350
 21
-65.946976
  0
LINE
  8
0
 10
-29.080681
 20
-64.846970
 11
-29.080681
 21
-65.946976
  0
LINE
  8
0
 10
-24.480682
 20
-64.846970
 11
-24.480682
 21
-65.946976
  0
LINE
  8
0
 10
-24.080681
 20
-65.946976
 11
-26.507347
 21
-65.946976
  0
LINE
  8
0
 10
-29.680681
 20
-66.146973
 11
-29.680681
 21
-66.946976
  0
LINE
  8
0
 10
-23.880682
 20
-66.146973
 11
-23.880682
 21
-66.946976
  0
LINE
  8
0
 10
-27.054016
 20
-65.946976
 11
-29.480682
 21
-65.946976
  0
LINE
  8
0
 10
-27.054016
 20
-65.946976
 11
-27.054016
 21
-66.946976
  0
LINE
  8
0
 10
-26.507347
 20
-65.946976
 11
-26.507347
 21
-66.946976
  0
LINE
  8
0
 10
-31.080681
 20
-66.646973
 11
-31.080681
 21
-65.146973
  0
LINE
  8
0
 10
-21.780682
 20
-67.646973
 11
-31.780682
 21
-67.646973
  0
LINE
  8
0
 62
     4
 10
-21.780682
 20
65.916969
 11
-18.780682
 21
65.916969
  0
LINE
  8
0
 62
     4
 10
-38.780682
 20
79.916969
 11
-38.780682
 21
65.916969
  0
LINE
  8
0
 62
     4
 10
-18.780682
 20
79.916969
 11
-18.780682
 21
65.916969
  0
LINE
  8
0
 62
     4
 10
-38.780682
 20
79.916969
 11
-18.780682
 21
79.916969
  0
LINE
  8
0
 62
     4
 10
-38.780682
 20
65.916969
 11
-31.780682
 21
65.916969
  0
LINE
  8
0
  6
CENTER
 62
     1
 10
-35.780682
 20
78.367401
 11
-35.780682
 21
81.064041
  0
LINE
  8
0
  6
CENTER
 62
     2
 10
-23.280682
 20
62.978989
 11
-23.280682
 21
67.775421
  0
LINE
  8
0
  6
CENTER
 62
     2
 10
-30.280682
 20
62.978989
 11
-30.280682
 21
67.775421
  0
LINE
  8
0
 10
-29.680681
 20
48.916969
 11
-31.480682
 21
48.916969
  0
LINE
  8
0
 10
-29.680681
 20
49.896969
 11
-29.680681
 21
48.916969
  0
LINE
  8
0
 10
-23.880682
 20
49.896969
 11
-23.880682
 21
48.916969
  0
LINE
  8
0
 10
-23.880682
 20
49.896969
 11
-24.280682
 21
49.896969
  0
LINE
  8
0
 10
-22.080681
 20
48.916969
 11
-23.880682
 21
48.916969
  0
LINE
  8
0
 10
-22.080681
 20
46.316971
 11
-31.480682
 21
46.316971
  0
LINE
  8
0
 62
     2
 10
-25.280682
 20
47.816971
 11
-28.280682
 21
47.816971
  0
LINE
  8
0
 62
     2
 10
-28.280682
 20
47.816971
 11
-28.280682
 21
46.316971
  0
LINE
  8
0
 62
     2
 10
-25.280682
 20
47.816971
 11
-25.280682
 21
46.316971
  0
LINE
  8
0
 10
-21.780682
 20
65.916969
 11
-21.780682
 21
46.616970
  0
LINE
  8
0
 10
-31.780682
 20
65.916969
 11
-31.780682
 21
46.616970
  0
LINE
  8
0
 10
-31.780682
 20
64.716972
 11
-21.780682
 21
64.716972
  0
LINE
  8
0
 10
-31.780682
 20
65.016968
 11
-21.780682
 21
65.016968
  0
LINE
  8
0
 10
-31.780682
 20
65.916969
 11
-21.780682
 21
65.916969
  0
LINE
  8
0
 10
-24.280682
 20
47.896969
 11
-29.280682
 21
47.896969
  0
LINE
  8
0
 10
-30.270681
 20
50.896965
 11
-30.394682
 21
52.784969
  0
LINE
  8
0
 10
-29.870682
 20
52.996971
 11
-29.870682
 21
53.496971
  0
LINE
  8
0
 10
-28.770681
 20
53.496971
 11
-29.870682
 21
53.496971
  0
LINE
  8
0
 10
-28.770681
 20
52.996971
 11
-28.770681
 21
53.496971
  0
LINE
  8
0
 10
-28.444681
 20
52.996971
 11
-30.194681
 21
52.996971
  0
LINE
  8
0
 10
-28.244682
 20
52.784969
 11
-28.370682
 21
50.896969
  0
LINE
  8
0
 10
-28.370682
 20
50.896969
 11
-30.270681
 21
50.896969
  0
LINE
  8
0
 10
-27.730682
 20
50.896965
 11
-27.854681
 21
52.784969
  0
LINE
  8
0
 10
-27.330681
 20
52.996971
 11
-27.330681
 21
53.496971
  0
LINE
  8
0
 10
-26.230682
 20
53.496971
 11
-27.330681
 21
53.496971
  0
LINE
  8
0
 10
-26.230682
 20
52.996971
 11
-26.230682
 21
53.496971
  0
LINE
  8
0
 10
-25.904682
 20
52.996971
 11
-27.654682
 21
52.996971
  0
LINE
  8
0
 10
-25.704681
 20
52.784969
 11
-25.830681
 21
50.896969
  0
LINE
  8
0
 10
-25.830681
 20
50.896969
 11
-27.730682
 21
50.896969
  0
LINE
  8
0
 10
-23.164682
 20
52.784973
 11
-23.290682
 21
50.896969
  0
LINE
  8
0
 10
-25.190681
 20
50.896965
 11
-25.314682
 21
52.784969
  0
LINE
  8
0
 10
-30.480682
 20
50.396969
 11
-30.480682
 21
49.396969
  0
LINE
  8
0
 10
-31.480682
 20
49.396969
 11
-30.480682
 21
49.396969
  0
LINE
  8
0
 10
-23.080681
 20
50.396969
 11
-23.080681
 21
49.396969
  0
LINE
  8
0
 10
-22.080681
 20
49.396969
 11
-23.080681
 21
49.396969
  0
LINE
  8
0
 10
-28.030682
 20
49.896969
 11
-25.530682
 21
49.896969
  0
LINE
  8
0
 10
-25.530682
 20
49.396969
 11
-25.530682
 21
50.396969
  0
LINE
  8
0
 10
-28.030682
 20
49.396969
 11
-28.030682
 21
50.396969
  0
LINE
  8
0
 10
-23.690681
 20
53.496971
 11
-24.790682
 21
53.496971
  0
LINE
  8
0
 10
-23.364681
 20
52.996971
 11
-25.114681
 21
52.996971
  0
LINE
  8
0
 10
-23.290682
 20
50.896969
 11
-25.190681
 21
50.896969
  0
LINE
  8
0
 10
-24.280682
 20
49.096970
 11
-29.280682
 21
49.096970
  0
LINE
  8
0
 10
-24.280682
 20
49.396969
 11
-29.280682
 21
49.396969
  0
LINE
  8
0
 10
-24.280682
 20
47.896969
 11
-24.280682
 21
50.396969
  0
LINE
  8
0
 10
-24.790682
 20
52.996971
 11
-24.790682
 21
53.496971
  0
LINE
  8
0
 10
-23.690681
 20
52.996971
 11
-23.690681
 21
53.496971
  0
LINE
  8
0
 10
-29.280682
 20
47.896969
 11
-29.280682
 21
50.396969
  0
LINE
  8
0
 10
-22.080681
 20
54.696968
 11
-31.480682
 21
54.696968
  0
LINE
  8
0
 10
-31.480682
 20
54.696968
 11
-31.480682
 21
49.396969
  0
LINE
  8
0
 10
-22.080681
 20
54.696968
 11
-22.080681
 21
49.396969
  0
LINE
  8
0
 10
-23.080681
 20
50.396969
 11
-30.480682
 21
50.396969
  0
LINE
  8
0
 10
-29.280682
 20
49.896969
 11
-29.680681
 21
49.896969
  0
LINE
  8
0
 10
-27.180681
 20
51.496971
 11
-27.180681
 21
52.296967
  0
LINE
  8
0
 10
-26.380682
 20
52.296967
 11
-27.180681
 21
52.296967
  0
LINE
  8
0
 10
-26.380682
 20
51.496971
 11
-26.380682
 21
52.296967
  0
LINE
  8
0
 10
-26.380682
 20
51.496971
 11
-27.180681
 21
51.496971
  0
LINE
  8
0
  6
CENTER
 62
     2
 10
-26.780682
 20
43.360912
 11
-26.780682
 21
81.614441
  0
LINE
  8
0
 62
     4
 10
29.219318
 20
-9.865002
 11
43.219318
 21
-9.865002
  0
LINE
  8
0
 62
     4
 10
43.219318
 20
-29.865002
 11
43.219318
 21
-9.865002
  0
LINE
  8
0
 62
     4
 10
29.219318
 20
-29.865002
 11
43.219318
 21
-29.865002
  0
LINE
  8
0
  6
CENTER
 62
     1
 10
37.719318
 20
-29.176384
 11
37.719318
 21
-22.377602
  0
LINE
  8
0
  6
CENTER
 62
     1
 10
34.203201
 20
-25.865002
 11
41.113438
 21
-25.865002
  0
LINE
  8
0
  6
CENTER
 62
     1
 10
33.219318
 20
-20.148493
 11
33.219318
 21
-13.349710
  0
LINE
  8
0
  6
CENTER
 62
     1
 10
29.744984
 20
-16.865002
 11
36.655220
 21
-16.865002
  0
LINE
  8
0
  6
CENTER
 62
     2
 10
22.219318
 20
-31.650007
 11
22.219318
 21
10.728251
  0
LINE
  8
0
 10
28.319317
 20
2.134999
 11
28.019316
 21
1.834998
  0
LINE
  8
0
 10
18.419319
 20
-29.165001
 11
26.019318
 21
-29.165001
  0
LINE
  8
0
 10
29.219318
 20
2.134998
 11
28.319319
 21
2.134998
  0
LINE
  8
0
 10
29.219318
 20
-29.865002
 11
17.719318
 21
-29.865002
  0
LINE
  8
0
 10
29.219318
 20
2.134998
 11
29.219318
 21
-29.865002
  0
LINE
  8
0
 10
18.419319
 20
-28.365002
 11
26.019318
 21
-28.365002
  0
LINE
  8
0
 10
18.419319
 20
-28.365002
 11
18.419319
 21
-29.165001
  0
LINE
  8
0
 10
26.019318
 20
-29.165001
 11
26.019318
 21
-28.365002
  0
LINE
  8
0
 10
28.019318
 20
7.134998
 11
28.019318
 21
0.634998
  0
LINE
  8
0
  6
CENTER
 62
     1
 10
45.376137
 20
-25.865002
 11
41.408375
 21
-25.865002
  0
LINE
  8
0
  6
CENTER
 62
     1
 10
45.376137
 20
-13.865002
 11
41.408375
 21
-13.865002
  0
LINE
  8
0
  6
CENTER
 62
     2
 10
26.898741
 20
-21.365002
 11
31.083294
 21
-21.365002
  0
LINE
  8
0
 10
15.519318
 20
0.634998
 11
28.019318
 21
0.634998
  0
LINE
  8
0
 10
14.219318
 20
-23.465002
 11
14.219318
 21
-16.774185
  0
LINE
  8
0
 10
28.019318
 20
7.134998
 11
17.519318
 21
7.134998
  0
LINE
  8
0
 62
     2
 10
18.294319
 20
22.244999
 11
12.294319
 21
23.844999
  0
LINE
  8
0
 62
     2
 10
18.294317
 20
23.484999
 11
12.294320
 21
25.084999
  0
LINE
  8
0
 10
15.969318
 20
24.105000
 11
15.969318
 21
28.664997
  0
LINE
  8
0
 10
14.539318
 20
24.486332
 11
14.539318
 21
28.664997
  0
LINE
  8
0
 10
14.854319
 20
28.664997
 11
14.854319
 21
33.664997
  0
LINE
  8
0
 10
15.654318
 20
28.664997
 11
15.654318
 21
33.664997
  0
LINE
  8
0
 10
14.539318
 20
28.664997
 11
15.969318
 21
28.664997
  0
LINE
  8
0
 10
14.854319
 20
33.664997
 11
15.654318
 21
33.664997
  0
LINE
  8
0
 10
15.969318
 20
18.234997
 11
15.969318
 21
22.864998
  0
LINE
  8
0
 10
14.539318
 20
18.234997
 11
14.539318
 21
23.246330
  0
LINE
  8
0
 10
15.519318
 20
-15.365002
 11
9.619320
 21
-15.365002
  0
LINE
  8
0
 10
12.219318
 20
7.134998
 11
12.219318
 21
13.134998
  0
LINE
  8
0
 10
17.519318
 20
7.134998
 11
17.519318
 21
13.134998
  0
LINE
  8
0
 10
12.219318
 20
13.134998
 11
17.519318
 21
13.134998
  0
LINE
  8
0
 10
12.219318
 20
7.134998
 11
9.919319
 21
7.134998
  0
LINE
  8
0
 10
17.519318
 20
17.234999
 11
18.019318
 21
17.523674
  0
LINE
  8
0
 10
18.019318
 20
17.523674
 11
18.019318
 21
18.234997
  0
LINE
  8
0
 10
11.719320
 20
16.234999
 11
11.219319
 21
16.523674
  0
LINE
  8
0
 10
11.219318
 20
16.523674
 11
11.219318
 21
17.234999
  0
LINE
  8
0
 10
12.219318
 20
8.834997
 11
11.719318
 21
9.701022
  0
LINE
  8
0
 10
18.019318
 20
18.234997
 11
12.719318
 21
18.234997
  0
LINE
  8
0
 10
11.719318
 20
9.701023
 11
11.719318
 21
16.234999
  0
LINE
  8
0
 10
12.419319
 20
17.234997
 11
12.719319
 21
15.533613
  0
LINE
  8
0
 10
12.419319
 20
17.234999
 11
12.219318
 21
17.234999
  0
LINE
  8
0
 10
12.719318
 20
13.134998
 11
12.719318
 21
18.234997
  0
LINE
  8
0
 10
12.719318
 20
13.234999
 11
17.519318
 21
13.234999
  0
LINE
  8
0
 10
12.219318
 20
17.234999
 11
11.219318
 21
17.234999
  0
LINE
  8
0
 10
17.519318
 20
13.234999
 11
17.519318
 21
17.234999
  0
LINE
  8
0
 10
16.819319
 20
13.134998
 11
16.819319
 21
13.234999
  0
LINE
  8
0
 10
13.719318
 20
13.134998
 11
13.719318
 21
13.234999
  0
LINE
  8
0
 10
9.619320
 20
6.834999
 11
9.619320
 21
-15.365002
  0
LINE
  8
0
 10
15.519318
 20
0.634998
 11
15.519318
 21
-15.465002
  0
LINE
  8
0
 10
15.519318
 20
-15.465002
 11
9.619320
 21
-15.465002
  0
LINE
  8
0
 10
14.219318
 20
-16.774183
 11
9.619319
 21
-15.963080
  0
LINE
  8
0
 10
9.619320
 20
-15.963080
 11
9.619320
 21
-15.465002
  0
LINE
  8
0
 10
10.219318
 20
-15.365002
 11
10.219318
 21
-15.465002
  0
LINE
  8
0
 10
28.019318
 20
2.134998
 11
28.019318
 21
0.634998
  0
LINE
  8
0
 10
17.719318
 20
-29.865002
 11
17.719318
 21
-24.082146
  0
LINE
  8
0
 10
14.619318
 20
-22.365002
 11
14.619318
 21
-20.365002
  0
LINE
  8
0
 10
15.119318
 20
-19.865002
 11
15.219318
 21
-19.865002
  0
LINE
  8
0
 10
15.119318
 20
-22.865002
 11
15.219318
 21
-22.865002
  0
LINE
  8
0
 10
14.219318
 20
-22.965002
 11
15.219318
 21
-22.965002
  0
LINE
  8
0
 10
14.219318
 20
-19.765001
 11
15.219318
 21
-19.765001
  0
LINE
  8
0
 10
15.219318
 20
-22.965002
 11
15.219318
 21
-19.765001
  0
LINE
  8
0
 10
17.719316
 20
-24.082144
 11
14.219317
 21
-23.464998
  0
LINE
  8
0
  6
CENTER
 62
     1
 10
-107.280685
 20
-16.622513
 11
-107.280685
 21
-24.197330
  0
LINE
  8
0
  6
CENTER
 62
     1
 10
-103.623833
 20
-20.365002
 11
-110.841347
 21
-20.365002
  0
LINE
  8
0
 62
     4
 10
-112.780685
 20
-29.865002
 11
-112.780685
 21
-9.865002
  0
LINE
  8
0
 62
     4
 10
-112.780685
 20
-9.865002
 11
-98.780685
 21
-9.865002
  0
LINE
  8
0
 62
     4
 10
-98.780685
 20
-29.865002
 11
-112.780685
 21
-29.865002
  0
LINE
  8
0
 10
-95.580688
 20
-29.165001
 11
-95.580688
 21
-28.365002
  0
LINE
  8
0
 10
-87.980682
 20
-28.365002
 11
-87.980682
 21
-29.165001
  0
LINE
  8
0
 10
-87.980682
 20
-28.365002
 11
-95.580688
 21
-28.365002
  0
LINE
  8
0
 10
-98.780685
 20
2.134998
 11
-98.780685
 21
-29.865002
  0
LINE
  8
0
 10
-98.780685
 20
-29.865002
 11
-87.280685
 21
-29.865002
  0
LINE
  8
0
 10
-87.980682
 20
-29.165001
 11
-95.580688
 21
-29.165001
  0
LINE
  8
0
  6
CENTER
 62
     2
 10
-91.780685
 20
-31.650007
 11
-91.780685
 21
9.271051
  0
LINE
  8
0
  6
CENTER
 62
     1
 10
-111.406395
 20
-13.865002
 11
-114.748222
 21
-13.865002
  0
LINE
  8
0
  6
CENTER
 62
     2
 10
-100.419502
 20
-21.365002
 11
-96.821205
 21
-21.365002
  0
LINE
  8
0
  6
CENTER
 62
     1
 10
-111.406395
 20
-25.865002
 11
-114.748222
 21
-25.865002
  0
LINE
  8
0
 10
-98.780685
 20
2.134998
 11
-97.880684
 21
2.134998
  0
LINE
  8
0
 10
-87.280685
 20
-29.865002
 11
-87.280685
 21
-24.082146
  0
LINE
  8
0
 10
-87.280685
 20
-24.082146
 11
-83.780685
 21
-23.465000
  0
LINE
  8
0
 10
-85.080688
 20
0.634998
 11
-97.580688
 21
0.634998
  0
LINE
  8
0
 10
-97.880684
 20
2.135000
 11
-97.580688
 21
1.834998
  0
LINE
  8
0
 10
-79.780685
 20
-15.365002
 11
-79.780685
 21
-15.465002
  0
LINE
  8
0
 10
-79.180687
 20
-15.963080
 11
-79.180687
 21
-15.465002
  0
LINE
  8
0
 10
-83.780685
 20
-16.774183
 11
-79.180687
 21
-15.963079
  0
LINE
  8
0
 10
-85.080688
 20
-15.465002
 11
-79.180687
 21
-15.465002
  0
LINE
  8
0
 10
-83.780685
 20
-23.465002
 11
-83.780685
 21
-16.774185
  0
LINE
  8
0
 10
-97.580688
 20
7.134998
 11
-97.580688
 21
0.634998
  0
LINE
  8
0
 10
-85.080688
 20
0.634998
 11
-85.080688
 21
-15.465002
  0
LINE
  8
0
 10
-84.780685
 20
-22.965002
 11
-84.780685
 21
-19.765001
  0
LINE
  8
0
 10
-83.780685
 20
-19.765001
 11
-84.780685
 21
-19.765001
  0
LINE
  8
0
 10
-83.780685
 20
-22.965002
 11
-84.780685
 21
-22.965002
  0
LINE
  8
0
 10
-84.680687
 20
-22.865002
 11
-84.780685
 21
-22.865002
  0
LINE
  8
0
 10
-84.680687
 20
-19.865002
 11
-84.780685
 21
-19.865002
  0
LINE
  8
0
 10
-84.180687
 20
-22.365002
 11
-84.180687
 21
-20.365002
  0
LINE
  8
0
 10
-97.580688
 20
7.134998
 11
-87.080688
 21
7.134998
  0
LINE
  8
0
 10
-79.180687
 20
6.834999
 11
-79.180687
 21
-15.365002
  0
LINE
  8
0
 10
-83.280685
 20
13.134998
 11
-83.280685
 21
13.234999
  0
LINE
  8
0
 10
-86.380684
 20
13.134998
 11
-86.380684
 21
13.234999
  0
LINE
  8
0
 10
-87.080688
 20
13.234999
 11
-87.080688
 21
17.234999
  0
LINE
  8
0
 10
-81.780685
 20
17.234999
 11
-80.780685
 21
17.234999
  0
LINE
  8
0
 10
-82.280685
 20
13.234999
 11
-87.080688
 21
13.234999
  0
LINE
  8
0
 10
-82.280685
 20
13.134998
 11
-82.280685
 21
18.234997
  0
LINE
  8
0
 10
-81.980682
 20
17.234999
 11
-81.780685
 21
17.234999
  0
LINE
  8
0
 10
-81.980690
 20
17.234997
 11
-82.280685
 21
15.533613
  0
LINE
  8
0
 10
-81.280685
 20
9.701023
 11
-81.280685
 21
16.234999
  0
LINE
  8
0
 10
-87.580688
 20
18.234997
 11
-82.280685
 21
18.234997
  0
LINE
  8
0
 10
-81.780685
 20
8.835001
 11
-81.280685
 21
9.701023
  0
LINE
  8
0
 10
-80.780685
 20
16.523674
 11
-80.780685
 21
17.234999
  0
LINE
  8
0
 10
-81.280685
 20
16.234997
 11
-80.780685
 21
16.523672
  0
LINE
  8
0
 10
-87.580688
 20
17.523674
 11
-87.580688
 21
18.234997
  0
LINE
  8
0
 10
-87.080688
 20
17.234999
 11
-87.580688
 21
17.523676
  0
LINE
  8
0
 10
-81.780685
 20
7.134998
 11
-79.480682
 21
7.134998
  0
LINE
  8
0
 10
-81.780685
 20
13.134998
 11
-87.080688
 21
13.134998
  0
LINE
  8
0
 10
-87.080688
 20
7.134998
 11
-87.080688
 21
13.134998
  0
LINE
  8
0
 10
-81.780685
 20
7.134998
 11
-81.780685
 21
13.134998
  0
LINE
  8
0
 10
-85.080688
 20
-15.365002
 11
-79.180687
 21
-15.365002
  0
LINE
  8
0
 10
-85.530685
 20
18.234997
 11
-85.530685
 21
23.246330
  0
LINE
  8
0
 10
-84.100685
 20
18.234997
 11
-84.100685
 21
22.864998
  0
LINE
  8
0
 10
-84.415688
 20
33.664997
 11
-85.215683
 21
33.664997
  0
LINE
  8
0
 10
-84.100685
 20
28.664997
 11
-85.530685
 21
28.664997
  0
LINE
  8
0
 10
-85.215683
 20
28.664997
 11
-85.215683
 21
33.664997
  0
LINE
  8
0
 10
-84.415688
 20
28.664997
 11
-84.415688
 21
33.664997
  0
LINE
  8
0
 10
-85.530685
 20
24.486332
 11
-85.530685
 21
28.664997
  0
LINE
  8
0
 10
-84.100685
 20
24.105000
 11
-84.100685
 21
28.664997
  0
LINE
  8
0
 62
     2
 10
-81.775688
 20
23.484999
 11
-87.775688
 21
25.084997
  0
LINE
  8
0
 62
     2
 10
-81.775688
 20
22.244997
 11
-87.775688
 21
23.844997
  0
LINE
  8
0
  6
CENTER
 62
     2
 10
-26.780682
 20
-31.650007
 11
-26.780682
 21
20.490181
  0
LINE
  8
0
 62
     4
 10
-31.780682
 20
-29.865002
 11
-38.780682
 21
-29.865002
  0
LINE
  8
0
 62
     4
 10
-31.780682
 20
-9.865002
 11
-38.780682
 21
-9.865002
  0
LINE
  8
0
 62
     4
 10
-18.780682
 20
-9.865002
 11
-18.780682
 21
-29.865002
  0
LINE
  8
0
  6
CENTER
 62
     1
 10
-35.780682
 20
-11.297168
 11
-35.780682
 21
-16.449224
  0
LINE
  8
0
 62
     4
 10
-38.780682
 20
-9.865002
 11
-38.780682
 21
-29.865002
  0
LINE
  8
0
 62
     4
 10
-18.780682
 20
-9.865002
 11
-21.780682
 21
-9.865002
  0
LINE
  8
0
 62
     4
 10
-18.780682
 20
-29.865002
 11
-21.780682
 21
-29.865002
  0
LINE
  8
0
  6
CENTER
 62
     1
 10
-35.780682
 20
-23.185589
 11
-35.780682
 21
-28.887486
  0
LINE
  8
0
  6
CENTER
 62
     1
 10
-33.177078
 20
-13.865002
 11
-38.260750
 21
-13.865002
  0
LINE
  8
0
  6
CENTER
 62
     1
 10
-33.177078
 20
-25.865002
 11
-38.260750
 21
-25.865002
  0
LINE
  8
0
 62
     2
 10
-21.200682
 20
23.584997
 11
-32.298996
 21
26.544548
  0
LINE
  8
0
 62
     2
 10
-21.200682
 20
22.344997
 11
-32.298996
 21
25.304548
  0
LINE
  8
0
 10
-28.920681
 20
33.764999
 11
-29.720682
 21
33.764999
  0
LINE
  8
0
 10
-29.720682
 20
28.764999
 11
-29.720682
 21
33.764999
  0
LINE
  8
0
 10
-28.920681
 20
28.764999
 11
-28.920681
 21
33.764999
  0
LINE
  8
0
 10
-30.035683
 20
25.940998
 11
-30.035683
 21
28.764999
  0
LINE
  8
0
 10
-28.605682
 20
25.559666
 11
-28.605682
 21
28.764999
  0
LINE
  8
0
 10
-30.035683
 20
28.764999
 11
-28.605682
 21
28.764999
  0
LINE
  8
0
 10
-23.525681
 20
24.204998
 11
-23.525681
 21
28.764999
  0
LINE
  8
0
 10
-24.955681
 20
24.586330
 11
-24.955681
 21
28.764999
  0
LINE
  8
0
 10
-24.640682
 20
28.764999
 11
-24.640682
 21
33.764999
  0
LINE
  8
0
 10
-23.840683
 20
28.764999
 11
-23.840683
 21
33.764999
  0
LINE
  8
0
 10
-24.955681
 20
28.764999
 11
-23.525681
 21
28.764999
  0
LINE
  8
0
 10
-24.640682
 20
33.764999
 11
-23.840683
 21
33.764999
  0
LINE
  8
0
 10
-23.525681
 20
18.234997
 11
-23.525681
 21
22.965000
  0
LINE
  8
0
 10
-24.955681
 20
18.234997
 11
-24.955681
 21
23.346333
  0
LINE
  8
0
 10
-28.605682
 20
18.234997
 11
-28.605682
 21
24.319664
  0
LINE
  8
0
 10
-30.035683
 20
18.234997
 11
-30.035683
 21
24.701000
  0
LINE
  8
0
 10
-29.280682
 20
13.134998
 11
-31.780682
 21
13.134998
  0
LINE
  8
0
 10
-24.280682
 20
12.268972
 11
-23.880682
 21
12.268972
  0
LINE
  8
0
 10
-24.280682
 20
10.734999
 11
-23.880682
 21
10.734999
  0
LINE
  8
0
 10
-29.280682
 20
9.601025
 11
-24.280682
 21
9.601025
  0
LINE
  8
0
 10
-30.380682
 20
13.234999
 11
-31.480682
 21
13.234999
  0
LINE
  8
0
 10
-31.480682
 20
13.234999
 11
-31.480682
 21
18.234997
  0
LINE
  8
0
 10
-29.280682
 20
8.734999
 11
-29.280682
 21
17.234999
  0
LINE
  8
0
 10
-30.880682
 20
13.134998
 11
-30.880682
 21
13.234999
  0
LINE
  8
0
 10
-30.380682
 20
13.134998
 11
-30.380682
 21
18.234997
  0
LINE
  8
0
 10
-23.180681
 20
13.134998
 11
-23.180681
 21
18.234997
  0
LINE
  8
0
 10
-22.680681
 20
13.134998
 11
-22.680681
 21
13.234999
  0
LINE
  8
0
 10
-29.280682
 20
16.234999
 11
-24.280682
 21
16.234999
  0
LINE
  8
0
 10
-29.280682
 20
16.523674
 11
-24.280682
 21
16.523674
  0
LINE
  8
0
 10
-24.280682
 20
8.734999
 11
-24.280682
 21
17.234999
  0
LINE
  8
0
 10
-22.080681
 20
13.234999
 11
-22.080681
 21
18.234997
  0
LINE
  8
0
 10
-24.280682
 20
17.234999
 11
-29.280682
 21
17.234999
  0
LINE
  8
0
 10
-23.180681
 20
13.234999
 11
-22.080681
 21
13.234999
  0
LINE
  8
0
 10
-22.080681
 20
18.234997
 11
-31.480682
 21
18.234997
  0
LINE
  8
0
 10
-24.280682
 20
8.734999
 11
-29.280682
 21
8.734999
  0
LINE
  8
0
 10
-21.780682
 20
13.134998
 11
-24.280682
 21
13.134998
  0
LINE
  8
0
 10
-21.780682
 20
7.134998
 11
-31.780682
 21
7.134998
  0
LINE
  8
0
 10
-29.680681
 20
12.268972
 11
-29.280682
 21
12.268972
  0
LINE
  8
0
 10
-29.680681
 20
10.734999
 11
-29.280682
 21
10.734999
  0
LINE
  8
0
 10
-29.680681
 20
7.134998
 11
-29.680681
 21
13.134998
  0
LINE
  8
0
 10
-23.880682
 20
7.134998
 11
-23.880682
 21
13.134998
  0
LINE
  8
0
 10
-31.780682
 20
-15.365002
 11
-21.780682
 21
-15.365002
  0
LINE
  8
0
 62
     2
 10
-25.280682
 20
2.134998
 11
-25.280682
 21
7.134998
  0
LINE
  8
0
 62
     2
 10
-28.280682
 20
2.134998
 11
-28.280682
 21
7.134998
  0
LINE
  8
0
 62
     2
 10
-28.280682
 20
2.134998
 11
-25.280682
 21
2.134998
  0
LINE
  8
0
 10
-23.980682
 20
-17.565002
 11
-23.980682
 21
-19.065002
  0
LINE
  8
0
 10
-22.480682
 20
-17.565002
 11
-22.480682
 21
-19.065002
  0
LINE
  8
0
 10
-23.980682
 20
-17.565002
 11
-22.480682
 21
-17.565002
  0
LINE
  8
0
 10
-23.980682
 20
-19.065002
 11
-22.480682
 21
-19.065002
  0
LINE
  8
0
 10
-29.175055
 20
-23.905819
 11
-29.430683
 21
-23.465002
  0
LINE
  8
0
 10
-24.130682
 20
-23.465004
 11
-24.386312
 21
-23.905821
  0
LINE
  8
0
 10
-27.925053
 20
-22.655819
 11
-28.180683
 21
-22.215002
  0
LINE
  8
0
 10
-29.430681
 20
-23.465002
 11
-28.180679
 21
-22.215000
  0
LINE
  8
0
 10
-27.925053
 20
-22.655819
 11
-29.175053
 21
-23.905819
  0
LINE
  8
0
 10
-25.636311
 20
-22.655819
 11
-25.380682
 21
-22.215002
  0
LINE
  8
0
 10
-21.780682
 20
-16.774185
 11
-31.780682
 21
-16.774185
  0
LINE
  8
0
 10
-25.636311
 20
-22.655819
 11
-24.386311
 21
-23.905819
  0
LINE
  8
0
 10
-21.780682
 20
-23.905819
 11
-24.386311
 21
-23.905819
  0
LINE
  8
0
 10
-29.175053
 20
-23.905819
 11
-31.780682
 21
-23.905819
  0
LINE
  8
0
 10
-27.925053
 20
-22.655819
 11
-25.636311
 21
-22.655819
  0
LINE
  8
0
 10
-21.780682
 20
-23.465002
 11
-24.130682
 21
-23.465002
  0
LINE
  8
0
 10
-24.130682
 20
-23.465002
 11
-25.380682
 21
-22.215002
  0
LINE
  8
0
 10
-28.180681
 20
-22.215002
 11
-25.380682
 21
-22.215002
  0
LINE
  8
0
 10
-29.430681
 20
-23.465002
 11
-31.780682
 21
-23.465002
  0
LINE
  8
0
 10
-31.780682
 20
-15.963080
 11
-21.780682
 21
-15.963080
  0
LINE
  8
0
 10
-21.780682
 20
-15.465002
 11
-31.780682
 21
-15.465002
  0
LINE
  8
0
 10
-23.280682
 20
-19.765001
 11
-21.780682
 21
-19.765001
  0
LINE
  8
0
 10
-21.780682
 20
-22.965002
 11
-23.280682
 21
-22.965002
  0
LINE
  8
0
 10
-30.280682
 20
-22.965002
 11
-31.780682
 21
-22.965002
  0
LINE
  8
0
 10
-31.780682
 20
-19.765001
 11
-30.280682
 21
-19.765001
  0
LINE
  8
0
 10
-31.780682
 20
13.134998
 11
-31.780682
 21
-29.865002
  0
LINE
  8
0
  6
CENTER
 62
     2
 10
-24.280682
 20
-19.615002
 11
-29.280682
 21
-19.615002
  0
LINE
  8
0
 10
-21.780682
 20
13.134998
 11
-21.780682
 21
-29.865002
  0
LINE
  8
0
 10
-24.955168
 20
-19.915001
 11
-28.606195
 21
-19.915001
  0
LINE
  8
0
 10
-26.780682
 20
-19.315002
 11
-28.606195
 21
-19.315002
  0
LINE
  8
0
 10
-24.955168
 20
-19.315002
 11
-26.780682
 21
-19.315002
  0
LINE
  8
0
 10
-30.987787
 20
-22.072109
 11
-29.573574
 21
-20.657894
  0
LINE
  8
0
 10
-30.987787
 20
-20.657896
 11
-29.573574
 21
-22.072109
  0
LINE
  8
0
 10
-22.573572
 20
-20.657892
 11
-23.987789
 21
-22.072109
  0
LINE
  8
0
 10
-22.573574
 20
-22.072109
 11
-23.987789
 21
-20.657894
  0
LINE
  8
0
 10
-21.780682
 20
-29.865002
 11
-31.780682
 21
-29.865002
  0
LINE
  8
0
 10
-138.399994
 20
94.500000
 11
138.350006
 21
94.500000
  0
LINE
  8
0
 10
138.350006
 20
94.500000
 11
138.350006
 21
-94.800003
  0
LINE
  8
0
 10
-138.399994
 20
-94.800003
 11
138.350006
 21
-94.800003
  0
LINE
  8
0
 10
-138.399994
 20
94.500000
 11
-138.399994
 21
-94.800003
  0
LINE
  8
0
 10
73.350006
 20
-84.800003
 11
138.350006
 21
-84.800003
  0
LINE
  8
0
 10
-138.399994
 20
84.500000
 11
-73.399994
 21
84.500000
  0
LINE
  8
0
 10
73.350006
 20
84.500000
 11
138.350006
 21
84.500000
  0
LINE
  8
0
 10
73.350006
 20
-84.800003
 11
73.350006
 21
-94.800003
  0
LINE
  8
0
 10
73.350006
 20
94.500000
 11
73.350006
 21
84.500000
  0
LINE
  8
0
 10
-73.399994
 20
94.500000
 11
-73.399994
 21
84.500000
  0
CIRCLE
  8
0
 62
     4
 10
100.219315
 20
-13.865002
 40
1.700000
  0
CIRCLE
  8
0
 62
     4
 10
100.219315
 20
-25.865002
 40
1.700000
  0
ARC
  8
0
 10
-30.780682
 20
-65.146973
 40
0.300003
 50
90.000000
 51
180.000000
  0
ARC
  8
0
 10
-30.780682
 20
-66.646973
 40
0.299999
 50
180.000000
 51
270.000000
  0
ARC
  8
0
 10
-22.780682
 20
-65.146973
 40
0.299999
 50
0.000000
 51
90.000000
  0
ARC
  8
0
 10
-22.780682
 20
-66.646973
 40
0.300003
 50
270.000000
 51
0.000000
  0
ARC
  8
0
 10
-24.080681
 20
-66.146973
 40
0.200001
 50
0.000000
 51
90.000000
  0
ARC
  8
0
 10
-29.480682
 20
-66.146973
 40
0.199997
 50
90.000000
 51
180.000000
  0
ARC
  8
0
 10
-31.480682
 20
53.916969
 40
0.299999
 50
90.000000
 51
180.000000
  0
ARC
  8
0
 10
-31.480682
 20
49.216969
 40
0.299999
 50
180.000000
 51
270.000000
  0
ARC
  8
0
 10
-22.080681
 20
53.916969
 40
0.299999
 50
0.000000
 51
90.000000
  0
ARC
  8
0
 10
-22.080681
 20
49.216969
 40
0.299999
 50
270.000000
 51
0.000000
  0
ARC
  8
0
 10
-22.080681
 20
46.616970
 40
0.299999
 50
270.000000
 51
0.000000
  0
ARC
  8
0
 10
-31.480682
 20
46.616970
 40
0.299999
 50
180.000000
 51
270.000000
  0
ARC
  8
0
 10
-30.195396
 20
52.797302
 40
0.199666
 50
89.794754
 51
183.541275
  0
ARC
  8
0
 10
-28.445026
 20
52.796303
 40
0.200665
 50
356.761139
 51
89.901970
  0
ARC
  8
0
 10
-27.655396
 20
52.797302
 40
0.199666
 50
89.794754
 51
183.541275
  0
ARC
  8
0
 10
-25.905025
 20
52.796303
 40
0.200665
 50
356.761139
 51
89.901970
  0
ARC
  8
0
 10
-25.115396
 20
52.797302
 40
0.199666
 50
89.794754
 51
183.541275
  0
ARC
  8
0
 10
-23.365025
 20
52.796303
 40
0.200665
 50
356.761139
 51
89.901970
  0
CIRCLE
  8
0
 10
-24.240681
 20
51.896969
 40
0.700000
  0
CIRCLE
  8
0
 10
-24.240681
 20
51.896969
 40
0.300000
  0
CIRCLE
  8
0
 10
-29.320683
 20
51.896969
 40
0.700000
  0
CIRCLE
  8
0
 10
-29.320683
 20
51.896969
 40
0.300000
  0
CIRCLE
  8
0
 62
     4
 10
37.719318
 20
-25.865002
 40
2.500000
  0
CIRCLE
  8
0
 62
     4
 10
37.719318
 20
-25.865002
 40
2.100000
  0
CIRCLE
  8
0
 62
     4
 10
33.219318
 20
-16.865002
 40
2.500000
  0
CIRCLE
  8
0
 62
     4
 10
33.219318
 20
-16.865002
 40
2.100000
  0
ARC
  8
0
 10
9.919319
 20
6.834999
 40
0.300000
 50
90.000000
 51
180.000000
  0
ARC
  8
0
 10
15.119318
 20
-22.365002
 40
0.500000
 50
180.000000
 51
270.000000
  0
ARC
  8
0
 10
15.119318
 20
-20.365002
 40
0.500000
 50
90.000000
 51
180.000000
  0
CIRCLE
  8
0
 62
     4
 10
-107.280685
 20
-20.365002
 40
2.100000
  0
CIRCLE
  8
0
 62
     4
 10
-107.280685
 20
-20.365002
 40
2.500000
  0
ARC
  8
0
 10
-84.680687
 20
-20.365002
 40
0.500000
 50
0.000000
 51
90.000000
  0
ARC
  8
0
 10
-84.680687
 20
-22.365002
 40
0.500000
 50
270.000000
 51
0.000000
  0
ARC
  8
0
 10
-79.480682
 20
6.834999
 40
0.300003
 50
0.000000
 51
90.000000
  0
CIRCLE
  8
0
 62
     4
 10
-35.780682
 20
-25.865002
 40
1.700000
  0
CIRCLE
  8
0
 62
     4
 10
-35.780682
 20
-13.865002
 40
1.700000
  0
CIRCLE
  8
0
 10
-26.780682
 20
-19.615002
 40
2.050000
  0
ARC
  8
0
 10
-30.280682
 20
-21.365002
 40
1.600000
 50
270.000000
 51
90.000000
  0
ARC
  8
0
 10
-23.280682
 20
-21.365002
 40
1.600000
 50
90.000000
 51
270.000000
  0
CIRCLE
  8
0
 10
-26.780682
 20
-19.615002
 40
1.900000
  0
CIRCLE
  8
0
 10
-26.780682
 20
-19.615002
 40
1.850000
  0
ARC
  8
0
 10
-26.780682
 20
-19.615002
 40
0.799999
 50
22.024282
 51
157.975723
  0
ARC
  8
0
 10
-26.780682
 20
-19.615002
 40
0.799999
 50
202.024277
 51
337.975708
  0
CIRCLE
  8
0
 10
-30.280682
 20
-21.365002
 40
1.500000
  0
CIRCLE
  8
0
 10
-23.280682
 20
-21.365002
 40
1.500000
  0
TEXT
  8
0
 10
76.207352
 20
-92.850006
 40
4.500000
  1
KOGANEI CORP.
 50
0.000000
 41
1.052632
 51
0.000000
  7
STANDARD
  0
TEXT
  8
0
 10
92.842865
 20
87.620003
 40
3.200000
  1
Ver. 1.0
 50
0.000000
 41
1.052632
 51
0.000000
  7
STANDARD
  0
TEXT
  8
0
 10
-123.707138
 20
87.620003
 40
3.200000
  1
G010 SERIES
 50
0.000000
 41
1.052632
 51
0.000000
  7
STANDARD
  0
TEXT
  8
0
 10
-130.207001
 20
72.620003
 40
3.200000
  1
MODEL:GA010E1-25-PS(AC200)
 50
0.000000
 41
1.052632
 51
0.000000
  7
STANDARD
  0
ENDSEC
  0
EOF
