  0
SECTION
  2
HEADER
  0
ENDSEC
  0
SECTION
  2
TABLES
  0
TABLE
  2
LTYPE
 70
     4
  0
LTYPE
  2
CONTINUOUS
 70
    64
  3
Solid line
 72
    65
 73
     0
 40
0.000000
  0
LTYPE
  2
DASHED
 70
    64
  3
__ __ __ __ __ __ __ __ __ __ __ __ __ __ __
 72
    65
 73
     2
 40
3.500000
 49
2.000000
 49
-1.500000
  0
LTYPE
  2
CENTER
 70
    64
  3
____ _ ____ _ ____ _ ____ _ ____ _ ____ _ ____
 72
    65
 73
     4
 40
17.500000
 49
13.000000
 49
-1.500000
 49
1.500000
 49
-1.500000
  0
LTYPE
  2
PHANTOM
 70
    64
  3
_____ _ _ _____ _ _ _____ _ _ _____ _ _ ____  
 72
    65
 73
     6
 40
15.500000
 49
8.000000
 49
-1.500000
 49
1.500000
 49
-1.500000
 49
1.500000
 49
-1.500000
  0
LTYPE
  2
DASHED1
 70
    64
  3
__ __ __ __ __ __ __ __ __ __ __ __ __ __ __
 72
    65
 73
     2
 40
1.500000
 49
1.000000
 49
-0.500000
  0
LTYPE
  2
DASHED2
 70
    64
  3
__ __ __ __ __ __ __ __ __ __ __ __ __ __ __
 72
    65
 73
     2
 40
3.500000
 49
2.500000
 49
-1.000000
  0
LTYPE
  2
DASHED3
 70
    64
  3
__ __ __ __ __ __ __ __ __ __ __ __ __ __ __
 72
    65
 73
     2
 40
6.000000
 49
4.000000
 49
-2.000000
  0
LTYPE
  2
DASHED4
 70
    64
  3
__ __ __ __ __ __ __ __ __ __ __ __ __ __ __
 72
    65
 73
     2
 40
12.000000
 49
10.000000
 49
-2.000000
  0
LTYPE
  2
DASHED5
 70
    64
  3
__ __ __ __ __ __ __ __ __ __ __ __ __ __ __
 72
    65
 73
     2
 40
17.000000
 49
15.000000
 49
-2.000000
  0
LTYPE
  2
DASHED6
 70
    64
  3
__ __ __ __ __ __ __ __ __ __ __ __ __ __ __
 72
    65
 73
     2
 40
29.000000
 49
27.000000
 49
-2.000000
  0
LTYPE
  2
PHANTOM1
 70
    64
  3
_____ _ _ _____ _ _ _____ _ _ _____ _ _ ____  
 72
    65
 73
     6
 40
31.000000
 49
25.000000
 49
-1.500000
 49
1.000000
 49
-1.000000
 49
1.000000
 49
-1.500000
  0
LTYPE
  2
PHANTOM2
 70
    64
  3
_____ _ _ _____ _ _ _____ _ _ _____ _ _ ____  
 72
    65
 73
     6
 40
36.000000
 49
27.000000
 49
-1.500000
 49
2.500000
 49
-1.000000
 49
2.500000
 49
-1.500000
  0
LTYPE
  2
PHANTOM3
 70
    64
  3
_____ _ _ _____ _ _ _____ _ _ _____ _ _ ____  
 72
    65
 73
     6
 40
78.000000
 49
64.000000
 49
-2.000000
 49
4.000000
 49
-2.000000
 49
4.000000
 49
-2.000000
  0
LTYPE
  2
CENTER1
 70
    64
  3
____ _ ____ _ ____ _ ____ _ ____ _ ____ _ ____
 72
    65
 73
     4
 40
19.000000
 49
14.000000
 49
-1.000000
 49
3.000000
 49
-1.000000
  0
LTYPE
  2
CENTER2
 70
    64
  3
____ _ ____ _ ____ _ ____ _ ____ _ ____ _ ____
 72
    65
 73
     4
 40
28.500000
 49
25.000000
 49
-1.000000
 49
1.500000
 49
-1.000000
  0
LTYPE
  2
CENTER3
 70
    64
  3
____ _ ____ _ ____ _ ____ _ ____ _ ____ _ ____
 72
    65
 73
     4
 40
31.500000
 49
27.000000
 49
-1.000000
 49
2.500000
 49
-1.000000
  0
LTYPE
  2
CENTER4
 70
    64
  3
____ _ ____ _ ____ _ ____ _ ____ _ ____ _ ____
 72
    65
 73
     4
 40
50.000000
 49
45.000000
 49
-1.000000
 49
3.000000
 49
-1.000000
  0
LTYPE
  2
CENTER5
 70
    64
  3
____ _ ____ _ ____ _ ____ _ ____ _ ____ _ ____
 72
    65
 73
     4
 40
100.000000
 49
92.000000
 49
-2.000000
 49
4.000000
 49
-2.000000
  0
LTYPE
  2
SBK1
 70
    64
  3
______ _ _ _ ______ _ _ _ ______ _ _ _ _____  
 72
    65
 73
     8
 40
60.500000
 49
45.000000
 49
-2.000000
 49
2.500000
 49
-2.000000
 49
2.500000
 49
-2.000000
 49
2.500000
 49
-2.000000
  0
LTYPE
  2
SBK2
 70
    64
  3
______ _ _ _ ______ _ _ _ ______ _ _ _ _____  
 72
    65
 73
     8
 40
84.000000
 49
64.000000
 49
-2.000000
 49
4.000000
 49
-2.000000
 49
4.000000
 49
-2.000000
 49
4.000000
 49
-2.000000
  0
LTYPE
  2
STCH
 70
    64
  3
__ __ __ __ __ __ __ __ __ __ __ __ __ __ __
 72
    65
 73
     2
 40
3.000000
 49
1.000000
 49
-2.000000
  0
LTYPE
  2
MTCH
 70
    64
  3
_____ _ _ _____ _ _ _____ _ _ _____ _ _ ____  
 72
    65
 73
     6
 40
80.000000
 49
66.000000
 49
-2.000000
 49
4.000000
 49
-2.000000
 49
4.000000
 49
-2.000000
  0
ENDTAB
  0
TABLE
  2
LAYER
 70
     1
  0
LAYER
  2
0
 70
     0
 62
     7
  6
CONTINUOUS
  0
ENDTAB
  0
TABLE
  2
STYLE
 70
     1
  0
STYLE
  2
STANDARD
 70
     0
 40
0.000000
 41
1.000000
 50
0.000000
 71
     0
 42
0.200000
  3
txt
  4
BIGFONT
  0
ENDTAB
  0
TABLE
  2
VIEW
 70
     0
  0
ENDTAB
  0
ENDSEC
  0
SECTION
  2
BLOCKS
  0
ENDSEC
  0
SECTION
  2
ENTITIES
  0
POINT
  8
0
 10
2.530614
 20
-25.379421
  0
POINT
  8
0
 10
33.030613
 20
144.316742
  0
POINT
  8
0
 10
2.530614
 20
144.316742
  0
POINT
  8
0
 10
33.030613
 20
-25.379421
  0
POINT
  8
0
 10
-183.158936
 20
-25.379421
  0
POINT
  8
0
 10
212.841064
 20
-25.379421
  0
POINT
  8
0
 10
192.841064
 20
-25.379421
  0
LINE
  8
0
  6
CENTER
 62
     2
 10
22.530615
 20
108.148056
 11
22.530615
 21
118.555649
  0
LINE
  8
0
  6
CENTER
 62
     2
 10
9.530615
 20
108.148056
 11
9.530615
 21
118.555649
  0
LINE
  8
0
 10
11.030618
 20
111.316742
 11
8.616404
 21
108.902527
  0
LINE
  8
0
 10
11.030617
 20
109.316742
 11
8.616402
 21
111.730957
  0
LINE
  8
0
 10
23.444832
 20
93.730957
 11
21.030617
 21
91.316742
  0
LINE
  8
0
 10
23.444828
 20
90.902534
 11
21.030615
 21
93.316750
  0
LINE
  8
0
 10
13.030615
 20
112.216743
 11
21.657381
 21
112.216743
  0
LINE
  8
0
 10
21.030615
 20
80.516739
 11
25.030615
 21
80.516739
  0
LINE
  8
0
 10
10.030615
 20
107.316742
 11
10.030615
 21
80.516739
  0
LINE
  8
0
 10
21.280615
 20
89.412003
 11
21.280615
 21
80.516739
  0
LINE
  8
0
 10
22.030615
 20
89.316742
 11
22.030615
 21
80.516739
  0
LINE
  8
0
 10
13.030615
 20
112.016739
 11
13.030615
 21
113.316742
  0
LINE
  8
0
 10
10.030615
 20
107.316742
 11
7.030614
 21
107.316742
  0
LINE
  8
0
 10
22.030615
 20
95.316742
 11
25.030615
 21
95.316742
  0
LINE
  8
0
 10
22.030615
 20
89.316742
 11
25.030615
 21
89.316742
  0
LINE
  8
0
 10
13.030615
 20
112.816742
 11
21.730616
 21
112.816742
  0
LINE
  8
0
 10
22.030615
 20
112.516739
 11
22.030615
 21
95.316742
  0
LINE
  8
0
 10
25.030615
 20
113.316742
 11
25.030615
 21
80.516739
  0
LINE
  8
0
 10
7.030614
 20
113.316742
 11
7.030614
 21
80.516739
  0
LINE
  8
0
 10
7.030614
 20
80.516739
 11
11.030615
 21
80.516739
  0
LINE
  8
0
 10
7.030614
 20
113.316742
 11
25.030615
 21
113.316742
  0
LINE
  8
0
 10
21.280615
 20
112.216743
 11
21.280615
 21
95.221481
  0
LINE
  8
0
 10
10.780615
 20
107.412003
 11
10.780615
 21
80.516739
  0
LINE
  8
0
 62
     4
 10
11.030615
 20
112.016739
 11
21.030615
 21
112.016739
  0
LINE
  8
0
 62
     4
 10
20.730616
 20
97.516739
 11
21.030615
 21
97.516739
  0
LINE
  8
0
 62
     4
 10
20.730616
 20
97.616745
 11
21.030615
 21
97.616745
  0
LINE
  8
0
 62
     4
 10
13.530615
 20
92.216743
 11
11.330614
 21
92.216743
  0
LINE
  8
0
 62
     4
 10
13.530615
 20
93.216743
 11
13.130615
 21
93.216743
  0
LINE
  8
0
 62
     4
 10
18.530615
 20
92.416740
 11
13.530615
 21
92.416740
  0
LINE
  8
0
 62
     4
 10
18.530615
 20
91.216743
 11
13.530615
 21
91.216743
  0
LINE
  8
0
 62
     4
 10
19.730616
 20
93.716743
 11
12.330614
 21
93.716743
  0
LINE
  8
0
 62
     4
 10
20.730616
 20
98.016739
 11
20.730616
 21
92.716743
  0
LINE
  8
0
 62
     4
 10
11.330614
 20
98.016739
 11
11.330614
 21
92.716743
  0
LINE
  8
0
 62
     4
 10
20.730616
 20
98.016739
 11
11.330614
 21
98.016739
  0
LINE
  8
0
 62
     4
 10
19.120615
 20
96.316742
 11
19.120615
 21
96.816742
  0
LINE
  8
0
 62
     4
 10
18.020615
 20
96.316742
 11
18.020615
 21
96.816742
  0
LINE
  8
0
 62
     4
 10
19.520615
 20
94.216743
 11
17.620615
 21
94.216743
  0
LINE
  8
0
 62
     4
 10
19.446615
 20
96.316742
 11
17.696615
 21
96.316742
  0
LINE
  8
0
 62
     4
 10
19.120615
 20
96.816742
 11
18.020615
 21
96.816742
  0
LINE
  8
0
 62
     4
 10
14.780615
 20
92.716743
 11
14.780615
 21
93.716743
  0
LINE
  8
0
 62
     4
 10
17.280615
 20
92.716743
 11
17.280615
 21
93.716743
  0
LINE
  8
0
 62
     4
 10
20.730616
 20
92.716743
 11
19.730616
 21
92.716743
  0
LINE
  8
0
 62
     4
 10
19.730616
 20
93.716743
 11
19.730616
 21
92.716743
  0
LINE
  8
0
 62
     4
 10
11.330614
 20
92.716743
 11
12.330614
 21
92.716743
  0
LINE
  8
0
 62
     4
 10
12.330614
 20
93.716743
 11
12.330614
 21
92.716743
  0
LINE
  8
0
 62
     4
 10
17.620615
 20
94.216743
 11
17.496614
 21
96.104744
  0
LINE
  8
0
 62
     4
 10
19.646616
 20
96.104744
 11
19.520615
 21
94.216743
  0
LINE
  8
0
 62
     4
 10
16.980614
 20
94.216743
 11
15.080614
 21
94.216743
  0
LINE
  8
0
 62
     4
 10
17.106615
 20
96.104744
 11
16.980616
 21
94.216743
  0
LINE
  8
0
 62
     4
 10
16.906614
 20
96.316742
 11
15.156614
 21
96.316742
  0
LINE
  8
0
 62
     4
 10
16.580614
 20
96.316742
 11
16.580614
 21
96.816742
  0
LINE
  8
0
 62
     4
 10
16.580614
 20
96.816742
 11
15.480614
 21
96.816742
  0
LINE
  8
0
 62
     4
 10
15.480614
 20
96.316742
 11
15.480614
 21
96.816742
  0
LINE
  8
0
 62
     4
 10
15.080614
 20
94.216736
 11
14.956613
 21
96.104744
  0
LINE
  8
0
 62
     4
 10
16.430614
 20
94.816742
 11
16.430614
 21
95.616745
  0
LINE
  8
0
 62
     4
 10
15.630615
 20
94.816742
 11
16.430614
 21
94.816742
  0
LINE
  8
0
 62
     4
 10
15.630615
 20
94.816742
 11
15.630615
 21
95.616745
  0
LINE
  8
0
 62
     4
 10
15.630615
 20
95.616745
 11
16.430614
 21
95.616745
  0
LINE
  8
0
 62
     4
 10
14.440615
 20
94.216743
 11
12.540615
 21
94.216743
  0
LINE
  8
0
 62
     4
 10
14.566614
 20
96.104744
 11
14.440614
 21
94.216736
  0
LINE
  8
0
 62
     4
 10
14.366615
 20
96.316742
 11
12.616615
 21
96.316742
  0
LINE
  8
0
 62
     4
 10
14.040615
 20
96.316742
 11
14.040615
 21
96.816742
  0
LINE
  8
0
 62
     4
 10
14.040615
 20
96.816742
 11
12.940615
 21
96.816742
  0
LINE
  8
0
 62
     4
 10
12.940615
 20
96.316742
 11
12.940615
 21
96.816742
  0
LINE
  8
0
 62
     4
 10
12.540615
 20
94.216743
 11
12.416615
 21
96.104752
  0
LINE
  8
0
 62
     4
 10
18.530615
 20
91.216743
 11
18.530615
 21
93.716743
  0
LINE
  8
0
 62
     4
 10
13.530615
 20
91.216743
 11
13.530615
 21
93.716743
  0
LINE
  8
0
 62
     4
 10
18.930614
 20
92.716743
 11
13.130615
 21
92.716743
  0
LINE
  8
0
 62
     4
 10
13.130615
 20
93.216743
 11
13.130615
 21
92.216743
  0
LINE
  8
0
 62
     4
 10
18.930614
 20
93.216743
 11
18.930614
 21
92.216743
  0
LINE
  8
0
 62
     4
 10
18.930614
 20
93.216743
 11
18.530615
 21
93.216743
  0
LINE
  8
0
 62
     4
 10
20.730616
 20
92.216743
 11
18.530615
 21
92.216743
  0
LINE
  8
0
 62
     4
 10
11.330614
 20
80.016739
 11
20.730616
 21
80.016739
  0
LINE
  8
0
 62
     4
 10
11.030615
 20
97.516739
 11
11.330614
 21
97.516739
  0
LINE
  8
0
 62
     1
 10
14.530615
 20
85.016739
 11
14.530615
 21
80.016739
  0
LINE
  8
0
 62
     1
 10
17.530615
 20
85.016739
 11
14.530615
 21
85.016739
  0
LINE
  8
0
 62
     1
 10
17.530615
 20
85.016739
 11
17.530615
 21
80.016739
  0
LINE
  8
0
 62
     4
 10
13.230614
 20
99.716743
 11
13.230614
 21
101.216743
  0
LINE
  8
0
 62
     4
 10
11.730614
 20
99.716743
 11
11.730614
 21
101.216743
  0
LINE
  8
0
 62
     4
 10
13.230614
 20
99.716743
 11
11.730614
 21
99.716743
  0
LINE
  8
0
 62
     4
 10
13.230614
 20
101.216743
 11
11.730614
 21
101.216743
  0
LINE
  8
0
 62
     4
 10
18.424986
 20
106.057564
 11
18.680614
 21
105.616745
  0
LINE
  8
0
 62
     4
 10
13.380611
 20
105.616745
 11
13.636244
 21
106.057556
  0
LINE
  8
0
 62
     4
 10
17.174988
 20
104.807564
 11
17.430616
 21
104.366745
  0
LINE
  8
0
 62
     4
 10
18.680611
 20
105.616737
 11
17.430616
 21
104.366745
  0
LINE
  8
0
 62
     4
 10
17.174982
 20
104.807564
 11
18.424984
 21
106.057564
  0
LINE
  8
0
 62
     4
 10
14.886243
 20
104.807556
 11
14.630614
 21
104.366745
  0
LINE
  8
0
 62
     4
 10
11.030615
 20
98.925926
 11
21.030615
 21
98.925926
  0
LINE
  8
0
 62
     4
 10
14.886244
 20
104.807556
 11
13.636242
 21
106.057564
  0
LINE
  8
0
 62
     4
 10
11.030615
 20
106.057556
 11
13.636244
 21
106.057556
  0
LINE
  8
0
 62
     4
 10
18.424984
 20
106.057556
 11
21.030615
 21
106.057556
  0
LINE
  8
0
 62
     4
 10
17.174984
 20
104.807556
 11
14.886244
 21
104.807556
  0
LINE
  8
0
 62
     4
 10
11.030615
 20
105.616745
 11
13.380615
 21
105.616745
  0
LINE
  8
0
 62
     4
 10
13.380611
 20
105.616745
 11
14.630610
 21
104.366737
  0
LINE
  8
0
 62
     4
 10
17.430614
 20
104.366745
 11
14.630615
 21
104.366745
  0
LINE
  8
0
 62
     4
 10
18.680614
 20
105.616745
 11
21.030615
 21
105.616745
  0
LINE
  8
0
 62
     4
 10
21.030615
 20
98.114822
 11
11.030615
 21
98.114822
  0
LINE
  8
0
 62
     4
 10
11.030615
 20
97.616745
 11
11.330614
 21
97.616745
  0
LINE
  8
0
 62
     4
 10
12.530615
 20
101.916740
 11
11.030615
 21
101.916740
  0
LINE
  8
0
 62
     4
 10
11.030615
 20
105.116745
 11
12.530615
 21
105.116745
  0
LINE
  8
0
 62
     4
 10
19.530615
 20
105.116745
 11
21.030615
 21
105.116745
  0
LINE
  8
0
 62
     4
 10
21.030615
 20
101.916740
 11
19.530615
 21
101.916740
  0
LINE
  8
0
  6
CENTER
 62
     2
 10
13.530615
 20
101.766739
 11
18.530615
 21
101.766739
  0
LINE
  8
0
 62
     4
 10
14.205101
 20
102.066742
 11
17.856129
 21
102.066742
  0
LINE
  8
0
 62
     4
 10
16.030615
 20
101.466743
 11
17.856129
 21
101.466743
  0
LINE
  8
0
 62
     4
 10
14.205101
 20
101.466743
 11
16.030615
 21
101.466743
  0
LINE
  8
0
 62
     4
 10
20.237720
 20
104.223846
 11
18.823509
 21
102.809631
  0
LINE
  8
0
 62
     4
 10
20.237720
 20
102.809624
 11
18.823507
 21
104.223839
  0
LINE
  8
0
 62
     4
 10
11.823505
 20
102.809639
 11
13.237718
 21
104.223846
  0
LINE
  8
0
 62
     4
 10
11.823503
 20
104.223846
 11
13.237720
 21
102.809631
  0
LINE
  8
0
 62
     4
 10
11.030615
 20
80.316742
 11
11.030615
 21
112.016739
  0
LINE
  8
0
 62
     4
 10
21.030615
 20
80.316742
 11
21.030615
 21
112.016739
  0
LINE
  8
0
  6
CENTER
 62
     2
 10
16.030615
 20
147.621933
 11
16.030615
 21
77.880692
  0
LINE
  8
0
 62
     4
 10
-0.969386
 20
114.316742
 11
33.030613
 21
114.316742
  0
LINE
  8
0
 62
     4
 10
-0.969386
 20
114.316742
 11
-0.969386
 21
144.316742
  0
LINE
  8
0
 62
     4
 10
33.030613
 20
114.316742
 11
33.030613
 21
144.316742
  0
LINE
  8
0
 62
     4
 10
-0.969386
 20
144.316742
 11
33.030613
 21
144.316742
  0
LINE
  8
0
 10
24.530615
 20
113.316742
 11
7.530614
 21
113.316742
  0
LINE
  8
0
 10
24.530615
 20
113.316742
 11
24.530615
 21
114.316742
  0
LINE
  8
0
 10
7.530614
 20
113.316742
 11
7.530614
 21
114.316742
  0
LINE
  8
0
  6
CENTER
 62
     1
 10
2.530614
 20
141.700882
 11
2.530614
 21
147.209396
  0
LINE
  8
0
  6
CENTER
 62
     1
 10
29.530615
 20
141.700882
 11
29.530615
 21
147.209396
  0
LINE
  8
0
 10
161.841064
 20
-82.279419
 11
134.841064
 21
-82.279419
  0
LINE
  8
0
 10
160.741058
 20
-103.479416
 11
160.741058
 21
-103.979416
  0
LINE
  8
0
 10
129.441071
 20
-92.179428
 11
134.341064
 21
-92.179428
  0
LINE
  8
0
 10
161.841064
 20
-103.479424
 11
161.341080
 21
-103.979431
  0
LINE
  8
0
 62
     4
 10
159.841064
 20
-106.679428
 11
159.041061
 21
-106.679428
  0
LINE
  8
0
 62
     4
 10
159.041061
 20
-114.279419
 11
159.841064
 21
-114.279419
  0
LINE
  8
0
 62
     4
 10
159.041061
 20
-114.279419
 11
159.041061
 21
-106.679428
  0
LINE
  8
0
 62
     4
 10
160.541061
 20
-103.479416
 11
160.541061
 21
-114.979416
  0
LINE
  8
0
 62
     4
 10
159.841064
 20
-114.279419
 11
159.841064
 21
-106.679428
  0
LINE
  8
0
 10
161.641068
 20
-97.779419
 11
161.641068
 21
-99.321884
  0
LINE
  8
0
 10
161.841064
 20
-97.779419
 11
155.841064
 21
-97.779419
  0
LINE
  8
0
 10
156.041061
 20
-97.779419
 11
156.041061
 21
-99.321884
  0
LINE
  8
0
 10
155.841064
 20
-97.779419
 11
155.841064
 21
-103.979416
  0
LINE
  8
0
 10
161.841064
 20
-103.479416
 11
155.841064
 21
-103.479416
  0
LINE
  8
0
 62
     4
 10
140.241058
 20
-125.145447
 11
140.241058
 21
-131.679428
  0
LINE
  8
0
 62
     4
 10
140.741058
 20
-124.279419
 11
140.241058
 21
-125.145447
  0
LINE
  8
0
 62
     4
 10
140.241074
 20
-131.679413
 11
139.741058
 21
-131.968094
  0
LINE
  8
0
 62
     4
 10
139.741058
 20
-131.968094
 11
139.741058
 21
-132.679428
  0
LINE
  8
0
 62
     4
 10
146.041061
 20
-128.579422
 11
140.741058
 21
-128.579422
  0
LINE
  8
0
 62
     4
 10
146.041061
 20
-128.679428
 11
146.041061
 21
-132.679428
  0
LINE
  8
0
 62
     4
 10
141.241058
 20
-128.679428
 11
146.041061
 21
-128.679428
  0
LINE
  8
0
 62
     4
 10
141.241058
 20
-128.579422
 11
141.241058
 21
-133.679428
  0
LINE
  8
0
  6
PHANTOM
 62
     4
 10
141.241058
 20
-129.479416
 11
141.241058
 21
-130.978043
  0
LINE
  8
0
 62
     4
 10
140.941315
 20
-132.679413
 11
141.241058
 21
-130.979431
  0
LINE
  8
0
 62
     4
 10
146.541061
 20
-133.679428
 11
141.241058
 21
-133.679428
  0
LINE
  8
0
 62
     4
 10
145.341064
 20
-128.579422
 11
145.341064
 21
-128.679428
  0
LINE
  8
0
 62
     4
 10
146.541061
 20
-132.968094
 11
146.541061
 21
-133.679428
  0
LINE
  8
0
 62
     4
 10
146.041061
 20
-132.679413
 11
146.541061
 21
-132.968094
  0
LINE
  8
0
 62
     4
 10
140.941315
 20
-132.679428
 11
139.741058
 21
-132.679428
  0
LINE
  8
0
 62
     4
 10
140.741058
 20
-128.579422
 11
140.741058
 21
-123.079422
  0
LINE
  8
0
 62
     4
 10
146.041061
 20
-128.579422
 11
146.041061
 21
-117.179428
  0
LINE
  8
0
 62
     4
 10
140.741058
 20
-123.079422
 11
128.841064
 21
-123.079422
  0
LINE
  8
0
 62
     4
 10
128.541061
 20
-104.679428
 11
128.541061
 21
-122.779419
  0
LINE
  8
0
 62
     4
 10
150.441071
 20
-118.479416
 11
150.441071
 21
-117.479416
  0
LINE
  8
0
 62
     4
 10
150.541061
 20
-117.579422
 11
150.541061
 21
-117.479416
  0
LINE
  8
0
 62
     4
 10
153.041061
 20
-118.079422
 11
151.041061
 21
-118.079422
  0
LINE
  8
0
 62
     4
 10
154.758209
 20
-114.979416
 11
154.141068
 21
-118.479416
  0
LINE
  8
0
 62
     4
 10
153.641068
 20
-118.479416
 11
153.641068
 21
-117.479416
  0
LINE
  8
0
 62
     4
 10
153.541061
 20
-117.579422
 11
153.541061
 21
-117.479416
  0
LINE
  8
0
 62
     4
 10
153.641068
 20
-117.479416
 11
150.441071
 21
-117.479416
  0
LINE
  8
0
 62
     4
 10
128.541061
 20
-104.379410
 11
128.841064
 21
-104.679420
  0
LINE
  8
0
 62
     4
 10
128.541061
 20
-104.679428
 11
130.041061
 21
-104.679428
  0
LINE
  8
0
 62
     4
 10
128.541061
 20
-103.479416
 11
128.541061
 21
-104.379425
  0
LINE
  8
0
 62
     4
 10
130.041061
 20
-117.179428
 11
146.141068
 21
-117.179428
  0
LINE
  8
0
 62
     4
 10
154.141068
 20
-118.479416
 11
147.450256
 21
-118.479416
  0
LINE
  8
0
 62
     4
 10
130.041061
 20
-117.179428
 11
130.041061
 21
-104.679428
  0
LINE
  8
0
 62
     4
 10
146.041061
 20
-122.479416
 11
146.141068
 21
-122.479416
  0
LINE
  8
0
 62
     4
 10
146.639145
 20
-123.079422
 11
146.141068
 21
-123.079422
  0
LINE
  8
0
 62
     4
 10
146.141068
 20
-117.179428
 11
146.141068
 21
-123.079422
  0
LINE
  8
0
 62
     4
 10
147.450241
 20
-118.479424
 11
146.639145
 21
-123.079414
  0
LINE
  8
0
 10
160.541061
 20
-103.979416
 11
161.341064
 21
-103.979416
  0
LINE
  8
0
 62
     4
 10
128.541061
 20
-103.479416
 11
129.041061
 21
-103.479416
  0
LINE
  8
0
 62
     4
 10
143.026062
 20
-133.679428
 11
143.026062
 21
-138.309418
  0
LINE
  8
0
 62
     4
 10
144.456070
 20
-133.679428
 11
144.456070
 21
-138.690750
  0
LINE
  8
0
 62
     1
 10
140.701065
 20
-137.689423
 11
146.701065
 21
-139.289429
  0
LINE
  8
0
 62
     1
 10
140.701065
 20
-138.929413
 11
146.701065
 21
-140.529419
  0
LINE
  8
0
 62
     4
 10
143.026062
 20
-139.549423
 11
143.026062
 21
-144.109421
  0
LINE
  8
0
 62
     4
 10
144.456070
 20
-139.930756
 11
144.456070
 21
-144.109421
  0
LINE
  8
0
 62
     4
 10
144.141068
 20
-144.109421
 11
144.141068
 21
-149.109421
  0
LINE
  8
0
 62
     4
 10
143.341064
 20
-144.109421
 11
143.341064
 21
-149.109421
  0
LINE
  8
0
 62
     4
 10
144.456070
 20
-144.109421
 11
143.026062
 21
-144.109421
  0
LINE
  8
0
 62
     4
 10
144.141068
 20
-149.109421
 11
143.341064
 21
-149.109421
  0
LINE
  8
0
 10
129.441071
 20
-94.979416
 11
134.441071
 21
-94.979416
  0
LINE
  8
0
 62
     4
 10
160.541061
 20
-114.979416
 11
154.758209
 21
-114.979416
  0
LINE
  8
0
 10
155.841064
 20
-103.979416
 11
129.041061
 21
-103.979416
  0
LINE
  8
0
 10
129.041061
 20
-92.579422
 11
129.041061
 21
-103.979416
  0
LINE
  8
0
 10
161.841064
 20
-103.479416
 11
161.841064
 21
-5.179420
  0
LINE
  8
0
 10
137.841064
 20
-34.029419
 11
134.841064
 21
-34.029419
  0
LINE
  8
0
 10
137.841064
 20
-30.719421
 11
134.841064
 21
-30.719421
  0
LINE
  8
0
 10
137.841064
 20
-34.029419
 11
137.841064
 21
-30.719421
  0
LINE
  8
0
 10
129.441071
 20
-16.479422
 11
134.341064
 21
-16.479422
  0
LINE
  8
0
 10
129.441071
 20
-13.679421
 11
134.441071
 21
-13.679421
  0
LINE
  8
0
 10
134.841064
 20
-94.579422
 11
134.841064
 21
-14.079421
  0
LINE
  8
0
 10
161.841064
 20
-26.379421
 11
134.841064
 21
-26.379421
  0
LINE
  8
0
 10
161.841064
 20
-68.379425
 11
134.841064
 21
-68.379425
  0
LINE
  8
0
 62
     4
 10
144.141068
 20
40.450581
 11
143.341064
 21
40.450581
  0
LINE
  8
0
 62
     4
 10
144.456070
 20
35.450581
 11
143.026062
 21
35.450581
  0
LINE
  8
0
 62
     4
 10
143.341064
 20
35.450581
 11
143.341064
 21
40.450581
  0
LINE
  8
0
 62
     4
 10
144.141068
 20
35.450581
 11
144.141068
 21
40.450581
  0
LINE
  8
0
 62
     4
 10
144.456070
 20
30.890579
 11
144.456070
 21
35.450581
  0
LINE
  8
0
 62
     4
 10
143.026062
 20
31.271912
 11
143.026062
 21
35.450581
  0
LINE
  8
0
 62
     1
 10
146.781067
 20
30.270578
 11
140.781067
 21
31.870579
  0
LINE
  8
0
 62
     1
 10
146.781067
 20
29.030581
 11
140.781067
 21
30.630581
  0
LINE
  8
0
 62
     4
 10
144.456070
 20
25.020580
 11
144.456070
 21
29.650578
  0
LINE
  8
0
 62
     4
 10
143.026062
 20
25.020580
 11
143.026062
 21
30.031914
  0
LINE
  8
0
 62
     4
 10
128.541061
 20
-5.179420
 11
129.041061
 21
-5.179420
  0
LINE
  8
0
 10
129.041061
 20
-4.679420
 11
134.841064
 21
-4.679420
  0
LINE
  8
0
 62
     4
 10
147.450241
 20
9.820578
 11
146.639145
 21
14.420579
  0
LINE
  8
0
 62
     4
 10
146.141068
 20
8.520580
 11
146.141068
 21
14.420578
  0
LINE
  8
0
 62
     4
 10
146.639145
 20
14.420578
 11
146.141068
 21
14.420578
  0
LINE
  8
0
 62
     4
 10
146.041061
 20
13.820580
 11
146.141068
 21
13.820580
  0
LINE
  8
0
 62
     4
 10
130.041061
 20
8.520580
 11
130.041061
 21
-3.979422
  0
LINE
  8
0
 62
     4
 10
154.141068
 20
9.820580
 11
147.450256
 21
9.820580
  0
LINE
  8
0
 62
     4
 10
130.041061
 20
8.520580
 11
146.141068
 21
8.520580
  0
LINE
  8
0
 62
     4
 10
128.541061
 20
-5.179420
 11
128.541061
 21
-4.279421
  0
LINE
  8
0
 62
     4
 10
128.541061
 20
-3.979422
 11
130.041061
 21
-3.979422
  0
LINE
  8
0
 62
     4
 10
128.541061
 20
-4.279420
 11
128.841064
 21
-3.979418
  0
LINE
  8
0
 62
     4
 10
160.541061
 20
6.320580
 11
154.758209
 21
6.320580
  0
LINE
  8
0
 62
     4
 10
153.641068
 20
8.820580
 11
150.441071
 21
8.820580
  0
LINE
  8
0
 62
     4
 10
153.541061
 20
8.920578
 11
153.541061
 21
8.820580
  0
LINE
  8
0
 62
     4
 10
153.641068
 20
9.820580
 11
153.641068
 21
8.820580
  0
LINE
  8
0
 62
     4
 10
154.758209
 20
6.320578
 11
154.141068
 21
9.820579
  0
LINE
  8
0
 62
     4
 10
153.041061
 20
9.420578
 11
151.041061
 21
9.420578
  0
LINE
  8
0
 62
     4
 10
150.541061
 20
8.920578
 11
150.541061
 21
8.820580
  0
LINE
  8
0
 62
     4
 10
150.441071
 20
9.820580
 11
150.441071
 21
8.820580
  0
LINE
  8
0
 62
     4
 10
159.841064
 20
5.620579
 11
159.841064
 21
-1.979422
  0
LINE
  8
0
 62
     4
 10
160.541061
 20
-4.679420
 11
160.541061
 21
6.320580
  0
LINE
  8
0
 62
     4
 10
159.041061
 20
5.620579
 11
159.041061
 21
-1.979422
  0
LINE
  8
0
 62
     4
 10
159.041061
 20
5.620579
 11
159.841064
 21
5.620579
  0
LINE
  8
0
 62
     4
 10
159.841064
 20
-1.979422
 11
159.041061
 21
-1.979422
  0
LINE
  8
0
 62
     4
 10
128.541061
 20
-3.979422
 11
128.541061
 21
14.120579
  0
LINE
  8
0
 62
     4
 10
140.741058
 20
14.420578
 11
128.841064
 21
14.420578
  0
LINE
  8
0
 62
     4
 10
146.041061
 20
19.920578
 11
146.041061
 21
8.520580
  0
LINE
  8
0
 62
     4
 10
140.741058
 20
19.920578
 11
140.741058
 21
14.420578
  0
LINE
  8
0
 62
     4
 10
140.941315
 20
24.020580
 11
139.741058
 21
24.020580
  0
LINE
  8
0
 62
     4
 10
146.041061
 20
24.020582
 11
146.541061
 21
24.309254
  0
LINE
  8
0
 62
     4
 10
146.541061
 20
24.309254
 11
146.541061
 21
25.020580
  0
LINE
  8
0
 62
     4
 10
145.341064
 20
19.920578
 11
145.341064
 21
20.020580
  0
LINE
  8
0
 62
     4
 10
146.541061
 20
25.020580
 11
141.241058
 21
25.020580
  0
LINE
  8
0
 62
     4
 10
140.941315
 20
24.020578
 11
141.241058
 21
22.320580
  0
LINE
  8
0
  6
PHANTOM
 62
     4
 10
141.241058
 20
20.820580
 11
141.241058
 21
22.319195
  0
LINE
  8
0
 62
     4
 10
141.241058
 20
19.920578
 11
141.241058
 21
25.020580
  0
LINE
  8
0
 62
     4
 10
141.241058
 20
20.020580
 11
146.041061
 21
20.020580
  0
LINE
  8
0
 62
     4
 10
146.041061
 20
20.020580
 11
146.041061
 21
24.020580
  0
LINE
  8
0
 62
     4
 10
146.041061
 20
19.920578
 11
140.741058
 21
19.920578
  0
LINE
  8
0
 62
     4
 10
139.741058
 20
23.309254
 11
139.741058
 21
24.020580
  0
LINE
  8
0
 62
     4
 10
140.241058
 20
23.020584
 11
139.741074
 21
23.309254
  0
LINE
  8
0
 62
     4
 10
140.741058
 20
15.620577
 11
140.241058
 21
16.486603
  0
LINE
  8
0
 62
     4
 10
140.241058
 20
16.486603
 11
140.241058
 21
23.020580
  0
LINE
  8
0
 10
140.841064
 20
-4.679420
 11
161.341064
 21
-4.679420
  0
LINE
  8
0
 10
161.841064
 20
-5.179426
 11
161.341064
 21
-4.679427
  0
LINE
  8
0
 10
129.041061
 20
-16.079422
 11
129.041061
 21
-4.679420
  0
LINE
  8
0
  6
CENTER
 62
     1
 10
167.841064
 20
-74.879425
 11
167.841064
 21
-81.879425
  0
LINE
  8
0
  6
CENTER
 62
     1
 10
164.341064
 20
-16.379421
 11
171.341064
 21
-16.379421
  0
LINE
  8
0
  6
CENTER
 62
     1
 10
164.341064
 20
-78.379425
 11
171.341064
 21
-78.379425
  0
LINE
  8
0
  6
CENTER
 62
     1
 10
169.841049
 20
-27.379421
 11
185.841049
 21
-27.379421
  0
LINE
  8
0
  6
CENTER
 62
     1
 10
169.841049
 20
-67.379425
 11
185.841049
 21
-67.379425
  0
LINE
  8
0
  6
CENTER
 62
     1
 10
174.321457
 20
-47.379421
 11
190.841064
 21
-47.379421
  0
LINE
  8
0
  6
CENTER
 62
     1
 10
182.841064
 20
-39.379421
 11
182.841064
 21
-55.379421
  0
LINE
  8
0
  6
CENTER
 62
     1
 10
177.841064
 20
-19.379421
 11
177.841064
 21
-75.379425
  0
LINE
  8
0
  6
CENTER
 62
     1
 10
167.841064
 20
-12.879421
 11
167.841064
 21
-19.879421
  0
LINE
  8
0
 10
137.141068
 20
-34.029419
 11
137.141068
 21
-30.719421
  0
LINE
  8
0
 62
     4
 10
162.841064
 20
-11.879421
 11
192.841064
 21
-11.879421
  0
LINE
  8
0
 62
     4
 10
162.841064
 20
-82.879425
 11
192.841064
 21
-82.879425
  0
LINE
  8
0
 62
     4
 10
192.841064
 20
-11.879421
 11
192.841064
 21
-82.879425
  0
LINE
  8
0
 62
     4
 10
162.841064
 20
-11.879421
 11
162.841064
 21
-82.879425
  0
LINE
  8
0
 10
134.841064
 20
-5.179420
 11
140.841064
 21
-5.179420
  0
LINE
  8
0
 10
140.841064
 20
-10.879421
 11
140.841064
 21
-4.679420
  0
LINE
  8
0
 10
140.641068
 20
-10.879421
 11
140.641068
 21
-9.336958
  0
LINE
  8
0
 10
134.841064
 20
-10.879421
 11
140.841064
 21
-10.879421
  0
LINE
  8
0
 10
134.841064
 20
-10.879421
 11
134.841064
 21
-4.679420
  0
LINE
  8
0
 10
135.041061
 20
-10.879421
 11
135.041061
 21
-9.336958
  0
LINE
  8
0
 10
162.841064
 20
-68.379425
 11
161.841064
 21
-68.379425
  0
LINE
  8
0
 10
162.841064
 20
-26.379421
 11
161.841064
 21
-26.379421
  0
LINE
  8
0
 10
161.841064
 20
-26.379421
 11
161.841064
 21
-68.379425
  0
LINE
  8
0
 10
162.841064
 20
-19.879421
 11
161.891068
 21
-19.879421
  0
LINE
  8
0
 10
161.841064
 20
-19.749430
 11
161.891068
 21
-19.879427
  0
LINE
  8
0
 10
161.841064
 20
-13.009421
 11
161.841064
 21
-19.749420
  0
LINE
  8
0
 10
161.841064
 20
-13.009417
 11
161.891068
 21
-12.879419
  0
LINE
  8
0
 10
162.841064
 20
-12.879421
 11
161.891068
 21
-12.879421
  0
LINE
  8
0
 10
162.841064
 20
-74.879425
 11
161.891068
 21
-74.879425
  0
LINE
  8
0
 10
161.841064
 20
-75.009422
 11
161.891068
 21
-74.879417
  0
LINE
  8
0
 10
161.841064
 20
-81.749420
 11
161.841064
 21
-75.009422
  0
LINE
  8
0
 10
161.841064
 20
-81.749420
 11
161.891068
 21
-81.879417
  0
LINE
  8
0
 10
162.841064
 20
-81.879425
 11
161.891068
 21
-81.879425
  0
LINE
  8
0
  6
CENTER
 62
     1
 10
188.883011
 20
-25.379421
 11
198.590546
 21
-25.379421
  0
LINE
  8
0
  6
CENTER
 62
     1
 10
188.883011
 20
-57.379421
 11
198.590546
 21
-57.379421
  0
LINE
  8
0
 62
     4
 10
-143.858932
 20
-117.579422
 11
-143.858932
 21
-117.479416
  0
LINE
  8
0
 62
     4
 10
-143.958939
 20
-118.479416
 11
-143.958939
 21
-117.479416
  0
LINE
  8
0
 10
-152.158936
 20
-82.279419
 11
-125.158936
 21
-82.279419
  0
LINE
  8
0
 10
-125.158936
 20
-97.779419
 11
-125.158936
 21
-103.979416
  0
LINE
  8
0
 10
-125.358932
 20
-97.779419
 11
-125.358932
 21
-99.321884
  0
LINE
  8
0
 10
-130.958939
 20
-97.779419
 11
-130.958939
 21
-99.321884
  0
LINE
  8
0
 10
-131.158936
 20
-97.779419
 11
-131.158936
 21
-103.979416
  0
LINE
  8
0
 62
     4
 10
-150.858932
 20
-114.979416
 11
-145.076080
 21
-114.979416
  0
LINE
  8
0
 62
     4
 10
-150.158936
 20
-114.279419
 11
-150.158936
 21
-106.679428
  0
LINE
  8
0
 62
     4
 10
-150.858932
 20
-103.979416
 11
-150.858932
 21
-114.979416
  0
LINE
  8
0
 62
     4
 10
-149.358932
 20
-114.279419
 11
-149.358932
 21
-106.679428
  0
LINE
  8
0
 62
     4
 10
-149.358932
 20
-114.279419
 11
-150.158936
 21
-114.279419
  0
LINE
  8
0
 62
     4
 10
-150.158936
 20
-106.679428
 11
-149.358932
 21
-106.679428
  0
LINE
  8
0
 10
-125.158936
 20
-103.979416
 11
-119.358932
 21
-103.979416
  0
LINE
  8
0
 10
-125.158936
 20
-103.479416
 11
-131.158936
 21
-103.479416
  0
LINE
  8
0
 62
     4
 10
-145.076096
 20
-114.979416
 11
-144.458954
 21
-118.479416
  0
LINE
  8
0
 10
-152.158936
 20
-103.479416
 11
-151.658936
 21
-103.979424
  0
LINE
  8
0
 10
-125.158936
 20
-97.779419
 11
-131.158936
 21
-97.779419
  0
LINE
  8
0
 62
     4
 10
-134.458939
 20
-149.109421
 11
-133.658936
 21
-149.109421
  0
LINE
  8
0
 62
     4
 10
-134.773941
 20
-144.109421
 11
-133.343933
 21
-144.109421
  0
LINE
  8
0
 62
     4
 10
-133.658936
 20
-144.109421
 11
-133.658936
 21
-149.109421
  0
LINE
  8
0
 62
     4
 10
-134.458939
 20
-144.109421
 11
-134.458939
 21
-149.109421
  0
LINE
  8
0
 62
     4
 10
-134.773941
 20
-139.549423
 11
-134.773941
 21
-144.109421
  0
LINE
  8
0
 62
     4
 10
-133.343933
 20
-139.930756
 11
-133.343933
 21
-144.109421
  0
LINE
  8
0
 62
     1
 10
-137.098938
 20
-138.929413
 11
-131.098938
 21
-140.529404
  0
LINE
  8
0
 62
     1
 10
-137.098938
 20
-137.689407
 11
-131.098938
 21
-139.289398
  0
LINE
  8
0
 62
     4
 10
-134.773941
 20
-133.679428
 11
-134.773941
 21
-138.309418
  0
LINE
  8
0
 62
     4
 10
-133.343933
 20
-133.679428
 11
-133.343933
 21
-138.690750
  0
LINE
  8
0
 62
     4
 10
-118.858932
 20
-103.479416
 11
-119.358932
 21
-103.479416
  0
LINE
  8
0
 10
-119.358932
 20
-92.579422
 11
-119.358932
 21
-103.979416
  0
LINE
  8
0
 10
-119.758934
 20
-92.179428
 11
-124.658936
 21
-92.179428
  0
LINE
  8
0
 62
     4
 10
-137.768112
 20
-118.479416
 11
-136.957016
 21
-123.079407
  0
LINE
  8
0
 62
     4
 10
-136.458939
 20
-117.179428
 11
-136.458939
 21
-123.079422
  0
LINE
  8
0
 62
     4
 10
-136.957016
 20
-123.079422
 11
-136.458939
 21
-123.079422
  0
LINE
  8
0
 62
     4
 10
-136.358932
 20
-122.479416
 11
-136.458939
 21
-122.479416
  0
LINE
  8
0
 62
     4
 10
-120.358932
 20
-117.179428
 11
-120.358932
 21
-104.679428
  0
LINE
  8
0
 62
     4
 10
-120.358932
 20
-117.179428
 11
-136.458939
 21
-117.179428
  0
LINE
  8
0
 62
     4
 10
-118.858932
 20
-103.479416
 11
-118.858932
 21
-104.379425
  0
LINE
  8
0
 62
     4
 10
-118.858932
 20
-104.679428
 11
-120.358932
 21
-104.679428
  0
LINE
  8
0
 62
     4
 10
-118.858940
 20
-104.379417
 11
-119.158936
 21
-104.679428
  0
LINE
  8
0
 62
     4
 10
-143.358932
 20
-118.079422
 11
-141.358932
 21
-118.079422
  0
LINE
  8
0
 62
     4
 10
-140.858932
 20
-117.579422
 11
-140.858932
 21
-117.479416
  0
LINE
  8
0
 62
     4
 10
-140.758942
 20
-118.479416
 11
-140.758942
 21
-117.479416
  0
LINE
  8
0
 62
     4
 10
-118.858932
 20
-104.679428
 11
-118.858932
 21
-122.779419
  0
LINE
  8
0
 62
     4
 10
-131.058929
 20
-123.079422
 11
-119.158936
 21
-123.079422
  0
LINE
  8
0
 62
     4
 10
-136.358932
 20
-128.579422
 11
-136.358932
 21
-117.179428
  0
LINE
  8
0
 62
     4
 10
-131.058929
 20
-128.579422
 11
-131.058929
 21
-123.079422
  0
LINE
  8
0
 62
     4
 10
-131.259186
 20
-132.679428
 11
-130.058929
 21
-132.679428
  0
LINE
  8
0
 62
     4
 10
-136.358932
 20
-132.679413
 11
-136.858932
 21
-132.968079
  0
LINE
  8
0
 62
     4
 10
-136.858932
 20
-132.968094
 11
-136.858932
 21
-133.679428
  0
LINE
  8
0
 62
     4
 10
-135.658936
 20
-128.579422
 11
-135.658936
 21
-128.679428
  0
LINE
  8
0
 62
     4
 10
-136.858932
 20
-133.679428
 11
-131.558929
 21
-133.679428
  0
LINE
  8
0
 62
     4
 10
-131.259186
 20
-132.679413
 11
-131.558929
 21
-130.979431
  0
LINE
  8
0
  6
PHANTOM
 62
     4
 10
-131.558929
 20
-129.479416
 11
-131.558929
 21
-130.978043
  0
LINE
  8
0
 62
     4
 10
-131.558929
 20
-128.579422
 11
-131.558929
 21
-133.679428
  0
LINE
  8
0
 62
     4
 10
-131.558929
 20
-128.679428
 11
-136.358932
 21
-128.679428
  0
LINE
  8
0
 62
     4
 10
-136.358932
 20
-128.679428
 11
-136.358932
 21
-132.679428
  0
LINE
  8
0
 62
     4
 10
-136.358932
 20
-128.579422
 11
-131.058929
 21
-128.579422
  0
LINE
  8
0
 62
     4
 10
-130.058929
 20
-131.968094
 11
-130.058929
 21
-132.679428
  0
LINE
  8
0
 62
     4
 10
-130.558945
 20
-131.679413
 11
-130.058929
 21
-131.968094
  0
LINE
  8
0
 62
     4
 10
-131.058914
 20
-124.279419
 11
-130.558914
 21
-125.145447
  0
LINE
  8
0
 62
     4
 10
-130.558929
 20
-125.145447
 11
-130.558929
 21
-131.679428
  0
LINE
  8
0
 10
-119.758934
 20
-94.979416
 11
-124.758934
 21
-94.979416
  0
LINE
  8
0
 62
     4
 10
-143.958939
 20
-117.479416
 11
-140.758942
 21
-117.479416
  0
LINE
  8
0
 62
     4
 10
-144.458939
 20
-118.479416
 11
-137.768127
 21
-118.479416
  0
LINE
  8
0
 10
-151.658936
 20
-103.979416
 11
-131.158936
 21
-103.979416
  0
LINE
  8
0
 10
-128.158936
 20
-60.729420
 11
-128.158936
 21
-64.039421
  0
LINE
  8
0
 10
-127.458939
 20
-60.729420
 11
-127.458939
 21
-64.039421
  0
LINE
  8
0
 10
-128.158936
 20
-60.729420
 11
-125.158936
 21
-60.729420
  0
LINE
  8
0
 10
-128.158936
 20
-64.039421
 11
-125.158936
 21
-64.039421
  0
LINE
  8
0
 10
-152.158936
 20
-103.479416
 11
-152.158936
 21
-5.179420
  0
LINE
  8
0
 10
-125.158936
 20
-94.579422
 11
-125.158936
 21
-14.079421
  0
LINE
  8
0
 10
-119.758934
 20
-13.679421
 11
-124.758934
 21
-13.679421
  0
LINE
  8
0
 10
-151.058929
 20
-5.179420
 11
-146.158936
 21
-5.179420
  0
LINE
  8
0
 10
-150.858932
 20
-4.679420
 11
-151.658936
 21
-4.679420
  0
LINE
  8
0
 62
     4
 10
-130.558929
 20
16.486603
 11
-130.558929
 21
23.020580
  0
LINE
  8
0
 62
     4
 10
-131.058929
 20
15.620582
 11
-130.558929
 21
16.486607
  0
LINE
  8
0
 62
     4
 10
-130.558929
 20
23.020582
 11
-130.058945
 21
23.309252
  0
LINE
  8
0
 62
     4
 10
-130.058929
 20
23.309254
 11
-130.058929
 21
24.020580
  0
LINE
  8
0
 62
     4
 10
-136.358932
 20
19.920578
 11
-131.058929
 21
19.920578
  0
LINE
  8
0
 62
     4
 10
-136.358932
 20
20.020580
 11
-136.358932
 21
24.020580
  0
LINE
  8
0
 62
     4
 10
-131.558929
 20
20.020580
 11
-136.358932
 21
20.020580
  0
LINE
  8
0
 62
     4
 10
-131.558929
 20
19.920578
 11
-131.558929
 21
25.020580
  0
LINE
  8
0
  6
PHANTOM
 62
     4
 10
-131.558929
 20
20.820580
 11
-131.558929
 21
22.319195
  0
LINE
  8
0
 62
     4
 10
-131.259186
 20
24.020578
 11
-131.558929
 21
22.320580
  0
LINE
  8
0
 62
     4
 10
-136.858932
 20
25.020580
 11
-131.558929
 21
25.020580
  0
LINE
  8
0
 62
     4
 10
-135.658936
 20
19.920578
 11
-135.658936
 21
20.020580
  0
LINE
  8
0
 62
     4
 10
-136.858932
 20
24.309254
 11
-136.858932
 21
25.020580
  0
LINE
  8
0
 62
     4
 10
-136.358932
 20
24.020578
 11
-136.858917
 21
24.309250
  0
LINE
  8
0
 62
     4
 10
-131.259186
 20
24.020580
 11
-130.058929
 21
24.020580
  0
LINE
  8
0
 62
     4
 10
-131.058929
 20
19.920578
 11
-131.058929
 21
14.420578
  0
LINE
  8
0
 62
     4
 10
-136.358932
 20
19.920578
 11
-136.358932
 21
8.520580
  0
LINE
  8
0
 62
     4
 10
-131.058929
 20
14.420578
 11
-119.158936
 21
14.420578
  0
LINE
  8
0
 62
     4
 10
-118.858932
 20
-3.979422
 11
-118.858932
 21
14.120579
  0
LINE
  8
0
 62
     4
 10
-150.158936
 20
-1.979422
 11
-149.358932
 21
-1.979422
  0
LINE
  8
0
 62
     4
 10
-149.358932
 20
5.620579
 11
-150.158936
 21
5.620579
  0
LINE
  8
0
 62
     4
 10
-149.358932
 20
5.620579
 11
-149.358932
 21
-1.979422
  0
LINE
  8
0
 62
     4
 10
-150.858932
 20
-5.179420
 11
-150.858932
 21
6.320580
  0
LINE
  8
0
 62
     4
 10
-150.158936
 20
5.620579
 11
-150.158936
 21
-1.979422
  0
LINE
  8
0
 62
     4
 10
-140.758942
 20
9.820580
 11
-140.758942
 21
8.820580
  0
LINE
  8
0
 62
     4
 10
-140.858932
 20
8.920578
 11
-140.858932
 21
8.820580
  0
LINE
  8
0
 62
     4
 10
-143.358932
 20
9.420578
 11
-141.358932
 21
9.420578
  0
LINE
  8
0
 62
     4
 10
-145.076080
 20
6.320578
 11
-144.458939
 21
9.820580
  0
LINE
  8
0
 62
     4
 10
-143.958939
 20
9.820580
 11
-143.958939
 21
8.820580
  0
LINE
  8
0
 62
     4
 10
-143.858932
 20
8.920578
 11
-143.858932
 21
8.820580
  0
LINE
  8
0
 62
     4
 10
-143.958939
 20
8.820580
 11
-140.758942
 21
8.820580
  0
LINE
  8
0
 62
     4
 10
-150.858932
 20
6.320580
 11
-145.076080
 21
6.320580
  0
LINE
  8
0
 62
     4
 10
-118.858940
 20
-4.279418
 11
-119.158943
 21
-3.979421
  0
LINE
  8
0
 62
     4
 10
-118.858932
 20
-3.979422
 11
-120.358932
 21
-3.979422
  0
LINE
  8
0
 62
     4
 10
-118.858932
 20
-5.179420
 11
-118.858932
 21
-4.279421
  0
LINE
  8
0
 62
     4
 10
-120.358932
 20
8.520580
 11
-136.458939
 21
8.520580
  0
LINE
  8
0
 62
     4
 10
-144.458939
 20
9.820580
 11
-137.768127
 21
9.820580
  0
LINE
  8
0
 62
     4
 10
-120.358932
 20
8.520580
 11
-120.358932
 21
-3.979422
  0
LINE
  8
0
 62
     4
 10
-136.358932
 20
13.820580
 11
-136.458939
 21
13.820580
  0
LINE
  8
0
 62
     4
 10
-136.957016
 20
14.420578
 11
-136.458939
 21
14.420578
  0
LINE
  8
0
 62
     4
 10
-136.458939
 20
8.520580
 11
-136.458939
 21
14.420578
  0
LINE
  8
0
 62
     4
 10
-137.768097
 20
9.820576
 11
-136.957001
 21
14.420577
  0
LINE
  8
0
 10
-119.758934
 20
-16.479422
 11
-124.658936
 21
-16.479422
  0
LINE
  8
0
 10
-119.358932
 20
-4.679420
 11
-146.158936
 21
-4.679420
  0
LINE
  8
0
 10
-152.158936
 20
-5.179423
 11
-151.658936
 21
-4.679423
  0
LINE
  8
0
 10
-119.358932
 20
-16.079422
 11
-119.358932
 21
-4.679420
  0
LINE
  8
0
 62
     4
 10
-118.858932
 20
-5.179420
 11
-119.358932
 21
-5.179420
  0
LINE
  8
0
 10
-146.158936
 20
-10.879421
 11
-146.158936
 21
-4.679420
  0
LINE
  8
0
 10
-146.358932
 20
-10.879421
 11
-146.358932
 21
-9.336958
  0
LINE
  8
0
 10
-152.158936
 20
-10.879421
 11
-146.158936
 21
-10.879421
  0
LINE
  8
0
 10
-151.958939
 20
-10.879421
 11
-151.958939
 21
-9.336958
  0
LINE
  8
0
 10
-152.158936
 20
-26.379421
 11
-125.158936
 21
-26.379421
  0
LINE
  8
0
 10
-152.158936
 20
-68.379425
 11
-125.158936
 21
-68.379425
  0
LINE
  8
0
 62
     4
 10
-133.343933
 20
25.020580
 11
-133.343933
 21
29.650578
  0
LINE
  8
0
 62
     4
 10
-134.773941
 20
25.020580
 11
-134.773941
 21
30.031914
  0
LINE
  8
0
 62
     1
 10
-131.018936
 20
29.030575
 11
-137.018936
 21
30.630575
  0
LINE
  8
0
 62
     1
 10
-131.018936
 20
30.270578
 11
-137.018936
 21
31.870579
  0
LINE
  8
0
 62
     4
 10
-133.343933
 20
30.890579
 11
-133.343933
 21
35.450581
  0
LINE
  8
0
 62
     4
 10
-134.773941
 20
31.271912
 11
-134.773941
 21
35.450581
  0
LINE
  8
0
 62
     4
 10
-134.458939
 20
35.450581
 11
-134.458939
 21
40.450581
  0
LINE
  8
0
 62
     4
 10
-133.658936
 20
35.450581
 11
-133.658936
 21
40.450581
  0
LINE
  8
0
 62
     4
 10
-134.773941
 20
35.450581
 11
-133.343933
 21
35.450581
  0
LINE
  8
0
 62
     4
 10
-134.458939
 20
40.450581
 11
-133.658936
 21
40.450581
  0
LINE
  8
0
 10
-151.058929
 20
-5.179420
 11
-151.058929
 21
-4.679420
  0
LINE
  8
0
  6
CENTER
 62
     1
 10
-165.158951
 20
-37.379421
 11
-181.158951
 21
-37.379421
  0
LINE
  8
0
  6
CENTER
 62
     1
 10
-165.158951
 20
-57.379421
 11
-181.158951
 21
-57.379421
  0
LINE
  8
0
  6
CENTER
 62
     1
 10
-173.158936
 20
-29.379421
 11
-173.158936
 21
-65.379425
  0
LINE
  8
0
 62
     4
 10
-153.158936
 20
-11.879421
 11
-153.158936
 21
-82.879425
  0
LINE
  8
0
 62
     4
 10
-183.158936
 20
-11.879421
 11
-183.158936
 21
-82.879425
  0
LINE
  8
0
 62
     4
 10
-153.158936
 20
-82.879425
 11
-183.158936
 21
-82.879425
  0
LINE
  8
0
 62
     4
 10
-153.158936
 20
-11.879421
 11
-183.158936
 21
-11.879421
  0
LINE
  8
0
 10
-153.158936
 20
-19.879421
 11
-152.208939
 21
-19.879421
  0
LINE
  8
0
 10
-152.158936
 20
-19.749422
 11
-152.208939
 21
-19.879419
  0
LINE
  8
0
 10
-152.158936
 20
-13.009421
 11
-152.158936
 21
-19.749420
  0
LINE
  8
0
 10
-152.158936
 20
-13.009417
 11
-152.208939
 21
-12.879419
  0
LINE
  8
0
 10
-153.158936
 20
-12.879421
 11
-152.208939
 21
-12.879421
  0
LINE
  8
0
 10
-153.158936
 20
-68.379425
 11
-152.158936
 21
-68.379425
  0
LINE
  8
0
 10
-153.158936
 20
-26.379421
 11
-152.158936
 21
-26.379421
  0
LINE
  8
0
 10
-152.158936
 20
-26.379421
 11
-152.158936
 21
-68.379425
  0
LINE
  8
0
 10
-153.158936
 20
-74.879425
 11
-152.208939
 21
-74.879425
  0
LINE
  8
0
 10
-152.158920
 20
-75.009415
 11
-152.208923
 21
-74.879410
  0
LINE
  8
0
 10
-152.158936
 20
-81.749420
 11
-152.158936
 21
-75.009422
  0
LINE
  8
0
 10
-152.158936
 20
-81.749428
 11
-152.208939
 21
-81.879425
  0
LINE
  8
0
 10
-153.158936
 20
-81.879425
 11
-152.208939
 21
-81.879425
  0
LINE
  8
0
  6
CENTER
 62
     1
 10
-188.416031
 20
-25.379421
 11
-178.708511
 21
-25.379421
  0
LINE
  8
0
  6
CENTER
 62
     1
 10
-188.416031
 20
-57.379421
 11
-178.708511
 21
-57.379421
  0
LINE
  8
0
 62
     4
 10
14.071022
 20
-95.379425
 11
17.990206
 21
-95.379425
  0
LINE
  8
0
 62
     4
 10
14.071022
 20
-94.579422
 11
17.990206
 21
-94.579422
  0
LINE
  8
0
 62
     4
 10
14.071022
 20
-14.079421
 11
17.990206
 21
-14.079421
  0
LINE
  8
0
 62
     4
 10
14.071022
 20
-13.279421
 11
17.990206
 21
-13.279421
  0
LINE
  8
0
 10
7.030614
 20
-82.279419
 11
25.030615
 21
-82.279419
  0
LINE
  8
0
 62
     4
 10
7.030614
 20
-82.879425
 11
-0.969386
 21
-82.879425
  0
LINE
  8
0
 10
12.779501
 20
-94.779419
 11
14.165143
 21
-92.379417
  0
LINE
  8
0
 10
17.896080
 20
-92.379417
 11
19.281725
 21
-94.779427
  0
LINE
  8
0
 10
14.511555
 20
-92.179428
 11
17.549675
 21
-92.179428
  0
LINE
  8
0
  6
CENTER
 62
     2
 10
12.925831
 20
-94.979416
 11
19.082863
 21
-94.979416
  0
LINE
  8
0
 10
12.433094
 20
-94.979416
 11
7.030614
 21
-94.979416
  0
LINE
  8
0
 10
19.628136
 20
-94.979416
 11
25.030615
 21
-94.979416
  0
LINE
  8
0
 62
     4
 10
12.775614
 20
-139.639420
 11
12.775614
 21
-144.209427
  0
LINE
  8
0
 62
     4
 10
14.205614
 20
-140.019424
 11
14.205614
 21
-144.209427
  0
LINE
  8
0
 62
     4
 10
13.890614
 20
-144.209427
 11
13.890614
 21
-149.209427
  0
LINE
  8
0
 62
     4
 10
13.090614
 20
-144.209427
 11
13.090614
 21
-149.209427
  0
LINE
  8
0
 62
     4
 10
14.205614
 20
-144.209427
 11
12.775614
 21
-144.209427
  0
LINE
  8
0
 62
     4
 10
13.890614
 20
-149.209427
 11
13.090614
 21
-149.209427
  0
LINE
  8
0
 62
     4
 10
14.205614
 20
-133.679428
 11
14.205614
 21
-138.779419
  0
LINE
  8
0
 62
     4
 10
12.775614
 20
-133.679428
 11
12.775614
 21
-138.409424
  0
LINE
  8
0
 62
     4
 10
18.170614
 20
-149.209427
 11
18.970615
 21
-149.209427
  0
LINE
  8
0
 62
     4
 10
17.855614
 20
-144.209427
 11
19.285614
 21
-144.209427
  0
LINE
  8
0
 62
     4
 10
18.970615
 20
-144.209427
 11
18.970615
 21
-149.209427
  0
LINE
  8
0
 62
     4
 10
18.170614
 20
-144.209427
 11
18.170614
 21
-149.209427
  0
LINE
  8
0
 62
     4
 10
19.285614
 20
-141.385422
 11
19.285614
 21
-144.209427
  0
LINE
  8
0
 62
     4
 10
17.855614
 20
-141.004089
 11
17.855614
 21
-144.209427
  0
LINE
  8
0
 62
     1
 10
10.450613
 20
-139.029419
 11
21.548927
 21
-141.988968
  0
LINE
  8
0
 62
     1
 10
10.450615
 20
-137.789429
 11
21.548927
 21
-140.748978
  0
LINE
  8
0
 62
     4
 10
19.285614
 20
-133.679428
 11
19.285614
 21
-140.145416
  0
LINE
  8
0
 62
     4
 10
17.855614
 20
-133.679428
 11
17.855614
 21
-139.764084
  0
LINE
  8
0
 62
     4
 10
11.930614
 20
-128.679428
 11
11.930614
 21
-128.579422
  0
LINE
  8
0
 62
     4
 10
20.130615
 20
-128.679428
 11
20.130615
 21
-128.579422
  0
LINE
  8
0
 62
     4
 10
13.530615
 20
-128.679428
 11
11.330614
 21
-128.679428
  0
LINE
  8
0
 62
     4
 10
20.730616
 20
-128.679428
 11
18.530615
 21
-128.679428
  0
LINE
  8
0
 62
     4
 10
13.530615
 20
-125.045441
 11
18.530615
 21
-125.045441
  0
LINE
  8
0
 62
     4
 10
13.530615
 20
-128.579422
 11
11.030615
 21
-128.579422
  0
LINE
  8
0
 62
     4
 10
11.330614
 20
-128.679428
 11
11.330614
 21
-133.679428
  0
LINE
  8
0
 62
     4
 10
13.530615
 20
-124.179428
 11
13.530615
 21
-132.679428
  0
LINE
  8
0
 62
     4
 10
12.430614
 20
-128.679428
 11
12.430614
 21
-133.679428
  0
LINE
  8
0
 62
     4
 10
19.630615
 20
-128.679428
 11
19.630615
 21
-133.679428
  0
LINE
  8
0
 62
     4
 10
13.530615
 20
-131.679428
 11
18.530615
 21
-131.679428
  0
LINE
  8
0
 62
     4
 10
13.530615
 20
-131.968094
 11
18.530615
 21
-131.968094
  0
LINE
  8
0
 62
     4
 10
18.530615
 20
-124.179428
 11
18.530615
 21
-132.679428
  0
LINE
  8
0
 62
     4
 10
20.730616
 20
-128.679428
 11
20.730616
 21
-133.679428
  0
LINE
  8
0
 62
     4
 10
18.530615
 20
-132.679428
 11
13.530615
 21
-132.679428
  0
LINE
  8
0
 62
     4
 10
20.730616
 20
-133.679428
 11
11.330614
 21
-133.679428
  0
LINE
  8
0
 62
     4
 10
18.530615
 20
-124.179428
 11
13.530615
 21
-124.179428
  0
LINE
  8
0
 62
     1
 10
14.530615
 20
-120.079422
 11
14.530615
 21
-123.079422
  0
LINE
  8
0
 62
     1
 10
17.530615
 20
-120.079422
 11
14.530615
 21
-120.079422
  0
LINE
  8
0
 62
     1
 10
17.530615
 20
-120.079422
 11
17.530615
 21
-123.079422
  0
LINE
  8
0
 62
     4
 10
13.130615
 20
-123.079422
 11
13.130615
 21
-128.579422
  0
LINE
  8
0
 62
     4
 10
18.930614
 20
-123.079422
 11
18.930614
 21
-128.579422
  0
LINE
  8
0
 62
     4
 10
21.030615
 20
-128.579422
 11
18.530615
 21
-128.579422
  0
LINE
  8
0
 62
     4
 10
21.030615
 20
-103.479416
 11
21.030615
 21
-128.579422
  0
LINE
  8
0
 62
     4
 10
11.030615
 20
-103.479416
 11
11.030615
 21
-128.579422
  0
LINE
  8
0
 62
     4
 10
11.030615
 20
-104.679428
 11
21.030615
 21
-104.679428
  0
LINE
  8
0
 62
     4
 10
11.330614
 20
-123.079422
 11
20.730616
 21
-123.079422
  0
LINE
  8
0
 62
     4
 10
21.030615
 20
-104.379425
 11
11.030615
 21
-104.379425
  0
LINE
  8
0
 10
21.580614
 20
-103.979416
 11
22.030615
 21
-103.979416
  0
LINE
  8
0
 10
21.280615
 20
-103.479416
 11
21.280615
 21
-103.679428
  0
LINE
  8
0
 10
10.780615
 20
-103.479416
 11
10.780615
 21
-103.679428
  0
LINE
  8
0
 10
10.030615
 20
-103.979416
 11
10.480614
 21
-103.979416
  0
LINE
  8
0
 10
7.030614
 20
-100.979416
 11
10.030613
 21
-103.979424
  0
LINE
  8
0
 10
22.030611
 20
-103.979424
 11
25.030611
 21
-100.979416
  0
LINE
  8
0
 10
21.280615
 20
-103.479416
 11
10.780615
 21
-103.479416
  0
LINE
  8
0
 10
7.030614
 20
-63.640369
 11
7.030614
 21
-100.979416
  0
LINE
  8
0
 10
8.469954
 20
-63.440083
 11
10.591274
 21
-61.318764
  0
LINE
  8
0
 10
8.469954
 20
-61.318764
 11
10.591273
 21
-63.440086
  0
LINE
  8
0
 10
25.030615
 20
-33.640369
 11
25.030615
 21
-100.979416
  0
LINE
  8
0
 10
21.469954
 20
-33.440083
 11
23.591276
 21
-31.318760
  0
LINE
  8
0
 10
21.469954
 20
-31.318760
 11
23.591274
 21
-33.440083
  0
LINE
  8
0
  6
CENTER
 62
     2
 10
16.030615
 20
42.896137
 11
16.030615
 21
-151.554977
  0
LINE
  8
0
 10
7.030614
 20
-68.379425
 11
25.030615
 21
-68.379425
  0
LINE
  8
0
 10
21.280615
 20
-5.179420
 11
10.780615
 21
-5.179420
  0
LINE
  8
0
 10
25.030615
 20
-26.379421
 11
7.030614
 21
-26.379421
  0
LINE
  8
0
  6
CENTER
 62
     2
 10
12.925831
 20
-13.679421
 11
18.934534
 21
-13.679421
  0
LINE
  8
0
 10
12.433094
 20
-13.679421
 11
7.030614
 21
-13.679421
  0
LINE
  8
0
 10
19.628136
 20
-13.679421
 11
25.030615
 21
-13.679421
  0
LINE
  8
0
 10
7.030614
 20
-7.679420
 11
7.030614
 21
-61.118473
  0
LINE
  8
0
 10
25.030615
 20
-7.679420
 11
25.030615
 21
-31.118473
  0
LINE
  8
0
 10
22.030613
 20
-4.679420
 11
25.030615
 21
-7.679420
  0
LINE
  8
0
 10
7.030613
 20
-7.679421
 11
10.030614
 21
-4.679421
  0
LINE
  8
0
 10
10.030615
 20
-4.679420
 11
10.480614
 21
-4.679420
  0
LINE
  8
0
 10
10.780615
 20
-5.179420
 11
10.780615
 21
-4.979422
  0
LINE
  8
0
 10
21.280615
 20
-5.179420
 11
21.280615
 21
-4.979422
  0
LINE
  8
0
 10
14.511555
 20
-16.479422
 11
17.549675
 21
-16.479422
  0
LINE
  8
0
 10
17.896084
 20
-16.279421
 11
19.281725
 21
-13.879421
  0
LINE
  8
0
 10
12.779504
 20
-13.879421
 11
14.165144
 21
-16.279421
  0
LINE
  8
0
 10
21.580614
 20
-4.679420
 11
22.030615
 21
-4.679420
  0
LINE
  8
0
 62
     4
 10
21.030615
 20
-4.279421
 11
11.030615
 21
-4.279421
  0
LINE
  8
0
 62
     4
 10
11.330614
 20
14.420578
 11
20.730616
 21
14.420578
  0
LINE
  8
0
 62
     4
 10
11.030615
 20
-3.979422
 11
21.030615
 21
-3.979422
  0
LINE
  8
0
 62
     4
 10
11.030615
 20
-5.179420
 11
11.030615
 21
19.920578
  0
LINE
  8
0
 62
     4
 10
21.030615
 20
-5.179420
 11
21.030615
 21
19.920578
  0
LINE
  8
0
 62
     4
 10
21.030615
 20
19.920578
 11
18.530615
 21
19.920578
  0
LINE
  8
0
 62
     4
 10
18.930614
 20
14.420578
 11
18.930614
 21
19.920578
  0
LINE
  8
0
 62
     4
 10
13.130615
 20
14.420578
 11
13.130615
 21
19.920578
  0
LINE
  8
0
 62
     1
 10
17.530615
 20
11.420578
 11
17.530615
 21
14.420578
  0
LINE
  8
0
 62
     1
 10
17.530615
 20
11.420578
 11
14.530615
 21
11.420578
  0
LINE
  8
0
 62
     1
 10
14.530615
 20
11.420578
 11
14.530615
 21
14.420578
  0
LINE
  8
0
 62
     4
 10
18.530615
 20
15.520580
 11
13.530615
 21
15.520580
  0
LINE
  8
0
 62
     4
 10
20.730616
 20
25.020580
 11
11.330614
 21
25.020580
  0
LINE
  8
0
 62
     4
 10
18.530615
 20
24.020580
 11
13.530615
 21
24.020580
  0
LINE
  8
0
 62
     4
 10
20.730616
 20
20.020580
 11
20.730616
 21
25.020580
  0
LINE
  8
0
 62
     4
 10
18.530615
 20
15.520580
 11
18.530615
 21
24.020580
  0
LINE
  8
0
 62
     4
 10
13.530615
 20
23.309254
 11
18.530615
 21
23.309254
  0
LINE
  8
0
 62
     4
 10
13.530615
 20
23.020580
 11
18.530615
 21
23.020580
  0
LINE
  8
0
 62
     4
 10
19.630615
 20
20.020580
 11
19.630615
 21
25.020580
  0
LINE
  8
0
 62
     4
 10
12.430614
 20
20.020580
 11
12.430614
 21
25.020580
  0
LINE
  8
0
 62
     4
 10
13.530615
 20
15.520580
 11
13.530615
 21
24.020580
  0
LINE
  8
0
 62
     4
 10
11.330614
 20
20.020580
 11
11.330614
 21
25.020580
  0
LINE
  8
0
 62
     4
 10
13.530615
 20
19.920578
 11
11.030615
 21
19.920578
  0
LINE
  8
0
 62
     4
 10
13.530615
 20
16.386604
 11
18.530615
 21
16.386604
  0
LINE
  8
0
 62
     4
 10
20.730616
 20
20.020580
 11
18.530615
 21
20.020580
  0
LINE
  8
0
 62
     4
 10
13.530615
 20
20.020580
 11
11.330614
 21
20.020580
  0
LINE
  8
0
 62
     4
 10
20.130615
 20
20.020580
 11
20.130615
 21
19.920578
  0
LINE
  8
0
 62
     4
 10
11.930614
 20
20.020580
 11
11.930614
 21
19.920578
  0
LINE
  8
0
 62
     4
 10
17.855614
 20
25.020580
 11
17.855614
 21
30.131912
  0
LINE
  8
0
 62
     4
 10
19.285614
 20
25.020580
 11
19.285614
 21
29.750580
  0
LINE
  8
0
 62
     1
 10
21.610615
 20
29.130579
 11
10.512302
 21
32.090130
  0
LINE
  8
0
 62
     1
 10
21.610615
 20
30.370577
 11
10.512301
 21
33.330132
  0
LINE
  8
0
 62
     4
 10
17.855614
 20
31.371914
 11
17.855614
 21
35.550579
  0
LINE
  8
0
 62
     4
 10
19.285614
 20
30.990578
 11
19.285614
 21
35.550579
  0
LINE
  8
0
 62
     4
 10
18.170614
 20
35.550579
 11
18.170614
 21
40.550579
  0
LINE
  8
0
 62
     4
 10
18.970615
 20
35.550579
 11
18.970615
 21
40.550579
  0
LINE
  8
0
 62
     4
 10
17.855614
 20
35.550579
 11
19.285614
 21
35.550579
  0
LINE
  8
0
 62
     4
 10
18.170614
 20
40.550579
 11
18.970615
 21
40.550579
  0
LINE
  8
0
 62
     4
 10
12.775614
 20
25.020580
 11
12.775614
 21
31.486580
  0
LINE
  8
0
 62
     4
 10
14.205614
 20
25.020580
 11
14.205614
 21
31.105244
  0
LINE
  8
0
 62
     4
 10
13.890614
 20
40.550579
 11
13.090614
 21
40.550579
  0
LINE
  8
0
 62
     4
 10
14.205614
 20
35.550579
 11
12.775614
 21
35.550579
  0
LINE
  8
0
 62
     4
 10
13.090614
 20
35.550579
 11
13.090614
 21
40.550579
  0
LINE
  8
0
 62
     4
 10
13.890614
 20
35.550579
 11
13.890614
 21
40.550579
  0
LINE
  8
0
 62
     4
 10
14.205614
 20
32.345245
 11
14.205614
 21
35.550579
  0
LINE
  8
0
 62
     4
 10
12.775614
 20
32.726578
 11
12.775614
 21
35.550579
  0
LINE
  8
0
  6
CENTER
 62
     1
 10
2.530614
 20
-22.379421
 11
2.530614
 21
-28.379421
  0
LINE
  8
0
  6
CENTER
 62
     1
 10
29.530615
 20
-54.379421
 11
29.530615
 21
-60.379421
  0
LINE
  8
0
  6
CENTER
 62
     1
 10
5.530614
 20
-25.379421
 11
-0.469386
 21
-25.379421
  0
LINE
  8
0
  6
CENTER
 62
     1
 10
32.530613
 20
-57.379421
 11
26.530615
 21
-57.379421
  0
LINE
  8
0
 62
     4
 10
7.030614
 20
-11.879421
 11
-0.969386
 21
-11.879421
  0
LINE
  8
0
 62
     4
 10
33.030613
 20
-82.879425
 11
25.030615
 21
-82.879425
  0
LINE
  8
0
 62
     4
 10
33.030613
 20
-11.879421
 11
25.030615
 21
-11.879421
  0
LINE
  8
0
 62
     4
 10
33.030613
 20
-11.879421
 11
33.030613
 21
-82.879425
  0
LINE
  8
0
 62
     4
 10
-0.969386
 20
-11.879421
 11
-0.969386
 21
-82.879425
  0
LINE
  8
0
 62
     4
 10
14.071023
 20
-95.379417
 11
17.990206
 21
-95.379417
  0
LINE
  8
0
 62
     4
 10
14.071023
 20
-94.579422
 11
17.990206
 21
-94.579422
  0
LINE
  8
0
 62
     4
 10
14.071023
 20
-14.079420
 11
17.990206
 21
-14.079420
  0
LINE
  8
0
 62
     4
 10
14.071023
 20
-13.279421
 11
17.990206
 21
-13.279421
  0
LINE
  8
0
 10
-281.250000
 20
-195.000000
 11
282.099854
 21
-195.000000
  0
LINE
  8
0
 10
282.099854
 20
195.500000
 11
282.099854
 21
-195.000000
  0
LINE
  8
0
 10
-281.250000
 20
195.500000
 11
282.099854
 21
195.500000
  0
LINE
  8
0
 10
-281.250000
 20
195.500000
 11
-281.250000
 21
-195.000000
  0
LINE
  8
0
 10
162.099976
 20
-175.000000
 11
162.099976
 21
-195.000000
  0
LINE
  8
0
 10
162.099976
 20
-175.000000
 11
282.099854
 21
-175.000000
  0
LINE
  8
0
 10
162.099976
 20
175.500000
 11
282.099854
 21
175.500000
  0
LINE
  8
0
 10
-281.250000
 20
175.500000
 11
-161.250000
 21
175.500000
  0
LINE
  8
0
 10
162.099976
 20
195.500000
 11
162.099976
 21
175.500000
  0
LINE
  8
0
 10
-161.250000
 20
195.500000
 11
-161.250000
 21
175.500000
  0
ARC
  8
0
 10
10.030615
 20
110.316742
 40
2.799998
 50
37.383152
 51
290.924805
  0
ARC
  8
0
 10
22.030615
 20
92.316742
 40
2.800002
 50
249.075180
 51
110.924820
  0
ARC
  8
0
 10
21.730616
 20
112.516739
 40
0.299999
 50
0.000000
 51
90.000000
  0
ARC
  8
0
 10
22.030615
 20
92.316742
 40
3.000003
 50
250.528793
 51
270.000000
  0
ARC
  8
0
 10
10.030615
 20
110.316742
 40
3.000000
 50
270.000000
 51
289.471191
  0
ARC
  8
0
 10
22.030615
 20
92.316742
 40
3.000000
 50
90.000000
 51
109.471199
  0
CIRCLE
  8
0
 62
     4
 10
13.490614
 20
95.216743
 40
0.750000
  0
CIRCLE
  8
0
 62
     4
 10
18.570616
 20
95.216743
 40
0.750000
  0
ARC
  8
0
 62
     4
 10
19.446270
 20
96.116074
 40
0.200665
 50
356.761139
 51
89.901970
  0
ARC
  8
0
 62
     4
 10
17.695900
 20
96.117081
 40
0.199670
 50
89.794754
 51
183.542358
  0
ARC
  8
0
 62
     4
 10
16.906271
 20
96.116074
 40
0.200665
 50
356.761139
 51
89.901970
  0
ARC
  8
0
 62
     4
 10
15.155899
 20
96.117081
 40
0.199670
 50
89.794754
 51
183.542358
  0
ARC
  8
0
 62
     4
 10
14.366270
 20
96.116074
 40
0.200665
 50
356.761139
 51
89.901695
  0
ARC
  8
0
 62
     4
 10
12.615900
 20
96.117081
 40
0.199670
 50
89.794754
 51
183.542358
  0
ARC
  8
0
 62
     4
 10
11.330614
 20
92.516739
 40
0.300000
 50
180.000000
 51
270.000000
  0
ARC
  8
0
 62
     4
 10
20.730616
 20
92.516739
 40
0.300003
 50
270.000000
 51
0.000000
  0
ARC
  8
0
 62
     4
 10
20.730616
 20
80.316742
 40
0.300003
 50
270.000000
 51
0.000000
  0
ARC
  8
0
 62
     4
 10
11.330614
 20
80.316742
 40
0.300000
 50
180.000000
 51
270.000000
  0
CIRCLE
  8
0
 62
     4
 10
16.030615
 20
101.766739
 40
2.050000
  0
ARC
  8
0
 62
     4
 10
19.530615
 20
103.516739
 40
1.599998
 50
90.000000
 51
270.000000
  0
ARC
  8
0
 62
     4
 10
12.530615
 20
103.516739
 40
1.599998
 50
270.000000
 51
90.000000
  0
CIRCLE
  8
0
 62
     4
 10
16.030615
 20
101.766739
 40
1.900000
  0
CIRCLE
  8
0
 62
     4
 10
16.030615
 20
101.766739
 40
1.850000
  0
ARC
  8
0
 62
     4
 10
16.030615
 20
101.766739
 40
0.800001
 50
202.024506
 51
337.975464
  0
ARC
  8
0
 62
     4
 10
16.030615
 20
101.766739
 40
0.800000
 50
22.024536
 51
157.975494
  0
CIRCLE
  8
0
 62
     4
 10
19.530615
 20
103.516739
 40
1.500000
  0
CIRCLE
  8
0
 62
     4
 10
12.530615
 20
103.516739
 40
1.500000
  0
ARC
  8
0
 10
134.341064
 20
-91.679428
 40
0.500000
 50
270.000000
 51
0.000000
  0
ARC
  8
0
 10
129.441071
 20
-92.579422
 40
0.400002
 50
90.000000
 51
180.000000
  0
ARC
  8
0
 10
158.841064
 20
-95.179428
 40
5.000002
 50
235.944183
 51
304.055817
  0
ARC
  8
0
 62
     4
 10
128.841064
 20
-122.779419
 40
0.300003
 50
180.000000
 51
270.000000
  0
ARC
  8
0
 62
     4
 10
151.041061
 20
-117.579422
 40
0.500000
 50
180.000000
 51
270.000000
  0
ARC
  8
0
 62
     4
 10
153.041061
 20
-117.579422
 40
0.500000
 50
270.000000
 51
0.000000
  0
ARC
  8
0
 10
129.441071
 20
-95.379425
 40
0.400002
 50
90.000000
 51
180.000000
  0
ARC
  8
0
 10
134.441071
 20
-94.579422
 40
0.400002
 50
270.000000
 51
0.000000
  0
ARC
  8
0
 10
129.441071
 20
-16.079422
 40
0.399994
 50
180.000000
 51
270.000000
  0
ARC
  8
0
 10
134.341064
 20
-16.979422
 40
0.500000
 50
0.000000
 51
90.000000
  0
ARC
  8
0
 10
129.441071
 20
-13.279421
 40
0.399994
 50
180.000000
 51
270.000000
  0
ARC
  8
0
 10
134.441071
 20
-14.079421
 40
0.399994
 50
0.000000
 51
90.000000
  0
ARC
  8
0
 62
     4
 10
153.041061
 20
8.920578
 40
0.500000
 50
0.000000
 51
90.000000
  0
ARC
  8
0
 62
     4
 10
151.041061
 20
8.920578
 40
0.500000
 50
90.000000
 51
180.000000
  0
ARC
  8
0
 62
     4
 10
128.841064
 20
14.120579
 40
0.300000
 50
90.000000
 51
180.000000
  0
CIRCLE
  8
0
 62
     4
 10
177.841049
 20
-27.379421
 40
5.722500
  0
CIRCLE
  8
0
 62
     1
 10
177.841049
 20
-27.379421
 40
6.578500
  0
CIRCLE
  8
0
 62
     4
 10
182.841049
 20
-47.379421
 40
5.722500
  0
CIRCLE
  8
0
 62
     1
 10
182.841049
 20
-47.379421
 40
6.578500
  0
CIRCLE
  8
0
 62
     4
 10
177.841049
 20
-67.379425
 40
5.722500
  0
CIRCLE
  8
0
 62
     1
 10
177.841049
 20
-67.379425
 40
6.578500
  0
CIRCLE
  8
0
 62
     4
 10
167.841064
 20
-78.379425
 40
2.100000
  0
CIRCLE
  8
0
 62
     1
 10
167.841064
 20
-78.379425
 40
2.500000
  0
CIRCLE
  8
0
 62
     4
 10
167.841064
 20
-16.379421
 40
2.100000
  0
CIRCLE
  8
0
 62
     1
 10
167.841064
 20
-16.379421
 40
2.500000
  0
ARC
  8
0
 10
140.141068
 20
-32.374420
 40
5.001744
 50
160.677521
 51
199.322464
  0
ARC
  8
0
 10
137.841064
 20
-13.479422
 40
5.000001
 50
55.944172
 51
124.055824
  0
ARC
  8
0
 10
-128.158936
 20
-95.179428
 40
5.000002
 50
235.944183
 51
304.055817
  0
ARC
  8
0
 10
-119.758934
 20
-92.579422
 40
0.400002
 50
0.000000
 51
90.000000
  0
ARC
  8
0
 10
-124.658936
 20
-91.679428
 40
0.500000
 50
180.000000
 51
270.000000
  0
ARC
  8
0
 62
     4
 10
-141.358932
 20
-117.579422
 40
0.500000
 50
270.000000
 51
0.000000
  0
ARC
  8
0
 62
     4
 10
-119.158936
 20
-122.779419
 40
0.300003
 50
270.000000
 51
0.000000
  0
ARC
  8
0
 10
-119.758934
 20
-95.379425
 40
0.400002
 50
0.000000
 51
90.000000
  0
ARC
  8
0
 10
-124.758934
 20
-94.579422
 40
0.400002
 50
180.000000
 51
270.000000
  0
ARC
  8
0
 62
     4
 10
-143.358932
 20
-117.579422
 40
0.500000
 50
180.000000
 51
270.000000
  0
ARC
  8
0
 10
-130.458939
 20
-62.384422
 40
5.001750
 50
340.677551
 51
19.322435
  0
ARC
  8
0
 10
-124.758934
 20
-14.079421
 40
0.400000
 50
90.000000
 51
180.000000
  0
ARC
  8
0
 10
-119.758934
 20
-13.279421
 40
0.400000
 50
270.000000
 51
0.000000
  0
ARC
  8
0
 62
     4
 10
-119.158936
 20
14.120579
 40
0.300003
 50
0.000000
 51
90.000000
  0
ARC
  8
0
 62
     4
 10
-141.358932
 20
8.920578
 40
0.500000
 50
0.000000
 51
90.000000
  0
ARC
  8
0
 62
     4
 10
-143.358932
 20
8.920578
 40
0.500000
 50
90.000000
 51
180.000000
  0
ARC
  8
0
 10
-124.658936
 20
-16.979422
 40
0.500000
 50
90.000000
 51
180.000000
  0
ARC
  8
0
 10
-119.758934
 20
-16.079422
 40
0.400000
 50
270.000000
 51
0.000000
  0
ARC
  8
0
 10
-149.158936
 20
-13.479422
 40
5.000001
 50
55.944172
 51
124.055824
  0
CIRCLE
  8
0
 62
     4
 10
-173.158951
 20
-37.379421
 40
5.722500
  0
CIRCLE
  8
0
 62
     1
 10
-173.158951
 20
-37.379421
 40
6.578500
  0
CIRCLE
  8
0
 62
     4
 10
-173.158951
 20
-57.379421
 40
5.722500
  0
CIRCLE
  8
0
 62
     1
 10
-173.158951
 20
-57.379421
 40
6.578500
  0
ARC
  8
0
 10
19.628136
 20
-94.579422
 40
0.399999
 50
209.999573
 51
270.000000
  0
ARC
  8
0
 10
17.549675
 20
-92.579422
 40
0.399999
 50
29.999578
 51
90.000000
  0
ARC
  8
0
 10
14.511555
 20
-92.579422
 40
0.400002
 50
90.000000
 51
150.000351
  0
ARC
  8
0
 10
12.433094
 20
-94.579422
 40
0.400002
 50
270.000000
 51
330.000366
  0
CIRCLE
  8
0
 10
16.030615
 20
-94.979416
 40
2.000000
  0
ARC
  8
0
 62
     4
 10
11.330614
 20
-122.779419
 40
0.300000
 50
180.000000
 51
270.000000
  0
ARC
  8
0
 62
     4
 10
20.730616
 20
-122.779419
 40
0.300003
 50
270.000000
 51
0.000000
  0
ARC
  8
0
 10
21.580614
 20
-103.679428
 40
0.299999
 50
180.000000
 51
270.000000
  0
ARC
  8
0
 10
10.480614
 20
-103.679428
 40
0.300003
 50
270.000000
 51
0.000000
  0
CIRCLE
  8
0
 10
9.530615
 20
-62.379421
 40
2.799999
  0
CIRCLE
  8
0
 10
22.530615
 20
-32.379421
 40
2.799999
  0
ARC
  8
0
 10
22.530611
 20
-32.384422
 40
2.998174
 50
33.504528
 51
326.495514
  0
ARC
  8
0
 10
9.532909
 20
-62.380108
 40
2.997705
 50
0.013124
 51
146.588425
  0
ARC
  8
0
 10
9.530148
 20
-62.379559
 40
3.000468
 50
213.586914
 51
0.002622
  0
CIRCLE
  8
0
 10
16.030615
 20
-13.679421
 40
2.000000
  0
ARC
  8
0
 10
10.480614
 20
-4.979422
 40
0.300000
 50
0.000000
 51
90.000000
  0
ARC
  8
0
 10
21.580614
 20
-4.979422
 40
0.300000
 50
90.000000
 51
180.000000
  0
ARC
  8
0
 10
12.433094
 20
-14.079421
 40
0.400000
 50
30.000002
 51
90.000000
  0
ARC
  8
0
 10
14.511555
 20
-16.079422
 40
0.400000
 50
210.000122
 51
270.000000
  0
ARC
  8
0
 10
17.549675
 20
-16.079422
 40
0.400000
 50
270.000000
 51
329.999939
  0
ARC
  8
0
 10
19.628136
 20
-14.079421
 40
0.400000
 50
90.000000
 51
150.000061
  0
ARC
  8
0
 62
     4
 10
20.730616
 20
14.120579
 40
0.299999
 50
0.000000
 51
90.000000
  0
ARC
  8
0
 62
     4
 10
11.330614
 20
14.120579
 40
0.300000
 50
90.000000
 51
180.000000
  0
CIRCLE
  8
0
 62
     4
 10
29.530615
 20
-57.379421
 40
1.600000
  0
CIRCLE
  8
0
 62
     4
 10
2.530614
 20
-25.379421
 40
1.600000
  0
TEXT
  8
0
 10
196.250259
 20
180.830002
 40
6.300000
  1
Ver. 1.0
 50
0.000000
 41
1.052632
 51
0.000000
  7
STANDARD
  0
TEXT
  8
0
 10
167.564651
 20
-192.100006
 40
9.000000
  1
KOGANEI CORP.
 50
0.000000
 41
1.052632
 51
0.000000
  7
STANDARD
  0
TEXT
  8
0
 10
-259.699707
 20
180.830002
 40
6.300000
  1
GA180 SERIES
 50
0.000000
 41
1.052632
 51
0.000000
  7
STANDARD
  0
TEXT
  8
0
 10
-270.049713
 20
155.830002
 40
6.300000
  1
MODEL:GA183-4E2-25-81-PSL
 50
0.000000
 41
1.052632
 51
0.000000
  7
STANDARD
  0
ENDSEC
  0
EOF
