  0
SECTION
  2
HEADER
  9
$ACADVER
  1
AC1003
  9
$EXTMIN
 10
-3.99250000E+02
 20
-2.76750000E+02
  9
$EXTMAX
 10
3.99799805E+02
 20
2.76250000E+02
  9
$LIMMIN
 10
-3.99251000E+02
 20
-2.76751000E+02
  9
$LIMMAX
 10
3.99800805E+02
 20
2.76251000E+02
  9
$SNAPUNIT
 10
1
 20
1
  9
$SNAPBASE
 10
0
 20
0
  9
$GRIDMODE
 70
0
  9
$GRIDUNIT
 10
0
 20
0
  9
$LTSCALE
 40
1.33174967E+01
  9
$TEXTSIZE
 40
3.2
  9
$DIMTAD
 70
0
  9
$LUNITS
 70
2
  9
$LUPREC
 70
4
  9
$FILLETRAD
 40
0
  9
$AUNITS
 70
0
  9
$AUPREC
 70
0
  0
ENDSEC
  0
SECTION
  2
TABLES
  0
TABLE
  2
LTYPE
 70
2
  0
LTYPE
  2
CONTINUOUS
 70
64
  3
Solid-Line
 72
65
 73
0
 40
0
  0
LTYPE
  2
DASHED
 70
64
  3
DASHED
 72
65
 73
2
 40
.75
 49
.5
 49
-.25
  0
LTYPE
  2
HIDDEN
 70
64
  3
HIDDEN
 72
65
 73
2
 40
.375
 49
.25
 49
-.125
  0
LTYPE
  2
CENTER
 70
64
  3
CENTER
 72
65
 73
4
 40
2
 49
1.25
 49
-.25
 49
.25
 49
-.25
  0
LTYPE
  2
PHANTOM
 70
64
  3
PHANTOM
 72
65
 73
6
 40
2.5
 49
1.25
 49
-.25
 49
.25
 49
-.25
 49
.25
 49
-.25
  0
ENDTAB
  0
TABLE
  2
LAYER
 70
1
  0
LAYER
  2
1
 70
0
 62
7
  6
CONTINUOUS
 0
ENDTAB
  0
TABLE
  2
STYLE
 70
2
  0
STYLE
  2
MONOTXT
 70
0
 40
0
 41
1
 50
0
 71
0
 42
.2
  3
monotxt
  0
STYLE
  2
BIGFONT
 70
0
 40
0
 41
1
 50
0
 71
0
 42
.2
  3
txt
  4
bigfont
  0
ENDTAB
  0
ENDSEC
  0
SECTION
  2
ENTITIES
  0
LINE
  8
0
  6
CENTER
 62
6
 10
3.35884583E+02
 20
-2.03392899E+02
 11
3.35884583E+02
 21
-1.67511894E+02
  0
LINE
  8
0
 62
6
 10
3.30884583E+02
 20
-2.00892899E+02
 11
3.40884583E+02
 21
-2.00892899E+02
  0
LINE
  8
0
 62
6
 10
3.40884583E+02
 20
-2.00892899E+02
 11
3.40884583E+02
 21
-1.75292898E+02
  0
LINE
  8
0
 62
6
 10
3.30884583E+02
 20
-2.00892899E+02
 11
3.30884583E+02
 21
-1.75292898E+02
  0
LINE
  8
0
 62
6
 10
3.30884583E+02
 20
-1.75292898E+02
 11
3.40884583E+02
 21
-1.75292898E+02
  0
LINE
  8
0
 62
6
 10
3.31184582E+02
 20
-1.75192898E+02
 11
3.40584582E+02
 21
-1.75192898E+02
  0
LINE
  8
0
 62
6
 10
3.39984582E+02
 20
-1.75192898E+02
 11
3.39984582E+02
 21
-1.75292898E+02
  0
LINE
  8
0
 62
6
 10
3.31784582E+02
 20
-1.75192898E+02
 11
3.31784582E+02
 21
-1.75292898E+02
  0
LINE
  8
0
 62
6
 10
3.31184582E+02
 20
-1.70192898E+02
 11
3.31184582E+02
 21
-1.75192898E+02
  0
LINE
  8
0
 62
6
 10
3.34024583E+02
 20
-1.65364132E+02
 11
3.34024583E+02
 21
-1.59762897E+02
  0
LINE
  8
0
 62
6
 10
3.32594583E+02
 20
-1.65792591E+02
 11
3.32594583E+02
 21
-1.59762897E+02
  0
LINE
  8
0
 62
6
 10
3.32594583E+02
 20
-1.70192898E+02
 11
3.32594583E+02
 21
-1.66822590E+02
  0
LINE
  8
0
 62
6
 10
3.34024583E+02
 20
-1.70192898E+02
 11
3.34024583E+02
 21
-1.66394135E+02
  0
LINE
  8
0
 62
6
 10
3.32984583E+02
 20
-1.59762897E+02
 11
3.32984583E+02
 21
-1.54762897E+02
  0
LINE
  8
0
 62
6
 10
3.33784582E+02
 20
-1.59762897E+02
 11
3.33784582E+02
 21
-1.54762897E+02
  0
LINE
  8
0
 62
6
 10
3.32594583E+02
 20
-1.59762897E+02
 11
3.34094583E+02
 21
-1.59762897E+02
  0
LINE
  8
0
 62
6
 10
3.32984583E+02
 20
-1.54762897E+02
 11
3.33784582E+02
 21
-1.54762897E+02
  0
LINE
  8
0
 62
6
 10
3.39104582E+02
 20
-1.63842068E+02
 11
3.39104582E+02
 21
-1.59762897E+02
  0
LINE
  8
0
 62
6
 10
3.37674582E+02
 20
-1.64270523E+02
 11
3.37674582E+02
 21
-1.59762897E+02
  0
LINE
  8
0
 62
6
 10
3.37674582E+02
 20
-1.70192898E+02
 11
3.37674582E+02
 21
-1.65300522E+02
  0
LINE
  8
0
 62
6
 10
3.39104582E+02
 20
-1.70192898E+02
 11
3.39104582E+02
 21
-1.64872066E+02
  0
LINE
  8
0
 62
6
 10
3.38784583E+02
 20
-1.59762897E+02
 11
3.38784583E+02
 21
-1.54762897E+02
  0
LINE
  8
0
 62
6
 10
3.37984582E+02
 20
-1.59762897E+02
 11
3.37984582E+02
 21
-1.54762897E+02
  0
LINE
  8
0
 62
6
 10
3.39104582E+02
 20
-1.59762897E+02
 11
3.37674582E+02
 21
-1.59762897E+02
  0
LINE
  8
0
 62
6
 10
3.38784583E+02
 20
-1.54762897E+02
 11
3.37984582E+02
 21
-1.54762897E+02
  0
LINE
  8
0
 62
6
 10
3.40220861E+02
 20
-1.64537608E+02
 11
3.31423769E+02
 21
-1.67173389E+02
  0
LINE
  8
0
 62
6
 10
3.40220861E+02
 20
-1.63507608E+02
 11
3.31423769E+02
 21
-1.66143389E+02
  0
LINE
  8
0
 62
6
 10
3.31184582E+02
 20
-1.70904222E+02
 11
3.40584582E+02
 21
-1.70904222E+02
  0
LINE
  8
0
 62
6
 10
3.31184582E+02
 20
-1.71192898E+02
 11
3.40584582E+02
 21
-1.71192898E+02
  0
LINE
  8
0
 62
6
 10
3.40584582E+02
 20
-1.70192898E+02
 11
3.40584582E+02
 21
-1.75192898E+02
  0
LINE
  8
0
 62
6
 10
3.31184582E+02
 20
-1.70192898E+02
 11
3.40584582E+02
 21
-1.70192898E+02
  0
LINE
  8
0
 62
6
 10
3.40884583E+02
 20
-1.81292898E+02
 11
3.30884583E+02
 21
-1.81292898E+02
  0
LINE
  8
0
 62
6
 10
3.40884583E+02
 20
-1.85892899E+02
 11
3.30884583E+02
 21
-1.85892899E+02
  0
LINE
  8
0
 62
6
 10
3.40884583E+02
 20
-1.89392899E+02
 11
3.30884583E+02
 21
-1.89392899E+02
  0
LINE
  8
0
 62
6
 10
3.30884583E+02
 20
-1.80292898E+02
 11
3.40884583E+02
 21
-1.80292898E+02
  0
LINE
  8
0
  6
CENTER
 62
6
 10
3.32384583E+02
 20
-2.03392899E+02
 11
3.32384583E+02
 21
-1.98392899E+02
  0
LINE
  8
0
  6
CENTER
 62
6
 10
3.39384583E+02
 20
-2.03392899E+02
 11
3.39384583E+02
 21
-1.98392899E+02
  0
LINE
  8
0
 62
6
 10
3.30884583E+02
 20
-6.79289818E+00
 11
3.40884583E+02
 21
-6.79289818E+00
  0
LINE
  8
0
  6
CENTER
 62
6
 10
3.35884583E+02
 20
-4.29289818E+00
 11
3.35884583E+02
 21
-4.01739025E+01
  0
LINE
  8
0
 62
6
 10
3.38384583E+02
 20
-3.18928986E+01
 11
3.40884583E+02
 21
-3.18928986E+01
  0
LINE
  8
0
 62
6
 10
3.38384583E+02
 20
-2.82589245E+01
 11
3.33384583E+02
 21
-2.82589245E+01
  0
LINE
  8
0
 62
6
 10
3.40584582E+02
 20
-3.18928986E+01
 11
3.40584582E+02
 21
-3.68928986E+01
  0
LINE
  8
0
 62
6
 10
3.38384583E+02
 20
-2.73928986E+01
 11
3.38384583E+02
 21
-3.58928986E+01
  0
LINE
  8
0
 62
6
 10
3.39484582E+02
 20
-3.18928986E+01
 11
3.39484582E+02
 21
-3.68928986E+01
  0
LINE
  8
0
 62
6
 10
3.32284583E+02
 20
-3.18928986E+01
 11
3.32284583E+02
 21
-3.68928986E+01
  0
LINE
  8
0
 62
6
 10
3.38384583E+02
 20
-3.48928986E+01
 11
3.33384583E+02
 21
-3.48928986E+01
  0
LINE
  8
0
 62
6
 10
3.38384583E+02
 20
-3.51815739E+01
 11
3.33384583E+02
 21
-3.51815739E+01
  0
LINE
  8
0
 62
6
 10
3.33384583E+02
 20
-2.73928986E+01
 11
3.33384583E+02
 21
-3.58928986E+01
  0
LINE
  8
0
 62
6
 10
3.31184582E+02
 20
-3.18928986E+01
 11
3.31184582E+02
 21
-3.68928986E+01
  0
LINE
  8
0
 62
6
 10
3.33384583E+02
 20
-3.58928986E+01
 11
3.38384583E+02
 21
-3.58928986E+01
  0
LINE
  8
0
 62
6
 10
3.31184582E+02
 20
-3.68928986E+01
 11
3.40584582E+02
 21
-3.68928986E+01
  0
LINE
  8
0
 62
6
 10
3.33384583E+02
 20
-2.73928986E+01
 11
3.38384583E+02
 21
-2.73928986E+01
  0
LINE
  8
0
 62
6
 10
3.37384583E+02
 20
-2.33928986E+01
 11
3.37384583E+02
 21
-2.63928986E+01
  0
LINE
  8
0
 62
6
 10
3.34384583E+02
 20
-2.33928986E+01
 11
3.34384583E+02
 21
-2.63928986E+01
  0
LINE
  8
0
 62
6
 10
3.37384583E+02
 20
-2.33928986E+01
 11
3.34384583E+02
 21
-2.33928986E+01
  0
LINE
  8
0
 62
6
 10
3.38784583E+02
 20
-2.63928986E+01
 11
3.38784583E+02
 21
-3.18928986E+01
  0
LINE
  8
0
 62
6
 10
3.32984583E+02
 20
-2.63928986E+01
 11
3.32984583E+02
 21
-3.18928986E+01
  0
LINE
  8
0
 62
6
 10
3.30884583E+02
 20
-3.18928986E+01
 11
3.33384583E+02
 21
-3.18928986E+01
  0
LINE
  8
0
 62
6
 10
3.30884583E+02
 20
-6.79289818E+00
 11
3.30884583E+02
 21
-3.18928986E+01
  0
LINE
  8
0
 62
6
 10
3.40884583E+02
 20
-6.79289818E+00
 11
3.40884583E+02
 21
-3.18928986E+01
  0
LINE
  8
0
 62
6
 10
3.40884583E+02
 20
-7.99289823E+00
 11
3.30884583E+02
 21
-7.99289823E+00
  0
LINE
  8
0
 62
6
 10
3.40584582E+02
 20
-2.63928986E+01
 11
3.31184582E+02
 21
-2.63928986E+01
  0
LINE
  8
0
  6
CENTER
 62
6
 10
3.41464583E+02
 20
-4.22428977E+01
 11
3.30366270E+02
 21
-4.52024479E+01
  0
LINE
  8
0
  6
CENTER
 62
6
 10
3.41464583E+02
 20
-4.10028975E+01
 11
3.30366269E+02
 21
-4.39624479E+01
  0
LINE
  8
0
 62
6
 10
3.32629583E+02
 20
-3.68928986E+01
 11
3.32629583E+02
 21
-4.33589001E+01
  0
LINE
  8
0
 62
6
 10
3.34059582E+02
 20
-3.68928986E+01
 11
3.34059582E+02
 21
-4.29775639E+01
  0
LINE
  8
0
 62
6
 10
3.33744583E+02
 20
-5.24228992E+01
 11
3.32944583E+02
 21
-5.24228992E+01
  0
LINE
  8
0
 62
6
 10
3.32944583E+02
 20
-4.74228992E+01
 11
3.32944583E+02
 21
-5.24228992E+01
  0
LINE
  8
0
 62
6
 10
3.33744583E+02
 20
-4.74228992E+01
 11
3.33744583E+02
 21
-5.24228992E+01
  0
LINE
  8
0
 62
6
 10
3.32629583E+02
 20
-4.45988979E+01
 11
3.32629583E+02
 21
-4.74228992E+01
  0
LINE
  8
0
 62
6
 10
3.34059582E+02
 20
-4.42175655E+01
 11
3.34059582E+02
 21
-4.74228992E+01
  0
LINE
  8
0
 62
6
 10
3.32629583E+02
 20
-4.74228992E+01
 11
3.34059582E+02
 21
-4.74228992E+01
  0
LINE
  8
0
 62
6
 10
3.37709582E+02
 20
-3.68928986E+01
 11
3.37709582E+02
 21
-4.20042324E+01
  0
LINE
  8
0
 62
6
 10
3.39139583E+02
 20
-3.68928986E+01
 11
3.39139583E+02
 21
-4.16229000E+01
  0
LINE
  8
0
 62
6
 10
3.39139583E+02
 20
-4.28628979E+01
 11
3.39139583E+02
 21
-4.74228992E+01
  0
LINE
  8
0
 62
6
 10
3.37709582E+02
 20
-4.32442303E+01
 11
3.37709582E+02
 21
-4.74228992E+01
  0
LINE
  8
0
 62
6
 10
3.38024582E+02
 20
-4.74228992E+01
 11
3.38024582E+02
 21
-5.24228992E+01
  0
LINE
  8
0
 62
6
 10
3.38824583E+02
 20
-4.74228992E+01
 11
3.38824583E+02
 21
-5.24228992E+01
  0
LINE
  8
0
 62
6
 10
3.37709582E+02
 20
-4.74228992E+01
 11
3.39139583E+02
 21
-4.74228992E+01
  0
LINE
  8
0
 62
6
 10
3.38024582E+02
 20
-5.24228992E+01
 11
3.38824583E+02
 21
-5.24228992E+01
  0
LINE
  8
0
  6
CENTER
 62
6
 10
3.32384583E+02
 20
-9.29289818E+00
 11
3.32384583E+02
 21
-4.29289818E+00
  0
LINE
  8
0
  6
CENTER
 62
6
 10
3.39384583E+02
 20
-9.29289818E+00
 11
3.39384583E+02
 21
-4.29289818E+00
  0
ARC
  8
0
 62
6
 10
3.40584582E+02
 20
-2.60928974E+01
 40
3.00000012E-01
 50
2.70000000E+02
 51
0.00000000E+00
  0
ARC
  8
0
 62
6
 10
3.31184582E+02
 20
-2.60928974E+01
 40
3.00000012E-01
 50
1.80000005E+02
 51
2.70000000E+02
  0
LINE
  8
0
  6
CENTER
 62
6
 10
2.51145096E+02
 20
-1.02894237E+02
 11
2.86260139E+02
 21
-1.02894237E+02
  0
LINE
  8
0
  6
CENTER
 62
6
 10
2.29914298E+02
 20
-1.11194237E+02
 11
2.52391800E+02
 21
-1.11194237E+02
  0
LINE
  8
0
 62
6
 10
2.33184586E+02
 20
-1.19694237E+02
 11
2.33184586E+02
 21
-8.76942368E+01
  0
LINE
  8
0
 62
6
 10
2.58384586E+02
 20
-1.05194237E+02
 11
2.62384586E+02
 21
-1.05194237E+02
  0
LINE
  8
0
 62
6
 10
2.58284586E+02
 20
-1.00394237E+02
 11
2.63384586E+02
 21
-1.00394237E+02
  0
LINE
  8
0
 62
6
 10
2.54850611E+02
 20
-9.93942366E+01
 11
2.61384586E+02
 21
-9.93942366E+01
  0
LINE
  8
0
 62
6
 10
2.34384586E+02
 20
-8.76942368E+01
 11
2.34384586E+02
 21
-8.91942368E+01
  0
LINE
  8
0
 62
6
 10
2.52184586E+02
 20
-1.05194237E+02
 11
2.52184586E+02
 21
-1.05294237E+02
  0
LINE
  8
0
 62
6
 10
2.53984585E+02
 20
-9.98942369E+01
 11
2.54850610E+02
 21
-9.93942369E+01
  0
LINE
  8
0
 62
6
 10
2.58284586E+02
 20
-1.04494237E+02
 11
2.58384586E+02
 21
-1.04494237E+02
  0
LINE
  8
0
 62
6
 10
2.58384586E+02
 20
-1.00394237E+02
 11
2.58384586E+02
 21
-1.05194237E+02
  0
LINE
  8
0
 62
6
 10
2.34384586E+02
 20
-8.91942368E+01
 11
2.46884585E+02
 21
-8.91942368E+01
  0
LINE
  8
0
 62
6
 10
2.58284586E+02
 20
-1.05194237E+02
 11
2.58284586E+02
 21
-9.98942366E+01
  0
LINE
  8
0
 62
6
 10
2.52784586E+02
 20
-9.98942366E+01
 11
2.52784586E+02
 21
-8.76942368E+01
  0
LINE
  8
0
 62
6
 10
2.34384586E+02
 20
-8.76942368E+01
 11
2.52784586E+02
 21
-8.76942368E+01
  0
LINE
  8
0
 62
6
 10
2.58284586E+02
 20
-9.98942366E+01
 11
2.52784586E+02
 21
-9.98942366E+01
  0
LINE
  8
0
 62
6
 10
2.58284586E+02
 20
-1.05194237E+02
 11
2.46884585E+02
 21
-1.05194237E+02
  0
LINE
  8
0
 62
6
 10
2.44684586E+02
 20
-1.19694237E+02
 11
2.44684586E+02
 21
-1.13911381E+02
  0
LINE
  8
0
 62
6
 10
2.44684586E+02
 20
-1.13911381E+02
 11
2.48184586E+02
 21
-1.13294237E+02
  0
LINE
  8
0
 62
6
 10
2.52784586E+02
 20
-1.05792315E+02
 11
2.52784586E+02
 21
-1.05294237E+02
  0
LINE
  8
0
 62
6
 10
2.48184585E+02
 20
-1.06603419E+02
 11
2.52784584E+02
 21
-1.05792315E+02
  0
LINE
  8
0
 62
6
 10
2.46884585E+02
 20
-1.05294237E+02
 11
2.52784586E+02
 21
-1.05294237E+02
  0
LINE
  8
0
 62
6
 10
2.43984586E+02
 20
-1.18994237E+02
 11
2.36384586E+02
 21
-1.18994237E+02
  0
LINE
  8
0
 62
6
 10
2.33184586E+02
 20
-8.76942368E+01
 11
2.34384586E+02
 21
-8.76942368E+01
  0
LINE
  8
0
 62
6
 10
2.48184586E+02
 20
-1.13294237E+02
 11
2.48184586E+02
 21
-1.06603419E+02
  0
LINE
  8
0
 62
6
 10
2.43984586E+02
 20
-1.18194237E+02
 11
2.36384586E+02
 21
-1.18194237E+02
  0
LINE
  8
0
 62
6
 10
2.43984586E+02
 20
-1.18194237E+02
 11
2.43984586E+02
 21
-1.18994237E+02
  0
LINE
  8
0
 62
6
 10
2.36384586E+02
 20
-1.18994237E+02
 11
2.36384586E+02
 21
-1.18194237E+02
  0
LINE
  8
0
 62
6
 10
2.46884585E+02
 20
-8.91942368E+01
 11
2.46884585E+02
 21
-1.05294237E+02
  0
LINE
  8
0
 62
6
 10
2.47184586E+02
 20
-1.12794237E+02
 11
2.47184586E+02
 21
-1.09594237E+02
  0
LINE
  8
0
 62
6
 10
2.48184586E+02
 20
-1.09594237E+02
 11
2.47184586E+02
 21
-1.09594237E+02
  0
LINE
  8
0
 62
6
 10
2.48184586E+02
 20
-1.12794237E+02
 11
2.47184586E+02
 21
-1.12794237E+02
  0
LINE
  8
0
 62
6
 10
2.47284586E+02
 20
-1.12694237E+02
 11
2.47184586E+02
 21
-1.12694237E+02
  0
LINE
  8
0
 62
6
 10
2.47284586E+02
 20
-1.09694237E+02
 11
2.47184586E+02
 21
-1.09694237E+02
  0
LINE
  8
0
 62
6
 10
2.47784586E+02
 20
-1.12194237E+02
 11
2.47784586E+02
 21
-1.10194237E+02
  0
LINE
  8
0
 62
6
 10
2.44684586E+02
 20
-1.19694237E+02
 11
2.33184586E+02
 21
-1.19694237E+02
  0
LINE
  8
0
 62
6
 10
2.63384586E+02
 20
-1.03644237E+02
 11
2.68004585E+02
 21
-1.03644237E+02
  0
LINE
  8
0
 62
6
 10
2.63384586E+02
 20
-1.02214237E+02
 11
2.68384586E+02
 21
-1.02214237E+02
  0
LINE
  8
0
 62
6
 10
2.73814587E+02
 20
-1.02214237E+02
 11
2.73814587E+02
 21
-1.03644237E+02
  0
LINE
  8
0
 62
6
 10
2.73814587E+02
 20
-1.02934237E+02
 11
2.83814587E+02
 21
-1.02934237E+02
  0
LINE
  8
0
 62
6
 10
2.73814587E+02
 20
-1.03334237E+02
 11
2.83814587E+02
 21
-1.03334237E+02
  0
LINE
  8
0
 62
6
 10
2.73814587E+02
 20
-1.02534237E+02
 11
2.83814587E+02
 21
-1.02534237E+02
  0
LINE
  8
0
 62
6
 10
2.69624584E+02
 20
-1.02214237E+02
 11
2.73814587E+02
 21
-1.02214237E+02
  0
LINE
  8
0
 62
6
 10
2.69244587E+02
 20
-1.03644237E+02
 11
2.73814587E+02
 21
-1.03644237E+02
  0
LINE
  8
0
 62
6
 10
2.68634586E+02
 20
-1.05934238E+02
 11
2.70234586E+02
 21
-9.99342375E+01
  0
LINE
  8
0
 62
6
 10
2.67394586E+02
 20
-1.05934238E+02
 11
2.68994586E+02
 21
-9.99342376E+01
  0
LINE
  8
0
 62
6
 10
2.62384584E+02
 20
-1.05194237E+02
 11
2.62673260E+02
 21
-1.05694237E+02
  0
LINE
  8
0
 62
6
 10
2.62673262E+02
 20
-1.05694237E+02
 11
2.63384586E+02
 21
-1.05694237E+02
  0
LINE
  8
0
 62
6
 10
2.61384584E+02
 20
-9.93942370E+01
 11
2.61673260E+02
 21
-9.88942367E+01
  0
LINE
  8
0
 62
6
 10
2.61673262E+02
 20
-9.88942366E+01
 11
2.62384586E+02
 21
-9.88942366E+01
  0
LINE
  8
0
 62
6
 10
2.63384586E+02
 20
-1.05694237E+02
 11
2.63384586E+02
 21
-1.00394237E+02
  0
LINE
  8
0
 62
6
 10
2.62384584E+02
 20
-1.00094481E+02
 11
2.60684584E+02
 21
-1.00394237E+02
  0
LINE
  8
0
 62
6
 10
2.62384586E+02
 20
-1.00094481E+02
 11
2.62384586E+02
 21
-9.88942366E+01
  0
LINE
  8
0
 62
6
 10
2.83814587E+02
 20
-1.03334237E+02
 11
2.83814587E+02
 21
-1.02534237E+02
  0
ARC
  8
0
 62
6
 10
2.47284586E+02
 20
-1.10194237E+02
 40
5.00000000E-01
 50
0.00000000E+00
 51
9.00000002E+01
  0
ARC
  8
0
 62
6
 10
2.47284586E+02
 20
-1.12194237E+02
 40
5.00000000E-01
 50
2.70000000E+02
 51
0.00000000E+00
  0
LINE
  8
0
  6
CENTER
 62
6
 10
3.39384583E+02
 20
-1.08694237E+02
 11
3.39384583E+02
 21
-1.13694237E+02
  0
LINE
  8
0
  6
CENTER
 62
6
 10
3.41884583E+02
 20
-1.11194237E+02
 11
3.36884583E+02
 21
-1.11194237E+02
  0
LINE
  8
0
  6
CENTER
 62
6
 10
3.32384583E+02
 20
-1.08694237E+02
 11
3.32384583E+02
 21
-1.13694237E+02
  0
LINE
  8
0
  6
CENTER
 62
6
 10
3.34884583E+02
 20
-1.11194237E+02
 11
3.29884583E+02
 21
-1.11194237E+02
  0
LINE
  8
0
  6
CENTER
 62
6
 10
3.35884583E+02
 20
-8.51003189E+01
 11
3.35884583E+02
 21
-1.21615637E+02
  0
LINE
  8
0
 62
6
 10
3.40584582E+02
 20
-8.76942368E+01
 11
3.31184582E+02
 21
-8.76942368E+01
  0
LINE
  8
0
 62
6
 10
3.37384583E+02
 20
-9.26942368E+01
 11
3.35884583E+02
 21
-9.26942368E+01
  0
LINE
  8
0
 62
6
 10
3.37384583E+02
 20
-9.26942368E+01
 11
3.37384583E+02
 21
-8.76942368E+01
  0
LINE
  8
0
 62
6
 10
3.34384583E+02
 20
-9.26942368E+01
 11
3.35884583E+02
 21
-9.26942368E+01
  0
LINE
  8
0
 62
6
 10
3.34384583E+02
 20
-9.26942368E+01
 11
3.34384583E+02
 21
-8.76942368E+01
  0
LINE
  8
0
 62
6
 10
3.30884583E+02
 20
-8.79942360E+01
 11
3.30884583E+02
 21
-1.19694237E+02
  0
LINE
  8
0
 62
6
 10
3.40884583E+02
 20
-8.79942360E+01
 11
3.40884583E+02
 21
-1.19703953E+02
  0
LINE
  8
0
 62
6
 10
3.30884583E+02
 20
-1.19694237E+02
 11
3.40884583E+02
 21
-1.19694237E+02
  0
LINE
  8
0
 62
6
 10
3.31184582E+02
 20
-1.05194237E+02
 11
3.30884583E+02
 21
-1.05194237E+02
  0
LINE
  8
0
 62
6
 10
3.31184582E+02
 20
-1.05294237E+02
 11
3.30884583E+02
 21
-1.05294237E+02
  0
LINE
  8
0
 62
6
 10
3.38384583E+02
 20
-9.98942366E+01
 11
3.40584582E+02
 21
-9.98942366E+01
  0
LINE
  8
0
 62
6
 10
3.38384583E+02
 20
-1.00894237E+02
 11
3.38784583E+02
 21
-1.00894237E+02
  0
LINE
  8
0
 62
6
 10
3.33384583E+02
 20
-1.00094236E+02
 11
3.38384583E+02
 21
-1.00094236E+02
  0
LINE
  8
0
 62
6
 10
3.33384583E+02
 20
-9.88942366E+01
 11
3.38384583E+02
 21
-9.88942366E+01
  0
LINE
  8
0
 62
6
 10
3.32184583E+02
 20
-1.01394237E+02
 11
3.39584582E+02
 21
-1.01394237E+02
  0
LINE
  8
0
 62
6
 10
3.31184582E+02
 20
-1.05694237E+02
 11
3.31184582E+02
 21
-1.00394237E+02
  0
LINE
  8
0
 62
6
 10
3.40584582E+02
 20
-1.05694237E+02
 11
3.40584582E+02
 21
-1.00394237E+02
  0
LINE
  8
0
 62
6
 10
3.31184582E+02
 20
-1.05694237E+02
 11
3.40584582E+02
 21
-1.05694237E+02
  0
LINE
  8
0
 62
6
 10
3.32794583E+02
 20
-1.03994237E+02
 11
3.32794583E+02
 21
-1.04494237E+02
  0
LINE
  8
0
 62
6
 10
3.33894583E+02
 20
-1.03994237E+02
 11
3.33894583E+02
 21
-1.04494237E+02
  0
LINE
  8
0
 62
6
 10
3.32394583E+02
 20
-1.01894237E+02
 11
3.34294582E+02
 21
-1.01894237E+02
  0
LINE
  8
0
 62
6
 10
3.32468583E+02
 20
-1.03994237E+02
 11
3.34218583E+02
 21
-1.03994237E+02
  0
LINE
  8
0
 62
6
 10
3.32794583E+02
 20
-1.04494237E+02
 11
3.33894583E+02
 21
-1.04494237E+02
  0
LINE
  8
0
 62
6
 10
3.37134583E+02
 20
-1.00394237E+02
 11
3.37134583E+02
 21
-1.01394237E+02
  0
LINE
  8
0
 62
6
 10
3.34634583E+02
 20
-1.00394237E+02
 11
3.34634583E+02
 21
-1.01394237E+02
  0
LINE
  8
0
 62
6
 10
3.31184582E+02
 20
-1.00394237E+02
 11
3.32184583E+02
 21
-1.00394237E+02
  0
LINE
  8
0
 62
6
 10
3.32184583E+02
 20
-1.01394237E+02
 11
3.32184583E+02
 21
-1.00394237E+02
  0
LINE
  8
0
 62
6
 10
3.40584582E+02
 20
-1.00394237E+02
 11
3.39584582E+02
 21
-1.00394237E+02
  0
LINE
  8
0
 62
6
 10
3.39584582E+02
 20
-1.01394237E+02
 11
3.39584582E+02
 21
-1.00394237E+02
  0
LINE
  8
0
 62
6
 10
3.34294582E+02
 20
-1.01894237E+02
 11
3.34418582E+02
 21
-1.03782237E+02
  0
LINE
  8
0
 62
6
 10
3.32268583E+02
 20
-1.03782237E+02
 11
3.32394583E+02
 21
-1.01894236E+02
  0
LINE
  8
0
 62
6
 10
3.34934582E+02
 20
-1.01894237E+02
 11
3.36834582E+02
 21
-1.01894237E+02
  0
LINE
  8
0
 62
6
 10
3.34808583E+02
 20
-1.03782237E+02
 11
3.34934583E+02
 21
-1.01894237E+02
  0
LINE
  8
0
 62
6
 10
3.35008583E+02
 20
-1.03994237E+02
 11
3.36758583E+02
 21
-1.03994237E+02
  0
LINE
  8
0
 62
6
 10
3.35334583E+02
 20
-1.03994237E+02
 11
3.35334583E+02
 21
-1.04494237E+02
  0
LINE
  8
0
 62
6
 10
3.35334583E+02
 20
-1.04494237E+02
 11
3.36434583E+02
 21
-1.04494237E+02
  0
LINE
  8
0
 62
6
 10
3.36434583E+02
 20
-1.03994237E+02
 11
3.36434583E+02
 21
-1.04494237E+02
  0
LINE
  8
0
 62
6
 10
3.36834583E+02
 20
-1.01894236E+02
 11
3.36958583E+02
 21
-1.03782237E+02
  0
LINE
  8
0
 62
6
 10
3.35484582E+02
 20
-1.02494237E+02
 11
3.35484582E+02
 21
-1.03294237E+02
  0
LINE
  8
0
 62
6
 10
3.36284583E+02
 20
-1.02494237E+02
 11
3.35484582E+02
 21
-1.02494237E+02
  0
LINE
  8
0
 62
6
 10
3.36284583E+02
 20
-1.02494237E+02
 11
3.36284583E+02
 21
-1.03294237E+02
  0
LINE
  8
0
 62
6
 10
3.36284583E+02
 20
-1.03294237E+02
 11
3.35484582E+02
 21
-1.03294237E+02
  0
LINE
  8
0
 62
6
 10
3.37474583E+02
 20
-1.01894237E+02
 11
3.39374582E+02
 21
-1.01894237E+02
  0
LINE
  8
0
 62
6
 10
3.37348583E+02
 20
-1.03782237E+02
 11
3.37474583E+02
 21
-1.01894236E+02
  0
LINE
  8
0
 62
6
 10
3.37548583E+02
 20
-1.03994237E+02
 11
3.39298583E+02
 21
-1.03994237E+02
  0
LINE
  8
0
 62
6
 10
3.37874582E+02
 20
-1.03994237E+02
 11
3.37874582E+02
 21
-1.04494237E+02
  0
LINE
  8
0
 62
6
 10
3.37874582E+02
 20
-1.04494237E+02
 11
3.38974583E+02
 21
-1.04494237E+02
  0
LINE
  8
0
 62
6
 10
3.38974583E+02
 20
-1.03994237E+02
 11
3.38974583E+02
 21
-1.04494237E+02
  0
LINE
  8
0
 62
6
 10
3.39374583E+02
 20
-1.01894237E+02
 11
3.39498583E+02
 21
-1.03782237E+02
  0
LINE
  8
0
 62
6
 10
3.33384583E+02
 20
-9.88942366E+01
 11
3.33384583E+02
 21
-1.01394237E+02
  0
LINE
  8
0
 62
6
 10
3.38384583E+02
 20
-9.88942366E+01
 11
3.38384583E+02
 21
-1.01394237E+02
  0
LINE
  8
0
 62
6
 10
3.32984583E+02
 20
-1.00394237E+02
 11
3.38784583E+02
 21
-1.00394237E+02
  0
LINE
  8
0
 62
6
 10
3.38784583E+02
 20
-1.00894237E+02
 11
3.38784583E+02
 21
-9.98942366E+01
  0
LINE
  8
0
 62
6
 10
3.32984583E+02
 20
-1.00894237E+02
 11
3.32984583E+02
 21
-9.98942366E+01
  0
LINE
  8
0
 62
6
 10
3.32984583E+02
 20
-1.00894237E+02
 11
3.33384583E+02
 21
-1.00894237E+02
  0
LINE
  8
0
 62
6
 10
3.31184582E+02
 20
-9.98942366E+01
 11
3.33384583E+02
 21
-9.98942366E+01
  0
LINE
  8
0
 62
6
 10
3.40884583E+02
 20
-1.05194237E+02
 11
3.40584582E+02
 21
-1.05194237E+02
  0
LINE
  8
0
 62
6
 10
3.33490212E+02
 20
-1.13735054E+02
 11
3.33234583E+02
 21
-1.13294237E+02
  0
LINE
  8
0
 62
6
 10
3.38534582E+02
 20
-1.13294237E+02
 11
3.38278953E+02
 21
-1.13735054E+02
  0
LINE
  8
0
 62
6
 10
3.34740212E+02
 20
-1.12485054E+02
 11
3.34484582E+02
 21
-1.12044237E+02
  0
LINE
  8
0
 62
6
 10
3.33234582E+02
 20
-1.13294237E+02
 11
3.34484582E+02
 21
-1.12044237E+02
  0
LINE
  8
0
 62
6
 10
3.34740212E+02
 20
-1.12485054E+02
 11
3.33490212E+02
 21
-1.13735054E+02
  0
LINE
  8
0
 62
6
 10
3.37028953E+02
 20
-1.12485054E+02
 11
3.37284583E+02
 21
-1.12044237E+02
  0
LINE
  8
0
 62
6
 10
3.40884583E+02
 20
-1.06603419E+02
 11
3.30884583E+02
 21
-1.06603419E+02
  0
LINE
  8
0
 62
6
 10
3.37028953E+02
 20
-1.12485054E+02
 11
3.38278953E+02
 21
-1.13735054E+02
  0
LINE
  8
0
 62
6
 10
3.40884583E+02
 20
-1.13735054E+02
 11
3.38278953E+02
 21
-1.13735054E+02
  0
LINE
  8
0
 62
6
 10
3.33490212E+02
 20
-1.13735054E+02
 11
3.30884583E+02
 21
-1.13735054E+02
  0
LINE
  8
0
 62
6
 10
3.34740212E+02
 20
-1.12485054E+02
 11
3.37028953E+02
 21
-1.12485054E+02
  0
LINE
  8
0
 62
6
 10
3.40884583E+02
 20
-1.13294237E+02
 11
3.38534583E+02
 21
-1.13294237E+02
  0
LINE
  8
0
 62
6
 10
3.38534582E+02
 20
-1.13294237E+02
 11
3.37284582E+02
 21
-1.12044237E+02
  0
LINE
  8
0
 62
6
 10
3.34484582E+02
 20
-1.12044237E+02
 11
3.37284583E+02
 21
-1.12044237E+02
  0
LINE
  8
0
 62
6
 10
3.33234583E+02
 20
-1.13294237E+02
 11
3.30884583E+02
 21
-1.13294237E+02
  0
LINE
  8
0
 62
6
 10
3.30884583E+02
 20
-1.05792315E+02
 11
3.40884583E+02
 21
-1.05792315E+02
  0
LINE
  8
0
 62
6
 10
3.40884583E+02
 20
-1.05294237E+02
 11
3.40584582E+02
 21
-1.05294237E+02
  0
LINE
  8
0
 62
6
 10
3.39384583E+02
 20
-1.09594237E+02
 11
3.40884583E+02
 21
-1.09594237E+02
  0
LINE
  8
0
 62
6
 10
3.40884583E+02
 20
-1.12794237E+02
 11
3.39384583E+02
 21
-1.12794237E+02
  0
LINE
  8
0
 62
6
 10
3.32384583E+02
 20
-1.12794237E+02
 11
3.30884583E+02
 21
-1.12794237E+02
  0
LINE
  8
0
 62
6
 10
3.30884583E+02
 20
-1.09594237E+02
 11
3.32384583E+02
 21
-1.09594237E+02
  0
LINE
  8
0
 62
6
 10
3.37710096E+02
 20
-1.09744237E+02
 11
3.34059069E+02
 21
-1.09744237E+02
  0
LINE
  8
0
 62
6
 10
3.35884583E+02
 20
-1.09144237E+02
 11
3.34059069E+02
 21
-1.09144237E+02
  0
LINE
  8
0
 62
6
 10
3.37710096E+02
 20
-1.09144237E+02
 11
3.35884583E+02
 21
-1.09144237E+02
  0
LINE
  8
0
 62
6
 10
3.31677476E+02
 20
-1.11901344E+02
 11
3.33091689E+02
 21
-1.10487130E+02
  0
LINE
  8
0
 62
6
 10
3.31677476E+02
 20
-1.10487130E+02
 11
3.33091689E+02
 21
-1.11901344E+02
  0
LINE
  8
0
 62
6
 10
3.40091689E+02
 20
-1.10487130E+02
 11
3.38677476E+02
 21
-1.11901344E+02
  0
LINE
  8
0
 62
6
 10
3.40091689E+02
 20
-1.11901344E+02
 11
3.38677476E+02
 21
-1.10487130E+02
  0
ARC
  8
0
 62
6
 10
3.31184582E+02
 20
-8.79942360E+01
 40
3.00000012E-01
 50
9.00000002E+01
 51
1.80000005E+02
  0
ARC
  8
0
 62
6
 10
3.40584582E+02
 20
-8.79942360E+01
 40
3.00000012E-01
 50
0.00000000E+00
 51
9.00000002E+01
  0
CIRCLE
  8
0
 62
6
 10
3.38424582E+02
 20
-1.02894237E+02
 40
7.50000000E-01
  0
CIRCLE
  8
0
 62
6
 10
3.33344582E+02
 20
-1.02894237E+02
 40
7.50000000E-01
  0
ARC
  8
0
 62
6
 10
3.32468927E+02
 20
-1.03793572E+02
 40
2.00664550E-01
 50
1.76761580E+02
 51
2.70000000E+02
  0
ARC
  8
0
 62
6
 10
3.34219297E+02
 20
-1.03794571E+02
 40
1.99666515E-01
 50
2.70000000E+02
 51
3.54180761E+00
  0
ARC
  8
0
 62
6
 10
3.35008927E+02
 20
-1.03793572E+02
 40
2.00664550E-01
 50
1.76761580E+02
 51
2.70000000E+02
  0
ARC
  8
0
 62
6
 10
3.36759297E+02
 20
-1.03794571E+02
 40
1.99666515E-01
 50
2.70000000E+02
 51
3.54180761E+00
  0
ARC
  8
0
 62
6
 10
3.37548927E+02
 20
-1.03793572E+02
 40
2.00664550E-01
 50
1.76761580E+02
 51
2.70000000E+02
  0
ARC
  8
0
 62
6
 10
3.39299297E+02
 20
-1.03794571E+02
 40
1.99666515E-01
 50
2.70000000E+02
 51
3.54180761E+00
  0
ARC
  8
0
 62
6
 10
3.40584582E+02
 20
-1.00194237E+02
 40
3.00000012E-01
 50
0.00000000E+00
 51
9.00000002E+01
  0
ARC
  8
0
 62
6
 10
3.31184582E+02
 20
-1.00194237E+02
 40
3.00000012E-01
 50
9.00000002E+01
 51
1.80000005E+02
  0
CIRCLE
  8
0
 62
6
 10
3.35884583E+02
 20
-1.09444237E+02
 40
2.04999995E+00
  0
ARC
  8
0
 62
6
 10
3.32384583E+02
 20
-1.11194237E+02
 40
1.60000002E+00
 50
2.70000000E+02
 51
9.00000002E+01
  0
ARC
  8
0
 62
6
 10
3.39384583E+02
 20
-1.11194237E+02
 40
1.60000002E+00
 50
9.00000002E+01
 51
2.70000000E+02
  0
CIRCLE
  8
0
 62
6
 10
3.35884583E+02
 20
-1.09444237E+02
 40
1.85000002E+00
  0
ARC
  8
0
 62
6
 10
3.35884583E+02
 20
-1.09444237E+02
 40
8.00000012E-01
 50
2.20243121E+01
 51
1.57975691E+02
  0
ARC
  8
0
 62
6
 10
3.35884583E+02
 20
-1.09444237E+02
 40
8.00000012E-01
 50
2.02024309E+02
 51
3.37975688E+02
  0
CIRCLE
  8
0
 62
6
 10
3.32384583E+02
 20
-1.11194237E+02
 40
1.50000000E+00
  0
CIRCLE
  8
0
 62
6
 10
3.39384583E+02
 20
-1.11194237E+02
 40
1.50000000E+00
  0
LINE
  8
0
 62
6
 10
3.52680054E+01
 20
-1.81175354E+02
 11
3.52680054E+01
 21
-1.83175354E+02
  0
LINE
  8
0
 62
6
 10
3.92680054E+01
 20
-1.81175354E+02
 11
3.92680054E+01
 21
-1.83175354E+02
  0
LINE
  8
0
 62
6
 10
3.57680057E+01
 20
-1.83675354E+02
 11
3.52680055E+01
 21
-1.83175354E+02
  0
LINE
  8
0
 62
6
 10
3.87680058E+01
 20
-1.83675354E+02
 11
3.92680057E+01
 21
-1.83175354E+02
  0
LINE
  8
0
 62
6
 10
3.57680054E+01
 20
-1.83675354E+02
 11
3.87680054E+01
 21
-1.83675354E+02
  0
LINE
  8
0
 62
6
 10
3.92680054E+01
 20
-1.81175354E+02
 11
3.92680054E+01
 21
-1.70175354E+02
  0
LINE
  8
0
  6
CENTER
 62
6
 10
3.16259823E+01
 20
-1.77675354E+02
 11
5.59100285E+01
 21
-1.77675354E+02
  0
LINE
  8
0
 62
6
 10
6.42680054E+01
 20
-2.09675354E+02
 11
5.02680054E+01
 21
-2.09675354E+02
  0
LINE
  8
0
 62
6
 10
6.42680054E+01
 20
-1.69675354E+02
 11
5.02680054E+01
 21
-1.69675354E+02
  0
LINE
  8
0
 62
6
 10
4.97680054E+01
 20
-1.70175354E+02
 11
4.97680054E+01
 21
-2.09175354E+02
  0
LINE
  8
0
 62
6
 10
6.47680054E+01
 20
-1.70175354E+02
 11
6.47680054E+01
 21
-2.09175354E+02
  0
LINE
  8
0
  6
CENTER
 62
6
 10
5.87680054E+01
 20
-1.64546259E+02
 11
5.87680054E+01
 21
-2.12775814E+02
  0
LINE
  8
0
  6
CENTER
 62
6
 10
6.37707710E+01
 20
-2.03675354E+02
 11
5.34108665E+01
 21
-2.03675354E+02
  0
LINE
  8
0
 62
6
 10
3.52680054E+01
 20
-1.70175354E+02
 11
3.52680054E+01
 21
-1.81175354E+02
  0
LINE
  8
0
 62
6
 10
3.57680054E+01
 20
-1.69675354E+02
 11
3.87680054E+01
 21
-1.69675354E+02
  0
LINE
  8
0
 62
6
 10
3.57680054E+01
 20
-1.81675354E+02
 11
3.87680054E+01
 21
-1.81675354E+02
  0
LINE
  8
0
 62
6
 10
3.52680058E+01
 20
-1.70175354E+02
 11
3.57680060E+01
 21
-1.69675354E+02
  0
LINE
  8
0
 62
6
 10
3.92680054E+01
 20
-1.70175354E+02
 11
3.87680055E+01
 21
-1.69675354E+02
  0
LINE
  8
0
 62
6
 10
3.87680055E+01
 20
-1.81675354E+02
 11
3.92680054E+01
 21
-1.81175354E+02
  0
LINE
  8
0
 62
6
 10
3.57680053E+01
 20
-1.81675354E+02
 11
3.52680055E+01
 21
-1.81175354E+02
  0
LINE
  8
0
  6
DASHED
 62
6
 10
5.12680054E+01
 20
-1.69675354E+02
 11
5.12680054E+01
 21
-2.09675354E+02
  0
LINE
  8
0
  6
CENTER
 62
6
 10
3.16259823E+01
 20
-1.75675354E+02
 11
6.37707710E+01
 21
-1.75675354E+02
  0
ARC
  8
0
 62
6
 10
6.42680054E+01
 20
-2.09175354E+02
 40
5.00000000E-01
 50
2.70000000E+02
 51
0.00000000E+00
  0
ARC
  8
0
 62
6
 10
5.02680054E+01
 20
-2.09175354E+02
 40
5.00000000E-01
 50
1.79999995E+02
 51
2.70000000E+02
  0
ARC
  8
0
 62
6
 10
5.02680054E+01
 20
-1.70175354E+02
 40
5.00000000E-01
 50
9.00000002E+01
 51
1.80000005E+02
  0
ARC
  8
0
 62
6
 10
6.42680054E+01
 20
-1.70175354E+02
 40
5.00000000E-01
 50
0.00000000E+00
 51
9.00000002E+01
  0
CIRCLE
  8
0
 62
6
 10
5.87680054E+01
 20
-2.03675354E+02
 40
2.25000000E+00
  0
CIRCLE
  8
0
 62
6
 10
5.87680054E+01
 20
-1.75675354E+02
 40
2.25000000E+00
  0
LINE
  8
0
 62
6
 10
5.12680054E+01
 20
-1.42576733E+01
 11
4.97680054E+01
 21
-1.42576733E+01
  0
LINE
  8
0
 62
6
 10
4.97680054E+01
 20
-6.75767326E+00
 11
4.97680054E+01
 21
-1.29257673E+02
  0
LINE
  8
0
 62
6
 10
5.12680054E+01
 20
-6.75767326E+00
 11
5.12680054E+01
 21
-1.29257673E+02
  0
LINE
  8
0
 62
6
 10
5.17680054E+01
 20
-1.31257673E+02
 11
6.42680054E+01
 21
-1.31257673E+02
  0
LINE
  8
0
 62
6
 10
5.17680054E+01
 20
-1.29757673E+02
 11
6.42680054E+01
 21
-1.29757673E+02
  0
LINE
  8
0
 62
6
 10
4.97680054E+01
 20
-7.37576733E+01
 11
5.12680054E+01
 21
-7.37576733E+01
  0
LINE
  8
0
 62
6
 10
5.02680054E+01
 20
-6.25767326E+00
 11
5.07680054E+01
 21
-6.25767326E+00
  0
LINE
  8
0
 62
6
 10
6.47680054E+01
 20
-1.30257673E+02
 11
6.47680054E+01
 21
-1.30757673E+02
  0
LINE
  8
0
 62
6
 10
3.92680054E+01
 20
-1.37576733E+01
 11
3.92680054E+01
 21
-6.75767326E+00
  0
LINE
  8
0
 62
6
 10
3.52680054E+01
 20
-6.75767326E+00
 11
3.52680054E+01
 21
-1.37576733E+01
  0
LINE
  8
0
 62
6
 10
3.52680054E+01
 20
-6.75767326E+00
 11
3.92680054E+01
 21
-6.75767326E+00
  0
LINE
  8
0
 62
6
 10
3.52680054E+01
 20
-1.37576733E+01
 11
3.92680054E+01
 21
-1.37576733E+01
  0
LINE
  8
0
 62
6
 10
3.87680054E+01
 20
-6.75767326E+00
 11
3.87680054E+01
 21
-1.37576733E+01
  0
LINE
  8
0
 62
6
 10
3.57680054E+01
 20
-6.75767326E+00
 11
3.57680054E+01
 21
-1.37576733E+01
  0
LINE
  8
0
 62
6
 10
3.57680054E+01
 20
-7.42549343E+01
 11
3.57680054E+01
 21
-8.12549343E+01
  0
LINE
  8
0
 62
6
 10
3.87680054E+01
 20
-7.42549343E+01
 11
3.87680054E+01
 21
-8.12549343E+01
  0
LINE
  8
0
 62
6
 10
3.52680054E+01
 20
-8.12549343E+01
 11
3.92680054E+01
 21
-8.12549343E+01
  0
LINE
  8
0
 62
6
 10
3.52680054E+01
 20
-7.42549343E+01
 11
3.92680054E+01
 21
-7.42549343E+01
  0
LINE
  8
0
 62
6
 10
3.52680054E+01
 20
-7.42549343E+01
 11
3.52680054E+01
 21
-8.12549343E+01
  0
LINE
  8
0
 62
6
 10
3.92680054E+01
 20
-8.12549343E+01
 11
3.92680054E+01
 21
-7.42549343E+01
  0
LINE
  8
0
 62
6
 10
5.40680056E+01
 20
-7.50767326E+00
 11
5.12680054E+01
 21
-7.50767326E+00
  0
LINE
  8
0
 62
6
 10
5.40680053E+01
 20
-7.50767363E+00
 11
5.42680053E+01
 21
-7.85408393E+00
  0
LINE
  8
0
 62
6
 10
5.40680056E+01
 20
-1.30076733E+01
 11
5.40680056E+01
 21
-7.50767326E+00
  0
LINE
  8
0
 62
6
 10
5.42680054E+01
 20
-1.26612625E+01
 11
5.42680054E+01
 21
-7.85408401E+00
  0
LINE
  8
0
 62
6
 10
5.40680044E+01
 20
-1.30076735E+01
 11
5.42680048E+01
 21
-1.26612628E+01
  0
LINE
  8
0
 62
6
 10
5.40680056E+01
 20
-1.30076733E+01
 11
5.12680054E+01
 21
-1.30076733E+01
  0
LINE
  8
0
 62
6
 10
5.40680056E+01
 20
-8.05049343E+01
 11
5.12680054E+01
 21
-8.05049343E+01
  0
LINE
  8
0
 62
6
 10
5.40680039E+01
 20
-8.05049355E+01
 11
5.42680048E+01
 21
-8.01585240E+01
  0
LINE
  8
0
 62
6
 10
5.42680054E+01
 20
-8.01585217E+01
 11
5.42680054E+01
 21
-7.53513470E+01
  0
LINE
  8
0
 62
6
 10
5.40680056E+01
 20
-8.05049343E+01
 11
5.40680056E+01
 21
-7.50049343E+01
  0
LINE
  8
0
 62
6
 10
5.40680048E+01
 20
-7.50049359E+01
 11
5.42680036E+01
 21
-7.53513442E+01
  0
LINE
  8
0
 62
6
 10
5.40680056E+01
 20
-7.50049343E+01
 11
5.12680054E+01
 21
-7.50049343E+01
  0
LINE
  8
0
  6
CENTER
 62
6
 10
3.30701160E+01
 20
-1.02576733E+01
 11
5.72969770E+01
 21
-1.02576733E+01
  0
LINE
  8
0
  6
CENTER
 62
6
 10
3.30701160E+01
 20
-7.77549343E+01
 11
5.72969770E+01
 21
-7.77549343E+01
  0
LINE
  8
0
  6
CENTER
 62
6
 10
5.87680054E+01
 20
-1.34007673E+02
 11
5.87680054E+01
 21
-1.27007673E+02
  0
ARC
  8
0
 62
6
 10
5.02680054E+01
 20
-6.75767326E+00
 40
5.00000000E-01
 50
9.00000002E+01
 51
1.80000005E+02
  0
ARC
  8
0
 62
6
 10
5.07680054E+01
 20
-6.75767326E+00
 40
5.00000000E-01
 50
0.00000000E+00
 51
9.00000002E+01
  0
ARC
  8
0
 62
6
 10
5.17680054E+01
 20
-1.29257673E+02
 40
2.00000000E+00
 50
1.79999995E+02
 51
2.70000000E+02
  0
ARC
  8
0
 62
6
 10
5.17680054E+01
 20
-1.29257673E+02
 40
5.00000000E-01
 50
1.79999995E+02
 51
2.70000000E+02
  0
ARC
  8
0
 62
6
 10
6.42680054E+01
 20
-1.30257673E+02
 40
5.00000000E-01
 50
0.00000000E+00
 51
9.00000002E+01
  0
ARC
  8
0
 62
6
 10
6.42680054E+01
 20
-1.30757673E+02
 40
5.00000000E-01
 50
2.70000000E+02
 51
0.00000000E+00
  0
LINE
  8
0
 62
6
 10
1.26777077E+02
 20
-8.42576733E+01
 11
1.26777077E+02
 21
-1.29757673E+02
  0
LINE
  8
0
 62
6
 10
1.26277077E+02
 20
-7.37576733E+01
 11
1.15777077E+02
 21
-7.37576733E+01
  0
LINE
  8
0
 62
6
 10
1.15777077E+02
 20
-1.42576733E+01
 11
1.26277077E+02
 21
-1.42576733E+01
  0
LINE
  8
0
 62
6
 10
1.15277077E+02
 20
-6.75767326E+00
 11
1.15277077E+02
 21
-1.37576733E+01
  0
LINE
  8
0
 62
6
 10
1.26777077E+02
 20
-1.47576733E+01
 11
1.26777077E+02
 21
-7.32576733E+01
  0
LINE
  8
0
 62
6
 10
1.36777077E+02
 20
-6.75767326E+00
 11
1.36777077E+02
 21
-8.32576733E+01
  0
LINE
  8
0
 62
6
 10
1.36277077E+02
 20
-6.25767326E+00
 11
1.15777077E+02
 21
-6.25767326E+00
  0
LINE
  8
0
 62
6
 10
1.52277077E+02
 20
-1.31257673E+02
 11
1.15777077E+02
 21
-1.31257673E+02
  0
LINE
  8
0
 62
6
 10
1.52277077E+02
 20
-1.29757673E+02
 11
1.15777077E+02
 21
-1.29757673E+02
  0
LINE
  8
0
 62
6
 10
1.52777077E+02
 20
-1.30257673E+02
 11
1.52777077E+02
 21
-1.30757673E+02
  0
LINE
  8
0
 62
6
 10
1.36277077E+02
 20
-8.37576733E+01
 11
1.27277077E+02
 21
-8.37576733E+01
  0
LINE
  8
0
 62
6
 10
1.15277077E+02
 20
-7.42576733E+01
 11
1.15277077E+02
 21
-1.30757673E+02
  0
LINE
  8
0
  6
CENTER
 62
6
 10
1.22277077E+02
 20
-1.51222334E+01
 11
1.22277077E+02
 21
-5.73568773E+00
  0
LINE
  8
0
  6
CENTER
 62
6
 10
1.14945979E+02
 20
-1.02576733E+01
 11
1.29265600E+02
 21
-1.02576733E+01
  0
LINE
  8
0
  6
CENTER
 62
6
 10
1.12945979E+02
 20
-7.77549343E+01
 11
1.27265600E+02
 21
-7.77549343E+01
  0
LINE
  8
0
  6
CENTER
 62
6
 10
1.20277077E+02
 20
-8.26194973E+01
 11
1.20277077E+02
 21
-7.32329464E+01
  0
LINE
  8
0
 62
6
 10
1.21027077E+02
 20
-1.09793612E+01
 11
1.22277077E+02
 21
-1.17010489E+01
  0
LINE
  8
0
 62
6
 10
1.22277076E+02
 20
-8.81429843E+00
 11
1.23527076E+02
 21
-9.53598613E+00
  0
LINE
  8
0
 62
6
 10
1.22277076E+02
 20
-1.17010481E+01
 11
1.23527076E+02
 21
-1.09793604E+01
  0
LINE
  8
0
 62
6
 10
1.21027077E+02
 20
-9.53598531E+00
 11
1.22277077E+02
 21
-8.81429760E+00
  0
LINE
  8
0
 62
6
 10
1.23527077E+02
 20
-9.53598535E+00
 11
1.23527077E+02
 21
-1.09793612E+01
  0
LINE
  8
0
 62
6
 10
1.21027077E+02
 20
-9.53598523E+00
 11
1.21027077E+02
 21
-1.09793613E+01
  0
LINE
  8
0
 62
6
 10
1.19027077E+02
 20
-7.70332470E+01
 11
1.19027077E+02
 21
-7.84766216E+01
  0
LINE
  8
0
 62
6
 10
1.21527077E+02
 20
-7.70332470E+01
 11
1.21527077E+02
 21
-7.84766216E+01
  0
LINE
  8
0
 62
6
 10
1.19027076E+02
 20
-7.70332477E+01
 11
1.20277079E+02
 21
-7.63115586E+01
  0
LINE
  8
0
 62
6
 10
1.20277074E+02
 20
-7.91983080E+01
 11
1.21527077E+02
 21
-7.84766189E+01
  0
LINE
  8
0
 62
6
 10
1.20277076E+02
 20
-7.63115597E+01
 11
1.21527076E+02
 21
-7.70332470E+01
  0
LINE
  8
0
 62
6
 10
1.19027076E+02
 20
-7.84766233E+01
 11
1.20277076E+02
 21
-7.91983106E+01
  0
LINE
  8
0
  6
CENTER
 62
6
 10
1.49277077E+02
 20
-1.34007673E+02
 11
1.49277077E+02
 21
-1.27007673E+02
  0
LINE
  8
0
  6
CENTER
 62
6
 10
1.21277077E+02
 20
-1.34007673E+02
 11
1.21277077E+02
 21
-1.27007673E+02
  0
ARC
  8
0
 62
6
 10
1.36277077E+02
 20
-6.75767326E+00
 40
5.00000000E-01
 50
0.00000000E+00
 51
9.00000002E+01
  0
ARC
  8
0
 62
6
 10
1.15777077E+02
 20
-6.75767326E+00
 40
5.00000000E-01
 50
9.00000002E+01
 51
1.80000005E+02
  0
ARC
  8
0
 62
6
 10
1.15777077E+02
 20
-1.37576733E+01
 40
5.00000000E-01
 50
1.79999995E+02
 51
2.70000000E+02
  0
ARC
  8
0
 62
6
 10
1.26277077E+02
 20
-1.47576733E+01
 40
5.00000000E-01
 50
0.00000000E+00
 51
9.00000002E+01
  0
ARC
  8
0
 62
6
 10
1.15777077E+02
 20
-7.42576733E+01
 40
5.00000000E-01
 50
9.00000002E+01
 51
1.80000005E+02
  0
ARC
  8
0
 62
6
 10
1.26277077E+02
 20
-7.32576733E+01
 40
5.00000000E-01
 50
2.70000000E+02
 51
0.00000000E+00
  0
ARC
  8
0
 62
6
 10
1.27277077E+02
 20
-8.42576733E+01
 40
5.00000000E-01
 50
9.00000002E+01
 51
1.80000005E+02
  0
ARC
  8
0
 62
6
 10
1.36277077E+02
 20
-8.32576733E+01
 40
5.00000000E-01
 50
2.70000000E+02
 51
0.00000000E+00
  0
ARC
  8
0
 62
6
 10
1.15777077E+02
 20
-1.30257673E+02
 40
5.00000000E-01
 50
9.00000002E+01
 51
1.80000005E+02
  0
ARC
  8
0
 62
6
 10
1.15777077E+02
 20
-1.30757673E+02
 40
5.00000000E-01
 50
1.79999995E+02
 51
2.70000000E+02
  0
ARC
  8
0
 62
6
 10
1.52277077E+02
 20
-1.30757673E+02
 40
5.00000000E-01
 50
2.70000000E+02
 51
0.00000000E+00
  0
ARC
  8
0
 62
6
 10
1.52277077E+02
 20
-1.30257673E+02
 40
5.00000000E-01
 50
0.00000000E+00
 51
9.00000002E+01
  0
CIRCLE
  8
0
 62
6
 10
1.22277077E+02
 20
-1.02576731E+01
 40
2.40358925E+00
  0
CIRCLE
  8
0
 62
6
 10
1.22277077E+02
 20
-1.02576733E+01
 40
2.75000000E+00
  0
CIRCLE
  8
0
 62
6
 10
1.20277077E+02
 20
-7.77549343E+01
 40
2.75000000E+00
  0
CIRCLE
  8
0
 62
6
 10
1.20277077E+02
 20
-7.77549343E+01
 40
2.40358925E+00
  0
LINE
  8
0
 62
6
 10
1.87498240E+02
 20
1.30635941E+02
 11
1.91498240E+02
 21
1.30635941E+02
  0
LINE
  8
0
 62
6
 10
2.39998238E+02
 20
1.96385941E+02
 11
2.39998238E+02
 21
1.82888579E+02
  0
LINE
  8
0
 62
6
 10
1.91498240E+02
 20
1.96385941E+02
 11
2.17498240E+02
 21
1.96385941E+02
  0
LINE
  8
0
 62
6
 10
1.91898239E+02
 20
1.71585941E+02
 11
1.91898239E+02
 21
1.26685944E+02
  0
LINE
  8
0
 62
7
 10
2.18898239E+02
 20
1.21888824E+02
 11
2.18898239E+02
 21
1.22388824E+02
  0
LINE
  8
0
 62
7
 10
2.21898239E+02
 20
1.21888824E+02
 11
2.21898239E+02
 21
1.22388824E+02
  0
LINE
  8
0
 62
7
 10
2.29298239E+02
 20
1.29095131E+02
 11
2.29298239E+02
 21
1.30695129E+02
  0
LINE
  8
0
 62
7
 10
2.18798239E+02
 20
1.22388824E+02
 11
2.21998240E+02
 21
1.22388824E+02
  0
LINE
  8
0
  6
CENTER
 62
2
 10
2.20398239E+02
 20
1.20002403E+02
 11
2.20398239E+02
 21
1.24080605E+02
  0
LINE
  8
0
 62
7
 10
2.21998240E+02
 20
1.21388824E+02
 11
2.21998240E+02
 21
1.22388824E+02
  0
LINE
  8
0
 62
7
 10
2.18798239E+02
 20
1.21388824E+02
 11
2.18798239E+02
 21
1.22388824E+02
  0
LINE
  8
0
 62
7
 10
2.35998238E+02
 20
1.30695129E+02
 11
2.29298239E+02
 21
1.30695129E+02
  0
LINE
  8
0
 62
7
 10
2.35998238E+02
 20
1.29095131E+02
 11
2.29298239E+02
 21
1.29095131E+02
  0
LINE
  8
0
 62
7
 10
2.35498238E+02
 20
1.64391407E+02
 11
2.34998238E+02
 21
1.64391407E+02
  0
LINE
  8
0
 62
7
 10
2.35498238E+02
 20
1.67391407E+02
 11
2.34998238E+02
 21
1.67391407E+02
  0
LINE
  8
0
 62
7
 10
2.30798239E+02
 20
1.95896177E+02
 11
2.30798239E+02
 21
1.95396177E+02
  0
LINE
  8
0
 62
7
 10
2.27798239E+02
 20
1.95896177E+02
 11
2.27798239E+02
 21
1.95396177E+02
  0
LINE
  8
0
 62
7
 10
2.27698238E+02
 20
1.95396177E+02
 11
2.30898239E+02
 21
1.95396177E+02
  0
LINE
  8
0
 62
7
 10
2.29298239E+02
 20
1.88689872E+02
 11
2.29298239E+02
 21
1.87089872E+02
  0
LINE
  8
0
 62
7
 10
2.30898239E+02
 20
1.96396177E+02
 11
2.30898239E+02
 21
1.95396177E+02
  0
LINE
  8
0
 62
7
 10
2.27698238E+02
 20
1.96396177E+02
 11
2.27698238E+02
 21
1.95396177E+02
  0
LINE
  8
0
  6
CENTER
 62
2
 10
2.29298239E+02
 20
1.97782601E+02
 11
2.29298239E+02
 21
1.93704395E+02
  0
LINE
  8
0
 62
7
 10
2.35998238E+02
 20
1.88689872E+02
 11
2.29298239E+02
 21
1.88689872E+02
  0
LINE
  8
0
 62
7
 10
2.35998238E+02
 20
1.87089872E+02
 11
2.29298239E+02
 21
1.87089872E+02
  0
LINE
  8
0
 62
6
 10
1.92416188E+02
 20
1.26385941E+02
 11
1.92198239E+02
 21
1.26385941E+02
  0
LINE
  8
0
 62
6
 10
1.95880290E+02
 20
1.26385941E+02
 11
1.96382376E+02
 21
1.26385941E+02
  0
LINE
  8
0
 62
6
 10
2.06148239E+02
 20
1.26385941E+02
 11
2.01914102E+02
 21
1.26385941E+02
  0
LINE
  8
0
 62
6
 10
1.92148239E+02
 20
1.71885941E+02
 11
2.02916188E+02
 21
1.71885941E+02
  0
LINE
  8
0
 62
6
 10
2.06448239E+02
 20
1.70014160E+02
 11
2.06448239E+02
 21
1.26685944E+02
  0
LINE
  8
0
  6
CENTER
 62
6
 10
1.95559803E+02
 20
1.24888680E+02
 11
2.03837997E+02
 21
1.24888680E+02
  0
LINE
  8
0
 62
6
 10
2.03941132E+02
 20
1.71593048E+02
 11
2.05355346E+02
 21
1.70178835E+02
  0
LINE
  8
0
 62
6
 10
2.03941132E+02
 20
1.70178835E+02
 11
2.05355346E+02
 21
1.71593048E+02
  0
LINE
  8
0
 62
6
 10
1.93441130E+02
 20
1.28093048E+02
 11
1.94855344E+02
 21
1.26678835E+02
  0
LINE
  8
0
 62
6
 10
1.93441130E+02
 20
1.26678835E+02
 11
1.94855344E+02
 21
1.28093048E+02
  0
LINE
  8
0
  6
CENTER
 62
6
 10
1.99398239E+02
 20
1.29085941E+02
 11
1.99398239E+02
 21
1.21759537E+02
  0
LINE
  8
0
 62
7
 10
2.14198239E+02
 20
9.08886795E+01
 11
2.14198239E+02
 21
1.19385941E+02
  0
LINE
  8
0
 62
7
 10
2.09798239E+02
 20
9.08886795E+01
 11
2.09798239E+02
 21
1.19385941E+02
  0
LINE
  8
0
 62
7
 10
2.14198239E+02
 20
9.08886795E+01
 11
2.09798239E+02
 21
9.08886795E+01
  0
LINE
  8
0
 62
7
 10
2.09798239E+02
 20
8.88886795E+01
 11
2.14198239E+02
 21
8.88886795E+01
  0
LINE
  8
0
 62
7
 10
2.14198239E+02
 20
1.19385941E+02
 11
2.09798239E+02
 21
1.19385941E+02
  0
LINE
  8
0
 62
7
 10
2.10998240E+02
 20
9.08886795E+01
 11
2.10998240E+02
 21
1.19385941E+02
  0
LINE
  8
0
 62
7
 10
2.12998240E+02
 20
9.08886795E+01
 11
2.12998240E+02
 21
1.19385941E+02
  0
LINE
  8
0
 62
2
 10
2.11214739E+02
 20
9.08886795E+01
 11
2.11214739E+02
 21
1.19385941E+02
  0
LINE
  8
0
 62
2
 10
2.12781739E+02
 20
9.08886795E+01
 11
2.12781739E+02
 21
1.19385941E+02
  0
LINE
  8
0
  6
CENTER
 62
2
 10
2.11998240E+02
 20
1.21212540E+02
 11
2.11998240E+02
 21
7.65593338E+01
  0
LINE
  8
0
 62
7
 10
2.10748240E+02
 20
8.82636795E+01
 11
2.13248240E+02
 21
8.82636795E+01
  0
LINE
  8
0
 62
7
 10
2.09798239E+02
 20
8.88886795E+01
 11
2.09798239E+02
 21
7.83886795E+01
  0
LINE
  8
0
 62
7
 10
2.14198239E+02
 20
8.88886795E+01
 11
2.14198239E+02
 21
7.83886795E+01
  0
LINE
  8
0
 62
6
 10
1.87498240E+02
 20
1.73135941E+02
 11
1.91498240E+02
 21
1.73135941E+02
  0
LINE
  8
0
 62
6
 10
1.87498240E+02
 20
1.55172287E+02
 11
1.87498240E+02
 21
1.73135941E+02
  0
LINE
  8
0
 62
7
 10
2.34998238E+02
 20
1.67491407E+02
 11
2.34998238E+02
 21
1.64291409E+02
  0
LINE
  8
0
 62
7
 10
2.35998238E+02
 20
1.64291409E+02
 11
2.34998238E+02
 21
1.64291409E+02
  0
LINE
  8
0
 62
7
 10
2.35998238E+02
 20
1.67491407E+02
 11
2.34998238E+02
 21
1.67491407E+02
  0
LINE
  8
0
 62
6
 10
1.87498240E+02
 20
1.43099594E+02
 11
1.87498240E+02
 21
1.25135941E+02
  0
LINE
  8
0
 62
6
 10
1.83498237E+02
 20
1.53635939E+02
 11
1.87498239E+02
 21
1.57135940E+02
  0
LINE
  8
0
 62
6
 10
1.83498238E+02
 20
1.44635940E+02
 11
1.87498238E+02
 21
1.41135940E+02
  0
LINE
  8
0
 62
6
 10
1.83498240E+02
 20
1.53635941E+02
 11
1.83498240E+02
 21
1.44635941E+02
  0
LINE
  8
0
  6
CENTER
 62
6
 10
1.89528682E+02
 20
1.49135941E+02
 11
1.81188643E+02
 21
1.49135941E+02
  0
LINE
  8
0
 62
6
 10
1.84934956E+02
 20
1.48823952E+02
 11
1.84934956E+02
 21
1.49135941E+02
  0
LINE
  8
0
 62
6
 10
1.87498240E+02
 20
1.25135941E+02
 11
1.91498240E+02
 21
1.25135941E+02
  0
LINE
  8
0
 62
6
 10
1.91498240E+02
 20
1.96385941E+02
 11
1.91498240E+02
 21
1.21385941E+02
  0
LINE
  8
0
 62
7
 10
2.62498238E+02
 20
1.01388680E+02
 11
2.62498238E+02
 21
8.38886795E+01
  0
LINE
  8
0
 62
7
 10
2.35998238E+02
 20
1.82888579E+02
 11
2.35998238E+02
 21
1.21385941E+02
  0
LINE
  8
0
 62
6
 10
2.47498238E+02
 20
1.21385941E+02
 11
2.47498238E+02
 21
1.27168793E+02
  0
LINE
  8
0
 62
6
 10
2.47498238E+02
 20
1.27168799E+02
 11
2.50998238E+02
 21
1.27785943E+02
  0
LINE
  8
0
 62
6
 10
2.49698238E+02
 20
1.51885941E+02
 11
2.37198238E+02
 21
1.51885941E+02
  0
LINE
  8
0
 62
6
 10
2.54998238E+02
 20
1.35885941E+02
 11
2.54998238E+02
 21
1.35785942E+02
  0
LINE
  8
0
 62
6
 10
2.55598240E+02
 20
1.35287861E+02
 11
2.55598240E+02
 21
1.35785942E+02
  0
LINE
  8
0
 62
6
 10
2.50998240E+02
 20
1.34476757E+02
 11
2.55598237E+02
 21
1.35287860E+02
  0
LINE
  8
0
 62
6
 10
2.49698238E+02
 20
1.35785942E+02
 11
2.55598240E+02
 21
1.35785942E+02
  0
LINE
  8
0
 62
6
 10
2.46798241E+02
 20
1.22085938E+02
 11
2.39198238E+02
 21
1.22085938E+02
  0
LINE
  8
0
 62
6
 10
2.35998238E+02
 20
1.53385941E+02
 11
2.55298241E+02
 21
1.53385941E+02
  0
LINE
  8
0
 62
6
 10
2.35998238E+02
 20
1.21385941E+02
 11
2.47498238E+02
 21
1.21385941E+02
  0
LINE
  8
0
 62
6
 10
2.50998238E+02
 20
1.27785942E+02
 11
2.50998238E+02
 21
1.34476757E+02
  0
LINE
  8
0
 62
6
 10
2.46798241E+02
 20
1.22885941E+02
 11
2.39198238E+02
 21
1.22885941E+02
  0
LINE
  8
0
 62
6
 10
2.46798241E+02
 20
1.22885941E+02
 11
2.46798241E+02
 21
1.22085938E+02
  0
LINE
  8
0
 62
6
 10
2.39198238E+02
 20
1.22085938E+02
 11
2.39198238E+02
 21
1.22885941E+02
  0
LINE
  8
0
  6
CENTER
 62
6
 10
2.70214729E+02
 20
1.40085941E+02
 11
2.54486240E+02
 21
1.40085941E+02
  0
LINE
  8
0
 62
6
 10
2.56398239E+02
 20
1.38085941E+02
 11
2.55598240E+02
 21
1.38085941E+02
  0
LINE
  8
0
 62
6
 10
2.56598240E+02
 20
1.38285942E+02
 11
2.56598240E+02
 21
1.41885941E+02
  0
LINE
  8
0
 62
6
 10
2.56398239E+02
 20
1.42085941E+02
 11
2.55598240E+02
 21
1.42085941E+02
  0
LINE
  8
0
 62
6
 10
2.49698238E+02
 20
1.35885941E+02
 11
2.55598240E+02
 21
1.35885941E+02
  0
LINE
  8
0
 62
6
 10
2.37198238E+02
 20
1.53385941E+02
 11
2.37198238E+02
 21
1.51885941E+02
  0
LINE
  8
0
 62
6
 10
2.55598240E+02
 20
1.35885941E+02
 11
2.55598240E+02
 21
1.53085941E+02
  0
LINE
  8
0
 62
6
 10
2.49698238E+02
 20
1.51885941E+02
 11
2.49698238E+02
 21
1.35785942E+02
  0
LINE
  8
0
 62
6
 10
2.49998238E+02
 20
1.28285942E+02
 11
2.49998238E+02
 21
1.31485939E+02
  0
LINE
  8
0
 62
6
 10
2.50998238E+02
 20
1.31485939E+02
 11
2.49998238E+02
 21
1.31485939E+02
  0
LINE
  8
0
 62
6
 10
2.50998238E+02
 20
1.28285942E+02
 11
2.49998238E+02
 21
1.28285942E+02
  0
LINE
  8
0
 62
6
 10
2.56598240E+02
 20
1.39435940E+02
 11
2.60098240E+02
 21
1.39435940E+02
  0
LINE
  8
0
 62
6
 10
2.56598240E+02
 20
1.40735939E+02
 11
2.60448238E+02
 21
1.40735939E+02
  0
LINE
  8
0
 62
6
 10
2.60878238E+02
 20
1.38485943E+02
 11
2.61738237E+02
 21
1.41685941E+02
  0
LINE
  8
0
 62
6
 10
2.59848236E+02
 20
1.38485940E+02
 11
2.60708236E+02
 21
1.41685941E+02
  0
LINE
  8
0
 62
6
 10
2.68798241E+02
 20
1.40335941E+02
 11
2.68798241E+02
 21
1.39835941E+02
  0
LINE
  8
0
 62
6
 10
2.64798241E+02
 20
1.40735939E+02
 11
2.64798241E+02
 21
1.39435940E+02
  0
LINE
  8
0
 62
6
 10
2.64798241E+02
 20
1.40335941E+02
 11
2.68798241E+02
 21
1.40335941E+02
  0
LINE
  8
0
 62
6
 10
2.64798241E+02
 20
1.39835941E+02
 11
2.68798241E+02
 21
1.39835941E+02
  0
LINE
  8
0
 62
6
 10
2.61138241E+02
 20
1.39435940E+02
 11
2.64798241E+02
 21
1.39435940E+02
  0
LINE
  8
0
 62
6
 10
2.61488239E+02
 20
1.40735939E+02
 11
2.64798241E+02
 21
1.40735939E+02
  0
LINE
  8
0
 62
6
 10
2.50098240E+02
 20
1.28385941E+02
 11
2.49998238E+02
 21
1.28385941E+02
  0
LINE
  8
0
 62
6
 10
2.50098240E+02
 20
1.31385941E+02
 11
2.49998238E+02
 21
1.31385941E+02
  0
LINE
  8
0
 62
6
 10
2.50598240E+02
 20
1.28885941E+02
 11
2.50598240E+02
 21
1.30885941E+02
  0
LINE
  8
0
 62
7
 10
2.62498238E+02
 20
8.38886795E+01
 11
2.62498238E+02
 21
7.83886795E+01
  0
LINE
  8
0
 62
7
 10
2.35998238E+02
 20
1.21387589E+02
 11
2.17498240E+02
 21
1.21387589E+02
  0
LINE
  8
0
 62
7
 10
2.35998238E+02
 20
1.96393437E+02
 11
2.35998238E+02
 21
1.82888579E+02
  0
LINE
  8
0
 62
7
 10
2.35998238E+02
 20
1.82888579E+02
 11
2.17498240E+02
 21
1.82888579E+02
  0
LINE
  8
0
 62
7
 10
2.35998238E+02
 20
1.34887585E+02
 11
2.17498240E+02
 21
1.34887585E+02
  0
LINE
  8
0
 62
6
 10
2.37498238E+02
 20
1.89389352E+02
 11
2.36998238E+02
 21
1.89389352E+02
  0
LINE
  8
0
 62
6
 10
2.37498238E+02
 20
1.86389352E+02
 11
2.36998238E+02
 21
1.86389352E+02
  0
LINE
  8
0
 62
6
 10
2.39998238E+02
 20
1.86289352E+02
 11
2.36998238E+02
 21
1.86289352E+02
  0
LINE
  8
0
 62
6
 10
2.39998238E+02
 20
1.89489352E+02
 11
2.36998238E+02
 21
1.89489352E+02
  0
LINE
  8
0
 62
6
 10
2.36998238E+02
 20
1.89489352E+02
 11
2.36998238E+02
 21
1.86289352E+02
  0
LINE
  8
0
 62
7
 10
1.91498240E+02
 20
7.83886795E+01
 11
2.17498240E+02
 21
7.83886795E+01
  0
LINE
  8
0
 62
7
 10
1.91498240E+02
 20
1.21385941E+02
 11
1.91498240E+02
 21
7.83886795E+01
  0
LINE
  8
0
 62
7
 10
2.17498240E+02
 20
1.21385941E+02
 11
2.17498240E+02
 21
7.83886795E+01
  0
LINE
  8
0
 62
7
 10
2.62498238E+02
 20
7.83886795E+01
 11
2.17498240E+02
 21
7.83886795E+01
  0
LINE
  8
0
 62
7
 10
2.62498238E+02
 20
1.01388680E+02
 11
2.17498240E+02
 21
1.01388680E+02
  0
LINE
  8
0
 62
7
 10
2.62798241E+02
 20
9.03386841E+01
 11
2.68998238E+02
 21
9.03386841E+01
  0
LINE
  8
0
 62
7
 10
2.62798241E+02
 20
8.04386826E+01
 11
2.68998238E+02
 21
8.04386826E+01
  0
LINE
  8
0
 62
7
 10
2.70498238E+02
 20
8.88386841E+01
 11
2.70498238E+02
 21
8.19386826E+01
  0
LINE
  8
0
 62
7
 10
2.62798240E+02
 20
9.03386804E+01
 11
2.62498240E+02
 21
9.00386798E+01
  0
LINE
  8
0
 62
7
 10
2.62798236E+02
 20
8.04386853E+01
 11
2.62498237E+02
 21
8.07386845E+01
  0
LINE
  8
0
 62
7
 10
2.17497944E+02
 20
1.74383484E+02
 11
2.17497944E+02
 21
1.77383483E+02
  0
LINE
  8
0
 62
7
 10
2.17498240E+02
 20
1.21385941E+02
 11
2.17498240E+02
 21
1.96388680E+02
  0
LINE
  8
0
  6
CENTER
 62
6
 10
2.01398239E+02
 20
1.88948095E+02
 11
2.01398239E+02
 21
1.95669216E+02
  0
LINE
  8
0
  6
CENTER
 62
6
 10
2.04605326E+02
 20
1.92385941E+02
 11
1.97866184E+02
 21
1.92385941E+02
  0
LINE
  8
0
 62
7
 10
1.91498240E+02
 20
1.21385941E+02
 11
2.17498240E+02
 21
1.21385941E+02
  0
LINE
  8
0
 62
6
 10
2.35998238E+02
 20
1.96385941E+02
 11
2.39998238E+02
 21
1.96385941E+02
  0
LINE
  8
0
 62
6
 10
2.35998238E+02
 20
1.82888579E+02
 11
2.39998238E+02
 21
1.82888579E+02
  0
LINE
  8
0
 62
7
 10
2.17498240E+02
 20
1.96385941E+02
 11
2.35998238E+02
 21
1.96385941E+02
  0
LINE
  8
0
  6
CENTER
 62
6
 10
2.28207182E+02
 20
1.87885941E+02
 11
2.41255566E+02
 21
1.87885941E+02
  0
LINE
  8
0
  6
CENTER
 62
6
 10
2.27940865E+02
 20
1.29885941E+02
 11
2.52588158E+02
 21
1.29885941E+02
  0
LINE
  8
0
 62
6
 10
2.25998240E+02
 20
1.21388680E+02
 11
2.25998240E+02
 21
1.01388680E+02
  0
LINE
  8
0
 62
6
 10
2.25998240E+02
 20
1.21388680E+02
 11
2.17498240E+02
 21
1.21388680E+02
  0
LINE
  8
0
 62
6
 10
2.25998240E+02
 20
1.01388680E+02
 11
2.17498240E+02
 21
1.01388680E+02
  0
ARC
  8
0
 62
7
 10
2.20398239E+02
 20
1.23888824E+02
 40
2.50000000E+00
 50
2.33130097E+02
 51
3.06869898E+02
  0
ARC
  8
0
 62
7
 10
2.33498238E+02
 20
1.65891407E+02
 40
2.50000000E+00
 50
3.23130102E+02
 51
3.68698973E+01
  0
ARC
  8
0
 62
7
 10
2.29298239E+02
 20
1.93896177E+02
 40
2.50000000E+00
 50
5.31301018E+01
 51
1.26869903E+02
  0
ARC
  8
0
 62
6
 10
1.96382376E+02
 20
1.26685944E+02
 40
3.00000012E-01
 50
2.70000000E+02
 51
3.26944268E+02
  0
ARC
  8
0
 62
6
 10
2.01914102E+02
 20
1.26685944E+02
 40
3.00000012E-01
 50
2.13055734E+02
 51
2.70000000E+02
  0
ARC
  8
0
 62
6
 10
1.99148239E+02
 20
1.24885941E+02
 40
3.00000000E+00
 50
3.30557318E+01
 51
1.46944266E+02
  0
ARC
  8
0
 62
6
 10
2.06148239E+02
 20
1.26685944E+02
 40
3.00000012E-01
 50
2.70000000E+02
 51
0.00000000E+00
  0
CIRCLE
  8
0
 62
6
 10
2.04648239E+02
 20
1.70885941E+02
 40
2.00000000E+00
  0
CIRCLE
  8
0
 62
6
 10
1.94148239E+02
 20
1.27385941E+02
 40
2.00000000E+00
  0
CIRCLE
  8
0
 62
6
 10
1.99398239E+02
 20
1.24888680E+02
 40
2.29999995E+00
  0
ARC
  8
0
 62
6
 10
1.92198239E+02
 20
1.71585941E+02
 40
3.00000012E-01
 50
9.00000002E+01
 51
1.80000005E+02
  0
ARC
  8
0
 62
6
 10
1.92198239E+02
 20
1.26685944E+02
 40
3.00000012E-01
 50
1.79999995E+02
 51
2.70000000E+02
  0
ARC
  8
0
 62
7
 10
2.13248153E+02
 20
8.88887634E+01
 40
6.25086725E-01
 50
2.70000000E+02
 51
3.59992050E+02
  0
ARC
  8
0
 62
7
 10
2.10747131E+02
 20
8.88875732E+01
 40
6.23893499E-01
 50
1.79898290E+02
 51
2.70101716E+02
  0
ARC
  8
0
 62
6
 10
2.56398949E+02
 20
1.38285229E+02
 40
1.99289829E-01
 50
2.70000000E+02
 51
2.04538593E-01
  0
ARC
  8
0
 62
6
 10
2.56398949E+02
 20
1.41886650E+02
 40
1.99289829E-01
 50
3.59795462E+02
 51
9.00000002E+01
  0
ARC
  8
0
 62
6
 10
2.55298241E+02
 20
1.53085941E+02
 40
3.00000012E-01
 50
0.00000000E+00
 51
9.00000002E+01
  0
ARC
  8
0
 62
6
 10
2.50098240E+02
 20
1.30885941E+02
 40
5.00000000E-01
 50
0.00000000E+00
 51
9.00000002E+01
  0
ARC
  8
0
 62
6
 10
2.50098240E+02
 20
1.28885941E+02
 40
5.00000000E-01
 50
2.70000000E+02
 51
0.00000000E+00
  0
ARC
  8
0
 62
6
 10
2.35498238E+02
 20
1.87889352E+02
 40
2.50000000E+00
 50
3.23130102E+02
 51
3.68698973E+01
  0
ARC
  8
0
 62
7
 10
2.68998238E+02
 20
8.88386841E+01
 40
1.50000000E+00
 50
0.00000000E+00
 51
9.00000002E+01
  0
ARC
  8
0
 62
7
 10
2.68998238E+02
 20
8.19386826E+01
 40
1.50000000E+00
 50
2.70000000E+02
 51
0.00000000E+00
  0
CIRCLE
  8
0
 62
6
 10
2.01398239E+02
 20
1.92385941E+02
 40
2.29999995E+00
  0
POLYLINE
  8
0
 62
6
 66
1
  0
VERTEX
  8
0
 62
6
 10
1.84934956E+02
 20
1.49447928E+02
  0
VERTEX
  8
0
 62
6
 10
1.84935689E+02
 20
1.49520337E+02
  0
VERTEX
  8
0
 62
6
 10
1.84937933E+02
 20
1.49592700E+02
  0
VERTEX
  8
0
 62
6
 10
1.84941752E+02
 20
1.49664947E+02
  0
VERTEX
  8
0
 62
6
 10
1.84947211E+02
 20
1.49737011E+02
  0
VERTEX
  8
0
 62
6
 10
1.84954373E+02
 20
1.49808822E+02
  0
VERTEX
  8
0
 62
6
 10
1.84963305E+02
 20
1.49880312E+02
  0
VERTEX
  8
0
 62
6
 10
1.84974070E+02
 20
1.49951412E+02
  0
VERTEX
  8
0
 62
6
 10
1.84986733E+02
 20
1.50022053E+02
  0
VERTEX
  8
0
 62
6
 10
1.85001358E+02
 20
1.50092168E+02
  0
VERTEX
  8
0
 62
6
 10
1.85018011E+02
 20
1.50161686E+02
  0
VERTEX
  8
0
 62
6
 10
1.85053827E+02
 20
1.50287521E+02
  0
VERTEX
  8
0
 62
6
 10
1.85095828E+02
 20
1.50411392E+02
  0
VERTEX
  8
0
 62
6
 10
1.85143163E+02
 20
1.50533569E+02
  0
VERTEX
  8
0
 62
6
 10
1.85194983E+02
 20
1.50654323E+02
  0
VERTEX
  8
0
 62
6
 10
1.85250435E+02
 20
1.50773924E+02
  0
VERTEX
  8
0
 62
6
 10
1.85308670E+02
 20
1.50892643E+02
  0
VERTEX
  8
0
 62
6
 10
1.85368837E+02
 20
1.51010750E+02
  0
VERTEX
  8
0
 62
6
 10
1.85430084E+02
 20
1.51128517E+02
  0
VERTEX
  8
0
 62
6
 10
1.85491562E+02
 20
1.51246213E+02
  0
VERTEX
  8
0
 62
6
 10
1.85552420E+02
 20
1.51364109E+02
  0
VERTEX
  8
0
 62
6
 10
1.85645164E+02
 20
1.51549717E+02
  0
VERTEX
  8
0
 62
6
 10
1.85734923E+02
 20
1.51736252E+02
  0
VERTEX
  8
0
 62
6
 10
1.85822323E+02
 20
1.51923487E+02
  0
VERTEX
  8
0
 62
6
 10
1.85907994E+02
 20
1.52111194E+02
  0
VERTEX
  8
0
 62
6
 10
1.85992562E+02
 20
1.52299143E+02
  0
VERTEX
  8
0
 62
6
 10
1.86076655E+02
 20
1.52487107E+02
  0
VERTEX
  8
0
 62
6
 10
1.86160901E+02
 20
1.52674857E+02
  0
VERTEX
  8
0
 62
6
 10
1.86245928E+02
 20
1.52862164E+02
  0
VERTEX
  8
0
 62
6
 10
1.86332363E+02
 20
1.53048801E+02
  0
VERTEX
  8
0
 62
6
 10
1.86420835E+02
 20
1.53234539E+02
  0
VERTEX
  8
0
 62
6
 10
1.86518771E+02
 20
1.53433026E+02
  0
VERTEX
  8
0
 62
6
 10
1.86619542E+02
 20
1.53630280E+02
  0
VERTEX
  8
0
 62
6
 10
1.86722900E+02
 20
1.53826369E+02
  0
VERTEX
  8
0
 62
6
 10
1.86828601E+02
 20
1.54021365E+02
  0
VERTEX
  8
0
 62
6
 10
1.86936398E+02
 20
1.54215337E+02
  0
VERTEX
  8
0
 62
6
 10
1.87046047E+02
 20
1.54408355E+02
  0
VERTEX
  8
0
 62
6
 10
1.87157301E+02
 20
1.54600490E+02
  0
VERTEX
  8
0
 62
6
 10
1.87269915E+02
 20
1.54791810E+02
  0
VERTEX
  8
0
 62
6
 10
1.87383643E+02
 20
1.54982385E+02
  0
VERTEX
  8
0
 62
6
 10
1.87498240E+02
 20
1.55172287E+02
  0
SEQEND
  8
0
  0
POLYLINE
  8
0
 62
6
 66
1
  0
VERTEX
  8
0
 62
6
 10
1.84934956E+02
 20
1.48823953E+02
  0
VERTEX
  8
0
 62
6
 10
1.84935689E+02
 20
1.48751544E+02
  0
VERTEX
  8
0
 62
6
 10
1.84937933E+02
 20
1.48679181E+02
  0
VERTEX
  8
0
 62
6
 10
1.84941752E+02
 20
1.48606934E+02
  0
VERTEX
  8
0
 62
6
 10
1.84947211E+02
 20
1.48534870E+02
  0
VERTEX
  8
0
 62
6
 10
1.84954373E+02
 20
1.48463059E+02
  0
VERTEX
  8
0
 62
6
 10
1.84963305E+02
 20
1.48391569E+02
  0
VERTEX
  8
0
 62
6
 10
1.84974070E+02
 20
1.48320469E+02
  0
VERTEX
  8
0
 62
6
 10
1.84986733E+02
 20
1.48249828E+02
  0
VERTEX
  8
0
 62
6
 10
1.85001358E+02
 20
1.48179714E+02
  0
VERTEX
  8
0
 62
6
 10
1.85018011E+02
 20
1.48110195E+02
  0
VERTEX
  8
0
 62
6
 10
1.85053827E+02
 20
1.47984360E+02
  0
VERTEX
  8
0
 62
6
 10
1.85095828E+02
 20
1.47860489E+02
  0
VERTEX
  8
0
 62
6
 10
1.85143163E+02
 20
1.47738312E+02
  0
VERTEX
  8
0
 62
6
 10
1.85194983E+02
 20
1.47617558E+02
  0
VERTEX
  8
0
 62
6
 10
1.85250435E+02
 20
1.47497957E+02
  0
VERTEX
  8
0
 62
6
 10
1.85308670E+02
 20
1.47379238E+02
  0
VERTEX
  8
0
 62
6
 10
1.85368837E+02
 20
1.47261131E+02
  0
VERTEX
  8
0
 62
6
 10
1.85430084E+02
 20
1.47143364E+02
  0
VERTEX
  8
0
 62
6
 10
1.85491562E+02
 20
1.47025668E+02
  0
VERTEX
  8
0
 62
6
 10
1.85552420E+02
 20
1.46907772E+02
  0
VERTEX
  8
0
 62
6
 10
1.85645164E+02
 20
1.46722165E+02
  0
VERTEX
  8
0
 62
6
 10
1.85734923E+02
 20
1.46535629E+02
  0
VERTEX
  8
0
 62
6
 10
1.85822323E+02
 20
1.46348394E+02
  0
VERTEX
  8
0
 62
6
 10
1.85907994E+02
 20
1.46160687E+02
  0
VERTEX
  8
0
 62
6
 10
1.85992562E+02
 20
1.45972738E+02
  0
VERTEX
  8
0
 62
6
 10
1.86076655E+02
 20
1.45784774E+02
  0
VERTEX
  8
0
 62
6
 10
1.86160901E+02
 20
1.45597024E+02
  0
VERTEX
  8
0
 62
6
 10
1.86245928E+02
 20
1.45409717E+02
  0
VERTEX
  8
0
 62
6
 10
1.86332363E+02
 20
1.45223080E+02
  0
VERTEX
  8
0
 62
6
 10
1.86420835E+02
 20
1.45037342E+02
  0
VERTEX
  8
0
 62
6
 10
1.86518771E+02
 20
1.44838855E+02
  0
VERTEX
  8
0
 62
6
 10
1.86619542E+02
 20
1.44641602E+02
  0
VERTEX
  8
0
 62
6
 10
1.86722900E+02
 20
1.44445512E+02
  0
VERTEX
  8
0
 62
6
 10
1.86828601E+02
 20
1.44250516E+02
  0
VERTEX
  8
0
 62
6
 10
1.86936398E+02
 20
1.44056544E+02
  0
VERTEX
  8
0
 62
6
 10
1.87046047E+02
 20
1.43863526E+02
  0
VERTEX
  8
0
 62
6
 10
1.87157301E+02
 20
1.43671392E+02
  0
VERTEX
  8
0
 62
6
 10
1.87269915E+02
 20
1.43480072E+02
  0
VERTEX
  8
0
 62
6
 10
1.87383643E+02
 20
1.43289496E+02
  0
VERTEX
  8
0
 62
6
 10
1.87498240E+02
 20
1.43099594E+02
  0
SEQEND
  8
0
  0
LINE
  8
0
 62
6
 10
9.72102289E+01
 20
1.25688683E+02
 11
9.61784744E+01
 21
1.25688683E+02
  0
LINE
  8
0
 62
6
 10
1.05646720E+02
 20
1.72688681E+02
 11
1.06678474E+02
 21
1.72688681E+02
  0
LINE
  8
0
 62
6
 10
1.01428475E+02
 20
1.72688681E+02
 11
9.61784749E+01
 21
1.67688681E+02
  0
LINE
  8
0
 62
6
 10
1.06678476E+02
 20
1.30688681E+02
 11
1.01428476E+02
 21
1.25688681E+02
  0
LINE
  8
0
 62
6
 10
1.01428474E+02
 20
1.25688683E+02
 11
9.91467204E+01
 21
1.25688683E+02
  0
LINE
  8
0
 62
6
 10
1.01428474E+02
 20
1.72688681E+02
 11
1.03710229E+02
 21
1.72688681E+02
  0
LINE
  8
0
 62
7
 10
1.00141184E+02
 20
1.08459027E+02
 11
1.03321986E+02
 21
1.13968337E+02
  0
LINE
  8
0
 62
7
 10
9.95349657E+01
 20
1.08809028E+02
 11
1.02715767E+02
 21
1.14318337E+02
  0
LINE
  8
0
 62
6
 10
1.06678474E+02
 20
1.26385941E+02
 11
1.08178474E+02
 21
1.26385941E+02
  0
LINE
  8
0
 62
6
 10
1.06678474E+02
 20
1.71885941E+02
 11
1.08178474E+02
 21
1.71885941E+02
  0
LINE
  8
0
 62
6
 10
1.08178474E+02
 20
1.71885941E+02
 11
1.08178474E+02
 21
1.26385941E+02
  0
LINE
  8
0
 62
6
 10
9.61784744E+01
 20
1.71885941E+02
 11
9.46784744E+01
 21
1.71885941E+02
  0
LINE
  8
0
 62
6
 10
9.61784744E+01
 20
1.26385941E+02
 11
9.46784744E+01
 21
1.26385941E+02
  0
LINE
  8
0
 62
6
 10
9.46784744E+01
 20
1.71885941E+02
 11
9.46784744E+01
 21
1.26385941E+02
  0
LINE
  8
0
 62
6
 10
1.05385582E+02
 20
1.70231575E+02
 11
1.03971368E+02
 21
1.71645788E+02
  0
LINE
  8
0
 62
6
 10
1.05385581E+02
 20
1.71645788E+02
 11
1.03971368E+02
 21
1.70231575E+02
  0
LINE
  8
0
  6
CENTER
 62
6
 10
1.09218113E+02
 20
1.49188679E+02
 11
9.26797743E+01
 21
1.49188679E+02
  0
LINE
  8
0
 62
6
 10
9.88855830E+01
 20
1.26731574E+02
 11
9.74713694E+01
 21
1.28145788E+02
  0
LINE
  8
0
 62
6
 10
9.88855830E+01
 20
1.28145788E+02
 11
9.74713694E+01
 21
1.26731574E+02
  0
LINE
  8
0
  6
CENTER
 62
6
 10
9.61723747E+01
 20
1.78885941E+02
 11
1.04345131E+02
 21
1.78885941E+02
  0
LINE
  8
0
 62
7
 10
9.61784744E+01
 20
7.83886795E+01
 11
9.61784744E+01
 21
1.21385941E+02
  0
LINE
  8
0
 62
7
 10
1.06678474E+02
 20
1.21385941E+02
 11
1.06678474E+02
 21
7.83886795E+01
  0
LINE
  8
0
 62
7
 10
9.61784744E+01
 20
1.21385941E+02
 11
1.06678474E+02
 21
1.21385941E+02
  0
LINE
  8
0
 62
7
 10
1.06678474E+02
 20
7.83886795E+01
 11
9.61784744E+01
 21
7.83886795E+01
  0
LINE
  8
0
  6
CENTER
 62
2
 10
9.81726980E+01
 20
9.23886795E+01
 11
1.04992083E+02
 21
9.23886795E+01
  0
LINE
  8
0
 62
6
 10
9.61784744E+01
 20
1.96385941E+02
 11
9.61784744E+01
 21
1.21385941E+02
  0
LINE
  8
0
 62
6
 10
1.06678474E+02
 20
1.96385941E+02
 11
1.06678474E+02
 21
1.21385941E+02
  0
LINE
  8
0
 62
6
 10
9.61784744E+01
 20
1.96385941E+02
 11
1.06678474E+02
 21
1.96385941E+02
  0
LINE
  8
0
  6
CENTER
 62
6
 10
1.00178474E+02
 20
1.74998264E+02
 11
1.00178474E+02
 21
1.83460928E+02
  0
LINE
  8
0
  6
CENTER
 62
2
 10
9.39284744E+01
 20
1.92385941E+02
 11
1.08928474E+02
 21
1.92385941E+02
  0
LINE
  8
0
  6
CENTER
 62
2
 10
9.39284744E+01
 20
1.24888680E+02
 11
1.08928474E+02
 21
1.24888680E+02
  0
LINE
  8
0
  6
CENTER
 62
2
 10
1.01428474E+02
 20
1.99044678E+02
 11
1.01428474E+02
 21
7.61354904E+01
  0
CIRCLE
  8
0
 62
7
 10
1.01428474E+02
 20
1.11388680E+02
 40
3.25000000E+00
  0
CIRCLE
  8
0
 62
7
 10
1.01428474E+02
 20
1.11388680E+02
 40
3.20000005E+00
  0
CIRCLE
  8
0
 62
7
 10
1.01428474E+02
 20
1.11388680E+02
 40
2.70000005E+00
  0
CIRCLE
  8
0
 62
6
 10
1.04678474E+02
 20
1.70938681E+02
 40
2.00000000E+00
  0
ARC
  8
0
 62
6
 10
1.01428474E+02
 20
1.49188679E+02
 40
8.00000000E+00
 50
2.28985497E+02
 51
3.11014498E+02
  0
ARC
  8
0
 62
6
 10
1.01428474E+02
 20
1.49188679E+02
 40
8.00000000E+00
 50
4.89855020E+01
 51
1.31014503E+02
  0
CIRCLE
  8
0
 62
6
 10
1.01428474E+02
 20
1.49188679E+02
 40
4.50000000E+00
  0
CIRCLE
  8
0
 62
6
 10
1.01428474E+02
 20
1.49188679E+02
 40
2.50000000E+00
  0
CIRCLE
  8
0
 62
6
 10
1.01428474E+02
 20
1.49188679E+02
 40
3.00000000E+00
  0
CIRCLE
  8
0
 62
6
 10
9.81784744E+01
 20
1.27438683E+02
 40
2.00000000E+00
  0
CIRCLE
  8
0
 62
2
 10
1.01428474E+02
 20
9.23886795E+01
 40
2.50000000E+00
  0
CIRCLE
  8
0
 62
7
 10
1.01428474E+02
 20
9.23886795E+01
 40
2.00000000E+00
  0
CIRCLE
  8
0
 62
6
 10
1.00178474E+02
 20
1.78885941E+02
 40
2.00000000E+00
  0
CIRCLE
  8
0
 62
6
 10
1.00178474E+02
 20
1.78885941E+02
 40
2.50000000E+00
  0
LINE
  8
0
  6
CENTER
 62
2
 10
-2.48488950E+02
 20
-4.94619026E+01
 11
-1.65060944E+02
 21
-4.94619026E+01
  0
LINE
  8
0
  6
CENTER
 62
2
 10
-2.28328375E+02
 20
-4.60369024E+01
 11
-2.28328375E+02
 21
-5.47869026E+01
  0
LINE
  8
0
 62
7
 10
-2.01328377E+02
 20
-4.42619028E+01
 11
-2.01328377E+02
 21
-5.46619026E+01
  0
LINE
  8
0
 62
7
 10
-2.19828375E+02
 20
-5.44619026E+01
 11
-2.01328377E+02
 21
-5.44619026E+01
  0
LINE
  8
0
 62
7
 10
-2.01328377E+02
 20
-4.44619026E+01
 11
-2.19828375E+02
 21
-4.44619026E+01
  0
LINE
  8
0
 62
7
 10
-2.15328375E+02
 20
-4.64619026E+01
 11
-2.15328375E+02
 21
-4.44619026E+01
  0
LINE
  8
0
 62
7
 10
-2.09628376E+02
 20
-5.27619026E+01
 11
-2.09628376E+02
 21
-5.44619026E+01
  0
LINE
  8
0
 62
7
 10
-2.06428375E+02
 20
-5.27619026E+01
 11
-2.06428375E+02
 21
-5.44619026E+01
  0
LINE
  8
0
 62
7
 10
-2.08028376E+02
 20
-5.46619026E+01
 11
-2.01328377E+02
 21
-5.46619026E+01
  0
LINE
  8
0
 62
7
 10
-2.01328377E+02
 20
-4.42619028E+01
 11
-2.08028376E+02
 21
-4.42619028E+01
  0
LINE
  8
0
 62
7
 10
-2.08028376E+02
 20
-5.46619026E+01
 11
-2.08028376E+02
 21
-5.44619026E+01
  0
LINE
  8
0
 62
7
 10
-2.08028376E+02
 20
-4.44619026E+01
 11
-2.08028376E+02
 21
-4.42619028E+01
  0
LINE
  8
0
 62
7
 10
-2.18528376E+02
 20
-4.64619026E+01
 11
-2.18528376E+02
 21
-4.44619026E+01
  0
LINE
  8
0
  6
CENTER
 62
2
 10
-2.32721199E+02
 20
-5.04119024E+01
 11
-2.23953375E+02
 21
-5.04119024E+01
  0
LINE
  8
0
 62
7
 10
-2.45828375E+02
 20
-4.42119026E+01
 11
-2.45828375E+02
 21
-5.47119026E+01
  0
LINE
  8
0
 62
7
 10
-2.45828375E+02
 20
-5.47119026E+01
 11
-2.19828375E+02
 21
-5.47119026E+01
  0
LINE
  8
0
 62
7
 10
-2.45828375E+02
 20
-4.42119026E+01
 11
-2.19828375E+02
 21
-4.42119026E+01
  0
LINE
  8
0
 62
7
 10
-1.74828377E+02
 20
-5.42630107E+01
 11
-1.74828377E+02
 21
-5.30119026E+01
  0
LINE
  8
0
 62
7
 10
-1.74528374E+02
 20
-4.45119028E+01
 11
-1.68328377E+02
 21
-4.45119028E+01
  0
LINE
  8
0
 62
7
 10
-1.66828377E+02
 20
-5.29119027E+01
 11
-1.66828377E+02
 21
-4.60119028E+01
  0
LINE
  8
0
 62
7
 10
-1.74528375E+02
 20
-4.45119042E+01
 11
-1.74828375E+02
 21
-4.48119034E+01
  0
LINE
  8
0
 62
7
 10
-1.75027264E+02
 20
-5.44630075E+01
 11
-2.01328376E+02
 21
-5.46091248E+01
  0
LINE
  8
0
 62
7
 10
-2.08028376E+02
 20
-4.42774582E+01
 11
-2.19828374E+02
 21
-4.42119026E+01
  0
LINE
  8
0
 62
7
 10
-2.19828375E+02
 20
-4.42119026E+01
 11
-2.19828375E+02
 21
-5.47119026E+01
  0
LINE
  8
0
 62
7
 10
-2.16150558E+02
 20
-4.72397203E+01
 11
-2.17706193E+02
 21
-4.56840856E+01
  0
LINE
  8
0
 62
7
 10
-2.16150558E+02
 20
-4.56840852E+01
 11
-2.17706193E+02
 21
-4.72397207E+01
  0
LINE
  8
0
 62
7
 10
-2.07250558E+02
 20
-5.35397199E+01
 11
-2.08806194E+02
 21
-5.19840845E+01
  0
LINE
  8
0
 62
7
 10
-2.07250558E+02
 20
-5.19840845E+01
 11
-2.08806194E+02
 21
-5.35397199E+01
  0
LINE
  8
0
  6
PHANTOM
 62
2
 10
-1.68719311E+02
 20
-5.03137139E+01
 11
-1.66737111E+02
 21
-4.29380862E+01
  0
LINE
  8
0
  6
PHANTOM
 62
2
 10
-1.69749312E+02
 20
-5.03137133E+01
 11
-1.67767112E+02
 21
-4.29380856E+01
  0
LINE
  8
0
  6
CENTER
 62
2
 10
-1.77521523E+02
 20
-4.69613500E+01
 11
-1.57667236E+02
 21
-4.69613500E+01
  0
LINE
  8
0
  6
PHANTOM
 62
2
 10
-1.61373311E+02
 20
-4.52613505E+01
 11
-1.61237362E+02
 21
-4.54613531E+01
  0
LINE
  8
0
  6
PHANTOM
 62
2
 10
-1.62247253E+02
 20
-4.52613497E+01
 11
-1.61373306E+02
 21
-4.52613497E+01
  0
LINE
  8
0
  6
PHANTOM
 62
2
 10
-1.62247253E+02
 20
-4.54613504E+01
 11
-1.61237358E+02
 21
-4.54613504E+01
  0
LINE
  8
0
  6
PHANTOM
 62
2
 10
-1.61373307E+02
 20
-4.62613500E+01
 11
-1.61237361E+02
 21
-4.64613494E+01
  0
LINE
  8
0
  6
PHANTOM
 62
2
 10
-1.62247253E+02
 20
-4.62613497E+01
 11
-1.61373306E+02
 21
-4.62613497E+01
  0
LINE
  8
0
  6
PHANTOM
 62
2
 10
-1.62247253E+02
 20
-4.64613504E+01
 11
-1.61237358E+02
 21
-4.64613504E+01
  0
LINE
  8
0
  6
PHANTOM
 62
2
 10
-1.61373310E+02
 20
-4.72613537E+01
 11
-1.61237364E+02
 21
-4.74613532E+01
  0
LINE
  8
0
  6
PHANTOM
 62
2
 10
-1.62247253E+02
 20
-4.72613502E+01
 11
-1.61373306E+02
 21
-4.72613502E+01
  0
LINE
  8
0
  6
PHANTOM
 62
2
 10
-1.62247253E+02
 20
-4.74613500E+01
 11
-1.61237358E+02
 21
-4.74613500E+01
  0
LINE
  8
0
  6
PHANTOM
 62
2
 10
-1.61373309E+02
 20
-4.82613501E+01
 11
-1.61237363E+02
 21
-4.84613495E+01
  0
LINE
  8
0
  6
PHANTOM
 62
2
 10
-1.62247253E+02
 20
-4.82613502E+01
 11
-1.61373306E+02
 21
-4.82613502E+01
  0
LINE
  8
0
  6
PHANTOM
 62
2
 10
-1.62247253E+02
 20
-4.84613500E+01
 11
-1.61237358E+02
 21
-4.84613500E+01
  0
LINE
  8
0
  6
PHANTOM
 62
2
 10
-1.62247253E+02
 20
-4.56113501E+01
 11
-1.62247253E+02
 21
-4.51113501E+01
  0
LINE
  8
0
  6
PHANTOM
 62
2
 10
-1.62247253E+02
 20
-4.66113501E+01
 11
-1.62247253E+02
 21
-4.61113501E+01
  0
LINE
  8
0
  6
PHANTOM
 62
2
 10
-1.62247253E+02
 20
-4.76113501E+01
 11
-1.62247253E+02
 21
-4.71113501E+01
  0
LINE
  8
0
  6
PHANTOM
 62
2
 10
-1.62247253E+02
 20
-4.86113501E+01
 11
-1.62247253E+02
 21
-4.81113501E+01
  0
LINE
  8
0
  6
PHANTOM
 62
2
 10
-1.64127823E+02
 20
-4.51113501E+01
 11
-1.62247253E+02
 21
-4.51113501E+01
  0
LINE
  8
0
  6
PHANTOM
 62
2
 10
-1.64127823E+02
 20
-4.56113501E+01
 11
-1.62247253E+02
 21
-4.56113501E+01
  0
LINE
  8
0
  6
PHANTOM
 62
2
 10
-1.64127823E+02
 20
-4.61113501E+01
 11
-1.62247253E+02
 21
-4.61113501E+01
  0
LINE
  8
0
  6
PHANTOM
 62
2
 10
-1.64127823E+02
 20
-4.66113501E+01
 11
-1.62247253E+02
 21
-4.66113501E+01
  0
LINE
  8
0
  6
PHANTOM
 62
2
 10
-1.64127823E+02
 20
-4.71113501E+01
 11
-1.62247253E+02
 21
-4.71113501E+01
  0
LINE
  8
0
  6
PHANTOM
 62
2
 10
-1.64127823E+02
 20
-4.76113501E+01
 11
-1.62247253E+02
 21
-4.76113501E+01
  0
LINE
  8
0
  6
PHANTOM
 62
2
 10
-1.64127823E+02
 20
-4.81113501E+01
 11
-1.62247253E+02
 21
-4.81113501E+01
  0
LINE
  8
0
  6
PHANTOM
 62
2
 10
-1.64127823E+02
 20
-4.86113501E+01
 11
-1.62247253E+02
 21
-4.86113501E+01
  0
LINE
  8
0
  6
PHANTOM
 62
2
 10
-1.64127823E+02
 20
-4.89613500E+01
 11
-1.64127823E+02
 21
-4.49613504E+01
  0
LINE
  8
0
  6
PHANTOM
 62
2
 10
-1.73927818E+02
 20
-4.49613504E+01
 11
-1.64127823E+02
 21
-4.49613504E+01
  0
LINE
  8
0
  6
PHANTOM
 62
2
 10
-1.73927818E+02
 20
-4.89613500E+01
 11
-1.64127823E+02
 21
-4.89613500E+01
  0
LINE
  8
0
  6
PHANTOM
 62
2
 10
-1.73927818E+02
 20
-4.93613501E+01
 11
-1.73927818E+02
 21
-4.80107975E+01
  0
LINE
  8
0
  6
PHANTOM
 62
2
 10
-1.73927818E+02
 20
-4.45613499E+01
 11
-1.74828377E+02
 21
-4.45613499E+01
  0
LINE
  8
0
  6
PHANTOM
 62
2
 10
-1.73927818E+02
 20
-4.93613501E+01
 11
-1.74854851E+02
 21
-4.93613501E+01
  0
LINE
  8
0
 62
7
 10
-1.74528374E+02
 20
-5.44119026E+01
 11
-1.68328377E+02
 21
-5.44119026E+01
  0
LINE
  8
0
 62
7
 10
-1.74528378E+02
 20
-5.44119034E+01
 11
-1.74577824E+02
 21
-5.43624574E+01
  0
LINE
  8
0
 62
7
 10
-2.08028596E+02
 20
-5.46463483E+01
 11
-2.19828374E+02
 21
-5.47119026E+01
  0
LINE
  8
0
 62
7
 10
-1.75027266E+02
 20
-4.44607977E+01
 11
-2.01328374E+02
 21
-4.43146804E+01
  0
LINE
  8
0
 62
6
 10
-1.80728374E+02
 20
-4.44619026E+01
 11
-1.80728374E+02
 21
-5.44619026E+01
  0
LINE
  8
0
 62
6
 10
-1.80728374E+02
 20
-4.59119024E+01
 11
-1.72528374E+02
 21
-4.59119024E+01
  0
LINE
  8
0
 62
6
 10
-1.80728374E+02
 20
-4.72119026E+01
 11
-1.72528374E+02
 21
-4.72119026E+01
  0
LINE
  8
0
 62
6
 10
-1.72528374E+02
 20
-4.72119026E+01
 11
-1.72528374E+02
 21
-4.59119024E+01
  0
LINE
  8
0
 62
6
 10
-1.68528374E+02
 20
-4.68119025E+01
 11
-1.68528374E+02
 21
-4.63119030E+01
  0
LINE
  8
0
 62
6
 10
-1.72528374E+02
 20
-4.68119025E+01
 11
-1.68528374E+02
 21
-4.68119025E+01
  0
LINE
  8
0
 62
6
 10
-1.72528374E+02
 20
-4.63119030E+01
 11
-1.68528374E+02
 21
-4.63119030E+01
  0
LINE
  8
0
 62
6
 10
-1.72528374E+02
 20
-5.21119027E+01
 11
-1.68528374E+02
 21
-5.21119027E+01
  0
LINE
  8
0
 62
6
 10
-1.72528374E+02
 20
-5.26119027E+01
 11
-1.68528374E+02
 21
-5.26119027E+01
  0
LINE
  8
0
 62
6
 10
-1.68528374E+02
 20
-5.26119027E+01
 11
-1.68528374E+02
 21
-5.21119027E+01
  0
LINE
  8
0
 62
6
 10
-1.72528374E+02
 20
-5.30119026E+01
 11
-1.72528374E+02
 21
-5.17119026E+01
  0
LINE
  8
0
 62
6
 10
-1.80728374E+02
 20
-5.30119026E+01
 11
-1.72528374E+02
 21
-5.30119026E+01
  0
LINE
  8
0
 62
6
 10
-1.80728374E+02
 20
-5.17119026E+01
 11
-1.72528374E+02
 21
-5.17119026E+01
  0
LINE
  8
0
 62
6
 10
-2.01328377E+02
 20
-4.44619026E+01
 11
-1.81728374E+02
 21
-4.44619026E+01
  0
LINE
  8
0
 62
6
 10
-1.81728374E+02
 20
-4.44619026E+01
 11
-1.80728374E+02
 21
-4.44619026E+01
  0
LINE
  8
0
 62
6
 10
-1.81728374E+02
 20
-5.44619026E+01
 11
-1.80728374E+02
 21
-5.44619026E+01
  0
LINE
  8
0
 62
6
 10
-2.01328377E+02
 20
-5.44619026E+01
 11
-1.81728374E+02
 21
-5.44619026E+01
  0
LINE
  8
0
 62
6
 10
-1.97328377E+02
 20
-5.44619026E+01
 11
-1.97328377E+02
 21
-4.44619026E+01
  0
LINE
  8
0
 62
7
 10
-1.74828377E+02
 20
-4.59119024E+01
 11
-1.74828377E+02
 21
-4.46607943E+01
  0
LINE
  8
0
 62
7
 10
-1.74828377E+02
 20
-5.17119026E+01
 11
-1.74828377E+02
 21
-4.72119026E+01
  0
LINE
  8
0
  6
PHANTOM
 62
2
 10
-1.73927818E+02
 20
-4.67107973E+01
 11
-1.73927818E+02
 21
-4.45613499E+01
  0
LINE
  8
0
 62
6
 10
-1.81728374E+02
 20
-4.44619026E+01
 11
-1.81728374E+02
 21
-5.44619026E+01
  0
LINE
  8
0
 62
6
 10
-1.89828377E+02
 20
-4.44619026E+01
 11
-1.89828377E+02
 21
-5.44619026E+01
  0
LINE
  8
0
 62
6
 10
-1.86328377E+02
 20
-4.44619026E+01
 11
-1.86328377E+02
 21
-5.44619026E+01
  0
LINE
  8
0
  6
CENTER
 62
2
 10
-2.35928375E+02
 20
-5.69619026E+01
 11
-2.35928375E+02
 21
-4.19619026E+01
  0
LINE
  8
0
  6
CENTER
 62
2
 10
-2.37928375E+02
 20
-5.69619026E+01
 11
-2.37928375E+02
 21
-4.19619026E+01
  0
ARC
  8
0
 62
7
 10
-2.16928375E+02
 20
-4.64619026E+01
 40
1.60000002E+00
 50
1.79999995E+02
 51
0.00000000E+00
  0
ARC
  8
0
 62
7
 10
-2.08028376E+02
 20
-5.27619026E+01
 40
1.60000002E+00
 50
0.00000000E+00
 51
1.80000005E+02
  0
CIRCLE
  8
0
 62
7
 10
-2.28328375E+02
 20
-5.04119024E+01
 40
2.50000000E+00
  0
ARC
  8
0
 62
7
 10
-1.68328377E+02
 20
-4.60119028E+01
 40
1.50000000E+00
 50
0.00000000E+00
 51
9.00000002E+01
  0
ARC
  8
0
 62
7
 10
-1.75028374E+02
 20
-5.42630107E+01
 40
2.00000003E-01
 50
2.70318305E+02
 51
0.00000000E+00
  0
ARC
  8
0
 62
7
 10
-1.75028374E+02
 20
-4.46607943E+01
 40
2.00000003E-01
 50
0.00000000E+00
 51
8.96816952E+01
  0
CIRCLE
  8
0
 62
7
 10
-2.16928375E+02
 20
-4.64619026E+01
 40
1.50000000E+00
  0
CIRCLE
  8
0
 62
7
 10
-2.08028376E+02
 20
-5.27619026E+01
 40
1.50000000E+00
  0
ARC
  8
0
 62
7
 10
-1.68328377E+02
 20
-5.29119027E+01
 40
1.50000000E+00
 50
2.70000000E+02
 51
0.00000000E+00
  0
CIRCLE
  8
0
 62
7
 10
-2.28328375E+02
 20
-5.04119024E+01
 40
3.50000000E+00
  0
CIRCLE
  8
0
 62
7
 10
-2.28328375E+02
 20
-5.04119024E+01
 40
4.00000000E+00
  0
LINE
  8
0
 62
2
 10
-8.98283844E+01
 20
-1.16334576E+02
 11
-8.98283844E+01
 21
-1.14334576E+02
  0
LINE
  8
0
 62
6
 10
-8.48283844E+01
 20
-1.32334576E+02
 11
-9.48283844E+01
 21
-1.32334576E+02
  0
LINE
  8
0
 62
6
 10
-8.48283844E+01
 20
-1.32234575E+02
 11
-9.48283844E+01
 21
-1.32234575E+02
  0
LINE
  8
0
 62
6
 10
-9.48283844E+01
 20
-1.31736497E+02
 11
-8.48283844E+01
 21
-1.31736497E+02
  0
LINE
  8
0
  6
CENTER
 62
6
 10
-8.69283848E+01
 20
-1.33826499E+02
 11
-8.69283848E+01
 21
-1.39371279E+02
  0
LINE
  8
0
  6
CENTER
 62
6
 10
-9.27283845E+01
 20
-1.33826499E+02
 11
-9.27283845E+01
 21
-1.39371279E+02
  0
LINE
  8
0
 62
6
 10
-8.69283848E+01
 20
-1.38534575E+02
 11
-9.27283845E+01
 21
-1.38534575E+02
  0
LINE
  8
0
 62
6
 10
-8.69283848E+01
 20
-1.34534575E+02
 11
-9.27283845E+01
 21
-1.34534575E+02
  0
LINE
  8
0
  6
CENTER
 62
6
 10
-8.44178944E+01
 20
-1.36534575E+02
 11
-9.52402675E+01
 21
-1.36534575E+02
  0
LINE
  8
0
 62
6
 10
-8.48283844E+01
 20
-1.78344292E+02
 11
-9.48283844E+01
 21
-1.78344292E+02
  0
LINE
  8
0
 62
6
 10
-8.48283844E+01
 20
-1.78444290E+02
 11
-9.48283844E+01
 21
-1.78444290E+02
  0
LINE
  8
0
  6
CENTER
 62
6
 10
-8.69283848E+01
 20
-1.76852367E+02
 11
-8.69283848E+01
 21
-1.71307587E+02
  0
LINE
  8
0
  6
CENTER
 62
6
 10
-9.27283845E+01
 20
-1.76852367E+02
 11
-9.27283845E+01
 21
-1.71307587E+02
  0
LINE
  8
0
 62
6
 10
-8.69283848E+01
 20
-1.72144291E+02
 11
-9.27283845E+01
 21
-1.72144291E+02
  0
LINE
  8
0
 62
6
 10
-8.69283848E+01
 20
-1.76144291E+02
 11
-9.27283845E+01
 21
-1.76144291E+02
  0
LINE
  8
0
  6
CENTER
 62
6
 10
-8.44178944E+01
 20
-1.74144291E+02
 11
-9.52402675E+01
 21
-1.74144291E+02
  0
LINE
  8
0
 62
6
 10
-8.51283846E+01
 20
-1.60844292E+02
 11
-9.45283844E+01
 21
-1.60844292E+02
  0
LINE
  8
0
 62
6
 10
-8.83283844E+01
 20
-1.65844292E+02
 11
-8.83283844E+01
 21
-1.60844292E+02
  0
LINE
  8
0
 62
6
 10
-9.13283844E+01
 20
-1.65844292E+02
 11
-8.83283844E+01
 21
-1.65844292E+02
  0
LINE
  8
0
 62
6
 10
-9.13283844E+01
 20
-1.65844292E+02
 11
-9.13283844E+01
 21
-1.60844292E+02
  0
LINE
  8
0
 62
6
 10
-9.22227527E+01
 20
-1.86885110E+02
 11
-9.24783823E+01
 21
-1.86444293E+02
  0
LINE
  8
0
 62
6
 10
-8.71783851E+01
 20
-1.86444290E+02
 11
-8.74340148E+01
 21
-1.86885107E+02
  0
LINE
  8
0
 62
6
 10
-9.09727538E+01
 20
-1.85635108E+02
 11
-9.12283834E+01
 21
-1.85194290E+02
  0
LINE
  8
0
 62
6
 10
-9.24783865E+01
 20
-1.86444291E+02
 11
-9.12283852E+01
 21
-1.85194289E+02
  0
LINE
  8
0
 62
6
 10
-9.09727554E+01
 20
-1.85635106E+02
 11
-9.22227568E+01
 21
-1.86885108E+02
  0
LINE
  8
0
 62
6
 10
-8.86840140E+01
 20
-1.85635109E+02
 11
-8.84283843E+01
 21
-1.85194291E+02
  0
LINE
  8
0
 62
6
 10
-8.48283844E+01
 20
-1.79753475E+02
 11
-9.48283844E+01
 21
-1.79753475E+02
  0
LINE
  8
0
 62
6
 10
-8.86840157E+01
 20
-1.85635109E+02
 11
-8.74340144E+01
 21
-1.86885110E+02
  0
LINE
  8
0
 62
6
 10
-8.48283844E+01
 20
-1.86885109E+02
 11
-8.74340138E+01
 21
-1.86885109E+02
  0
LINE
  8
0
 62
6
 10
-9.22227547E+01
 20
-1.86885109E+02
 11
-9.48283844E+01
 21
-1.86885109E+02
  0
LINE
  8
0
 62
6
 10
-9.09727550E+01
 20
-1.85635109E+02
 11
-8.86840138E+01
 21
-1.85635109E+02
  0
LINE
  8
0
 62
6
 10
-8.48283844E+01
 20
-1.86444290E+02
 11
-8.71783843E+01
 21
-1.86444290E+02
  0
LINE
  8
0
 62
6
 10
-8.71783819E+01
 20
-1.86444291E+02
 11
-8.84283833E+01
 21
-1.85194289E+02
  0
LINE
  8
0
 62
6
 10
-9.12283845E+01
 20
-1.85194290E+02
 11
-8.84283843E+01
 21
-1.85194290E+02
  0
LINE
  8
0
 62
6
 10
-9.24783845E+01
 20
-1.86444290E+02
 11
-9.48283844E+01
 21
-1.86444290E+02
  0
LINE
  8
0
 62
6
 10
-9.48283844E+01
 20
-1.78942371E+02
 11
-8.48283844E+01
 21
-1.78942371E+02
  0
LINE
  8
0
 62
6
 10
-8.63283844E+01
 20
-1.82744293E+02
 11
-8.48283844E+01
 21
-1.82744293E+02
  0
LINE
  8
0
 62
6
 10
-8.48283844E+01
 20
-1.85944290E+02
 11
-8.63283844E+01
 21
-1.85944290E+02
  0
LINE
  8
0
 62
6
 10
-9.33283844E+01
 20
-1.85944290E+02
 11
-9.48283844E+01
 21
-1.85944290E+02
  0
LINE
  8
0
 62
6
 10
-9.48283844E+01
 20
-1.82744293E+02
 11
-9.33283844E+01
 21
-1.82744293E+02
  0
LINE
  8
0
 62
6
 10
-8.80028706E+01
 20
-1.82894291E+02
 11
-9.16538980E+01
 21
-1.82894291E+02
  0
LINE
  8
0
 62
6
 10
-8.98283844E+01
 20
-1.82294292E+02
 11
-9.16538980E+01
 21
-1.82294292E+02
  0
LINE
  8
0
 62
6
 10
-8.80028706E+01
 20
-1.82294292E+02
 11
-8.98283844E+01
 21
-1.82294292E+02
  0
LINE
  8
0
 62
6
 10
-9.40354920E+01
 20
-1.85051397E+02
 11
-9.26212785E+01
 21
-1.83637184E+02
  0
LINE
  8
0
 62
6
 10
-9.40354920E+01
 20
-1.83637184E+02
 11
-9.26212785E+01
 21
-1.85051397E+02
  0
LINE
  8
0
 62
6
 10
-8.56212764E+01
 20
-1.83637184E+02
 11
-8.70354900E+01
 21
-1.85051397E+02
  0
LINE
  8
0
 62
6
 10
-8.56212764E+01
 20
-1.85051397E+02
 11
-8.70354900E+01
 21
-1.83637184E+02
  0
LINE
  8
0
 62
6
 10
-8.51283846E+01
 20
-1.49834576E+02
 11
-9.45283844E+01
 21
-1.49834576E+02
  0
LINE
  8
0
 62
6
 10
-8.83283844E+01
 20
-1.44834576E+02
 11
-8.83283844E+01
 21
-1.49834576E+02
  0
LINE
  8
0
 62
6
 10
-9.13283844E+01
 20
-1.44834576E+02
 11
-8.83283844E+01
 21
-1.44834576E+02
  0
LINE
  8
0
 62
6
 10
-9.13283844E+01
 20
-1.44834576E+02
 11
-9.13283844E+01
 21
-1.49834576E+02
  0
LINE
  8
0
 62
6
 10
-9.22227549E+01
 20
-1.23793758E+02
 11
-9.24783845E+01
 21
-1.24234575E+02
  0
LINE
  8
0
 62
6
 10
-8.71783845E+01
 20
-1.24234575E+02
 11
-8.74340142E+01
 21
-1.23793758E+02
  0
LINE
  8
0
 62
6
 10
-9.09727548E+01
 20
-1.25043758E+02
 11
-9.12283844E+01
 21
-1.25484576E+02
  0
LINE
  8
0
 62
6
 10
-9.24783845E+01
 20
-1.24234575E+02
 11
-9.12283843E+01
 21
-1.25484575E+02
  0
LINE
  8
0
 62
6
 10
-9.09727548E+01
 20
-1.25043758E+02
 11
-9.22227549E+01
 21
-1.23793758E+02
  0
LINE
  8
0
 62
6
 10
-8.86840141E+01
 20
-1.25043758E+02
 11
-8.84283845E+01
 21
-1.25484575E+02
  0
LINE
  8
0
 62
6
 10
-8.48283844E+01
 20
-1.30925393E+02
 11
-9.48283844E+01
 21
-1.30925393E+02
  0
LINE
  8
0
 62
6
 10
-8.86840142E+01
 20
-1.25043758E+02
 11
-8.74340140E+01
 21
-1.23793758E+02
  0
LINE
  8
0
 62
6
 10
-8.48283844E+01
 20
-1.23793758E+02
 11
-8.74340138E+01
 21
-1.23793758E+02
  0
LINE
  8
0
 62
6
 10
-9.22227547E+01
 20
-1.23793758E+02
 11
-9.48283844E+01
 21
-1.23793758E+02
  0
LINE
  8
0
 62
6
 10
-9.09727550E+01
 20
-1.25043758E+02
 11
-8.86840138E+01
 21
-1.25043758E+02
  0
LINE
  8
0
 62
6
 10
-8.48283844E+01
 20
-1.24234576E+02
 11
-8.71783843E+01
 21
-1.24234576E+02
  0
LINE
  8
0
 62
6
 10
-8.71783845E+01
 20
-1.24234575E+02
 11
-8.84283845E+01
 21
-1.25484575E+02
  0
LINE
  8
0
 62
6
 10
-9.12283845E+01
 20
-1.25484576E+02
 11
-8.84283843E+01
 21
-1.25484576E+02
  0
LINE
  8
0
 62
6
 10
-9.24783845E+01
 20
-1.24234576E+02
 11
-9.48283844E+01
 21
-1.24234576E+02
  0
LINE
  8
0
 62
6
 10
-8.63283844E+01
 20
-1.27934576E+02
 11
-8.48283844E+01
 21
-1.27934576E+02
  0
LINE
  8
0
 62
6
 10
-8.48283844E+01
 20
-1.24734576E+02
 11
-8.63283844E+01
 21
-1.24734576E+02
  0
LINE
  8
0
 62
6
 10
-9.33283844E+01
 20
-1.24734576E+02
 11
-9.48283844E+01
 21
-1.24734576E+02
  0
LINE
  8
0
 62
6
 10
-9.48283844E+01
 20
-1.27934576E+02
 11
-9.33283844E+01
 21
-1.27934576E+02
  0
LINE
  8
0
 62
6
 10
-9.48283844E+01
 20
-1.49534575E+02
 11
-9.48283844E+01
 21
-1.17834576E+02
  0
LINE
  8
0
 62
6
 10
-8.48283844E+01
 20
-1.49534575E+02
 11
-8.48283844E+01
 21
-1.17834576E+02
  0
LINE
  8
0
 62
6
 10
-8.80028706E+01
 20
-1.27784575E+02
 11
-9.16538980E+01
 21
-1.27784575E+02
  0
LINE
  8
0
 62
6
 10
-8.98283844E+01
 20
-1.28384575E+02
 11
-9.16538980E+01
 21
-1.28384575E+02
  0
LINE
  8
0
 62
6
 10
-8.80028706E+01
 20
-1.28384575E+02
 11
-8.98283844E+01
 21
-1.28384575E+02
  0
LINE
  8
0
 62
6
 10
-9.40354912E+01
 20
-1.25627469E+02
 11
-9.26212775E+01
 21
-1.27041682E+02
  0
LINE
  8
0
 62
6
 10
-9.40354910E+01
 20
-1.27041682E+02
 11
-9.26212775E+01
 21
-1.25627469E+02
  0
LINE
  8
0
 62
6
 10
-8.56212780E+01
 20
-1.27041682E+02
 11
-8.70354915E+01
 21
-1.25627468E+02
  0
LINE
  8
0
 62
6
 10
-8.56212778E+01
 20
-1.25627468E+02
 11
-8.70354915E+01
 21
-1.27041682E+02
  0
LINE
  8
0
 62
6
 10
-9.48283844E+01
 20
-1.17834576E+02
 11
-8.48283844E+01
 21
-1.17834576E+02
  0
LINE
  8
0
  6
PHANTOM
 62
2
 10
-8.47283840E+01
 20
-2.12841553E+02
 11
-9.49283844E+01
 21
-2.12841553E+02
  0
LINE
  8
0
  6
PHANTOM
 62
2
 10
-8.47283840E+01
 20
-2.12841553E+02
 11
-8.47283840E+01
 21
-1.92844292E+02
  0
LINE
  8
0
  6
PHANTOM
 62
2
 10
-9.49283844E+01
 20
-2.12841553E+02
 11
-9.49283844E+01
 21
-1.92844292E+02
  0
LINE
  8
0
  6
PHANTOM
 62
2
 10
-9.19283843E+01
 20
-1.92844292E+02
 11
-9.19283843E+01
 21
-2.11596069E+02
  0
LINE
  8
0
  6
PHANTOM
 62
2
 10
-9.45845903E+01
 20
-2.08742920E+02
 11
-8.92727618E+01
 21
-2.08742920E+02
  0
LINE
  8
0
  6
PHANTOM
 62
2
 10
-9.45845903E+01
 20
-2.00942924E+02
 11
-8.93079395E+01
 21
-2.00942924E+02
  0
LINE
  8
0
  6
PHANTOM
 62
2
 10
-9.55695651E+01
 20
-1.95592918E+02
 11
-8.81524715E+01
 21
-1.95592918E+02
  0
LINE
  8
0
 62
6
 10
-8.48283844E+01
 20
-1.92844292E+02
 11
-9.48283844E+01
 21
-1.92844292E+02
  0
LINE
  8
0
  6
CENTER
 62
2
 10
-9.65772461E+01
 20
-2.28841553E+02
 11
-8.32475443E+01
 21
-2.28841553E+02
  0
LINE
  8
0
 62
7
 10
-9.43283844E+01
 20
-2.12841553E+02
 11
-8.53283844E+01
 21
-2.12841553E+02
  0
LINE
  8
0
 62
7
 10
-8.45783844E+01
 20
-2.35841553E+02
 11
-9.50783844E+01
 21
-2.35841553E+02
  0
LINE
  8
0
 62
7
 10
-8.48283844E+01
 20
-2.13341553E+02
 11
-8.48283844E+01
 21
-2.35341553E+02
  0
LINE
  8
0
 62
7
 10
-9.48283844E+01
 20
-2.13341553E+02
 11
-9.48283844E+01
 21
-2.35341553E+02
  0
LINE
  8
0
 62
7
 10
-8.45783844E+01
 20
-1.17834576E+02
 11
-8.45783844E+01
 21
-2.35841553E+02
  0
LINE
  8
0
 62
7
 10
-9.50783844E+01
 20
-1.17834576E+02
 11
-9.50783844E+01
 21
-2.35841553E+02
  0
LINE
  8
0
  6
CENTER
 62
2
 10
-8.98283844E+01
 20
-1.16262980E+02
 11
-8.98283844E+01
 21
-2.36900887E+02
  0
LINE
  8
0
 62
7
 10
-8.48283844E+01
 20
-1.61144291E+02
 11
-8.48283844E+01
 21
-1.49534575E+02
  0
LINE
  8
0
 62
7
 10
-9.48283844E+01
 20
-1.49534575E+02
 11
-9.48283844E+01
 21
-1.61144291E+02
  0
LINE
  8
0
  6
CENTER
 62
6
 10
-9.33283844E+01
 20
-1.28834576E+02
 11
-9.33283844E+01
 21
-1.23834575E+02
  0
LINE
  8
0
  6
CENTER
 62
6
 10
-9.58283844E+01
 20
-1.26334576E+02
 11
-9.08283844E+01
 21
-1.26334576E+02
  0
LINE
  8
0
  6
CENTER
 62
6
 10
-8.63283844E+01
 20
-1.28834576E+02
 11
-8.63283844E+01
 21
-1.23834575E+02
  0
LINE
  8
0
  6
CENTER
 62
6
 10
-8.88283844E+01
 20
-1.26334576E+02
 11
-8.38283844E+01
 21
-1.26334576E+02
  0
LINE
  8
0
  6
CENTER
 62
6
 10
-9.33283844E+01
 20
-1.86844292E+02
 11
-9.33283844E+01
 21
-1.81844292E+02
  0
LINE
  8
0
  6
CENTER
 62
6
 10
-9.58283844E+01
 20
-1.84344292E+02
 11
-9.08283844E+01
 21
-1.84344292E+02
  0
LINE
  8
0
  6
CENTER
 62
6
 10
-8.63283844E+01
 20
-1.86844292E+02
 11
-8.63283844E+01
 21
-1.81844292E+02
  0
LINE
  8
0
  6
CENTER
 62
6
 10
-8.88283844E+01
 20
-1.84344292E+02
 11
-8.38283844E+01
 21
-1.84344292E+02
  0
LINE
  8
0
  6
CENTER
 62
2
 10
-9.07783842E+01
 20
-1.02348297E+02
 11
-9.07783842E+01
 21
-1.19312126E+02
  0
LINE
  8
0
 62
7
 10
-9.47783844E+01
 20
-1.17134575E+02
 11
-8.67783842E+01
 21
-1.17134575E+02
  0
LINE
  8
0
 62
7
 10
-8.70783843E+01
 20
-1.16834575E+02
 11
-8.67783844E+01
 21
-1.17134575E+02
  0
LINE
  8
0
 62
7
 10
-9.47783843E+01
 20
-1.17134575E+02
 11
-9.44783844E+01
 21
-1.16834576E+02
  0
LINE
  8
0
 62
7
 10
-9.47783844E+01
 20
-1.17834576E+02
 11
-9.47783844E+01
 21
-1.17134575E+02
  0
LINE
  8
0
 62
7
 10
-8.67783842E+01
 20
-1.17834576E+02
 11
-8.67783842E+01
 21
-1.17134575E+02
  0
LINE
  8
0
 62
7
 10
-9.44783844E+01
 20
-1.16834576E+02
 11
-8.70783844E+01
 21
-1.16834576E+02
  0
LINE
  8
0
 62
7
 10
-8.72783848E+01
 20
-1.16334576E+02
 11
-8.77783846E+01
 21
-1.16834576E+02
  0
LINE
  8
0
 62
7
 10
-9.20283844E+01
 20
-1.11129576E+02
 11
-9.20283844E+01
 21
-1.13834576E+02
  0
LINE
  8
0
 62
7
 10
-9.42783844E+01
 20
-1.16334576E+02
 11
-9.42783844E+01
 21
-1.14334576E+02
  0
LINE
  8
0
 62
7
 10
-9.32783844E+01
 20
-1.06629576E+02
 11
-9.32783844E+01
 21
-1.10629576E+02
  0
LINE
  8
0
 62
7
 10
-9.27783844E+01
 20
-1.11129576E+02
 11
-9.32783846E+01
 21
-1.10629576E+02
  0
LINE
  8
0
 62
7
 10
-9.32783842E+01
 20
-1.06629576E+02
 11
-9.27783844E+01
 21
-1.06129576E+02
  0
LINE
  8
0
 62
7
 10
-9.42783843E+01
 20
-1.14334575E+02
 11
-9.37783844E+01
 21
-1.13834576E+02
  0
LINE
  8
0
 62
7
 10
-9.42783843E+01
 20
-1.16334576E+02
 11
-9.37783844E+01
 21
-1.16834575E+02
  0
LINE
  8
0
 62
7
 10
-8.82783842E+01
 20
-1.06629576E+02
 11
-8.82783842E+01
 21
-1.10629576E+02
  0
LINE
  8
0
 62
7
 10
-8.82783843E+01
 20
-1.06629576E+02
 11
-8.87783845E+01
 21
-1.06129575E+02
  0
LINE
  8
0
 62
7
 10
-8.82783845E+01
 20
-1.10629576E+02
 11
-8.87783844E+01
 21
-1.11129576E+02
  0
LINE
  8
0
 62
7
 10
-8.72783844E+01
 20
-1.14334575E+02
 11
-8.77783843E+01
 21
-1.13834575E+02
  0
LINE
  8
0
 62
7
 10
-8.95283842E+01
 20
-1.11129576E+02
 11
-8.95283842E+01
 21
-1.13834576E+02
  0
LINE
  8
0
 62
7
 10
-8.72783842E+01
 20
-1.16334576E+02
 11
-8.72783842E+01
 21
-1.14334576E+02
  0
LINE
  8
0
 62
7
 10
-8.77783842E+01
 20
-1.13834576E+02
 11
-9.37783844E+01
 21
-1.13834576E+02
  0
LINE
  8
0
 62
7
 10
-9.27783844E+01
 20
-1.11129576E+02
 11
-8.87783842E+01
 21
-1.11129576E+02
  0
LINE
  8
0
 62
7
 10
-8.87783842E+01
 20
-1.06129576E+02
 11
-9.27783844E+01
 21
-1.06129576E+02
  0
LINE
  8
0
 62
7
 10
-8.48283844E+01
 20
-1.17834576E+02
 11
-8.45783844E+01
 21
-1.17834576E+02
  0
LINE
  8
0
 62
7
 10
-9.48283844E+01
 20
-1.17834576E+02
 11
-9.50783844E+01
 21
-1.17834576E+02
  0
LINE
  8
0
 62
7
 10
-8.48283844E+01
 20
-1.92844292E+02
 11
-8.45783844E+01
 21
-1.92844292E+02
  0
LINE
  8
0
 62
7
 10
-9.48283844E+01
 20
-1.92844292E+02
 11
-9.50783844E+01
 21
-1.92844292E+02
  0
LINE
  8
0
 62
6
 10
-9.48283844E+01
 20
-2.12841553E+02
 11
-8.48283844E+01
 21
-2.12841553E+02
  0
LINE
  8
0
 62
6
 10
-9.48283844E+01
 20
-1.92841553E+02
 11
-8.48283844E+01
 21
-1.92841553E+02
  0
LINE
  8
0
  6
CENTER
 62
2
 10
-9.73283844E+01
 20
-1.21844292E+02
 11
-8.23283844E+01
 21
-1.21844292E+02
  0
LINE
  8
0
  6
CENTER
 62
2
 10
-9.73283844E+01
 20
-1.89341553E+02
 11
-8.23283844E+01
 21
-1.89341553E+02
  0
LINE
  8
0
 62
6
 10
-9.48283844E+01
 20
-2.12841553E+02
 11
-9.48283844E+01
 21
-1.61144291E+02
  0
LINE
  8
0
 62
6
 10
-8.48283844E+01
 20
-2.12841553E+02
 11
-8.48283844E+01
 21
-1.61144291E+02
  0
LINE
  8
0
  6
PHANTOM
 62
2
 10
-9.49283844E+01
 20
-1.92844292E+02
 11
-8.47283840E+01
 21
-1.92844292E+02
  0
LINE
  8
0
  6
PHANTOM
 62
2
 10
-9.49283844E+01
 20
-2.02842918E+02
 11
-8.47283840E+01
 21
-2.02842918E+02
  0
CIRCLE
  8
0
 62
6
 10
-8.69283848E+01
 20
-1.36534575E+02
 40
8.75000000E-01
  0
ARC
  8
0
 62
6
 10
-8.69283848E+01
 20
-1.36534575E+02
 40
2.00000000E+00
 50
2.70000000E+02
 51
9.00000002E+01
  0
CIRCLE
  8
0
 62
6
 10
-9.27283845E+01
 20
-1.36534575E+02
 40
8.75000000E-01
  0
ARC
  8
0
 62
6
 10
-9.27283845E+01
 20
-1.36534575E+02
 40
2.00000000E+00
 50
9.00000002E+01
 51
2.70000000E+02
  0
CIRCLE
  8
0
 62
6
 10
-8.69283848E+01
 20
-1.74144291E+02
 40
8.75000000E-01
  0
ARC
  8
0
 62
6
 10
-8.69283848E+01
 20
-1.74144291E+02
 40
2.00000000E+00
 50
2.70000000E+02
 51
9.00000002E+01
  0
CIRCLE
  8
0
 62
6
 10
-9.27283845E+01
 20
-1.74144291E+02
 40
8.75000000E-01
  0
ARC
  8
0
 62
6
 10
-9.27283845E+01
 20
-1.74144291E+02
 40
2.00000000E+00
 50
9.00000002E+01
 51
2.70000000E+02
  0
ARC
  8
0
 62
6
 10
-9.45283844E+01
 20
-1.61144291E+02
 40
3.00000012E-01
 50
9.00000002E+01
 51
1.80000005E+02
  0
ARC
  8
0
 62
6
 10
-8.51283846E+01
 20
-1.61144291E+02
 40
3.00000012E-01
 50
0.00000000E+00
 51
9.00000002E+01
  0
CIRCLE
  8
0
 62
6
 10
-8.98283844E+01
 20
-1.82594292E+02
 40
2.04999995E+00
  0
ARC
  8
0
 62
6
 10
-9.33283844E+01
 20
-1.84344292E+02
 40
1.60000002E+00
 50
2.70000000E+02
 51
9.00000002E+01
  0
ARC
  8
0
 62
6
 10
-8.63283844E+01
 20
-1.84344292E+02
 40
1.60000002E+00
 50
9.00000002E+01
 51
2.70000000E+02
  0
CIRCLE
  8
0
 62
6
 10
-8.98283844E+01
 20
-1.82594292E+02
 40
1.85000002E+00
  0
ARC
  8
0
 62
6
 10
-8.98283844E+01
 20
-1.82594292E+02
 40
8.00000012E-01
 50
2.20243121E+01
 51
1.57975691E+02
  0
ARC
  8
0
 62
6
 10
-8.98283844E+01
 20
-1.82594292E+02
 40
8.00000012E-01
 50
2.02024309E+02
 51
3.37975688E+02
  0
CIRCLE
  8
0
 62
6
 10
-9.33283844E+01
 20
-1.84344292E+02
 40
1.50000000E+00
  0
CIRCLE
  8
0
 62
6
 10
-8.63283844E+01
 20
-1.84344292E+02
 40
1.50000000E+00
  0
ARC
  8
0
 62
6
 10
-9.45283844E+01
 20
-1.49534575E+02
 40
3.00000012E-01
 50
1.79999995E+02
 51
2.70000000E+02
  0
ARC
  8
0
 62
6
 10
-8.51283846E+01
 20
-1.49534575E+02
 40
3.00000012E-01
 50
2.70000000E+02
 51
0.00000000E+00
  0
CIRCLE
  8
0
 62
6
 10
-8.98283844E+01
 20
-1.28084576E+02
 40
2.04999995E+00
  0
ARC
  8
0
 62
6
 10
-9.33283844E+01
 20
-1.26334576E+02
 40
1.60000002E+00
 50
2.70000000E+02
 51
9.00000002E+01
  0
ARC
  8
0
 62
6
 10
-8.63283844E+01
 20
-1.26334576E+02
 40
1.60000002E+00
 50
9.00000002E+01
 51
2.70000000E+02
  0
CIRCLE
  8
0
 62
6
 10
-8.98283844E+01
 20
-1.28084576E+02
 40
1.89999998E+00
  0
CIRCLE
  8
0
 62
6
 10
-8.98283844E+01
 20
-1.28084576E+02
 40
1.85000002E+00
  0
ARC
  8
0
 62
6
 10
-8.98283844E+01
 20
-1.28084576E+02
 40
8.00000012E-01
 50
2.02024309E+02
 51
3.37975688E+02
  0
ARC
  8
0
 62
6
 10
-8.98283844E+01
 20
-1.28084576E+02
 40
8.00000012E-01
 50
2.20243121E+01
 51
1.57975691E+02
  0
CIRCLE
  8
0
 62
6
 10
-9.33283844E+01
 20
-1.26334576E+02
 40
1.50000000E+00
  0
CIRCLE
  8
0
 62
6
 10
-8.63283844E+01
 20
-1.26334576E+02
 40
1.50000000E+00
  0
CIRCLE
  8
0
  6
PHANTOM
 62
2
 10
-9.14283843E+01
 20
-1.96092918E+02
 40
3.00000012E-01
  0
CIRCLE
  8
0
  6
PHANTOM
 62
2
 10
-9.19283843E+01
 20
-1.95592918E+02
 40
1.89999998E+00
  0
CIRCLE
  8
0
  6
PHANTOM
 62
2
 10
-9.19283843E+01
 20
-2.00942924E+02
 40
1.89999998E+00
  0
CIRCLE
  8
0
  6
PHANTOM
 62
2
 10
-9.19283843E+01
 20
-2.08742920E+02
 40
1.89999998E+00
  0
CIRCLE
  8
0
  6
PHANTOM
 62
2
 10
-9.19283843E+01
 20
-1.95592918E+02
 40
2.40000010E+00
  0
CIRCLE
  8
0
  6
PHANTOM
 62
2
 10
-9.19283843E+01
 20
-1.95592918E+02
 40
1.20000005E+00
  0
CIRCLE
  8
0
  6
PHANTOM
 62
2
 10
-9.14283843E+01
 20
-1.95092918E+02
 40
3.00000012E-01
  0
CIRCLE
  8
0
  6
PHANTOM
 62
2
 10
-9.24283843E+01
 20
-1.95092918E+02
 40
3.00000012E-01
  0
CIRCLE
  8
0
  6
PHANTOM
 62
2
 10
-9.24283843E+01
 20
-1.96092918E+02
 40
3.00000012E-01
  0
CIRCLE
  8
0
 62
7
 10
-8.98283844E+01
 20
-2.28841553E+02
 40
4.94999981E+00
  0
CIRCLE
  8
0
 62
2
 10
-8.98283844E+01
 20
-2.17241554E+02
 40
1.00000000E+00
  0
ARC
  8
0
 62
7
 10
-8.53283844E+01
 20
-2.13341553E+02
 40
5.00000000E-01
 50
0.00000000E+00
 51
9.00000002E+01
  0
ARC
  8
0
 62
7
 10
-9.43283844E+01
 20
-2.13341553E+02
 40
5.00000000E-01
 50
9.00000002E+01
 51
1.80000005E+02
  0
ARC
  8
0
 62
7
 10
-9.43283844E+01
 20
-2.35341553E+02
 40
5.00000000E-01
 50
1.79999995E+02
 51
2.70000000E+02
  0
ARC
  8
0
 62
7
 10
-8.53283844E+01
 20
-2.35341553E+02
 40
5.00000000E-01
 50
2.70000000E+02
 51
0.00000000E+00
  0
ARC
  8
0
 62
7
 10
-8.63283844E+01
 20
-1.26334576E+02
 40
1.70000005E+00
 50
3.31927512E+02
 51
2.80724873E+01
  0
ARC
  8
0
 62
7
 10
-9.33283844E+01
 20
-1.26334576E+02
 40
1.70000005E+00
 50
1.51927518E+02
 51
2.08072492E+02
  0
LINE
  8
0
 62
7
 10
-3.44791672E+02
 20
-2.05421204E+02
 11
-3.41610870E+02
 21
-1.99911895E+02
  0
LINE
  8
0
 62
7
 10
-3.44185453E+02
 20
-2.05771205E+02
 11
-3.41004652E+02
 21
-2.00261895E+02
  0
LINE
  8
0
  6
CENTER
 62
2
 10
-3.42898163E+02
 20
-1.14334862E+02
 11
-3.42898163E+02
 21
-2.38094742E+02
  0
LINE
  8
0
  6
CENTER
 62
2
 10
-3.44148163E+02
 20
-1.39231968E+02
 11
-3.44148163E+02
 21
-1.30769304E+02
  0
LINE
  8
0
 62
7
 10
-3.48148163E+02
 20
-1.17844292E+02
 11
-3.37648163E+02
 21
-1.17844292E+02
  0
LINE
  8
0
 62
7
 10
-3.37648163E+02
 20
-1.17844292E+02
 11
-3.37648163E+02
 21
-1.92844292E+02
  0
LINE
  8
0
 62
7
 10
-3.48148163E+02
 20
-1.17844292E+02
 11
-3.48148163E+02
 21
-1.92844292E+02
  0
LINE
  8
0
 62
7
 10
-3.48148163E+02
 20
-1.92844292E+02
 11
-3.37648163E+02
 21
-1.92844292E+02
  0
LINE
  8
0
  6
CENTER
 62
2
 10
-3.46153939E+02
 20
-2.21841553E+02
 11
-3.38934577E+02
 21
-2.21841553E+02
  0
LINE
  8
0
 62
7
 10
-3.37648163E+02
 20
-2.35841553E+02
 11
-3.48148163E+02
 21
-2.35841553E+02
  0
LINE
  8
0
 62
7
 10
-3.37648163E+02
 20
-1.92844292E+02
 11
-3.37648163E+02
 21
-2.35841553E+02
  0
LINE
  8
0
 62
7
 10
-3.48148163E+02
 20
-2.35841553E+02
 11
-3.48148163E+02
 21
-1.92844292E+02
  0
LINE
  8
0
  6
CENTER
 62
2
 10
-3.48154263E+02
 20
-1.35344292E+02
 11
-3.39991584E+02
 21
-1.35344292E+02
  0
LINE
  8
0
  6
CENTER
 62
2
 10
-3.41948163E+02
 20
-1.02358013E+02
 11
-3.41948163E+02
 21
-1.19321842E+02
  0
LINE
  8
0
 62
7
 10
-3.45948163E+02
 20
-1.17144292E+02
 11
-3.37948163E+02
 21
-1.17144292E+02
  0
LINE
  8
0
 62
7
 10
-3.38248163E+02
 20
-1.16844292E+02
 11
-3.37948163E+02
 21
-1.17144292E+02
  0
LINE
  8
0
 62
7
 10
-3.45948163E+02
 20
-1.17144292E+02
 11
-3.45648163E+02
 21
-1.16844291E+02
  0
LINE
  8
0
 62
7
 10
-3.45948163E+02
 20
-1.17844292E+02
 11
-3.45948163E+02
 21
-1.17144292E+02
  0
LINE
  8
0
 62
7
 10
-3.37948163E+02
 20
-1.17844292E+02
 11
-3.37948163E+02
 21
-1.17144292E+02
  0
LINE
  8
0
 62
7
 10
-3.45648163E+02
 20
-1.16844292E+02
 11
-3.38248163E+02
 21
-1.16844292E+02
  0
LINE
  8
0
 62
7
 10
-3.38448163E+02
 20
-1.16344292E+02
 11
-3.38948163E+02
 21
-1.16844292E+02
  0
LINE
  8
0
 62
7
 10
-3.43198163E+02
 20
-1.11139292E+02
 11
-3.43198163E+02
 21
-1.13844292E+02
  0
LINE
  8
0
 62
7
 10
-3.45448163E+02
 20
-1.16344292E+02
 11
-3.45448163E+02
 21
-1.14344292E+02
  0
LINE
  8
0
 62
7
 10
-3.44448163E+02
 20
-1.06639292E+02
 11
-3.44448163E+02
 21
-1.10639292E+02
  0
LINE
  8
0
 62
7
 10
-3.43948163E+02
 20
-1.11139292E+02
 11
-3.44448163E+02
 21
-1.10639292E+02
  0
LINE
  8
0
 62
7
 10
-3.44448163E+02
 20
-1.06639292E+02
 11
-3.43948163E+02
 21
-1.06139292E+02
  0
LINE
  8
0
 62
7
 10
-3.45448163E+02
 20
-1.14344292E+02
 11
-3.44948163E+02
 21
-1.13844292E+02
  0
LINE
  8
0
 62
7
 10
-3.45448163E+02
 20
-1.16344292E+02
 11
-3.44948163E+02
 21
-1.16844292E+02
  0
LINE
  8
0
 62
7
 10
-3.39448163E+02
 20
-1.06639292E+02
 11
-3.39448163E+02
 21
-1.10639292E+02
  0
LINE
  8
0
 62
7
 10
-3.39448163E+02
 20
-1.06639292E+02
 11
-3.39948163E+02
 21
-1.06139292E+02
  0
LINE
  8
0
 62
7
 10
-3.39448163E+02
 20
-1.10639292E+02
 11
-3.39948163E+02
 21
-1.11139292E+02
  0
LINE
  8
0
 62
7
 10
-3.38448163E+02
 20
-1.14344292E+02
 11
-3.38948163E+02
 21
-1.13844292E+02
  0
LINE
  8
0
 62
7
 10
-3.40698163E+02
 20
-1.11139292E+02
 11
-3.40698163E+02
 21
-1.13844292E+02
  0
LINE
  8
0
 62
7
 10
-3.38448163E+02
 20
-1.16344292E+02
 11
-3.38448163E+02
 21
-1.14344292E+02
  0
LINE
  8
0
 62
7
 10
-3.38948163E+02
 20
-1.13844292E+02
 11
-3.44948163E+02
 21
-1.13844292E+02
  0
LINE
  8
0
 62
7
 10
-3.43948163E+02
 20
-1.11139292E+02
 11
-3.39948163E+02
 21
-1.11139292E+02
  0
LINE
  8
0
 62
7
 10
-3.39948163E+02
 20
-1.06139292E+02
 11
-3.43948163E+02
 21
-1.06139292E+02
  0
LINE
  8
0
  6
CENTER
 62
2
 10
-3.50398163E+02
 20
-1.21844292E+02
 11
-3.35398163E+02
 21
-1.21844292E+02
  0
LINE
  8
0
  6
CENTER
 62
2
 10
-3.50398163E+02
 20
-1.89341553E+02
 11
-3.35398163E+02
 21
-1.89341553E+02
  0
CIRCLE
  8
0
 62
7
 10
-3.42898163E+02
 20
-2.02841553E+02
 40
2.70000005E+00
  0
CIRCLE
  8
0
 62
7
 10
-3.42898163E+02
 20
-2.02841553E+02
 40
3.25000000E+00
  0
CIRCLE
  8
0
 62
7
 10
-3.42898163E+02
 20
-2.02841553E+02
 40
3.20000005E+00
  0
CIRCLE
  8
0
 62
2
 10
-3.44148163E+02
 20
-1.35344292E+02
 40
2.50000000E+00
  0
CIRCLE
  8
0
 62
7
 10
-3.44148163E+02
 20
-1.35344292E+02
 40
2.00000000E+00
  0
CIRCLE
  8
0
 62
7
 10
-3.42898163E+02
 20
-2.21841553E+02
 40
2.00000000E+00
  0
CIRCLE
  8
0
 62
2
 10
-3.42898163E+02
 20
-2.21841553E+02
 40
2.50000000E+00
  0
LINE
  8
0
 62
7
 10
-2.42628375E+02
 20
-1.46344292E+02
 11
-2.33128375E+02
 21
-1.46344292E+02
  0
LINE
  8
0
 62
7
 10
-2.42928375E+02
 20
-1.46644291E+02
 11
-2.42928375E+02
 21
-1.83644291E+02
  0
LINE
  8
0
 62
7
 10
-2.33228375E+02
 20
-1.83844292E+02
 11
-2.42728375E+02
 21
-1.83844292E+02
  0
LINE
  8
0
 62
7
 10
-2.32928375E+02
 20
-1.46544292E+02
 11
-2.32928375E+02
 21
-1.83544292E+02
  0
LINE
  8
0
 62
7
 10
-2.31628375E+02
 20
-1.45244291E+02
 11
-2.31628375E+02
 21
-1.84844292E+02
  0
LINE
  8
0
 62
7
 10
-2.43928375E+02
 20
-1.45044292E+02
 11
-2.31828375E+02
 21
-1.45044292E+02
  0
LINE
  8
0
 62
7
 10
-2.44228375E+02
 20
-1.45344292E+02
 11
-2.44228375E+02
 21
-1.84844292E+02
  0
LINE
  8
0
 62
7
 10
-2.31928375E+02
 20
-1.85144291E+02
 11
-2.43928375E+02
 21
-1.85144291E+02
  0
LINE
  8
0
 62
7
 10
-2.34228375E+02
 20
-1.82844292E+02
 11
-2.41728375E+02
 21
-1.82844292E+02
  0
LINE
  8
0
 62
7
 10
-2.41928375E+02
 20
-1.46644291E+02
 11
-2.41928375E+02
 21
-1.82644291E+02
  0
LINE
  8
0
 62
7
 10
-2.33928375E+02
 20
-1.46544292E+02
 11
-2.33928375E+02
 21
-1.82544292E+02
  0
LINE
  8
0
 62
7
 10
-2.01828377E+02
 20
-1.49836605E+02
 11
-2.02328377E+02
 21
-1.49836605E+02
  0
LINE
  8
0
 62
7
 10
-2.01828377E+02
 20
-1.46836605E+02
 11
-2.02328377E+02
 21
-1.46836605E+02
  0
LINE
  8
0
 62
7
 10
-2.18428375E+02
 20
-1.92343048E+02
 11
-2.18428375E+02
 21
-1.91843048E+02
  0
LINE
  8
0
 62
7
 10
-2.18528376E+02
 20
-1.92843048E+02
 11
-2.18528376E+02
 21
-1.91843048E+02
  0
LINE
  8
0
 62
7
 10
-2.08028376E+02
 20
-1.85136745E+02
 11
-2.08028376E+02
 21
-1.83536747E+02
  0
LINE
  8
0
 62
7
 10
-2.15428375E+02
 20
-1.92343048E+02
 11
-2.15428375E+02
 21
-1.91843048E+02
  0
LINE
  8
0
 62
7
 10
-2.18528376E+02
 20
-1.91843048E+02
 11
-2.15328375E+02
 21
-1.91843048E+02
  0
LINE
  8
0
  6
CENTER
 62
2
 10
-2.16928375E+02
 20
-1.94229477E+02
 11
-2.16928375E+02
 21
-1.90151268E+02
  0
LINE
  8
0
 62
7
 10
-2.15328375E+02
 20
-1.92843048E+02
 11
-2.15328375E+02
 21
-1.91843048E+02
  0
LINE
  8
0
 62
7
 10
-2.01328377E+02
 20
-1.83536747E+02
 11
-2.08028376E+02
 21
-1.83536747E+02
  0
LINE
  8
0
 62
7
 10
-2.01328377E+02
 20
-1.85136745E+02
 11
-2.08028376E+02
 21
-1.85136745E+02
  0
LINE
  8
0
 62
7
 10
-2.08028376E+02
 20
-1.25543100E+02
 11
-2.08028376E+02
 21
-1.27143100E+02
  0
LINE
  8
0
 62
7
 10
-2.09628376E+02
 20
-1.18836795E+02
 11
-2.06428375E+02
 21
-1.18836795E+02
  0
LINE
  8
0
 62
7
 10
-2.09528376E+02
 20
-1.18336795E+02
 11
-2.09528376E+02
 21
-1.18836795E+02
  0
LINE
  8
0
 62
7
 10
-2.06528376E+02
 20
-1.18336795E+02
 11
-2.06528376E+02
 21
-1.18836795E+02
  0
LINE
  8
0
 62
7
 10
-2.06428375E+02
 20
-1.17836795E+02
 11
-2.06428375E+02
 21
-1.18836795E+02
  0
LINE
  8
0
 62
7
 10
-2.09628376E+02
 20
-1.17836795E+02
 11
-2.09628376E+02
 21
-1.18836795E+02
  0
LINE
  8
0
  6
CENTER
 62
2
 10
-2.08028376E+02
 20
-1.16450371E+02
 11
-2.08028376E+02
 21
-1.20528577E+02
  0
LINE
  8
0
 62
7
 10
-2.01328377E+02
 20
-1.25543100E+02
 11
-2.08028376E+02
 21
-1.25543100E+02
  0
LINE
  8
0
 62
7
 10
-2.01328377E+02
 20
-1.27143100E+02
 11
-2.08028376E+02
 21
-1.27143100E+02
  0
LINE
  8
0
 62
7
 10
-2.02328377E+02
 20
-1.46736605E+02
 11
-2.02328377E+02
 21
-1.49936605E+02
  0
LINE
  8
0
 62
7
 10
-2.01328377E+02
 20
-1.49936605E+02
 11
-2.02328377E+02
 21
-1.49936605E+02
  0
LINE
  8
0
 62
7
 10
-2.01328377E+02
 20
-1.46736605E+02
 11
-2.02328377E+02
 21
-1.46736605E+02
  0
LINE
  8
0
 62
7
 10
-2.23128375E+02
 20
-2.23341553E+02
 11
-2.23128375E+02
 21
-1.94844292E+02
  0
LINE
  8
0
 62
7
 10
-2.27528376E+02
 20
-2.23341553E+02
 11
-2.27528376E+02
 21
-1.94844292E+02
  0
LINE
  8
0
 62
7
 10
-2.23128375E+02
 20
-2.23341553E+02
 11
-2.27528376E+02
 21
-2.23341553E+02
  0
LINE
  8
0
 62
7
 10
-2.27528376E+02
 20
-2.25341553E+02
 11
-2.23128375E+02
 21
-2.25341553E+02
  0
LINE
  8
0
 62
7
 10
-2.23128375E+02
 20
-1.94844292E+02
 11
-2.27528376E+02
 21
-1.94844292E+02
  0
LINE
  8
0
 62
7
 10
-2.26328375E+02
 20
-2.23341553E+02
 11
-2.26328375E+02
 21
-1.94844292E+02
  0
LINE
  8
0
 62
7
 10
-2.24328375E+02
 20
-2.23341553E+02
 11
-2.24328375E+02
 21
-1.94844292E+02
  0
LINE
  8
0
 62
2
 10
-2.26111876E+02
 20
-2.23341553E+02
 11
-2.26111876E+02
 21
-1.94844292E+02
  0
LINE
  8
0
 62
2
 10
-2.24544875E+02
 20
-2.23341553E+02
 11
-2.24544875E+02
 21
-1.94844292E+02
  0
LINE
  8
0
  6
CENTER
 62
2
 10
-2.25328375E+02
 20
-2.26721550E+02
 11
-2.25328375E+02
 21
-1.94000244E+02
  0
LINE
  8
0
 62
7
 10
-2.26578375E+02
 20
-2.25966553E+02
 11
-2.24078375E+02
 21
-2.25966553E+02
  0
LINE
  8
0
 62
7
 10
-2.27528376E+02
 20
-2.25341553E+02
 11
-2.27528376E+02
 21
-2.35841553E+02
  0
LINE
  8
0
 62
7
 10
-2.23128375E+02
 20
-2.25341553E+02
 11
-2.23128375E+02
 21
-2.35841553E+02
  0
LINE
  8
0
 62
6
 10
-2.00128376E+02
 20
-1.49837128E+02
 11
-2.00128376E+02
 21
-1.48337128E+02
  0
LINE
  8
0
 62
6
 10
-2.01328377E+02
 20
-1.49837128E+02
 11
-1.81728374E+02
 21
-1.49837128E+02
  0
LINE
  8
0
 62
6
 10
-1.90528374E+02
 20
-1.18537128E+02
 11
-1.98128376E+02
 21
-1.18537128E+02
  0
LINE
  8
0
 62
6
 10
-1.90528374E+02
 20
-1.19337128E+02
 11
-1.98128376E+02
 21
-1.19337128E+02
  0
LINE
  8
0
 62
6
 10
-1.90528374E+02
 20
-1.19337128E+02
 11
-1.90528374E+02
 21
-1.18537128E+02
  0
LINE
  8
0
 62
6
 10
-1.98128376E+02
 20
-1.18537128E+02
 11
-1.98128376E+02
 21
-1.19337128E+02
  0
LINE
  8
0
 62
6
 10
-1.89828377E+02
 20
-1.17837128E+02
 11
-1.89828377E+02
 21
-1.23619984E+02
  0
LINE
  8
0
 62
6
 10
-1.80728374E+02
 20
-1.35887128E+02
 11
-1.76878376E+02
 21
-1.35887128E+02
  0
LINE
  8
0
 62
6
 10
-1.80728374E+02
 20
-1.37187128E+02
 11
-1.77228374E+02
 21
-1.37187128E+02
  0
LINE
  8
0
  6
CENTER
 62
6
 10
-1.67111885E+02
 20
-1.36537128E+02
 11
-1.82840374E+02
 21
-1.36537128E+02
  0
LINE
  8
0
 62
6
 10
-1.82328377E+02
 20
-1.32337128E+02
 11
-1.82328377E+02
 21
-1.32237128E+02
  0
LINE
  8
0
 62
6
 10
-1.81728374E+02
 20
-1.31739050E+02
 11
-1.81728374E+02
 21
-1.32237128E+02
  0
LINE
  8
0
 62
6
 10
-1.86328377E+02
 20
-1.30927946E+02
 11
-1.81728376E+02
 21
-1.31739050E+02
  0
LINE
  8
0
 62
6
 10
-1.87628376E+02
 20
-1.32237128E+02
 11
-1.81728374E+02
 21
-1.32237128E+02
  0
LINE
  8
0
 62
6
 10
-1.86328377E+02
 20
-1.24237128E+02
 11
-1.86328377E+02
 21
-1.30927945E+02
  0
LINE
  8
0
 62
6
 10
-1.80928375E+02
 20
-1.34537128E+02
 11
-1.81728374E+02
 21
-1.34537128E+02
  0
LINE
  8
0
 62
6
 10
-1.80728374E+02
 20
-1.34737128E+02
 11
-1.80728374E+02
 21
-1.38337128E+02
  0
LINE
  8
0
 62
6
 10
-1.80928375E+02
 20
-1.38537128E+02
 11
-1.81728374E+02
 21
-1.38537128E+02
  0
LINE
  8
0
 62
6
 10
-1.87628376E+02
 20
-1.32337128E+02
 11
-1.81728374E+02
 21
-1.32337128E+02
  0
LINE
  8
0
 62
6
 10
-1.81728374E+02
 20
-1.32337128E+02
 11
-1.81728374E+02
 21
-1.49837128E+02
  0
LINE
  8
0
 62
6
 10
-1.87628376E+02
 20
-1.48337128E+02
 11
-1.87628376E+02
 21
-1.32237128E+02
  0
LINE
  8
0
 62
6
 10
-1.87328377E+02
 20
-1.24737128E+02
 11
-1.87328377E+02
 21
-1.27937128E+02
  0
LINE
  8
0
 62
6
 10
-1.86328377E+02
 20
-1.27937128E+02
 11
-1.87328377E+02
 21
-1.27937128E+02
  0
LINE
  8
0
 62
6
 10
-1.86328377E+02
 20
-1.24737128E+02
 11
-1.87328377E+02
 21
-1.24737128E+02
  0
LINE
  8
0
 62
6
 10
-1.87228374E+02
 20
-1.24837128E+02
 11
-1.87328377E+02
 21
-1.24837128E+02
  0
LINE
  8
0
 62
6
 10
-1.87228374E+02
 20
-1.27837128E+02
 11
-1.87328377E+02
 21
-1.27837128E+02
  0
LINE
  8
0
 62
6
 10
-1.86728374E+02
 20
-1.25337128E+02
 11
-1.86728374E+02
 21
-1.27337128E+02
  0
LINE
  8
0
 62
6
 10
-1.76448376E+02
 20
-1.38137127E+02
 11
-1.75588376E+02
 21
-1.34937127E+02
  0
LINE
  8
0
 62
6
 10
-1.77478373E+02
 20
-1.38137128E+02
 11
-1.76618374E+02
 21
-1.34937128E+02
  0
LINE
  8
0
 62
6
 10
-1.68528374E+02
 20
-1.36787128E+02
 11
-1.68528374E+02
 21
-1.36287128E+02
  0
LINE
  8
0
 62
6
 10
-1.72528374E+02
 20
-1.35887128E+02
 11
-1.72528374E+02
 21
-1.37187128E+02
  0
LINE
  8
0
 62
6
 10
-1.72528374E+02
 20
-1.36287128E+02
 11
-1.68528374E+02
 21
-1.36287128E+02
  0
LINE
  8
0
 62
6
 10
-1.72528374E+02
 20
-1.36787128E+02
 11
-1.68528374E+02
 21
-1.36787128E+02
  0
LINE
  8
0
 62
6
 10
-1.76188374E+02
 20
-1.37187128E+02
 11
-1.72528374E+02
 21
-1.37187128E+02
  0
LINE
  8
0
 62
6
 10
-1.75838375E+02
 20
-1.35887128E+02
 11
-1.72528374E+02
 21
-1.35887128E+02
  0
LINE
  8
0
 62
6
 10
-1.87628376E+02
 20
-1.48337128E+02
 11
-2.00128376E+02
 21
-1.48337128E+02
  0
LINE
  8
0
 62
6
 10
-1.89828374E+02
 20
-1.23619984E+02
 11
-1.86328378E+02
 21
-1.24237128E+02
  0
LINE
  8
0
 62
6
 10
-2.01328377E+02
 20
-1.92844292E+02
 11
-1.89828377E+02
 21
-1.92844292E+02
  0
LINE
  8
0
 62
6
 10
-1.98128376E+02
 20
-1.92144295E+02
 11
-1.98128376E+02
 21
-1.91344292E+02
  0
LINE
  8
0
 62
6
 10
-1.90528374E+02
 20
-1.91344292E+02
 11
-1.90528374E+02
 21
-1.92144295E+02
  0
LINE
  8
0
 62
6
 10
-1.90528374E+02
 20
-1.91344292E+02
 11
-1.98128376E+02
 21
-1.91344292E+02
  0
LINE
  8
0
 62
6
 10
-1.90528374E+02
 20
-1.92144295E+02
 11
-1.98128376E+02
 21
-1.92144295E+02
  0
LINE
  8
0
 62
6
 10
-1.75838375E+02
 20
-1.73494293E+02
 11
-1.72528374E+02
 21
-1.73494293E+02
  0
LINE
  8
0
 62
6
 10
-1.76188374E+02
 20
-1.74794292E+02
 11
-1.72528374E+02
 21
-1.74794292E+02
  0
LINE
  8
0
 62
6
 10
-1.72528374E+02
 20
-1.74394291E+02
 11
-1.68528374E+02
 21
-1.74394291E+02
  0
LINE
  8
0
 62
6
 10
-1.72528374E+02
 20
-1.73894291E+02
 11
-1.68528374E+02
 21
-1.73894291E+02
  0
LINE
  8
0
 62
6
 10
-1.72528374E+02
 20
-1.73494293E+02
 11
-1.72528374E+02
 21
-1.74794292E+02
  0
LINE
  8
0
 62
6
 10
-1.68528374E+02
 20
-1.73894291E+02
 11
-1.68528374E+02
 21
-1.74394291E+02
  0
LINE
  8
0
 62
6
 10
-1.77478379E+02
 20
-1.75744292E+02
 11
-1.76618378E+02
 21
-1.72544291E+02
  0
LINE
  8
0
 62
6
 10
-1.76448377E+02
 20
-1.75744289E+02
 11
-1.75588378E+02
 21
-1.72544292E+02
  0
LINE
  8
0
 62
6
 10
-1.86728374E+02
 20
-1.85344292E+02
 11
-1.86728374E+02
 21
-1.83344292E+02
  0
LINE
  8
0
 62
6
 10
-1.87228374E+02
 20
-1.82844292E+02
 11
-1.87328377E+02
 21
-1.82844292E+02
  0
LINE
  8
0
 62
6
 10
-1.87228374E+02
 20
-1.85844292E+02
 11
-1.87328377E+02
 21
-1.85844292E+02
  0
LINE
  8
0
 62
6
 10
-1.86328377E+02
 20
-1.85944290E+02
 11
-1.87328377E+02
 21
-1.85944290E+02
  0
LINE
  8
0
 62
6
 10
-1.86328377E+02
 20
-1.82744293E+02
 11
-1.87328377E+02
 21
-1.82744293E+02
  0
LINE
  8
0
 62
6
 10
-1.87328377E+02
 20
-1.85944290E+02
 11
-1.87328377E+02
 21
-1.82744293E+02
  0
LINE
  8
0
 62
6
 10
-2.01328377E+02
 20
-1.60844292E+02
 11
-1.81728374E+02
 21
-1.60844292E+02
  0
LINE
  8
0
 62
6
 10
-1.87628376E+02
 20
-1.62344292E+02
 11
-1.87628376E+02
 21
-1.78444290E+02
  0
LINE
  8
0
 62
6
 10
-1.81728374E+02
 20
-1.78344292E+02
 11
-1.81728374E+02
 21
-1.60844292E+02
  0
LINE
  8
0
 62
6
 10
-2.00128376E+02
 20
-1.60844292E+02
 11
-2.00128376E+02
 21
-1.62344292E+02
  0
LINE
  8
0
 62
6
 10
-1.87628376E+02
 20
-1.78344292E+02
 11
-1.81728374E+02
 21
-1.78344292E+02
  0
LINE
  8
0
 62
6
 10
-1.80928375E+02
 20
-1.72144291E+02
 11
-1.81728374E+02
 21
-1.72144291E+02
  0
LINE
  8
0
 62
6
 10
-1.80728374E+02
 20
-1.75944290E+02
 11
-1.80728374E+02
 21
-1.72344292E+02
  0
LINE
  8
0
 62
6
 10
-1.80928375E+02
 20
-1.76144291E+02
 11
-1.81728374E+02
 21
-1.76144291E+02
  0
LINE
  8
0
 62
6
 10
-1.86328377E+02
 20
-1.86444290E+02
 11
-1.86328377E+02
 21
-1.79753475E+02
  0
LINE
  8
0
 62
6
 10
-1.87628376E+02
 20
-1.78444290E+02
 11
-1.81728374E+02
 21
-1.78444290E+02
  0
LINE
  8
0
 62
6
 10
-1.86328374E+02
 20
-1.79753475E+02
 11
-1.81728377E+02
 21
-1.78942372E+02
  0
LINE
  8
0
 62
6
 10
-1.81728374E+02
 20
-1.78942371E+02
 11
-1.81728374E+02
 21
-1.78444290E+02
  0
LINE
  8
0
 62
6
 10
-1.82328377E+02
 20
-1.78344292E+02
 11
-1.82328377E+02
 21
-1.78444290E+02
  0
LINE
  8
0
 62
6
 10
-1.87628376E+02
 20
-1.62344292E+02
 11
-2.00128376E+02
 21
-1.62344292E+02
  0
LINE
  8
0
 62
6
 10
-1.89828377E+02
 20
-1.87061433E+02
 11
-1.86328377E+02
 21
-1.86444289E+02
  0
LINE
  8
0
 62
6
 10
-1.89828377E+02
 20
-1.92844292E+02
 11
-1.89828377E+02
 21
-1.87061440E+02
  0
LINE
  8
0
  6
CENTER
 62
6
 10
-1.67111885E+02
 20
-1.74144291E+02
 11
-1.82840374E+02
 21
-1.74144291E+02
  0
LINE
  8
0
 62
6
 10
-1.80728374E+02
 20
-1.74794292E+02
 11
-1.77228374E+02
 21
-1.74794292E+02
  0
LINE
  8
0
 62
6
 10
-1.80728374E+02
 20
-1.73494293E+02
 11
-1.76878376E+02
 21
-1.73494293E+02
  0
LINE
  8
0
 62
7
 10
-1.74828377E+02
 20
-2.30341553E+02
 11
-1.74828377E+02
 21
-2.27341553E+02
  0
LINE
  8
0
 62
7
 10
-2.45828375E+02
 20
-1.92844292E+02
 11
-2.01328377E+02
 21
-1.92844292E+02
  0
LINE
  8
0
 62
7
 10
-2.45828375E+02
 20
-1.17844292E+02
 11
-2.19828375E+02
 21
-1.17844292E+02
  0
LINE
  8
0
 62
7
 10
-1.74828377E+02
 20
-2.30341553E+02
 11
-1.74828377E+02
 21
-2.35841553E+02
  0
LINE
  8
0
 62
7
 10
-2.19828375E+02
 20
-1.17837128E+02
 11
-2.01328377E+02
 21
-1.17837128E+02
  0
LINE
  8
0
 62
7
 10
-2.01328377E+02
 20
-1.17837128E+02
 11
-2.01328377E+02
 21
-1.92844292E+02
  0
LINE
  8
0
 62
7
 10
-2.01328377E+02
 20
-1.79339432E+02
 11
-2.19828375E+02
 21
-1.79339432E+02
  0
LINE
  8
0
 62
6
 10
-2.01328377E+02
 20
-1.17834576E+02
 11
-1.89828377E+02
 21
-1.17834576E+02
  0
LINE
  8
0
 62
7
 10
-2.01328377E+02
 20
-1.31339434E+02
 11
-2.19828375E+02
 21
-1.31339434E+02
  0
LINE
  8
0
  6
PHANTOM
 62
2
 10
-1.89828377E+02
 20
-1.92844292E+02
 11
-1.74828377E+02
 21
-1.92844292E+02
  0
LINE
  8
0
 62
7
 10
-2.45828375E+02
 20
-2.35841553E+02
 11
-2.19828375E+02
 21
-2.35841553E+02
  0
LINE
  8
0
 62
7
 10
-2.45828375E+02
 20
-1.92844292E+02
 11
-2.45828375E+02
 21
-2.35841553E+02
  0
LINE
  8
0
 62
7
 10
-2.19828375E+02
 20
-1.92844292E+02
 11
-2.19828375E+02
 21
-2.35841553E+02
  0
LINE
  8
0
 62
7
 10
-1.74828377E+02
 20
-2.12841553E+02
 11
-1.74828377E+02
 21
-2.27341553E+02
  0
LINE
  8
0
 62
7
 10
-1.74828377E+02
 20
-2.35841553E+02
 11
-2.19828375E+02
 21
-2.35841553E+02
  0
LINE
  8
0
 62
7
 10
-1.74828377E+02
 20
-2.12841553E+02
 11
-2.19828375E+02
 21
-2.12841553E+02
  0
LINE
  8
0
 62
7
 10
-1.74528374E+02
 20
-2.23891548E+02
 11
-1.68328377E+02
 21
-2.23891548E+02
  0
LINE
  8
0
 62
7
 10
-1.74528374E+02
 20
-2.33791550E+02
 11
-1.68328377E+02
 21
-2.33791550E+02
  0
LINE
  8
0
 62
7
 10
-1.66828377E+02
 20
-2.25391548E+02
 11
-1.66828377E+02
 21
-2.32291550E+02
  0
LINE
  8
0
 62
7
 10
-1.74528374E+02
 20
-2.23891552E+02
 11
-1.74828375E+02
 21
-2.24191552E+02
  0
LINE
  8
0
 62
7
 10
-1.74528378E+02
 20
-2.33791547E+02
 11
-1.74828377E+02
 21
-2.33491548E+02
  0
LINE
  8
0
 62
7
 10
-2.45828375E+02
 20
-1.17844292E+02
 11
-2.45828375E+02
 21
-1.92844292E+02
  0
LINE
  8
0
  6
PHANTOM
 62
2
 10
-1.74828377E+02
 20
-1.92844292E+02
 11
-1.74828377E+02
 21
-2.12841553E+02
  0
LINE
  8
0
  6
PHANTOM
 62
2
 10
-1.73927818E+02
 20
-1.93192924E+02
 11
-1.74828377E+02
 21
-1.93192924E+02
  0
LINE
  8
0
  6
PHANTOM
 62
2
 10
-1.73927818E+02
 20
-1.97992920E+02
 11
-1.74828377E+02
 21
-1.97992920E+02
  0
LINE
  8
0
  6
PHANTOM
 62
2
 10
-1.73927818E+02
 20
-1.93192924E+02
 11
-1.73927818E+02
 21
-1.97992920E+02
  0
LINE
  8
0
  6
PHANTOM
 62
2
 10
-1.73927818E+02
 20
-1.93592918E+02
 11
-1.68310867E+02
 21
-1.93592918E+02
  0
LINE
  8
0
  6
PHANTOM
 62
2
 10
-1.73927818E+02
 20
-1.97592918E+02
 11
-1.69385864E+02
 21
-1.97592918E+02
  0
LINE
  8
0
  6
PHANTOM
 62
2
 10
-1.64127823E+02
 20
-1.93592918E+02
 11
-1.64127823E+02
 21
-1.97592918E+02
  0
LINE
  8
0
  6
PHANTOM
 62
2
 10
-1.67947414E+02
 20
-1.92240560E+02
 11
-1.69929614E+02
 21
-1.99616186E+02
  0
LINE
  8
0
  6
PHANTOM
 62
2
 10
-1.66917421E+02
 20
-1.92240559E+02
 11
-1.68899620E+02
 21
-1.99616185E+02
  0
LINE
  8
0
  6
PHANTOM
 62
2
 10
-1.64127823E+02
 20
-1.93942924E+02
 11
-1.62247253E+02
 21
-1.93942924E+02
  0
LINE
  8
0
  6
PHANTOM
 62
2
 10
-1.64127823E+02
 20
-1.94442924E+02
 11
-1.62247253E+02
 21
-1.94442924E+02
  0
LINE
  8
0
  6
PHANTOM
 62
2
 10
-1.64127823E+02
 20
-1.94942924E+02
 11
-1.62247253E+02
 21
-1.94942924E+02
  0
LINE
  8
0
  6
PHANTOM
 62
2
 10
-1.64127823E+02
 20
-1.95442924E+02
 11
-1.62247253E+02
 21
-1.95442924E+02
  0
LINE
  8
0
  6
PHANTOM
 62
2
 10
-1.64127823E+02
 20
-1.95942924E+02
 11
-1.62247253E+02
 21
-1.95942924E+02
  0
LINE
  8
0
  6
PHANTOM
 62
2
 10
-1.64127823E+02
 20
-1.96442924E+02
 11
-1.62247253E+02
 21
-1.96442924E+02
  0
LINE
  8
0
  6
PHANTOM
 62
2
 10
-1.64127823E+02
 20
-1.96942924E+02
 11
-1.62247253E+02
 21
-1.96942924E+02
  0
LINE
  8
0
  6
PHANTOM
 62
2
 10
-1.64127823E+02
 20
-1.97442924E+02
 11
-1.62247253E+02
 21
-1.97442924E+02
  0
LINE
  8
0
  6
PHANTOM
 62
2
 10
-1.62247253E+02
 20
-1.93942924E+02
 11
-1.62247253E+02
 21
-1.94442924E+02
  0
LINE
  8
0
  6
PHANTOM
 62
2
 10
-1.62247253E+02
 20
-1.94942924E+02
 11
-1.62247253E+02
 21
-1.95442924E+02
  0
LINE
  8
0
  6
PHANTOM
 62
2
 10
-1.62247253E+02
 20
-1.95942924E+02
 11
-1.62247253E+02
 21
-1.96442924E+02
  0
LINE
  8
0
  6
PHANTOM
 62
2
 10
-1.62247253E+02
 20
-1.96942924E+02
 11
-1.62247253E+02
 21
-1.97442924E+02
  0
LINE
  8
0
  6
PHANTOM
 62
2
 10
-1.62247253E+02
 20
-1.94092918E+02
 11
-1.61237358E+02
 21
-1.94092918E+02
  0
LINE
  8
0
  6
PHANTOM
 62
2
 10
-1.62247253E+02
 20
-1.94292923E+02
 11
-1.61373306E+02
 21
-1.94292923E+02
  0
LINE
  8
0
  6
PHANTOM
 62
2
 10
-1.61373310E+02
 20
-1.94292917E+02
 11
-1.61237364E+02
 21
-1.94092918E+02
  0
LINE
  8
0
  6
PHANTOM
 62
2
 10
-1.62247253E+02
 20
-1.95092918E+02
 11
-1.61237358E+02
 21
-1.95092918E+02
  0
LINE
  8
0
  6
PHANTOM
 62
2
 10
-1.62247253E+02
 20
-1.95292923E+02
 11
-1.61373306E+02
 21
-1.95292923E+02
  0
LINE
  8
0
  6
PHANTOM
 62
2
 10
-1.61373306E+02
 20
-1.95292920E+02
 11
-1.61237360E+02
 21
-1.95092920E+02
  0
LINE
  8
0
  6
PHANTOM
 62
2
 10
-1.62247253E+02
 20
-1.96092918E+02
 11
-1.61237358E+02
 21
-1.96092918E+02
  0
LINE
  8
0
  6
PHANTOM
 62
2
 10
-1.62247253E+02
 20
-1.96292923E+02
 11
-1.61373306E+02
 21
-1.96292923E+02
  0
LINE
  8
0
  6
PHANTOM
 62
2
 10
-1.61373308E+02
 20
-1.96292917E+02
 11
-1.61237362E+02
 21
-1.96092918E+02
  0
LINE
  8
0
  6
PHANTOM
 62
2
 10
-1.62247253E+02
 20
-1.97092918E+02
 11
-1.61237358E+02
 21
-1.97092918E+02
  0
LINE
  8
0
  6
PHANTOM
 62
2
 10
-1.62247253E+02
 20
-1.97292923E+02
 11
-1.61373306E+02
 21
-1.97292923E+02
  0
LINE
  8
0
  6
PHANTOM
 62
2
 10
-1.61373305E+02
 20
-1.97292921E+02
 11
-1.61237358E+02
 21
-1.97092920E+02
  0
LINE
  8
0
  6
PHANTOM
 62
2
 10
-1.77521523E+02
 20
-1.95592918E+02
 11
-1.57667236E+02
 21
-1.95592918E+02
  0
LINE
  8
0
 62
7
 10
-2.19828671E+02
 20
-1.39846748E+02
 11
-2.19828671E+02
 21
-1.36846749E+02
  0
LINE
  8
0
 62
7
 10
-2.19828375E+02
 20
-1.92844292E+02
 11
-2.19828375E+02
 21
-1.17841552E+02
  0
LINE
  8
0
  6
CENTER
 62
2
 10
-2.35928375E+02
 20
-1.25282137E+02
 11
-2.35928375E+02
 21
-1.18421748E+02
  0
LINE
  8
0
  6
CENTER
 62
2
 10
-2.32721288E+02
 20
-1.21844292E+02
 11
-2.39488382E+02
 21
-1.21844292E+02
  0
LINE
  8
0
  6
CENTER
 62
2
 10
-2.41728828E+02
 20
-1.89341553E+02
 11
-2.34391823E+02
 21
-1.89341553E+02
  0
LINE
  8
0
  6
CENTER
 62
2
 10
-2.37928375E+02
 20
-1.92538124E+02
 11
-2.37928375E+02
 21
-1.86046768E+02
  0
LINE
  8
0
  6
CENTER
 62
6
 10
-2.08639153E+02
 20
-1.84344292E+02
 11
-1.85277466E+02
 21
-1.84344292E+02
  0
LINE
  8
0
  6
CENTER
 62
6
 10
-2.09237082E+02
 20
-1.26334576E+02
 11
-1.84148106E+02
 21
-1.26334576E+02
  0
LINE
  8
0
  6
CENTER
 62
2
 10
-2.28328375E+02
 20
-1.02358013E+02
 11
-2.28328375E+02
 21
-1.19321842E+02
  0
LINE
  8
0
 62
7
 10
-2.32328375E+02
 20
-1.17144292E+02
 11
-2.24328375E+02
 21
-1.17144292E+02
  0
LINE
  8
0
 62
7
 10
-2.24628375E+02
 20
-1.16844292E+02
 11
-2.24328375E+02
 21
-1.17144292E+02
  0
LINE
  8
0
 62
7
 10
-2.32328375E+02
 20
-1.17144292E+02
 11
-2.32028375E+02
 21
-1.16844292E+02
  0
LINE
  8
0
 62
7
 10
-2.32328375E+02
 20
-1.17844292E+02
 11
-2.32328375E+02
 21
-1.17144292E+02
  0
LINE
  8
0
 62
7
 10
-2.24328375E+02
 20
-1.17844292E+02
 11
-2.24328375E+02
 21
-1.17144292E+02
  0
LINE
  8
0
 62
7
 10
-2.32028375E+02
 20
-1.16844292E+02
 11
-2.24628375E+02
 21
-1.16844292E+02
  0
LINE
  8
0
 62
7
 10
-2.24828376E+02
 20
-1.16344292E+02
 11
-2.25328376E+02
 21
-1.16844292E+02
  0
LINE
  8
0
 62
7
 10
-2.29578375E+02
 20
-1.11139292E+02
 11
-2.29578375E+02
 21
-1.13844292E+02
  0
LINE
  8
0
 62
7
 10
-2.31828375E+02
 20
-1.16344292E+02
 11
-2.31828375E+02
 21
-1.14344292E+02
  0
LINE
  8
0
 62
7
 10
-2.30828375E+02
 20
-1.06639292E+02
 11
-2.30828375E+02
 21
-1.10639292E+02
  0
LINE
  8
0
 62
7
 10
-2.30328375E+02
 20
-1.11139292E+02
 11
-2.30828375E+02
 21
-1.10639292E+02
  0
LINE
  8
0
 62
7
 10
-2.30828375E+02
 20
-1.06639292E+02
 11
-2.30328376E+02
 21
-1.06139292E+02
  0
LINE
  8
0
 62
7
 10
-2.31828376E+02
 20
-1.14344292E+02
 11
-2.31328375E+02
 21
-1.13844291E+02
  0
LINE
  8
0
 62
7
 10
-2.31828375E+02
 20
-1.16344292E+02
 11
-2.31328375E+02
 21
-1.16844292E+02
  0
LINE
  8
0
 62
7
 10
-2.25828375E+02
 20
-1.06639292E+02
 11
-2.25828375E+02
 21
-1.10639292E+02
  0
LINE
  8
0
 62
7
 10
-2.25828375E+02
 20
-1.06639292E+02
 11
-2.26328375E+02
 21
-1.06139292E+02
  0
LINE
  8
0
 62
7
 10
-2.25828375E+02
 20
-1.10639292E+02
 11
-2.26328375E+02
 21
-1.11139292E+02
  0
LINE
  8
0
 62
7
 10
-2.24828375E+02
 20
-1.14344292E+02
 11
-2.25328375E+02
 21
-1.13844292E+02
  0
LINE
  8
0
 62
7
 10
-2.27078375E+02
 20
-1.11139292E+02
 11
-2.27078375E+02
 21
-1.13844292E+02
  0
LINE
  8
0
 62
7
 10
-2.24828375E+02
 20
-1.16344292E+02
 11
-2.24828375E+02
 21
-1.14344292E+02
  0
LINE
  8
0
 62
7
 10
-2.25328375E+02
 20
-1.13844292E+02
 11
-2.31328375E+02
 21
-1.13844292E+02
  0
LINE
  8
0
 62
7
 10
-2.30328375E+02
 20
-1.11139292E+02
 11
-2.26328375E+02
 21
-1.11139292E+02
  0
LINE
  8
0
 62
7
 10
-2.26328375E+02
 20
-1.06139292E+02
 11
-2.30328375E+02
 21
-1.06139292E+02
  0
LINE
  8
0
  6
PHANTOM
 62
2
 10
-1.67280869E+02
 20
-1.93592918E+02
 11
-1.64127823E+02
 21
-1.93592918E+02
  0
LINE
  8
0
  6
PHANTOM
 62
2
 10
-1.68355865E+02
 20
-1.97592918E+02
 11
-1.64127823E+02
 21
-1.97592918E+02
  0
LINE
  8
0
 62
6
 10
-2.11328375E+02
 20
-1.92841553E+02
 11
-2.11328375E+02
 21
-2.12841553E+02
  0
LINE
  8
0
 62
6
 10
-2.11328375E+02
 20
-1.92841553E+02
 11
-2.19828375E+02
 21
-1.92841553E+02
  0
LINE
  8
0
 62
6
 10
-2.11328375E+02
 20
-2.12841553E+02
 11
-2.19828375E+02
 21
-2.12841553E+02
  0
ARC
  8
0
 62
7
 10
-2.33128375E+02
 20
-1.46544292E+02
 40
2.00000003E-01
 50
0.00000000E+00
 51
9.00000002E+01
  0
ARC
  8
0
 62
7
 10
-2.42728375E+02
 20
-1.83644291E+02
 40
2.00000003E-01
 50
1.79999995E+02
 51
2.70000000E+02
  0
ARC
  8
0
 62
7
 10
-2.31828375E+02
 20
-1.45244291E+02
 40
2.00000003E-01
 50
0.00000000E+00
 51
9.00000002E+01
  0
ARC
  8
0
 62
7
 10
-2.43928375E+02
 20
-1.45344292E+02
 40
3.00000012E-01
 50
9.00000002E+01
 51
1.80000005E+02
  0
ARC
  8
0
 62
7
 10
-2.31928375E+02
 20
-1.84844292E+02
 40
3.00000012E-01
 50
2.70000000E+02
 51
0.00000000E+00
  0
ARC
  8
0
 62
7
 10
-2.43928375E+02
 20
-1.84844292E+02
 40
3.00000012E-01
 50
1.79999995E+02
 51
2.70000000E+02
  0
ARC
  8
0
 62
7
 10
-2.42628375E+02
 20
-1.46644291E+02
 40
3.00000012E-01
 50
9.00000002E+01
 51
1.80000005E+02
  0
ARC
  8
0
 62
7
 10
-2.33228375E+02
 20
-1.83544292E+02
 40
3.00000012E-01
 50
2.70000000E+02
 51
0.00000000E+00
  0
ARC
  8
0
 62
7
 10
-2.41728375E+02
 20
-1.82644291E+02
 40
2.00000003E-01
 50
1.79999995E+02
 51
2.70000000E+02
  0
ARC
  8
0
 62
7
 10
-2.34228375E+02
 20
-1.82544292E+02
 40
3.00000012E-01
 50
2.70000000E+02
 51
0.00000000E+00
  0
ARC
  8
0
 62
7
 10
-2.41628375E+02
 20
-1.46644291E+02
 40
3.00000012E-01
 50
9.00000002E+01
 51
1.80000005E+02
  0
ARC
  8
0
 62
7
 10
-2.34128375E+02
 20
-1.46544292E+02
 40
2.00000003E-01
 50
0.00000000E+00
 51
9.00000002E+01
  0
ARC
  8
0
 62
7
 10
-2.03828377E+02
 20
-1.48336605E+02
 40
2.50000000E+00
 50
3.23130102E+02
 51
3.68698973E+01
  0
ARC
  8
0
 62
7
 10
-2.16928375E+02
 20
-1.90343048E+02
 40
2.50000000E+00
 50
2.33130097E+02
 51
3.06869898E+02
  0
ARC
  8
0
 62
7
 10
-2.08028376E+02
 20
-1.20336795E+02
 40
2.50000000E+00
 50
5.31301018E+01
 51
1.26869903E+02
  0
ARC
  8
0
 62
7
 10
-2.24078462E+02
 20
-2.25341469E+02
 40
6.25086725E-01
 50
2.70000000E+02
 51
3.59992050E+02
  0
ARC
  8
0
 62
7
 10
-2.26579483E+02
 20
-2.25342659E+02
 40
6.23893499E-01
 50
1.79898290E+02
 51
2.70101716E+02
  0
ARC
  8
0
 62
6
 10
-1.80927666E+02
 20
-1.34736417E+02
 40
1.99289829E-01
 50
3.59795462E+02
 51
9.00000002E+01
  0
ARC
  8
0
 62
6
 10
-1.80927666E+02
 20
-1.38337839E+02
 40
1.99289829E-01
 50
2.70000000E+02
 51
2.04538593E-01
  0
ARC
  8
0
 62
6
 10
-1.87228374E+02
 20
-1.27337128E+02
 40
5.00000000E-01
 50
2.70000000E+02
 51
0.00000000E+00
  0
ARC
  8
0
 62
6
 10
-1.87228374E+02
 20
-1.25337128E+02
 40
5.00000000E-01
 50
0.00000000E+00
 51
9.00000002E+01
  0
ARC
  8
0
 62
6
 10
-1.87228374E+02
 20
-1.85344292E+02
 40
5.00000000E-01
 50
2.70000000E+02
 51
0.00000000E+00
  0
ARC
  8
0
 62
6
 10
-1.87228374E+02
 20
-1.83344292E+02
 40
5.00000000E-01
 50
0.00000000E+00
 51
9.00000002E+01
  0
ARC
  8
0
 62
6
 10
-1.80927666E+02
 20
-1.72343582E+02
 40
1.99289829E-01
 50
3.59795462E+02
 51
9.00000002E+01
  0
ARC
  8
0
 62
6
 10
-1.80927666E+02
 20
-1.75945004E+02
 40
1.99289829E-01
 50
2.70000000E+02
 51
2.04538593E-01
  0
ARC
  8
0
 62
7
 10
-1.68328377E+02
 20
-2.25391548E+02
 40
1.50000000E+00
 50
0.00000000E+00
 51
9.00000002E+01
  0
ARC
  8
0
 62
7
 10
-1.68328377E+02
 20
-2.32291550E+02
 40
1.50000000E+00
 50
2.70000000E+02
 51
0.00000000E+00
  0
CIRCLE
  8
0
  6
PHANTOM
 62
2
 10
-2.12505814E+02
 20
-1.98139175E+02
 40
1.39999998E+00
  0
CIRCLE
  8
0
  6
PHANTOM
 62
2
 10
-2.12505814E+02
 20
-2.07546669E+02
 40
1.39999998E+00
  0
CIRCLE
  8
0
 62
7
 10
-2.35928375E+02
 20
-1.21844292E+02
 40
2.29999995E+00
  0
CIRCLE
  8
0
 62
7
 10
-2.37928375E+02
 20
-1.89341553E+02
 40
2.29999995E+00
  0
LINE
  8
0
 62
6
 10
-1.81728374E+02
 20
2.30864716E+02
 11
-1.81728374E+02
 21
2.20864716E+02
  0
LINE
  8
0
  6
PHANTOM
 62
2
 10
-1.73927818E+02
 20
2.28615821E+02
 11
-1.73927818E+02
 21
2.30765268E+02
  0
LINE
  8
0
 62
7
 10
-1.74828377E+02
 20
2.23614716E+02
 11
-1.74828377E+02
 21
2.28114716E+02
  0
LINE
  8
0
 62
7
 10
-1.74828377E+02
 20
2.29414716E+02
 11
-1.74828377E+02
 21
2.30665824E+02
  0
LINE
  8
0
 62
6
 10
-1.97328377E+02
 20
2.20864716E+02
 11
-1.97328377E+02
 21
2.30864716E+02
  0
LINE
  8
0
 62
6
 10
-2.01328377E+02
 20
2.20864716E+02
 11
-1.81728374E+02
 21
2.20864716E+02
  0
LINE
  8
0
 62
6
 10
-1.81728374E+02
 20
2.20864716E+02
 11
-1.80728374E+02
 21
2.20864716E+02
  0
LINE
  8
0
 62
6
 10
-1.81728374E+02
 20
2.30864716E+02
 11
-1.80728374E+02
 21
2.30864716E+02
  0
LINE
  8
0
 62
6
 10
-2.01328377E+02
 20
2.30864716E+02
 11
-1.81728374E+02
 21
2.30864716E+02
  0
LINE
  8
0
 62
6
 10
-1.80728374E+02
 20
2.23614716E+02
 11
-1.72528374E+02
 21
2.23614716E+02
  0
LINE
  8
0
 62
6
 10
-1.80728374E+02
 20
2.22314716E+02
 11
-1.72528374E+02
 21
2.22314716E+02
  0
LINE
  8
0
 62
6
 10
-1.72528374E+02
 20
2.22314716E+02
 11
-1.72528374E+02
 21
2.23614716E+02
  0
LINE
  8
0
 62
6
 10
-1.68528374E+02
 20
2.22714715E+02
 11
-1.68528374E+02
 21
2.23214715E+02
  0
LINE
  8
0
 62
6
 10
-1.72528374E+02
 20
2.22714715E+02
 11
-1.68528374E+02
 21
2.22714715E+02
  0
LINE
  8
0
 62
6
 10
-1.72528374E+02
 20
2.23214715E+02
 11
-1.68528374E+02
 21
2.23214715E+02
  0
LINE
  8
0
 62
6
 10
-1.72528374E+02
 20
2.29014715E+02
 11
-1.68528374E+02
 21
2.29014715E+02
  0
LINE
  8
0
 62
6
 10
-1.72528374E+02
 20
2.28514716E+02
 11
-1.68528374E+02
 21
2.28514716E+02
  0
LINE
  8
0
 62
6
 10
-1.68528374E+02
 20
2.28514716E+02
 11
-1.68528374E+02
 21
2.29014715E+02
  0
LINE
  8
0
 62
6
 10
-1.72528374E+02
 20
2.28114716E+02
 11
-1.72528374E+02
 21
2.29414716E+02
  0
LINE
  8
0
 62
6
 10
-1.80728374E+02
 20
2.28114716E+02
 11
-1.72528374E+02
 21
2.28114716E+02
  0
LINE
  8
0
 62
6
 10
-1.80728374E+02
 20
2.29414716E+02
 11
-1.72528374E+02
 21
2.29414716E+02
  0
LINE
  8
0
 62
6
 10
-1.80728374E+02
 20
2.30864716E+02
 11
-1.80728374E+02
 21
2.20864716E+02
  0
LINE
  8
0
 62
7
 10
-1.75027266E+02
 20
2.30865821E+02
 11
-2.01328374E+02
 21
2.31011938E+02
  0
LINE
  8
0
 62
7
 10
-2.08028596E+02
 20
2.20680270E+02
 11
-2.19828374E+02
 21
2.20614716E+02
  0
LINE
  8
0
 62
7
 10
-1.74528378E+02
 20
2.20914715E+02
 11
-1.74577824E+02
 21
2.20964161E+02
  0
LINE
  8
0
 62
7
 10
-1.74528374E+02
 20
2.20914716E+02
 11
-1.68328377E+02
 21
2.20914716E+02
  0
LINE
  8
0
  6
PHANTOM
 62
2
 10
-1.73927818E+02
 20
2.25965268E+02
 11
-1.74854851E+02
 21
2.25965268E+02
  0
LINE
  8
0
  6
PHANTOM
 62
2
 10
-1.73927818E+02
 20
2.30765268E+02
 11
-1.74828377E+02
 21
2.30765268E+02
  0
LINE
  8
0
  6
PHANTOM
 62
2
 10
-1.73927818E+02
 20
2.25965268E+02
 11
-1.73927818E+02
 21
2.27315821E+02
  0
LINE
  8
0
  6
PHANTOM
 62
2
 10
-1.73927818E+02
 20
2.26365268E+02
 11
-1.64127823E+02
 21
2.26365268E+02
  0
LINE
  8
0
  6
PHANTOM
 62
2
 10
-1.73927818E+02
 20
2.30365268E+02
 11
-1.64127823E+02
 21
2.30365268E+02
  0
LINE
  8
0
  6
PHANTOM
 62
2
 10
-1.64127823E+02
 20
2.26365268E+02
 11
-1.64127823E+02
 21
2.30365268E+02
  0
LINE
  8
0
  6
PHANTOM
 62
2
 10
-1.64127823E+02
 20
2.26715268E+02
 11
-1.62247253E+02
 21
2.26715268E+02
  0
LINE
  8
0
  6
PHANTOM
 62
2
 10
-1.64127823E+02
 20
2.27215268E+02
 11
-1.62247253E+02
 21
2.27215268E+02
  0
LINE
  8
0
  6
PHANTOM
 62
2
 10
-1.64127823E+02
 20
2.27715268E+02
 11
-1.62247253E+02
 21
2.27715268E+02
  0
LINE
  8
0
  6
PHANTOM
 62
2
 10
-1.64127823E+02
 20
2.28215268E+02
 11
-1.62247253E+02
 21
2.28215268E+02
  0
LINE
  8
0
  6
PHANTOM
 62
2
 10
-1.64127823E+02
 20
2.28715268E+02
 11
-1.62247253E+02
 21
2.28715268E+02
  0
LINE
  8
0
  6
PHANTOM
 62
2
 10
-1.64127823E+02
 20
2.29215268E+02
 11
-1.62247253E+02
 21
2.29215268E+02
  0
LINE
  8
0
  6
PHANTOM
 62
2
 10
-1.64127823E+02
 20
2.29715268E+02
 11
-1.62247253E+02
 21
2.29715268E+02
  0
LINE
  8
0
  6
PHANTOM
 62
2
 10
-1.64127823E+02
 20
2.30215268E+02
 11
-1.62247253E+02
 21
2.30215268E+02
  0
LINE
  8
0
  6
PHANTOM
 62
2
 10
-1.62247253E+02
 20
2.26715268E+02
 11
-1.62247253E+02
 21
2.27215268E+02
  0
LINE
  8
0
  6
PHANTOM
 62
2
 10
-1.62247253E+02
 20
2.27715268E+02
 11
-1.62247253E+02
 21
2.28215268E+02
  0
LINE
  8
0
  6
PHANTOM
 62
2
 10
-1.62247253E+02
 20
2.28715268E+02
 11
-1.62247253E+02
 21
2.29215268E+02
  0
LINE
  8
0
  6
PHANTOM
 62
2
 10
-1.62247253E+02
 20
2.29715268E+02
 11
-1.62247253E+02
 21
2.30215268E+02
  0
LINE
  8
0
  6
PHANTOM
 62
2
 10
-1.62247253E+02
 20
2.26865268E+02
 11
-1.61237358E+02
 21
2.26865268E+02
  0
LINE
  8
0
  6
PHANTOM
 62
2
 10
-1.62247253E+02
 20
2.27065268E+02
 11
-1.61373306E+02
 21
2.27065268E+02
  0
LINE
  8
0
  6
PHANTOM
 62
2
 10
-1.61373309E+02
 20
2.27065268E+02
 11
-1.61237363E+02
 21
2.26865269E+02
  0
LINE
  8
0
  6
PHANTOM
 62
2
 10
-1.62247253E+02
 20
2.27865268E+02
 11
-1.61237358E+02
 21
2.27865268E+02
  0
LINE
  8
0
  6
PHANTOM
 62
2
 10
-1.62247253E+02
 20
2.28065268E+02
 11
-1.61373306E+02
 21
2.28065268E+02
  0
LINE
  8
0
  6
PHANTOM
 62
2
 10
-1.61373310E+02
 20
2.28065264E+02
 11
-1.61237364E+02
 21
2.27865265E+02
  0
LINE
  8
0
  6
PHANTOM
 62
2
 10
-1.62247253E+02
 20
2.28865268E+02
 11
-1.61237358E+02
 21
2.28865268E+02
  0
LINE
  8
0
  6
PHANTOM
 62
2
 10
-1.62247253E+02
 20
2.29065269E+02
 11
-1.61373306E+02
 21
2.29065269E+02
  0
LINE
  8
0
  6
PHANTOM
 62
2
 10
-1.61373307E+02
 20
2.29065268E+02
 11
-1.61237361E+02
 21
2.28865269E+02
  0
LINE
  8
0
  6
PHANTOM
 62
2
 10
-1.62247253E+02
 20
2.29865268E+02
 11
-1.61237358E+02
 21
2.29865268E+02
  0
LINE
  8
0
  6
PHANTOM
 62
2
 10
-1.62247253E+02
 20
2.30065269E+02
 11
-1.61373306E+02
 21
2.30065269E+02
  0
LINE
  8
0
  6
PHANTOM
 62
2
 10
-1.61373311E+02
 20
2.30065268E+02
 11
-1.61237362E+02
 21
2.29865265E+02
  0
LINE
  8
0
  6
CENTER
 62
2
 10
-1.77521523E+02
 20
2.28365268E+02
 11
-1.57667236E+02
 21
2.28365268E+02
  0
LINE
  8
0
  6
PHANTOM
 62
2
 10
-1.69749312E+02
 20
2.25012905E+02
 11
-1.67767112E+02
 21
2.32388533E+02
  0
LINE
  8
0
  6
PHANTOM
 62
2
 10
-1.68719311E+02
 20
2.25012904E+02
 11
-1.66737111E+02
 21
2.32388532E+02
  0
LINE
  8
0
 62
7
 10
-2.07250558E+02
 20
2.23342534E+02
 11
-2.08806194E+02
 21
2.21786898E+02
  0
LINE
  8
0
 62
7
 10
-2.07250558E+02
 20
2.21786898E+02
 11
-2.08806194E+02
 21
2.23342534E+02
  0
LINE
  8
0
 62
7
 10
-2.16150558E+02
 20
2.29642533E+02
 11
-2.17706193E+02
 21
2.28086898E+02
  0
LINE
  8
0
 62
7
 10
-2.16150558E+02
 20
2.28086898E+02
 11
-2.17706193E+02
 21
2.29642533E+02
  0
LINE
  8
0
 62
7
 10
-2.08028376E+02
 20
2.31049160E+02
 11
-2.19828374E+02
 21
2.31114716E+02
  0
LINE
  8
0
 62
7
 10
-1.75027264E+02
 20
2.20863611E+02
 11
-2.01328376E+02
 21
2.20717493E+02
  0
LINE
  8
0
 62
7
 10
-1.74528375E+02
 20
2.30814714E+02
 11
-1.74828375E+02
 21
2.30514715E+02
  0
LINE
  8
0
 62
7
 10
-1.66828377E+02
 20
2.22414716E+02
 11
-1.66828377E+02
 21
2.29314715E+02
  0
LINE
  8
0
 62
7
 10
-1.74528374E+02
 20
2.30814715E+02
 11
-1.68328377E+02
 21
2.30814715E+02
  0
LINE
  8
0
 62
7
 10
-1.74828377E+02
 20
2.21063608E+02
 11
-1.74828377E+02
 21
2.22314716E+02
  0
LINE
  8
0
 62
7
 10
-2.45828375E+02
 20
2.31114716E+02
 11
-2.19828375E+02
 21
2.31114716E+02
  0
LINE
  8
0
 62
7
 10
-2.45828375E+02
 20
2.20614716E+02
 11
-2.19828375E+02
 21
2.20614716E+02
  0
LINE
  8
0
 62
7
 10
-2.19828375E+02
 20
2.31114716E+02
 11
-2.19828375E+02
 21
2.20614716E+02
  0
LINE
  8
0
 62
7
 10
-2.45828375E+02
 20
2.31114716E+02
 11
-2.45828375E+02
 21
2.20614716E+02
  0
LINE
  8
0
 62
7
 10
-2.18528376E+02
 20
2.28864716E+02
 11
-2.18528376E+02
 21
2.30864716E+02
  0
LINE
  8
0
 62
7
 10
-2.08028376E+02
 20
2.30864716E+02
 11
-2.08028376E+02
 21
2.31064715E+02
  0
LINE
  8
0
 62
7
 10
-2.08028376E+02
 20
2.20664716E+02
 11
-2.08028376E+02
 21
2.20864716E+02
  0
LINE
  8
0
 62
7
 10
-2.01328377E+02
 20
2.31064715E+02
 11
-2.08028376E+02
 21
2.31064715E+02
  0
LINE
  8
0
 62
7
 10
-2.08028376E+02
 20
2.20664716E+02
 11
-2.01328377E+02
 21
2.20664716E+02
  0
LINE
  8
0
 62
7
 10
-2.06428375E+02
 20
2.22564716E+02
 11
-2.06428375E+02
 21
2.20864716E+02
  0
LINE
  8
0
 62
7
 10
-2.09628376E+02
 20
2.22564716E+02
 11
-2.09628376E+02
 21
2.20864716E+02
  0
LINE
  8
0
 62
7
 10
-2.15328375E+02
 20
2.28864716E+02
 11
-2.15328375E+02
 21
2.30864716E+02
  0
LINE
  8
0
 62
7
 10
-2.01328377E+02
 20
2.30864716E+02
 11
-2.19828375E+02
 21
2.30864716E+02
  0
LINE
  8
0
 62
7
 10
-2.19828375E+02
 20
2.20864716E+02
 11
-2.01328377E+02
 21
2.20864716E+02
  0
LINE
  8
0
 62
7
 10
-2.01328377E+02
 20
2.31064715E+02
 11
-2.01328377E+02
 21
2.20664716E+02
  0
LINE
  8
0
  6
CENTER
 62
2
 10
-2.48488950E+02
 20
2.25864716E+02
 11
-1.65060944E+02
 21
2.25864716E+02
  0
LINE
  8
0
  6
CENTER
 62
2
 10
-2.35928375E+02
 20
2.18364716E+02
 11
-2.35928375E+02
 21
2.33364716E+02
  0
LINE
  8
0
  6
CENTER
 62
2
 10
-2.37928375E+02
 20
2.18364716E+02
 11
-2.37928375E+02
 21
2.33364716E+02
  0
ARC
  8
0
 62
7
 10
-1.68328377E+02
 20
2.22414716E+02
 40
1.50000000E+00
 50
2.70000000E+02
 51
0.00000000E+00
  0
CIRCLE
  8
0
 62
7
 10
-2.08028376E+02
 20
2.22564716E+02
 40
1.50000000E+00
  0
CIRCLE
  8
0
 62
7
 10
-2.16928375E+02
 20
2.28864716E+02
 40
1.50000000E+00
  0
ARC
  8
0
 62
7
 10
-1.75028374E+02
 20
2.30665824E+02
 40
2.00000003E-01
 50
0.00000000E+00
 51
8.96816952E+01
  0
ARC
  8
0
 62
7
 10
-1.75028374E+02
 20
2.21063608E+02
 40
2.00000003E-01
 50
2.70318305E+02
 51
0.00000000E+00
  0
ARC
  8
0
 62
7
 10
-1.68328377E+02
 20
2.29314715E+02
 40
1.50000000E+00
 50
0.00000000E+00
 51
9.00000002E+01
  0
ARC
  8
0
 62
7
 10
-2.08028376E+02
 20
2.22564716E+02
 40
1.60000002E+00
 50
0.00000000E+00
 51
1.80000005E+02
  0
ARC
  8
0
 62
7
 10
-2.16928375E+02
 20
2.28864716E+02
 40
1.60000002E+00
 50
1.79999995E+02
 51
0.00000000E+00
  0
LINE
  8
0
 62
6
 10
-8.48283844E+01
 20
1.02049240E+02
 11
-9.48283844E+01
 21
1.02049240E+02
  0
LINE
  8
0
 62
6
 10
-8.48283844E+01
 20
1.01949242E+02
 11
-9.48283844E+01
 21
1.01949242E+02
  0
LINE
  8
0
  6
CENTER
 62
6
 10
-8.69283848E+01
 20
1.03541164E+02
 11
-8.69283848E+01
 21
1.09085945E+02
  0
LINE
  8
0
  6
CENTER
 62
6
 10
-9.27283845E+01
 20
1.03541164E+02
 11
-9.27283845E+01
 21
1.09085945E+02
  0
LINE
  8
0
 62
6
 10
-8.69283848E+01
 20
1.08249241E+02
 11
-9.27283845E+01
 21
1.08249241E+02
  0
LINE
  8
0
 62
6
 10
-8.69283848E+01
 20
1.04249241E+02
 11
-9.27283845E+01
 21
1.04249241E+02
  0
LINE
  8
0
  6
CENTER
 62
6
 10
-8.43639688E+01
 20
1.06249241E+02
 11
-9.52402675E+01
 21
1.06249241E+02
  0
LINE
  8
0
 62
6
 10
-8.51283846E+01
 20
1.19549240E+02
 11
-9.45283844E+01
 21
1.19549240E+02
  0
LINE
  8
0
 62
6
 10
-8.83283844E+01
 20
1.14549240E+02
 11
-8.83283844E+01
 21
1.19549240E+02
  0
LINE
  8
0
 62
6
 10
-9.13283844E+01
 20
1.14549240E+02
 11
-8.83283844E+01
 21
1.14549240E+02
  0
LINE
  8
0
 62
6
 10
-9.13283844E+01
 20
1.14549240E+02
 11
-9.13283844E+01
 21
1.19549240E+02
  0
LINE
  8
0
 62
6
 10
-9.22227527E+01
 20
9.35084217E+01
 11
-9.24783823E+01
 21
9.39492392E+01
  0
LINE
  8
0
 62
6
 10
-8.71783851E+01
 20
9.39492422E+01
 11
-8.74340148E+01
 21
9.35084247E+01
  0
LINE
  8
0
 62
6
 10
-9.09727538E+01
 20
9.47584243E+01
 11
-9.12283834E+01
 21
9.51992418E+01
  0
LINE
  8
0
 62
6
 10
-9.24783865E+01
 20
9.39492411E+01
 11
-9.12283852E+01
 21
9.51992425E+01
  0
LINE
  8
0
 62
6
 10
-9.09727554E+01
 20
9.47584255E+01
 11
-9.22227568E+01
 21
9.35084242E+01
  0
LINE
  8
0
 62
6
 10
-8.86840140E+01
 20
9.47584230E+01
 11
-8.84283843E+01
 21
9.51992405E+01
  0
LINE
  8
0
 62
6
 10
-8.48283844E+01
 20
1.00640057E+02
 11
-9.48283844E+01
 21
1.00640057E+02
  0
LINE
  8
0
 62
6
 10
-8.86840157E+01
 20
9.47584228E+01
 11
-8.74340144E+01
 21
9.35084215E+01
  0
LINE
  8
0
 62
6
 10
-8.48283844E+01
 20
9.35084229E+01
 11
-8.74340138E+01
 21
9.35084229E+01
  0
LINE
  8
0
 62
6
 10
-9.22227547E+01
 20
9.35084229E+01
 11
-9.48283844E+01
 21
9.35084229E+01
  0
LINE
  8
0
 62
6
 10
-9.09727550E+01
 20
9.47584229E+01
 11
-8.86840138E+01
 21
9.47584229E+01
  0
LINE
  8
0
 62
6
 10
-8.48283844E+01
 20
9.39492416E+01
 11
-8.71783843E+01
 21
9.39492416E+01
  0
LINE
  8
0
 62
6
 10
-8.71783819E+01
 20
9.39492411E+01
 11
-8.84283833E+01
 21
9.51992425E+01
  0
LINE
  8
0
 62
6
 10
-9.12283845E+01
 20
9.51992416E+01
 11
-8.84283843E+01
 21
9.51992416E+01
  0
LINE
  8
0
 62
6
 10
-9.24783845E+01
 20
9.39492416E+01
 11
-9.48283844E+01
 21
9.39492416E+01
  0
LINE
  8
0
 62
6
 10
-9.48283844E+01
 20
1.01451160E+02
 11
-8.48283844E+01
 21
1.01451160E+02
  0
LINE
  8
0
 62
6
 10
-8.63283844E+01
 20
9.76492386E+01
 11
-8.48283844E+01
 21
9.76492386E+01
  0
LINE
  8
0
 62
6
 10
-8.48283844E+01
 20
9.44492416E+01
 11
-8.63283844E+01
 21
9.44492416E+01
  0
LINE
  8
0
 62
6
 10
-9.33283844E+01
 20
9.44492416E+01
 11
-9.48283844E+01
 21
9.44492416E+01
  0
LINE
  8
0
 62
6
 10
-9.48283844E+01
 20
9.76492386E+01
 11
-9.33283844E+01
 21
9.76492386E+01
  0
LINE
  8
0
 62
7
 10
-8.48283844E+01
 20
1.49052651E+02
 11
-8.48283844E+01
 21
1.19249241E+02
  0
LINE
  8
0
 62
6
 10
-8.80028706E+01
 20
9.74992409E+01
 11
-9.16538980E+01
 21
9.74992409E+01
  0
LINE
  8
0
 62
6
 10
-8.98283844E+01
 20
9.80992393E+01
 11
-9.16538980E+01
 21
9.80992393E+01
  0
LINE
  8
0
 62
6
 10
-8.80028706E+01
 20
9.80992393E+01
 11
-8.98283844E+01
 21
9.80992393E+01
  0
LINE
  8
0
 62
6
 10
-9.40354920E+01
 20
9.53421344E+01
 11
-9.26212785E+01
 21
9.67563480E+01
  0
LINE
  8
0
 62
6
 10
-9.40354920E+01
 20
9.67563480E+01
 11
-9.26212785E+01
 21
9.53421344E+01
  0
LINE
  8
0
 62
6
 10
-8.56212764E+01
 20
9.67563480E+01
 11
-8.70354900E+01
 21
9.53421344E+01
  0
LINE
  8
0
 62
6
 10
-8.56212764E+01
 20
9.53421344E+01
 11
-8.70354900E+01
 21
9.67563480E+01
  0
LINE
  8
0
 62
6
 10
-8.48283844E+01
 20
1.62558956E+02
 11
-8.48283844E+01
 21
1.49052651E+02
  0
LINE
  8
0
 62
6
 10
-9.48283844E+01
 20
1.62558956E+02
 11
-9.48283844E+01
 21
1.49052651E+02
  0
LINE
  8
0
 62
7
 10
-9.40354907E+01
 20
1.32759759E+02
 11
-9.26212771E+01
 21
1.31345546E+02
  0
LINE
  8
0
 62
7
 10
-9.40354907E+01
 20
1.31345546E+02
 11
-9.26212771E+01
 21
1.32759759E+02
  0
LINE
  8
0
 62
6
 10
-9.40354912E+01
 20
1.54759759E+02
 11
-9.26212776E+01
 21
1.53345545E+02
  0
LINE
  8
0
 62
6
 10
-9.40354912E+01
 20
1.53345545E+02
 11
-9.26212776E+01
 21
1.54759759E+02
  0
LINE
  8
0
 62
6
 10
-8.70354912E+01
 20
1.54759759E+02
 11
-8.56212776E+01
 21
1.53345545E+02
  0
LINE
  8
0
 62
6
 10
-8.70354912E+01
 20
1.53345545E+02
 11
-8.56212778E+01
 21
1.54759758E+02
  0
LINE
  8
0
 62
6
 10
-8.63283844E+01
 20
1.55652652E+02
 11
-8.48283844E+01
 21
1.55652652E+02
  0
LINE
  8
0
 62
6
 10
-8.63283844E+01
 20
1.52452652E+02
 11
-8.48283844E+01
 21
1.52452652E+02
  0
LINE
  8
0
 62
6
 10
-9.33283844E+01
 20
1.52452652E+02
 11
-9.48283844E+01
 21
1.52452652E+02
  0
LINE
  8
0
 62
6
 10
-9.33283844E+01
 20
1.55652652E+02
 11
-9.48283844E+01
 21
1.55652652E+02
  0
LINE
  8
0
 62
7
 10
-9.33283844E+01
 20
1.33652651E+02
 11
-9.48283844E+01
 21
1.33652651E+02
  0
LINE
  8
0
 62
7
 10
-9.33283844E+01
 20
1.30452652E+02
 11
-9.48283844E+01
 21
1.30452652E+02
  0
LINE
  8
0
 62
7
 10
-9.48283844E+01
 20
1.49052651E+02
 11
-9.48283844E+01
 21
1.19249241E+02
  0
LINE
  8
0
 62
6
 10
-9.48283844E+01
 20
1.49052651E+02
 11
-8.48283844E+01
 21
1.49052651E+02
  0
LINE
  8
0
 62
7
 10
-9.50783844E+01
 20
1.62558956E+02
 11
-9.48283844E+01
 21
1.62558956E+02
  0
LINE
  8
0
  6
PHANTOM
 62
2
 10
-8.47283840E+01
 20
6.75519791E+01
 11
-9.49283844E+01
 21
6.75519791E+01
  0
LINE
  8
0
  6
PHANTOM
 62
2
 10
-8.47283840E+01
 20
6.75519791E+01
 11
-8.47283840E+01
 21
8.75492401E+01
  0
LINE
  8
0
  6
PHANTOM
 62
2
 10
-9.49283844E+01
 20
6.75519791E+01
 11
-9.49283844E+01
 21
8.75492401E+01
  0
LINE
  8
0
  6
PHANTOM
 62
2
 10
-9.19283843E+01
 20
8.75492401E+01
 11
-9.19283843E+01
 21
6.87974625E+01
  0
LINE
  8
0
  6
PHANTOM
 62
2
 10
-9.45845903E+01
 20
7.16506119E+01
 11
-8.92727618E+01
 21
7.16506119E+01
  0
LINE
  8
0
  6
PHANTOM
 62
2
 10
-9.45845903E+01
 20
7.94506073E+01
 11
-8.93079395E+01
 21
7.94506073E+01
  0
LINE
  8
0
  6
PHANTOM
 62
2
 10
-9.55695651E+01
 20
8.48006134E+01
 11
-8.87067537E+01
 21
8.48006134E+01
  0
LINE
  8
0
 62
6
 10
-8.48283844E+01
 20
8.75492401E+01
 11
-9.48283844E+01
 21
8.75492401E+01
  0
LINE
  8
0
 62
2
 10
-9.65772461E+01
 20
5.15519791E+01
 11
-8.32475443E+01
 21
5.15519791E+01
  0
LINE
  8
0
 62
7
 10
-9.43283844E+01
 20
6.75519791E+01
 11
-8.53283844E+01
 21
6.75519791E+01
  0
LINE
  8
0
 62
7
 10
-8.45783844E+01
 20
4.45519791E+01
 11
-9.50783844E+01
 21
4.45519791E+01
  0
LINE
  8
0
 62
7
 10
-8.48283844E+01
 20
6.70519791E+01
 11
-8.48283844E+01
 21
4.50519791E+01
  0
LINE
  8
0
 62
7
 10
-9.48283844E+01
 20
6.70519791E+01
 11
-9.48283844E+01
 21
4.50519791E+01
  0
LINE
  8
0
 62
7
 10
-8.45783844E+01
 20
1.62558956E+02
 11
-8.45783844E+01
 21
4.45519791E+01
  0
LINE
  8
0
 62
7
 10
-9.50783844E+01
 20
1.62558956E+02
 11
-9.50783844E+01
 21
4.45519791E+01
  0
LINE
  8
0
  6
CENTER
 62
2
 10
-8.98283844E+01
 20
1.64375268E+02
 11
-8.98283844E+01
 21
4.34926453E+01
  0
LINE
  8
0
  6
CENTER
 62
6
 10
-9.33283844E+01
 20
9.35492401E+01
 11
-9.33283844E+01
 21
9.85492401E+01
  0
LINE
  8
0
  6
CENTER
 62
6
 10
-9.58283844E+01
 20
9.60492401E+01
 11
-9.08283844E+01
 21
9.60492401E+01
  0
LINE
  8
0
  6
CENTER
 62
6
 10
-8.63283844E+01
 20
9.35492401E+01
 11
-8.63283844E+01
 21
9.85492401E+01
  0
LINE
  8
0
  6
CENTER
 62
6
 10
-8.88283844E+01
 20
9.60492401E+01
 11
-8.38283844E+01
 21
9.60492401E+01
  0
LINE
  8
0
 62
7
 10
-8.48283844E+01
 20
8.75492401E+01
 11
-8.45783844E+01
 21
8.75492401E+01
  0
LINE
  8
0
 62
7
 10
-9.48283844E+01
 20
8.75492401E+01
 11
-9.50783844E+01
 21
8.75492401E+01
  0
LINE
  8
0
  6
CENTER
 62
6
 10
-9.58283844E+01
 20
1.54052652E+02
 11
-9.08283844E+01
 21
1.54052652E+02
  0
LINE
  8
0
  6
CENTER
 62
6
 10
-8.88283844E+01
 20
1.54052652E+02
 11
-8.38283844E+01
 21
1.54052652E+02
  0
LINE
  8
0
  6
CENTER
 62
6
 10
-9.33283844E+01
 20
1.51552652E+02
 11
-9.33283844E+01
 21
1.56552652E+02
  0
LINE
  8
0
  6
CENTER
 62
6
 10
-8.63283844E+01
 20
1.51552652E+02
 11
-8.63283844E+01
 21
1.56552652E+02
  0
LINE
  8
0
 62
7
 10
-8.48283844E+01
 20
1.62558956E+02
 11
-8.45783844E+01
 21
1.62558956E+02
  0
LINE
  8
0
 62
6
 10
-9.48283844E+01
 20
1.62558956E+02
 11
-8.48283844E+01
 21
1.62558956E+02
  0
LINE
  8
0
 62
6
 10
-9.48283844E+01
 20
6.75519791E+01
 11
-8.48283844E+01
 21
6.75519791E+01
  0
LINE
  8
0
 62
6
 10
-9.48283844E+01
 20
8.75519791E+01
 11
-8.48283844E+01
 21
8.75519791E+01
  0
LINE
  8
0
  6
CENTER
 62
2
 10
-9.73283844E+01
 20
1.58549240E+02
 11
-8.23283844E+01
 21
1.58549240E+02
  0
LINE
  8
0
  6
CENTER
 62
2
 10
-9.73283844E+01
 20
9.10519791E+01
 11
-8.23283844E+01
 21
9.10519791E+01
  0
LINE
  8
0
 62
6
 10
-9.48283844E+01
 20
6.75519791E+01
 11
-9.48283844E+01
 21
1.19249241E+02
  0
LINE
  8
0
 62
6
 10
-8.48283844E+01
 20
6.75519791E+01
 11
-8.48283844E+01
 21
1.19249241E+02
  0
LINE
  8
0
  6
PHANTOM
 62
2
 10
-9.49283844E+01
 20
8.75492401E+01
 11
-8.47283840E+01
 21
8.75492401E+01
  0
CIRCLE
  8
0
 62
6
 10
-8.69283848E+01
 20
1.06249241E+02
 40
8.75000000E-01
  0
ARC
  8
0
 62
6
 10
-8.69283848E+01
 20
1.06249241E+02
 40
2.00000000E+00
 50
2.70000000E+02
 51
9.00000002E+01
  0
CIRCLE
  8
0
 62
6
 10
-9.27283845E+01
 20
1.06249241E+02
 40
8.75000000E-01
  0
ARC
  8
0
 62
6
 10
-9.27283845E+01
 20
1.06249241E+02
 40
2.00000000E+00
 50
9.00000002E+01
 51
2.70000000E+02
  0
ARC
  8
0
 62
6
 10
-9.45283844E+01
 20
1.19249241E+02
 40
3.00000012E-01
 50
9.00000002E+01
 51
1.80000005E+02
  0
ARC
  8
0
 62
6
 10
-8.51283846E+01
 20
1.19249241E+02
 40
3.00000012E-01
 50
0.00000000E+00
 51
9.00000002E+01
  0
CIRCLE
  8
0
 62
6
 10
-8.98283844E+01
 20
9.77992401E+01
 40
2.04999995E+00
  0
ARC
  8
0
 62
6
 10
-9.33283844E+01
 20
9.60492401E+01
 40
1.60000002E+00
 50
2.70000000E+02
 51
9.00000002E+01
  0
ARC
  8
0
 62
6
 10
-8.63283844E+01
 20
9.60492401E+01
 40
1.60000002E+00
 50
9.00000002E+01
 51
2.70000000E+02
  0
CIRCLE
  8
0
 62
6
 10
-8.98283844E+01
 20
9.77992401E+01
 40
1.85000002E+00
  0
ARC
  8
0
 62
6
 10
-8.98283844E+01
 20
9.77992401E+01
 40
8.00000012E-01
 50
2.20243121E+01
 51
1.57975691E+02
  0
ARC
  8
0
 62
6
 10
-8.98283844E+01
 20
9.77992401E+01
 40
8.00000012E-01
 50
2.02024309E+02
 51
3.37975688E+02
  0
CIRCLE
  8
0
 62
6
 10
-9.33283844E+01
 20
9.60492401E+01
 40
1.50000000E+00
  0
CIRCLE
  8
0
 62
6
 10
-8.63283844E+01
 20
9.60492401E+01
 40
1.50000000E+00
  0
CIRCLE
  8
0
 62
7
 10
-9.33283844E+01
 20
1.32052652E+02
 40
1.50000000E+00
  0
CIRCLE
  8
0
 62
6
 10
-9.33283844E+01
 20
1.54052652E+02
 40
1.50000000E+00
  0
CIRCLE
  8
0
 62
6
 10
-8.63283844E+01
 20
1.54052652E+02
 40
1.50000000E+00
  0
ARC
  8
0
 62
6
 10
-8.63283844E+01
 20
1.54052652E+02
 40
1.60000002E+00
 50
9.00000002E+01
 51
2.70000000E+02
  0
ARC
  8
0
 62
6
 10
-9.33283844E+01
 20
1.54052652E+02
 40
1.60000002E+00
 50
2.70000000E+02
 51
9.00000002E+01
  0
ARC
  8
0
 62
7
 10
-8.63283844E+01
 20
1.54052652E+02
 40
1.70000005E+00
 50
3.31927512E+02
 51
2.80724873E+01
  0
ARC
  8
0
 62
7
 10
-8.63283844E+01
 20
1.54058956E+02
 40
1.70000005E+00
 50
3.31927512E+02
 51
2.80724873E+01
  0
ARC
  8
0
 62
7
 10
-9.33283844E+01
 20
1.32052652E+02
 40
1.60000002E+00
 50
2.70000000E+02
 51
9.00000002E+01
  0
ARC
  8
0
 62
7
 10
-9.33283844E+01
 20
1.54052652E+02
 40
1.70000005E+00
 50
1.51927518E+02
 51
2.08072492E+02
  0
ARC
  8
0
 62
7
 10
-9.33283844E+01
 20
1.54058956E+02
 40
1.70000005E+00
 50
1.51927518E+02
 51
2.08072492E+02
  0
CIRCLE
  8
0
  6
PHANTOM
 62
2
 10
-9.19283843E+01
 20
8.48006134E+01
 40
1.89999998E+00
  0
CIRCLE
  8
0
  6
PHANTOM
 62
2
 10
-9.19283843E+01
 20
7.94506073E+01
 40
1.89999998E+00
  0
CIRCLE
  8
0
  6
PHANTOM
 62
2
 10
-9.19283843E+01
 20
7.16506119E+01
 40
1.89999998E+00
  0
CIRCLE
  8
0
  6
PHANTOM
 62
2
 10
-9.19283843E+01
 20
8.48006134E+01
 40
2.40000010E+00
  0
CIRCLE
  8
0
  6
PHANTOM
 62
2
 10
-9.19283843E+01
 20
8.48006134E+01
 40
1.20000005E+00
  0
CIRCLE
  8
0
  6
PHANTOM
 62
2
 10
-9.14283843E+01
 20
8.43006134E+01
 40
3.00000012E-01
  0
CIRCLE
  8
0
  6
PHANTOM
 62
2
 10
-9.14283843E+01
 20
8.53006134E+01
 40
3.00000012E-01
  0
CIRCLE
  8
0
  6
PHANTOM
 62
2
 10
-9.24283843E+01
 20
8.53006134E+01
 40
3.00000012E-01
  0
CIRCLE
  8
0
  6
PHANTOM
 62
2
 10
-9.24283843E+01
 20
8.43006134E+01
 40
3.00000012E-01
  0
CIRCLE
  8
0
 62
7
 10
-8.98283844E+01
 20
5.15519791E+01
 40
4.94999981E+00
  0
CIRCLE
  8
0
 62
2
 10
-8.98283844E+01
 20
6.31519775E+01
 40
1.00000000E+00
  0
ARC
  8
0
 62
7
 10
-8.53283844E+01
 20
6.70519791E+01
 40
5.00000000E-01
 50
0.00000000E+00
 51
9.00000002E+01
  0
ARC
  8
0
 62
7
 10
-9.43283844E+01
 20
6.70519791E+01
 40
5.00000000E-01
 50
9.00000002E+01
 51
1.80000005E+02
  0
ARC
  8
0
 62
7
 10
-9.43283844E+01
 20
4.50519791E+01
 40
5.00000000E-01
 50
1.79999995E+02
 51
2.70000000E+02
  0
ARC
  8
0
 62
7
 10
-8.53283844E+01
 20
4.50519791E+01
 40
5.00000000E-01
 50
2.70000000E+02
 51
0.00000000E+00
  0
LINE
  8
0
 62
7
 10
-3.44791672E+02
 20
7.49723274E+01
 11
-3.41610870E+02
 21
8.04816369E+01
  0
LINE
  8
0
 62
7
 10
-3.44185453E+02
 20
7.46223270E+01
 11
-3.41004652E+02
 21
8.01316366E+01
  0
LINE
  8
0
  6
CENTER
 62
2
 10
-3.48154263E+02
 20
1.45049240E+02
 11
-3.40070122E+02
 21
1.45049240E+02
  0
LINE
  8
0
 62
7
 10
-3.48148163E+02
 20
4.45519791E+01
 11
-3.48148163E+02
 21
8.75492401E+01
  0
LINE
  8
0
 62
7
 10
-3.37648163E+02
 20
8.75492401E+01
 11
-3.37648163E+02
 21
4.45519791E+01
  0
LINE
  8
0
 62
7
 10
-3.48148163E+02
 20
8.75492401E+01
 11
-3.37648163E+02
 21
8.75492401E+01
  0
LINE
  8
0
 62
7
 10
-3.37648163E+02
 20
4.45519791E+01
 11
-3.48148163E+02
 21
4.45519791E+01
  0
LINE
  8
0
  6
CENTER
 62
2
 10
-3.46153939E+02
 20
5.85519791E+01
 11
-3.39497762E+02
 21
5.85519791E+01
  0
LINE
  8
0
 62
7
 10
-3.48148163E+02
 20
1.62549240E+02
 11
-3.48148163E+02
 21
8.75492401E+01
  0
LINE
  8
0
 62
7
 10
-3.37648163E+02
 20
1.62549240E+02
 11
-3.37648163E+02
 21
8.75492401E+01
  0
LINE
  8
0
 62
7
 10
-3.48148163E+02
 20
1.62549240E+02
 11
-3.37648163E+02
 21
1.62549240E+02
  0
LINE
  8
0
  6
CENTER
 62
2
 10
-3.44148163E+02
 20
1.41161564E+02
 11
-3.44148163E+02
 21
1.49365019E+02
  0
LINE
  8
0
  6
CENTER
 62
2
 10
-3.42898163E+02
 20
1.65207978E+02
 11
-3.42898163E+02
 21
4.22987900E+01
  0
LINE
  8
0
  6
CENTER
 62
2
 10
-3.50398163E+02
 20
1.58549240E+02
 11
-3.35398163E+02
 21
1.58549240E+02
  0
LINE
  8
0
  6
CENTER
 62
2
 10
-3.50398163E+02
 20
9.10519791E+01
 11
-3.35398163E+02
 21
9.10519791E+01
  0
CIRCLE
  8
0
 62
7
 10
-3.42898163E+02
 20
7.75519791E+01
 40
2.70000005E+00
  0
CIRCLE
  8
0
 62
7
 10
-3.42898163E+02
 20
7.75519791E+01
 40
3.20000005E+00
  0
CIRCLE
  8
0
 62
7
 10
-3.42898163E+02
 20
7.75519791E+01
 40
3.25000000E+00
  0
CIRCLE
  8
0
 62
2
 10
-3.42898163E+02
 20
5.85519791E+01
 40
2.50000000E+00
  0
CIRCLE
  8
0
 62
7
 10
-3.42898163E+02
 20
5.85519791E+01
 40
2.00000000E+00
  0
CIRCLE
  8
0
 62
7
 10
-3.44148163E+02
 20
1.45049240E+02
 40
2.00000000E+00
  0
CIRCLE
  8
0
 62
2
 10
-3.44148163E+02
 20
1.45049240E+02
 40
2.50000000E+00
  0
LINE
  8
0
 62
6
 10
-1.97328377E+02
 20
1.62549240E+02
 11
-1.97328377E+02
 21
1.49051879E+02
  0
LINE
  8
0
 62
7
 10
-2.33928375E+02
 20
1.33849239E+02
 11
-2.33928375E+02
 21
9.78492393E+01
  0
LINE
  8
0
 62
7
 10
-2.41928375E+02
 20
1.33749241E+02
 11
-2.41928375E+02
 21
9.77492409E+01
  0
LINE
  8
0
 62
7
 10
-2.34228375E+02
 20
9.75492401E+01
 11
-2.41728375E+02
 21
9.75492401E+01
  0
LINE
  8
0
 62
7
 10
-2.18428375E+02
 20
8.80521240E+01
 11
-2.18428375E+02
 21
8.85521240E+01
  0
LINE
  8
0
 62
7
 10
-2.15428375E+02
 20
8.80521240E+01
 11
-2.15428375E+02
 21
8.85521240E+01
  0
LINE
  8
0
 62
7
 10
-2.06528376E+02
 20
1.62056737E+02
 11
-2.06528376E+02
 21
1.61556737E+02
  0
LINE
  8
0
 62
7
 10
-2.09528376E+02
 20
1.62056737E+02
 11
-2.09528376E+02
 21
1.61556737E+02
  0
LINE
  8
0
 62
7
 10
-2.01828377E+02
 20
1.30554707E+02
 11
-2.02328377E+02
 21
1.30554707E+02
  0
LINE
  8
0
 62
7
 10
-2.01828377E+02
 20
1.33554707E+02
 11
-2.02328377E+02
 21
1.33554707E+02
  0
LINE
  8
0
 62
7
 10
-2.08028376E+02
 20
9.52584305E+01
 11
-2.08028376E+02
 21
9.68584290E+01
  0
LINE
  8
0
 62
7
 10
-2.18528376E+02
 20
8.85521240E+01
 11
-2.15328375E+02
 21
8.85521240E+01
  0
LINE
  8
0
  6
CENTER
 62
2
 10
-2.16928375E+02
 20
8.61657028E+01
 11
-2.16928375E+02
 21
9.02439041E+01
  0
LINE
  8
0
 62
7
 10
-2.15328375E+02
 20
8.75521240E+01
 11
-2.15328375E+02
 21
8.85521240E+01
  0
LINE
  8
0
 62
7
 10
-2.18528376E+02
 20
8.75521240E+01
 11
-2.18528376E+02
 21
8.85521240E+01
  0
LINE
  8
0
 62
7
 10
-2.01328377E+02
 20
9.68584290E+01
 11
-2.08028376E+02
 21
9.68584290E+01
  0
LINE
  8
0
 62
7
 10
-2.01328377E+02
 20
9.52584305E+01
 11
-2.08028376E+02
 21
9.52584305E+01
  0
LINE
  8
0
 62
7
 10
-2.09628376E+02
 20
1.61556737E+02
 11
-2.06428375E+02
 21
1.61556737E+02
  0
LINE
  8
0
 62
7
 10
-2.06428375E+02
 20
1.62556736E+02
 11
-2.06428375E+02
 21
1.61556737E+02
  0
LINE
  8
0
 62
7
 10
-2.09628376E+02
 20
1.62556736E+02
 11
-2.09628376E+02
 21
1.61556737E+02
  0
LINE
  8
0
 62
7
 10
-2.08028376E+02
 20
1.54850432E+02
 11
-2.08028376E+02
 21
1.53250432E+02
  0
LINE
  8
0
  6
CENTER
 62
2
 10
-2.08028376E+02
 20
1.63943161E+02
 11
-2.08028376E+02
 21
1.59864955E+02
  0
LINE
  8
0
 62
7
 10
-2.01328377E+02
 20
1.54850432E+02
 11
-2.08028376E+02
 21
1.54850432E+02
  0
LINE
  8
0
 62
7
 10
-2.01328377E+02
 20
1.53250432E+02
 11
-2.08028376E+02
 21
1.53250432E+02
  0
LINE
  8
0
 62
7
 10
-2.26578375E+02
 20
5.44269791E+01
 11
-2.24078375E+02
 21
5.44269791E+01
  0
LINE
  8
0
  6
CENTER
 62
2
 10
-2.25328375E+02
 20
5.36719818E+01
 11
-2.25328375E+02
 21
8.67026978E+01
  0
LINE
  8
0
 62
2
 10
-2.24544875E+02
 20
5.70519791E+01
 11
-2.24544875E+02
 21
8.55492401E+01
  0
LINE
  8
0
 62
2
 10
-2.26111876E+02
 20
5.70519791E+01
 11
-2.26111876E+02
 21
8.55492401E+01
  0
LINE
  8
0
 62
7
 10
-2.24328375E+02
 20
5.70519791E+01
 11
-2.24328375E+02
 21
8.55492401E+01
  0
LINE
  8
0
 62
7
 10
-2.26328375E+02
 20
5.70519791E+01
 11
-2.26328375E+02
 21
8.55492401E+01
  0
LINE
  8
0
 62
7
 10
-2.02328377E+02
 20
1.33654707E+02
 11
-2.02328377E+02
 21
1.30454708E+02
  0
LINE
  8
0
 62
7
 10
-2.01328377E+02
 20
1.30454708E+02
 11
-2.02328377E+02
 21
1.30454708E+02
  0
LINE
  8
0
 62
7
 10
-2.01328377E+02
 20
1.33654707E+02
 11
-2.02328377E+02
 21
1.33654707E+02
  0
LINE
  8
0
 62
7
 10
-2.23128375E+02
 20
8.55492401E+01
 11
-2.27528376E+02
 21
8.55492401E+01
  0
LINE
  8
0
 62
7
 10
-2.27528376E+02
 20
5.50519791E+01
 11
-2.23128375E+02
 21
5.50519791E+01
  0
LINE
  8
0
 62
7
 10
-2.23128375E+02
 20
5.70519791E+01
 11
-2.27528376E+02
 21
5.70519791E+01
  0
LINE
  8
0
 62
7
 10
-2.27528376E+02
 20
5.50519791E+01
 11
-2.27528376E+02
 21
4.45519791E+01
  0
LINE
  8
0
 62
7
 10
-2.23128375E+02
 20
5.50519791E+01
 11
-2.23128375E+02
 21
4.45519791E+01
  0
LINE
  8
0
 62
7
 10
-2.27528376E+02
 20
5.70519791E+01
 11
-2.27528376E+02
 21
8.55492401E+01
  0
LINE
  8
0
 62
7
 10
-2.23128375E+02
 20
5.70519791E+01
 11
-2.23128375E+02
 21
8.55492401E+01
  0
LINE
  8
0
 62
7
 10
-2.31928375E+02
 20
9.52492409E+01
 11
-2.43928375E+02
 21
9.52492409E+01
  0
LINE
  8
0
 62
7
 10
-2.44228375E+02
 20
1.35049240E+02
 11
-2.44228375E+02
 21
9.55492401E+01
  0
LINE
  8
0
 62
7
 10
-2.43928375E+02
 20
1.35349239E+02
 11
-2.31828375E+02
 21
1.35349239E+02
  0
LINE
  8
0
 62
7
 10
-2.31628375E+02
 20
1.35149240E+02
 11
-2.31628375E+02
 21
9.55492401E+01
  0
LINE
  8
0
 62
7
 10
-1.74828377E+02
 20
6.75519791E+01
 11
-1.74828377E+02
 21
5.00519791E+01
  0
LINE
  8
0
 62
7
 10
-2.01328377E+02
 20
1.49051879E+02
 11
-2.01328377E+02
 21
8.75492401E+01
  0
LINE
  8
0
 62
6
 10
-1.89828377E+02
 20
8.75492401E+01
 11
-1.89828377E+02
 21
9.33320923E+01
  0
LINE
  8
0
 62
6
 10
-1.89828377E+02
 20
9.33320985E+01
 11
-1.86328377E+02
 21
9.39492430E+01
  0
LINE
  8
0
 62
6
 10
-1.87628376E+02
 20
1.18049240E+02
 11
-2.00128376E+02
 21
1.18049240E+02
  0
LINE
  8
0
 62
6
 10
-1.82328377E+02
 20
1.02049240E+02
 11
-1.82328377E+02
 21
1.01949242E+02
  0
LINE
  8
0
 62
6
 10
-1.81728374E+02
 20
1.01451160E+02
 11
-1.81728374E+02
 21
1.01949242E+02
  0
LINE
  8
0
 62
6
 10
-1.86328374E+02
 20
1.00640056E+02
 11
-1.81728377E+02
 21
1.01451160E+02
  0
LINE
  8
0
 62
6
 10
-1.87628376E+02
 20
1.01949242E+02
 11
-1.81728374E+02
 21
1.01949242E+02
  0
LINE
  8
0
 62
6
 10
-1.90528374E+02
 20
8.82492371E+01
 11
-1.98128376E+02
 21
8.82492371E+01
  0
LINE
  8
0
 62
6
 10
-2.01328377E+02
 20
8.75492401E+01
 11
-1.89828377E+02
 21
8.75492401E+01
  0
LINE
  8
0
 62
6
 10
-1.86328377E+02
 20
9.39492416E+01
 11
-1.86328377E+02
 21
1.00640057E+02
  0
LINE
  8
0
 62
6
 10
-1.90528374E+02
 20
8.90492401E+01
 11
-1.98128376E+02
 21
8.90492401E+01
  0
LINE
  8
0
 62
6
 10
-1.90528374E+02
 20
8.90492401E+01
 11
-1.90528374E+02
 21
8.82492371E+01
  0
LINE
  8
0
 62
6
 10
-1.98128376E+02
 20
8.82492371E+01
 11
-1.98128376E+02
 21
8.90492401E+01
  0
LINE
  8
0
  6
CENTER
 62
6
 10
-1.67111885E+02
 20
1.06249241E+02
 11
-1.82840374E+02
 21
1.06249241E+02
  0
LINE
  8
0
 62
6
 10
-1.80928375E+02
 20
1.04249241E+02
 11
-1.81728374E+02
 21
1.04249241E+02
  0
LINE
  8
0
 62
6
 10
-1.80728374E+02
 20
1.04449242E+02
 11
-1.80728374E+02
 21
1.08049240E+02
  0
LINE
  8
0
 62
6
 10
-1.80928375E+02
 20
1.08249241E+02
 11
-1.81728374E+02
 21
1.08249241E+02
  0
LINE
  8
0
 62
6
 10
-1.87628376E+02
 20
1.02049240E+02
 11
-1.81728374E+02
 21
1.02049240E+02
  0
LINE
  8
0
 62
6
 10
-2.00128376E+02
 20
1.19549240E+02
 11
-2.00128376E+02
 21
1.18049240E+02
  0
LINE
  8
0
 62
6
 10
-1.81728374E+02
 20
1.02049240E+02
 11
-1.81728374E+02
 21
1.19549240E+02
  0
LINE
  8
0
 62
6
 10
-1.87628376E+02
 20
1.18049240E+02
 11
-1.87628376E+02
 21
1.01949242E+02
  0
LINE
  8
0
 62
6
 10
-2.01328377E+02
 20
1.19549240E+02
 11
-1.81728374E+02
 21
1.19549240E+02
  0
LINE
  8
0
 62
6
 10
-1.87328377E+02
 20
9.44492416E+01
 11
-1.87328377E+02
 21
9.76492386E+01
  0
LINE
  8
0
 62
6
 10
-1.86328377E+02
 20
9.76492386E+01
 11
-1.87328377E+02
 21
9.76492386E+01
  0
LINE
  8
0
 62
6
 10
-1.86328377E+02
 20
9.44492416E+01
 11
-1.87328377E+02
 21
9.44492416E+01
  0
LINE
  8
0
 62
6
 10
-1.80728374E+02
 20
1.05599239E+02
 11
-1.77228374E+02
 21
1.05599239E+02
  0
LINE
  8
0
 62
6
 10
-1.80728374E+02
 20
1.06899239E+02
 11
-1.76878376E+02
 21
1.06899239E+02
  0
LINE
  8
0
 62
6
 10
-1.76448377E+02
 20
1.04649243E+02
 11
-1.75588378E+02
 21
1.07849240E+02
  0
LINE
  8
0
 62
6
 10
-1.77478379E+02
 20
1.04649240E+02
 11
-1.76618378E+02
 21
1.07849241E+02
  0
LINE
  8
0
 62
6
 10
-1.68528374E+02
 20
1.06499241E+02
 11
-1.68528374E+02
 21
1.05999241E+02
  0
LINE
  8
0
 62
6
 10
-1.72528374E+02
 20
1.06899239E+02
 11
-1.72528374E+02
 21
1.05599239E+02
  0
LINE
  8
0
 62
6
 10
-1.72528374E+02
 20
1.06499241E+02
 11
-1.68528374E+02
 21
1.06499241E+02
  0
LINE
  8
0
 62
6
 10
-1.72528374E+02
 20
1.05999241E+02
 11
-1.68528374E+02
 21
1.05999241E+02
  0
LINE
  8
0
 62
6
 10
-1.76188374E+02
 20
1.05599239E+02
 11
-1.72528374E+02
 21
1.05599239E+02
  0
LINE
  8
0
 62
6
 10
-1.75838375E+02
 20
1.06899239E+02
 11
-1.72528374E+02
 21
1.06899239E+02
  0
LINE
  8
0
 62
6
 10
-1.87228374E+02
 20
9.45492401E+01
 11
-1.87328377E+02
 21
9.45492401E+01
  0
LINE
  8
0
 62
6
 10
-1.87228374E+02
 20
9.75492401E+01
 11
-1.87328377E+02
 21
9.75492401E+01
  0
LINE
  8
0
 62
6
 10
-1.86728374E+02
 20
9.50492401E+01
 11
-1.86728374E+02
 21
9.70492401E+01
  0
LINE
  8
0
  6
CENTER
 62
2
 10
-2.41470165E+02
 20
9.10519791E+01
 11
-2.34128533E+02
 21
9.10519791E+01
  0
LINE
  8
0
 62
7
 10
-1.74828377E+02
 20
5.00519791E+01
 11
-1.74828377E+02
 21
4.45519791E+01
  0
LINE
  8
0
 62
7
 10
-2.01328377E+02
 20
8.75508881E+01
 11
-2.19828375E+02
 21
8.75508881E+01
  0
LINE
  8
0
 62
7
 10
-2.01328377E+02
 20
1.62556736E+02
 11
-2.01328377E+02
 21
1.49051879E+02
  0
LINE
  8
0
 62
6
 10
-1.97328377E+02
 20
1.49051879E+02
 11
-2.01328377E+02
 21
1.49051879E+02
  0
LINE
  8
0
 62
7
 10
-2.01328377E+02
 20
1.01050884E+02
 11
-2.19828375E+02
 21
1.01050884E+02
  0
LINE
  8
0
 62
6
 10
-1.99828377E+02
 20
1.55552652E+02
 11
-2.00328377E+02
 21
1.55552652E+02
  0
LINE
  8
0
 62
6
 10
-1.99828377E+02
 20
1.52552652E+02
 11
-2.00328377E+02
 21
1.52552652E+02
  0
LINE
  8
0
 62
6
 10
-1.97328377E+02
 20
1.52452652E+02
 11
-2.00328377E+02
 21
1.52452652E+02
  0
LINE
  8
0
 62
6
 10
-1.97328377E+02
 20
1.55652652E+02
 11
-2.00328377E+02
 21
1.55652652E+02
  0
LINE
  8
0
 62
6
 10
-2.00328377E+02
 20
1.55652652E+02
 11
-2.00328377E+02
 21
1.52452652E+02
  0
LINE
  8
0
 62
7
 10
-2.45828375E+02
 20
4.45519791E+01
 11
-2.19828375E+02
 21
4.45519791E+01
  0
LINE
  8
0
 62
7
 10
-2.45828375E+02
 20
8.75492401E+01
 11
-2.45828375E+02
 21
4.45519791E+01
  0
LINE
  8
0
 62
7
 10
-2.19828375E+02
 20
8.75492401E+01
 11
-2.19828375E+02
 21
4.45519791E+01
  0
LINE
  8
0
 62
7
 10
-1.74828377E+02
 20
4.45519791E+01
 11
-2.19828375E+02
 21
4.45519791E+01
  0
LINE
  8
0
 62
7
 10
-1.74828377E+02
 20
6.75519791E+01
 11
-2.19828375E+02
 21
6.75519791E+01
  0
LINE
  8
0
 62
7
 10
-1.74528374E+02
 20
5.65019836E+01
 11
-1.68328377E+02
 21
5.65019836E+01
  0
LINE
  8
0
 62
7
 10
-1.74528374E+02
 20
4.66019821E+01
 11
-1.68328377E+02
 21
4.66019821E+01
  0
LINE
  8
0
 62
7
 10
-1.66828377E+02
 20
5.50019836E+01
 11
-1.66828377E+02
 21
4.81019821E+01
  0
LINE
  8
0
 62
7
 10
-1.74528374E+02
 20
5.65019800E+01
 11
-1.74828375E+02
 21
5.62019794E+01
  0
LINE
  8
0
 62
7
 10
-1.74528378E+02
 20
4.66019848E+01
 11
-1.74828377E+02
 21
4.69019841E+01
  0
LINE
  8
0
 62
7
 10
-2.45828375E+02
 20
1.62549240E+02
 11
-2.45828375E+02
 21
8.75492401E+01
  0
LINE
  8
0
  6
PHANTOM
 62
2
 10
-1.74828377E+02
 20
8.75492401E+01
 11
-1.74828377E+02
 21
6.75519791E+01
  0
LINE
  8
0
  6
PHANTOM
 62
2
 10
-1.73927818E+02
 20
8.72006073E+01
 11
-1.74828377E+02
 21
8.72006073E+01
  0
LINE
  8
0
  6
PHANTOM
 62
2
 10
-1.73927818E+02
 20
8.24006119E+01
 11
-1.74828377E+02
 21
8.24006119E+01
  0
LINE
  8
0
  6
PHANTOM
 62
2
 10
-1.73927818E+02
 20
8.72006073E+01
 11
-1.73927818E+02
 21
8.24006119E+01
  0
LINE
  8
0
  6
PHANTOM
 62
2
 10
-1.73927818E+02
 20
8.68006134E+01
 11
-1.68310867E+02
 21
8.68006134E+01
  0
LINE
  8
0
  6
PHANTOM
 62
2
 10
-1.73927818E+02
 20
8.28006134E+01
 11
-1.69385864E+02
 21
8.28006134E+01
  0
LINE
  8
0
  6
PHANTOM
 62
2
 10
-1.64127823E+02
 20
8.68006134E+01
 11
-1.64127823E+02
 21
8.28006134E+01
  0
LINE
  8
0
  6
PHANTOM
 62
2
 10
-1.67947414E+02
 20
8.81529717E+01
 11
-1.69929614E+02
 21
8.07773459E+01
  0
LINE
  8
0
  6
PHANTOM
 62
2
 10
-1.66917421E+02
 20
8.81529731E+01
 11
-1.68899620E+02
 21
8.07773472E+01
  0
LINE
  8
0
  6
PHANTOM
 62
2
 10
-1.64127823E+02
 20
8.64506073E+01
 11
-1.62247253E+02
 21
8.64506073E+01
  0
LINE
  8
0
  6
PHANTOM
 62
2
 10
-1.64127823E+02
 20
8.59506073E+01
 11
-1.62247253E+02
 21
8.59506073E+01
  0
LINE
  8
0
  6
PHANTOM
 62
2
 10
-1.64127823E+02
 20
8.54506073E+01
 11
-1.62247253E+02
 21
8.54506073E+01
  0
LINE
  8
0
  6
PHANTOM
 62
2
 10
-1.64127823E+02
 20
8.49506073E+01
 11
-1.62247253E+02
 21
8.49506073E+01
  0
LINE
  8
0
  6
PHANTOM
 62
2
 10
-1.64127823E+02
 20
8.44506073E+01
 11
-1.62247253E+02
 21
8.44506073E+01
  0
LINE
  8
0
  6
PHANTOM
 62
2
 10
-1.64127823E+02
 20
8.39506073E+01
 11
-1.62247253E+02
 21
8.39506073E+01
  0
LINE
  8
0
  6
PHANTOM
 62
2
 10
-1.64127823E+02
 20
8.34506073E+01
 11
-1.62247253E+02
 21
8.34506073E+01
  0
LINE
  8
0
  6
PHANTOM
 62
2
 10
-1.64127823E+02
 20
8.29506073E+01
 11
-1.62247253E+02
 21
8.29506073E+01
  0
LINE
  8
0
  6
PHANTOM
 62
2
 10
-1.62247253E+02
 20
8.64506073E+01
 11
-1.62247253E+02
 21
8.59506073E+01
  0
LINE
  8
0
  6
PHANTOM
 62
2
 10
-1.62247253E+02
 20
8.54506073E+01
 11
-1.62247253E+02
 21
8.49506073E+01
  0
LINE
  8
0
  6
PHANTOM
 62
2
 10
-1.62247253E+02
 20
8.44506073E+01
 11
-1.62247253E+02
 21
8.39506073E+01
  0
LINE
  8
0
  6
PHANTOM
 62
2
 10
-1.62247253E+02
 20
8.34506073E+01
 11
-1.62247253E+02
 21
8.29506073E+01
  0
LINE
  8
0
  6
PHANTOM
 62
2
 10
-1.62247253E+02
 20
8.63006134E+01
 11
-1.61237358E+02
 21
8.63006134E+01
  0
LINE
  8
0
  6
PHANTOM
 62
2
 10
-1.62247253E+02
 20
8.61006088E+01
 11
-1.61373306E+02
 21
8.61006088E+01
  0
LINE
  8
0
  6
PHANTOM
 62
2
 10
-1.61373310E+02
 20
8.61006145E+01
 11
-1.61237364E+02
 21
8.63006139E+01
  0
LINE
  8
0
  6
PHANTOM
 62
2
 10
-1.62247253E+02
 20
8.53006134E+01
 11
-1.61237358E+02
 21
8.53006134E+01
  0
LINE
  8
0
  6
PHANTOM
 62
2
 10
-1.62247253E+02
 20
8.51006088E+01
 11
-1.61373306E+02
 21
8.51006088E+01
  0
LINE
  8
0
  6
PHANTOM
 62
2
 10
-1.61373306E+02
 20
8.51006123E+01
 11
-1.61237360E+02
 21
8.53006117E+01
  0
LINE
  8
0
  6
PHANTOM
 62
2
 10
-1.62247253E+02
 20
8.43006134E+01
 11
-1.61237358E+02
 21
8.43006134E+01
  0
LINE
  8
0
  6
PHANTOM
 62
2
 10
-1.62247253E+02
 20
8.41006088E+01
 11
-1.61373306E+02
 21
8.41006088E+01
  0
LINE
  8
0
  6
PHANTOM
 62
2
 10
-1.61373308E+02
 20
8.41006144E+01
 11
-1.61237362E+02
 21
8.43006138E+01
  0
LINE
  8
0
  6
PHANTOM
 62
2
 10
-1.62247253E+02
 20
8.33006134E+01
 11
-1.61237358E+02
 21
8.33006134E+01
  0
LINE
  8
0
  6
PHANTOM
 62
2
 10
-1.62247253E+02
 20
8.31006088E+01
 11
-1.61373306E+02
 21
8.31006088E+01
  0
LINE
  8
0
  6
PHANTOM
 62
2
 10
-1.61373305E+02
 20
8.31006106E+01
 11
-1.61237358E+02
 21
8.33006116E+01
  0
LINE
  8
0
  6
PHANTOM
 62
2
 10
-1.76790817E+02
 20
8.48006134E+01
 11
-1.59238014E+02
 21
8.48006134E+01
  0
LINE
  8
0
 62
7
 10
-2.19828671E+02
 20
1.40546783E+02
 11
-2.19828671E+02
 21
1.43546782E+02
  0
LINE
  8
0
 62
7
 10
-2.19828375E+02
 20
8.75492401E+01
 11
-2.19828375E+02
 21
1.62551980E+02
  0
LINE
  8
0
 62
7
 10
-2.45828375E+02
 20
1.62549240E+02
 11
-2.19828375E+02
 21
1.62549240E+02
  0
LINE
  8
0
 62
7
 10
-2.32928375E+02
 20
1.33849239E+02
 11
-2.32928375E+02
 21
9.68492393E+01
  0
LINE
  8
0
 62
7
 10
-2.33228375E+02
 20
9.65492401E+01
 11
-2.42728375E+02
 21
9.65492401E+01
  0
LINE
  8
0
 62
7
 10
-2.42928375E+02
 20
1.33749241E+02
 11
-2.42928375E+02
 21
9.67492409E+01
  0
LINE
  8
0
 62
7
 10
-2.42628375E+02
 20
1.34049240E+02
 11
-2.33128375E+02
 21
1.34049240E+02
  0
LINE
  8
0
  6
CENTER
 62
2
 10
-2.35928375E+02
 20
1.55111395E+02
 11
-2.35928375E+02
 21
1.61998314E+02
  0
LINE
  8
0
  6
CENTER
 62
2
 10
-2.32721288E+02
 20
1.58549240E+02
 11
-2.40222172E+02
 21
1.58549240E+02
  0
LINE
  8
0
  6
CENTER
 62
2
 10
-2.37928375E+02
 20
8.77336578E+01
 11
-2.37928375E+02
 21
9.43467636E+01
  0
LINE
  8
0
 62
7
 10
-2.45828375E+02
 20
8.75492401E+01
 11
-2.19828375E+02
 21
8.75492401E+01
  0
LINE
  8
0
  6
PHANTOM
 62
2
 10
-1.89828377E+02
 20
8.75492401E+01
 11
-1.74828377E+02
 21
8.75492401E+01
  0
LINE
  8
0
 62
6
 10
-2.01328377E+02
 20
1.62549240E+02
 11
-1.97328377E+02
 21
1.62549240E+02
  0
LINE
  8
0
 62
7
 10
-2.19828375E+02
 20
1.62549240E+02
 11
-2.01328377E+02
 21
1.62549240E+02
  0
LINE
  8
0
  6
CENTER
 62
6
 10
-2.09107578E+02
 20
1.54049240E+02
 11
-1.96028744E+02
 21
1.54049240E+02
  0
LINE
  8
0
  6
CENTER
 62
6
 10
-2.10262819E+02
 20
9.60492401E+01
 11
-1.83790295E+02
 21
9.60492401E+01
  0
LINE
  8
0
 62
7
 10
-2.01328377E+02
 20
1.49051879E+02
 11
-2.19828671E+02
 21
1.49051879E+02
  0
LINE
  8
0
  6
PHANTOM
 62
2
 10
-1.67280869E+02
 20
8.68006134E+01
 11
-1.64127823E+02
 21
8.68006134E+01
  0
LINE
  8
0
  6
PHANTOM
 62
2
 10
-1.68355865E+02
 20
8.28006134E+01
 11
-1.64127823E+02
 21
8.28006134E+01
  0
LINE
  8
0
 62
6
 10
-2.11328375E+02
 20
8.75519791E+01
 11
-2.11328375E+02
 21
6.75519791E+01
  0
LINE
  8
0
 62
6
 10
-2.11328375E+02
 20
8.75519791E+01
 11
-2.19828375E+02
 21
8.75519791E+01
  0
LINE
  8
0
 62
6
 10
-2.11328375E+02
 20
6.75519791E+01
 11
-2.19828375E+02
 21
6.75519791E+01
  0
ARC
  8
0
 62
7
 10
-2.34128375E+02
 20
1.33849239E+02
 40
2.00000003E-01
 50
0.00000000E+00
 51
9.00000002E+01
  0
ARC
  8
0
 62
7
 10
-2.41628375E+02
 20
1.33749241E+02
 40
3.00000012E-01
 50
9.00000002E+01
 51
1.80000005E+02
  0
ARC
  8
0
 62
7
 10
-2.34228375E+02
 20
9.78492393E+01
 40
3.00000012E-01
 50
2.70000000E+02
 51
0.00000000E+00
  0
ARC
  8
0
 62
7
 10
-2.41728375E+02
 20
9.77492409E+01
 40
2.00000003E-01
 50
1.79999995E+02
 51
2.70000000E+02
  0
ARC
  8
0
 62
7
 10
-2.33228375E+02
 20
9.68492393E+01
 40
3.00000012E-01
 50
2.70000000E+02
 51
0.00000000E+00
  0
ARC
  8
0
 62
7
 10
-2.42628375E+02
 20
1.33749241E+02
 40
3.00000012E-01
 50
9.00000002E+01
 51
1.80000005E+02
  0
ARC
  8
0
 62
7
 10
-2.16928375E+02
 20
9.00521240E+01
 40
2.50000000E+00
 50
2.33130097E+02
 51
3.06869898E+02
  0
ARC
  8
0
 62
7
 10
-2.08028376E+02
 20
1.60056737E+02
 40
2.50000000E+00
 50
5.31301018E+01
 51
1.26869903E+02
  0
ARC
  8
0
 62
7
 10
-2.03828377E+02
 20
1.32054707E+02
 40
2.50000000E+00
 50
3.23130102E+02
 51
3.68698973E+01
  0
ARC
  8
0
 62
7
 10
-2.26579483E+02
 20
5.50508728E+01
 40
6.23893499E-01
 50
1.79898290E+02
 51
2.70101716E+02
  0
ARC
  8
0
 62
7
 10
-2.24078462E+02
 20
5.50520630E+01
 40
6.25086725E-01
 50
2.70000000E+02
 51
3.59992050E+02
  0
ARC
  8
0
 62
7
 10
-2.43928375E+02
 20
9.55492401E+01
 40
3.00000012E-01
 50
1.79999995E+02
 51
2.70000000E+02
  0
ARC
  8
0
 62
7
 10
-2.31928375E+02
 20
9.55492401E+01
 40
3.00000012E-01
 50
2.70000000E+02
 51
0.00000000E+00
  0
ARC
  8
0
 62
7
 10
-2.43928375E+02
 20
1.35049240E+02
 40
3.00000012E-01
 50
9.00000002E+01
 51
1.80000005E+02
  0
ARC
  8
0
 62
7
 10
-2.31828375E+02
 20
1.35149240E+02
 40
2.00000003E-01
 50
0.00000000E+00
 51
9.00000002E+01
  0
ARC
  8
0
 62
6
 10
-1.80927666E+02
 20
1.04448528E+02
 40
1.99289829E-01
 50
2.70000000E+02
 51
2.04538593E-01
  0
ARC
  8
0
 62
6
 10
-1.80927666E+02
 20
1.08049950E+02
 40
1.99289829E-01
 50
3.59795462E+02
 51
9.00000002E+01
  0
ARC
  8
0
 62
6
 10
-1.87228374E+02
 20
9.70492401E+01
 40
5.00000000E-01
 50
0.00000000E+00
 51
9.00000002E+01
  0
ARC
  8
0
 62
6
 10
-1.87228374E+02
 20
9.50492401E+01
 40
5.00000000E-01
 50
2.70000000E+02
 51
0.00000000E+00
  0
CIRCLE
  8
0
 62
7
 10
-2.37928375E+02
 20
9.10519791E+01
 40
2.29999995E+00
  0
ARC
  8
0
 62
7
 10
-2.42728375E+02
 20
9.67492409E+01
 40
2.00000003E-01
 50
1.79999995E+02
 51
2.70000000E+02
  0
ARC
  8
0
 62
6
 10
-2.01828377E+02
 20
1.54052652E+02
 40
2.50000000E+00
 50
3.23130102E+02
 51
3.68698973E+01
  0
ARC
  8
0
 62
7
 10
-1.68328377E+02
 20
5.50019836E+01
 40
1.50000000E+00
 50
0.00000000E+00
 51
9.00000002E+01
  0
ARC
  8
0
 62
7
 10
-1.68328377E+02
 20
4.81019821E+01
 40
1.50000000E+00
 50
2.70000000E+02
 51
0.00000000E+00
  0
CIRCLE
  8
0
  6
PHANTOM
 62
2
 10
-2.12505814E+02
 20
8.22543564E+01
 40
1.39999998E+00
  0
CIRCLE
  8
0
  6
PHANTOM
 62
2
 10
-2.12505814E+02
 20
7.28468628E+01
 40
1.39999998E+00
  0
ARC
  8
0
 62
7
 10
-2.33128375E+02
 20
1.33849239E+02
 40
2.00000003E-01
 50
0.00000000E+00
 51
9.00000002E+01
  0
CIRCLE
  8
0
 62
7
 10
-2.35928375E+02
 20
1.58549240E+02
 40
2.29999995E+00
  0
TEXT
  8
0
 62
7
 10
-3.69850268E+02
 20
2.63100000E+02
 40
6.29999924E+00
  1
GME SERIES
 41
1.06382946E+00
  7
MONOTXT
  0
TEXT
  8
0
 62
7
 10
-3.85600561E+02
 20
2.38100000E+02
 40
6.29999924E+00
  1
MODEL:GME05-E1
 41
9.99999697E-01
  7
MONOTXT
  0
TEXT
  8
0
 62
7
 10
3.15499656E+02
 20
2.63100000E+02
 40
6.29999924E+00
  1
Ver. 1.0
 41
1.08108075E+00
  7
MONOTXT
  0
TEXT
  8
0
 62
7
 10
2.87585227E+02
 20
-2.71250000E+02
 40
9.00000000E+00
  1
KOGANEI CORP.
 41
1.04838732E+00
  7
MONOTXT
  0
TEXT
  8
0
 62
7
 10
-3.85600561E+02
 20
-1.83999996E+01
 40
6.29999924E+00
  1
MODEL:GME05-E2
 41
9.99999697E-01
  7
MONOTXT
  0
TEXT
  8
0
 62
7
 10
1.39243412E+01
 20
2.58100000E+02
 40
6.29999924E+00
  1
-UR(GME05-E1)
 41
9.99999697E-01
  7
MONOTXT
  0
TEXT
  8
0
 62
7
 10
1.61746211E+01
 20
2.16000004E+01
 40
6.29999924E+00
  1
-21
 41
9.99999697E-01
  7
MONOTXT
  0
TEXT
  8
0
 62
7
 10
1.97185089E+02
 20
2.16000004E+01
 40
6.29999924E+00
  1
-PL,-ML
 41
9.99999697E-01
  7
MONOTXT
  0
LINE
  8
0
 62
7
 10
3.99799805E+02
 20
2.76250000E+02
 11
3.99799805E+02
 21
-2.76750000E+02
  0
LINE
  8
0
 62
7
 10
-3.99250000E+02
 20
2.76250000E+02
 11
-3.99250000E+02
 21
-2.76750000E+02
  0
LINE
  8
0
 62
7
 10
-3.99250000E+02
 20
2.76250000E+02
 11
3.99799805E+02
 21
2.76250000E+02
  0
LINE
  8
0
 62
7
 10
-3.99250000E+02
 20
-2.76750000E+02
 11
3.99799805E+02
 21
-2.76750000E+02
  0
LINE
  8
0
 62
7
 10
-2.79250000E+02
 20
2.76250000E+02
 11
-2.79250000E+02
 21
2.56250000E+02
  0
LINE
  8
0
 62
7
 10
-3.99250000E+02
 20
2.56250000E+02
 11
-2.79250000E+02
 21
2.56250000E+02
  0
LINE
  8
0
 62
7
 10
2.79799927E+02
 20
2.76250000E+02
 11
2.79799927E+02
 21
2.56250000E+02
  0
LINE
  8
0
 62
7
 10
2.79799927E+02
 20
2.56250000E+02
 11
3.99799805E+02
 21
2.56250000E+02
  0
LINE
  8
0
 62
7
 10
2.79799927E+02
 20
-2.56750000E+02
 11
2.79799927E+02
 21
-2.76750000E+02
  0
LINE
  8
0
 62
7
 10
2.79799927E+02
 20
-2.56750000E+02
 11
3.99799805E+02
 21
-2.56750000E+02
  0
LINE
  8
0
 62
7
 10
2.74902344E-01
 20
-2.76750000E+02
 11
2.74902344E-01
 21
2.76250000E+02
  0
LINE
  8
0
 62
7
 10
-3.99250000E+02
 20
-2.50000000E-01
 11
2.74902344E-01
 21
-2.50000000E-01
  0
LINE
  8
0
  6
DASHED
 62
2
 10
4.74680061E+01
 20
5.44732714E+00
 11
4.34680061E+01
 21
5.44732714E+00
  0
LINE
  8
0
  6
DASHED
 62
2
 10
4.34680061E+01
 20
4.47327167E-01
 11
4.74680061E+01
 21
4.47327167E-01
  0
LINE
  8
0
  6
DASHED
 62
2
 10
4.84680061E+01
 20
-2.25767279E+00
 11
4.24680061E+01
 21
-2.25767279E+00
  0
LINE
  8
0
  6
DASHED
 62
2
 10
4.89680061E+01
 20
-4.75767279E+00
 11
4.89680061E+01
 21
-2.75767279E+00
  0
LINE
  8
0
  6
DASHED
 62
2
 10
4.67180061E+01
 20
4.47327167E-01
 11
4.67180061E+01
 21
-2.25767279E+00
  0
LINE
  8
0
  6
DASHED
 62
2
 10
4.89680042E+01
 20
-2.75767162E+00
 11
4.84680037E+01
 21
-2.25767109E+00
  0
LINE
  8
0
  6
DASHED
 62
2
 10
4.79680032E+01
 20
9.47328966E-01
 11
4.74680026E+01
 21
4.47328435E-01
  0
LINE
  8
0
  6
DASHED
 62
2
 10
4.79680045E+01
 20
4.94732647E+00
 11
4.74680040E+01
 21
5.44732700E+00
  0
LINE
  8
0
  6
DASHED
 62
2
 10
4.79680061E+01
 20
4.94732714E+00
 11
4.79680061E+01
 21
9.47327137E-01
  0
LINE
  8
0
  6
DASHED
 62
2
 10
4.19680035E+01
 20
-4.75767240E+00
 11
4.24680041E+01
 21
-5.25767293E+00
  0
LINE
  8
0
  6
DASHED
 62
2
 10
4.19680035E+01
 20
-2.75767297E+00
 11
4.24680041E+01
 21
-2.25767244E+00
  0
LINE
  8
0
  6
DASHED
 62
2
 10
4.29680046E+01
 20
4.94732647E+00
 11
4.34680051E+01
 21
5.44732700E+00
  0
LINE
  8
0
  6
DASHED
 62
2
 10
4.34680051E+01
 20
4.47327086E-01
 11
4.29680046E+01
 21
9.47327617E-01
  0
LINE
  8
0
  6
DASHED
 62
2
 10
4.29680061E+01
 20
4.94732714E+00
 11
4.29680061E+01
 21
9.47327137E-01
  0
LINE
  8
0
  6
DASHED
 62
2
 10
4.19680061E+01
 20
-4.75767279E+00
 11
4.19680061E+01
 21
-2.75767279E+00
  0
LINE
  8
0
  6
DASHED
 62
2
 10
4.42180061E+01
 20
4.47327167E-01
 11
4.42180061E+01
 21
-2.25767279E+00
  0
LINE
  8
0
  6
DASHED
 62
2
 10
4.89680042E+01
 20
-4.75767375E+00
 11
4.84680050E+01
 21
-5.25767293E+00
  0
LINE
  8
0
  6
DASHED
 62
2
 10
4.17680054E+01
 20
-5.25767279E+00
 11
4.91680031E+01
 21
-5.25767279E+00
  0
LINE
  8
0
  6
DASHED
 62
2
 10
4.94680061E+01
 20
-6.25767279E+00
 11
4.94680061E+01
 21
-5.55767298E+00
  0
LINE
  8
0
  6
DASHED
 62
2
 10
4.14680061E+01
 20
-6.25767279E+00
 11
4.14680061E+01
 21
-5.55767298E+00
  0
LINE
  8
0
  6
DASHED
 62
2
 10
4.14680030E+01
 20
-5.55767217E+00
 11
4.17680036E+01
 21
-5.25767158E+00
  0
LINE
  8
0
  6
DASHED
 62
2
 10
4.91680028E+01
 20
-5.25767158E+00
 11
4.94680048E+01
 21
-5.55767352E+00
  0
LINE
  8
0
  6
DASHED
 62
2
 10
4.14680061E+01
 20
-5.55767298E+00
 11
4.94680061E+01
 21
-5.55767298E+00
  0
LINE
  8
0
  6
CENTER
 62
2
 10
4.54680061E+01
 20
9.22860622E+00
 11
4.54680061E+01
 21
-7.73522329E+00
  0
LINE
  8
0
  6
DASHED
 62
2
 10
3.92680054E+01
 20
-1.24254936E+02
 11
3.92680054E+01
 21
-8.12576752E+01
  0
LINE
  8
0
  6
DASHED
 62
2
 10
4.97680054E+01
 20
-8.12576752E+01
 11
4.97680054E+01
 21
-1.24254936E+02
  0
LINE
  8
0
  6
DASHED
 62
2
 10
4.97680054E+01
 20
-1.24254936E+02
 11
3.92680054E+01
 21
-1.24254936E+02
  0
LINE
  8
0
  6
DASHED
 62
2
 10
3.92680054E+01
 20
-8.12576752E+01
 11
4.97680054E+01
 21
-8.12576752E+01
  0
LINE
  8
0
  6
DASHED
 62
2
 10
3.92680054E+01
 20
-6.25767279E+00
 11
3.92680054E+01
 21
-8.12576752E+01
  0
LINE
  8
0
  6
DASHED
 62
2
 10
4.97680054E+01
 20
-6.25767279E+00
 11
4.97680054E+01
 21
-8.12576752E+01
  0
LINE
  8
0
  6
DASHED
 62
2
 10
3.92680054E+01
 20
-6.25767279E+00
 11
4.97680054E+01
 21
-6.25767279E+00
  0
LINE
  8
0
  6
CENTER
 62
2
 10
4.45180054E+01
 20
-2.74824309E+00
 11
4.45180054E+01
 21
-1.26508118E+02
  0
ENDSEC
  0
EOF
