  0
SECTION
  2
HEADER
  9
$ACADVER
  1
AC1003
  9
$EXTMIN
 10
-3.99250000E+02
 20
-2.76750000E+02
  9
$EXTMAX
 10
3.99799805E+02
 20
2.76250000E+02
  9
$LIMMIN
 10
-3.99251000E+02
 20
-2.76751000E+02
  9
$LIMMAX
 10
3.99800805E+02
 20
2.76251000E+02
  9
$SNAPUNIT
 10
1
 20
1
  9
$SNAPBASE
 10
0
 20
0
  9
$GRIDMODE
 70
0
  9
$GRIDUNIT
 10
0
 20
0
  9
$LTSCALE
 40
1.33174967E+01
  9
$TEXTSIZE
 40
3.2
  9
$DIMTAD
 70
0
  9
$LUNITS
 70
2
  9
$LUPREC
 70
4
  9
$FILLETRAD
 40
0
  9
$AUNITS
 70
0
  9
$AUPREC
 70
0
  0
ENDSEC
  0
SECTION
  2
TABLES
  0
TABLE
  2
LTYPE
 70
2
  0
LTYPE
  2
CONTINUOUS
 70
64
  3
Solid-Line
 72
65
 73
0
 40
0
  0
LTYPE
  2
DASHED
 70
64
  3
DASHED
 72
65
 73
2
 40
.75
 49
.5
 49
-.25
  0
LTYPE
  2
HIDDEN
 70
64
  3
HIDDEN
 72
65
 73
2
 40
.375
 49
.25
 49
-.125
  0
LTYPE
  2
CENTER
 70
64
  3
CENTER
 72
65
 73
4
 40
2
 49
1.25
 49
-.25
 49
.25
 49
-.25
  0
LTYPE
  2
PHANTOM
 70
64
  3
PHANTOM
 72
65
 73
6
 40
2.5
 49
1.25
 49
-.25
 49
.25
 49
-.25
 49
.25
 49
-.25
  0
ENDTAB
  0
TABLE
  2
LAYER
 70
1
  0
LAYER
  2
1
 70
0
 62
7
  6
CONTINUOUS
 0
ENDTAB
  0
TABLE
  2
STYLE
 70
2
  0
STYLE
  2
MONOTXT
 70
0
 40
0
 41
1
 50
0
 71
0
 42
.2
  3
monotxt
  0
STYLE
  2
BIGFONT
 70
0
 40
0
 41
1
 50
0
 71
0
 42
.2
  3
txt
  4
bigfont
  0
ENDTAB
  0
ENDSEC
  0
SECTION
  2
ENTITIES
  0
LINE
  8
0
  6
CENTER
 62
6
 10
3.35884583E+02
 20
-1.98392899E+02
 11
3.35884583E+02
 21
-1.62511894E+02
  0
LINE
  8
0
 62
6
 10
3.30884583E+02
 20
-1.95892899E+02
 11
3.40884583E+02
 21
-1.95892899E+02
  0
LINE
  8
0
 62
6
 10
3.40884583E+02
 20
-1.95892899E+02
 11
3.40884583E+02
 21
-1.70292898E+02
  0
LINE
  8
0
 62
6
 10
3.30884583E+02
 20
-1.95892899E+02
 11
3.30884583E+02
 21
-1.70292898E+02
  0
LINE
  8
0
 62
6
 10
3.30884583E+02
 20
-1.70292898E+02
 11
3.40884583E+02
 21
-1.70292898E+02
  0
LINE
  8
0
 62
6
 10
3.31184582E+02
 20
-1.70192898E+02
 11
3.40584582E+02
 21
-1.70192898E+02
  0
LINE
  8
0
 62
6
 10
3.39984582E+02
 20
-1.70192898E+02
 11
3.39984582E+02
 21
-1.70292898E+02
  0
LINE
  8
0
 62
6
 10
3.31784582E+02
 20
-1.70192898E+02
 11
3.31784582E+02
 21
-1.70292898E+02
  0
LINE
  8
0
 62
6
 10
3.31184582E+02
 20
-1.65192898E+02
 11
3.31184582E+02
 21
-1.70192898E+02
  0
LINE
  8
0
 62
6
 10
3.34024583E+02
 20
-1.60364132E+02
 11
3.34024583E+02
 21
-1.54762897E+02
  0
LINE
  8
0
 62
6
 10
3.32594583E+02
 20
-1.60792591E+02
 11
3.32594583E+02
 21
-1.54762897E+02
  0
LINE
  8
0
 62
6
 10
3.32594583E+02
 20
-1.65192898E+02
 11
3.32594583E+02
 21
-1.61822590E+02
  0
LINE
  8
0
 62
6
 10
3.34024583E+02
 20
-1.65192898E+02
 11
3.34024583E+02
 21
-1.61394135E+02
  0
LINE
  8
0
 62
6
 10
3.32984583E+02
 20
-1.54762897E+02
 11
3.32984583E+02
 21
-1.49762897E+02
  0
LINE
  8
0
 62
6
 10
3.33784582E+02
 20
-1.54762897E+02
 11
3.33784582E+02
 21
-1.49762897E+02
  0
LINE
  8
0
 62
6
 10
3.32594583E+02
 20
-1.54762897E+02
 11
3.34094583E+02
 21
-1.54762897E+02
  0
LINE
  8
0
 62
6
 10
3.32984583E+02
 20
-1.49762897E+02
 11
3.33784582E+02
 21
-1.49762897E+02
  0
LINE
  8
0
 62
6
 10
3.39104582E+02
 20
-1.58842068E+02
 11
3.39104582E+02
 21
-1.54762897E+02
  0
LINE
  8
0
 62
6
 10
3.37674582E+02
 20
-1.59270523E+02
 11
3.37674582E+02
 21
-1.54762897E+02
  0
LINE
  8
0
 62
6
 10
3.37674582E+02
 20
-1.65192898E+02
 11
3.37674582E+02
 21
-1.60300522E+02
  0
LINE
  8
0
 62
6
 10
3.39104582E+02
 20
-1.65192898E+02
 11
3.39104582E+02
 21
-1.59872066E+02
  0
LINE
  8
0
 62
6
 10
3.38784583E+02
 20
-1.54762897E+02
 11
3.38784583E+02
 21
-1.49762897E+02
  0
LINE
  8
0
 62
6
 10
3.37984582E+02
 20
-1.54762897E+02
 11
3.37984582E+02
 21
-1.49762897E+02
  0
LINE
  8
0
 62
6
 10
3.39104582E+02
 20
-1.54762897E+02
 11
3.37674582E+02
 21
-1.54762897E+02
  0
LINE
  8
0
 62
6
 10
3.38784583E+02
 20
-1.49762897E+02
 11
3.37984582E+02
 21
-1.49762897E+02
  0
LINE
  8
0
 62
6
 10
3.40220861E+02
 20
-1.59537608E+02
 11
3.31423769E+02
 21
-1.62173389E+02
  0
LINE
  8
0
 62
6
 10
3.40220861E+02
 20
-1.58507608E+02
 11
3.31423769E+02
 21
-1.61143389E+02
  0
LINE
  8
0
 62
6
 10
3.31184582E+02
 20
-1.65904222E+02
 11
3.40584582E+02
 21
-1.65904222E+02
  0
LINE
  8
0
 62
6
 10
3.31184582E+02
 20
-1.66192898E+02
 11
3.40584582E+02
 21
-1.66192898E+02
  0
LINE
  8
0
 62
6
 10
3.40584582E+02
 20
-1.65192898E+02
 11
3.40584582E+02
 21
-1.70192898E+02
  0
LINE
  8
0
 62
6
 10
3.31184582E+02
 20
-1.65192898E+02
 11
3.40584582E+02
 21
-1.65192898E+02
  0
LINE
  8
0
 62
6
 10
3.40884583E+02
 20
-1.76292898E+02
 11
3.30884583E+02
 21
-1.76292898E+02
  0
LINE
  8
0
 62
6
 10
3.40884583E+02
 20
-1.80892899E+02
 11
3.30884583E+02
 21
-1.80892899E+02
  0
LINE
  8
0
 62
6
 10
3.40884583E+02
 20
-1.84392899E+02
 11
3.30884583E+02
 21
-1.84392899E+02
  0
LINE
  8
0
 62
6
 10
3.30884583E+02
 20
-1.75292898E+02
 11
3.40884583E+02
 21
-1.75292898E+02
  0
LINE
  8
0
  6
CENTER
 62
6
 10
3.32384583E+02
 20
-1.98392899E+02
 11
3.32384583E+02
 21
-1.93392899E+02
  0
LINE
  8
0
  6
CENTER
 62
6
 10
3.39384583E+02
 20
-1.98392899E+02
 11
3.39384583E+02
 21
-1.93392899E+02
  0
LINE
  8
0
 62
6
 10
3.30884583E+02
 20
-6.79289818E+00
 11
3.40884583E+02
 21
-6.79289818E+00
  0
LINE
  8
0
  6
CENTER
 62
6
 10
3.35884583E+02
 20
-4.29289818E+00
 11
3.35884583E+02
 21
-4.01739025E+01
  0
LINE
  8
0
 62
6
 10
3.38384583E+02
 20
-3.18928986E+01
 11
3.40884583E+02
 21
-3.18928986E+01
  0
LINE
  8
0
 62
6
 10
3.38384583E+02
 20
-2.82589245E+01
 11
3.33384583E+02
 21
-2.82589245E+01
  0
LINE
  8
0
 62
6
 10
3.40584582E+02
 20
-3.18928986E+01
 11
3.40584582E+02
 21
-3.68928986E+01
  0
LINE
  8
0
 62
6
 10
3.38384583E+02
 20
-2.73928986E+01
 11
3.38384583E+02
 21
-3.58928986E+01
  0
LINE
  8
0
 62
6
 10
3.39484582E+02
 20
-3.18928986E+01
 11
3.39484582E+02
 21
-3.68928986E+01
  0
LINE
  8
0
 62
6
 10
3.32284583E+02
 20
-3.18928986E+01
 11
3.32284583E+02
 21
-3.68928986E+01
  0
LINE
  8
0
 62
6
 10
3.38384583E+02
 20
-3.48928986E+01
 11
3.33384583E+02
 21
-3.48928986E+01
  0
LINE
  8
0
 62
6
 10
3.38384583E+02
 20
-3.51815739E+01
 11
3.33384583E+02
 21
-3.51815739E+01
  0
LINE
  8
0
 62
6
 10
3.33384583E+02
 20
-2.73928986E+01
 11
3.33384583E+02
 21
-3.58928986E+01
  0
LINE
  8
0
 62
6
 10
3.31184582E+02
 20
-3.18928986E+01
 11
3.31184582E+02
 21
-3.68928986E+01
  0
LINE
  8
0
 62
6
 10
3.33384583E+02
 20
-3.58928986E+01
 11
3.38384583E+02
 21
-3.58928986E+01
  0
LINE
  8
0
 62
6
 10
3.31184582E+02
 20
-3.68928986E+01
 11
3.40584582E+02
 21
-3.68928986E+01
  0
LINE
  8
0
 62
6
 10
3.33384583E+02
 20
-2.73928986E+01
 11
3.38384583E+02
 21
-2.73928986E+01
  0
LINE
  8
0
 62
6
 10
3.37384583E+02
 20
-2.33928986E+01
 11
3.37384583E+02
 21
-2.63928986E+01
  0
LINE
  8
0
 62
6
 10
3.34384583E+02
 20
-2.33928986E+01
 11
3.34384583E+02
 21
-2.63928986E+01
  0
LINE
  8
0
 62
6
 10
3.37384583E+02
 20
-2.33928986E+01
 11
3.34384583E+02
 21
-2.33928986E+01
  0
LINE
  8
0
 62
6
 10
3.38784583E+02
 20
-2.63928986E+01
 11
3.38784583E+02
 21
-3.18928986E+01
  0
LINE
  8
0
 62
6
 10
3.32984583E+02
 20
-2.63928986E+01
 11
3.32984583E+02
 21
-3.18928986E+01
  0
LINE
  8
0
 62
6
 10
3.30884583E+02
 20
-3.18928986E+01
 11
3.33384583E+02
 21
-3.18928986E+01
  0
LINE
  8
0
 62
6
 10
3.30884583E+02
 20
-6.79289818E+00
 11
3.30884583E+02
 21
-3.18928986E+01
  0
LINE
  8
0
 62
6
 10
3.40884583E+02
 20
-6.79289818E+00
 11
3.40884583E+02
 21
-3.18928986E+01
  0
LINE
  8
0
 62
6
 10
3.40884583E+02
 20
-7.99289823E+00
 11
3.30884583E+02
 21
-7.99289823E+00
  0
LINE
  8
0
 62
6
 10
3.40584582E+02
 20
-2.63928986E+01
 11
3.31184582E+02
 21
-2.63928986E+01
  0
LINE
  8
0
  6
CENTER
 62
6
 10
3.41464583E+02
 20
-4.22428977E+01
 11
3.30366270E+02
 21
-4.52024479E+01
  0
LINE
  8
0
  6
CENTER
 62
6
 10
3.41464583E+02
 20
-4.10028975E+01
 11
3.30366269E+02
 21
-4.39624479E+01
  0
LINE
  8
0
 62
6
 10
3.32629583E+02
 20
-3.68928986E+01
 11
3.32629583E+02
 21
-4.33589001E+01
  0
LINE
  8
0
 62
6
 10
3.34059582E+02
 20
-3.68928986E+01
 11
3.34059582E+02
 21
-4.29775639E+01
  0
LINE
  8
0
 62
6
 10
3.33744583E+02
 20
-5.24228992E+01
 11
3.32944583E+02
 21
-5.24228992E+01
  0
LINE
  8
0
 62
6
 10
3.32944583E+02
 20
-4.74228992E+01
 11
3.32944583E+02
 21
-5.24228992E+01
  0
LINE
  8
0
 62
6
 10
3.33744583E+02
 20
-4.74228992E+01
 11
3.33744583E+02
 21
-5.24228992E+01
  0
LINE
  8
0
 62
6
 10
3.32629583E+02
 20
-4.45988979E+01
 11
3.32629583E+02
 21
-4.74228992E+01
  0
LINE
  8
0
 62
6
 10
3.34059582E+02
 20
-4.42175655E+01
 11
3.34059582E+02
 21
-4.74228992E+01
  0
LINE
  8
0
 62
6
 10
3.32629583E+02
 20
-4.74228992E+01
 11
3.34059582E+02
 21
-4.74228992E+01
  0
LINE
  8
0
 62
6
 10
3.37709582E+02
 20
-3.68928986E+01
 11
3.37709582E+02
 21
-4.20042324E+01
  0
LINE
  8
0
 62
6
 10
3.39139583E+02
 20
-3.68928986E+01
 11
3.39139583E+02
 21
-4.16229000E+01
  0
LINE
  8
0
 62
6
 10
3.39139583E+02
 20
-4.28628979E+01
 11
3.39139583E+02
 21
-4.74228992E+01
  0
LINE
  8
0
 62
6
 10
3.37709582E+02
 20
-4.32442303E+01
 11
3.37709582E+02
 21
-4.74228992E+01
  0
LINE
  8
0
 62
6
 10
3.38024582E+02
 20
-4.74228992E+01
 11
3.38024582E+02
 21
-5.24228992E+01
  0
LINE
  8
0
 62
6
 10
3.38824583E+02
 20
-4.74228992E+01
 11
3.38824583E+02
 21
-5.24228992E+01
  0
LINE
  8
0
 62
6
 10
3.37709582E+02
 20
-4.74228992E+01
 11
3.39139583E+02
 21
-4.74228992E+01
  0
LINE
  8
0
 62
6
 10
3.38024582E+02
 20
-5.24228992E+01
 11
3.38824583E+02
 21
-5.24228992E+01
  0
LINE
  8
0
  6
CENTER
 62
6
 10
3.32384583E+02
 20
-9.29289818E+00
 11
3.32384583E+02
 21
-4.29289818E+00
  0
LINE
  8
0
  6
CENTER
 62
6
 10
3.39384583E+02
 20
-9.29289818E+00
 11
3.39384583E+02
 21
-4.29289818E+00
  0
ARC
  8
0
 62
6
 10
3.40584582E+02
 20
-2.60928974E+01
 40
3.00000012E-01
 50
2.70000000E+02
 51
0.00000000E+00
  0
ARC
  8
0
 62
6
 10
3.31184582E+02
 20
-2.60928974E+01
 40
3.00000012E-01
 50
1.80000005E+02
 51
2.70000000E+02
  0
LINE
  8
0
  6
CENTER
 62
6
 10
2.51145096E+02
 20
-1.07894237E+02
 11
2.86260139E+02
 21
-1.07894237E+02
  0
LINE
  8
0
  6
CENTER
 62
6
 10
2.29914298E+02
 20
-1.16194237E+02
 11
2.52391800E+02
 21
-1.16194237E+02
  0
LINE
  8
0
 62
6
 10
2.33184586E+02
 20
-1.24694237E+02
 11
2.33184586E+02
 21
-9.26942368E+01
  0
LINE
  8
0
 62
6
 10
2.58384586E+02
 20
-1.10194237E+02
 11
2.62384586E+02
 21
-1.10194237E+02
  0
LINE
  8
0
 62
6
 10
2.58284586E+02
 20
-1.05394237E+02
 11
2.63384586E+02
 21
-1.05394237E+02
  0
LINE
  8
0
 62
6
 10
2.54850611E+02
 20
-1.04394237E+02
 11
2.61384586E+02
 21
-1.04394237E+02
  0
LINE
  8
0
 62
6
 10
2.34384586E+02
 20
-9.26942368E+01
 11
2.34384586E+02
 21
-9.41942368E+01
  0
LINE
  8
0
 62
6
 10
2.52184586E+02
 20
-1.10194237E+02
 11
2.52184586E+02
 21
-1.10294237E+02
  0
LINE
  8
0
 62
6
 10
2.53984585E+02
 20
-1.04894237E+02
 11
2.54850610E+02
 21
-1.04394237E+02
  0
LINE
  8
0
 62
6
 10
2.58284586E+02
 20
-1.09494237E+02
 11
2.58384586E+02
 21
-1.09494237E+02
  0
LINE
  8
0
 62
6
 10
2.58384586E+02
 20
-1.05394237E+02
 11
2.58384586E+02
 21
-1.10194237E+02
  0
LINE
  8
0
 62
6
 10
2.34384586E+02
 20
-9.41942368E+01
 11
2.46884585E+02
 21
-9.41942368E+01
  0
LINE
  8
0
 62
6
 10
2.58284586E+02
 20
-1.10194237E+02
 11
2.58284586E+02
 21
-1.04894237E+02
  0
LINE
  8
0
 62
6
 10
2.52784586E+02
 20
-1.04894237E+02
 11
2.52784586E+02
 21
-9.26942368E+01
  0
LINE
  8
0
 62
6
 10
2.34384586E+02
 20
-9.26942368E+01
 11
2.52784586E+02
 21
-9.26942368E+01
  0
LINE
  8
0
 62
6
 10
2.58284586E+02
 20
-1.04894237E+02
 11
2.52784586E+02
 21
-1.04894237E+02
  0
LINE
  8
0
 62
6
 10
2.58284586E+02
 20
-1.10194237E+02
 11
2.46884585E+02
 21
-1.10194237E+02
  0
LINE
  8
0
 62
6
 10
2.44684586E+02
 20
-1.24694237E+02
 11
2.44684586E+02
 21
-1.18911381E+02
  0
LINE
  8
0
 62
6
 10
2.44684586E+02
 20
-1.18911381E+02
 11
2.48184586E+02
 21
-1.18294237E+02
  0
LINE
  8
0
 62
6
 10
2.52784586E+02
 20
-1.10792315E+02
 11
2.52784586E+02
 21
-1.10294237E+02
  0
LINE
  8
0
 62
6
 10
2.48184585E+02
 20
-1.11603419E+02
 11
2.52784584E+02
 21
-1.10792315E+02
  0
LINE
  8
0
 62
6
 10
2.46884585E+02
 20
-1.10294237E+02
 11
2.52784586E+02
 21
-1.10294237E+02
  0
LINE
  8
0
 62
6
 10
2.43984586E+02
 20
-1.23994237E+02
 11
2.36384586E+02
 21
-1.23994237E+02
  0
LINE
  8
0
 62
6
 10
2.33184586E+02
 20
-9.26942368E+01
 11
2.34384586E+02
 21
-9.26942368E+01
  0
LINE
  8
0
 62
6
 10
2.48184586E+02
 20
-1.18294237E+02
 11
2.48184586E+02
 21
-1.11603419E+02
  0
LINE
  8
0
 62
6
 10
2.43984586E+02
 20
-1.23194237E+02
 11
2.36384586E+02
 21
-1.23194237E+02
  0
LINE
  8
0
 62
6
 10
2.43984586E+02
 20
-1.23194237E+02
 11
2.43984586E+02
 21
-1.23994237E+02
  0
LINE
  8
0
 62
6
 10
2.36384586E+02
 20
-1.23994237E+02
 11
2.36384586E+02
 21
-1.23194237E+02
  0
LINE
  8
0
 62
6
 10
2.46884585E+02
 20
-9.41942368E+01
 11
2.46884585E+02
 21
-1.10294237E+02
  0
LINE
  8
0
 62
6
 10
2.47184586E+02
 20
-1.17794237E+02
 11
2.47184586E+02
 21
-1.14594237E+02
  0
LINE
  8
0
 62
6
 10
2.48184586E+02
 20
-1.14594237E+02
 11
2.47184586E+02
 21
-1.14594237E+02
  0
LINE
  8
0
 62
6
 10
2.48184586E+02
 20
-1.17794237E+02
 11
2.47184586E+02
 21
-1.17794237E+02
  0
LINE
  8
0
 62
6
 10
2.47284586E+02
 20
-1.17694237E+02
 11
2.47184586E+02
 21
-1.17694237E+02
  0
LINE
  8
0
 62
6
 10
2.47284586E+02
 20
-1.14694237E+02
 11
2.47184586E+02
 21
-1.14694237E+02
  0
LINE
  8
0
 62
6
 10
2.47784586E+02
 20
-1.17194237E+02
 11
2.47784586E+02
 21
-1.15194237E+02
  0
LINE
  8
0
 62
6
 10
2.44684586E+02
 20
-1.24694237E+02
 11
2.33184586E+02
 21
-1.24694237E+02
  0
LINE
  8
0
 62
6
 10
2.63384586E+02
 20
-1.08644237E+02
 11
2.68004585E+02
 21
-1.08644237E+02
  0
LINE
  8
0
 62
6
 10
2.63384586E+02
 20
-1.07214237E+02
 11
2.68384586E+02
 21
-1.07214237E+02
  0
LINE
  8
0
 62
6
 10
2.73814587E+02
 20
-1.07214237E+02
 11
2.73814587E+02
 21
-1.08644237E+02
  0
LINE
  8
0
 62
6
 10
2.73814587E+02
 20
-1.07934237E+02
 11
2.83814587E+02
 21
-1.07934237E+02
  0
LINE
  8
0
 62
6
 10
2.73814587E+02
 20
-1.08334237E+02
 11
2.83814587E+02
 21
-1.08334237E+02
  0
LINE
  8
0
 62
6
 10
2.73814587E+02
 20
-1.07534237E+02
 11
2.83814587E+02
 21
-1.07534237E+02
  0
LINE
  8
0
 62
6
 10
2.69624584E+02
 20
-1.07214237E+02
 11
2.73814587E+02
 21
-1.07214237E+02
  0
LINE
  8
0
 62
6
 10
2.69244587E+02
 20
-1.08644237E+02
 11
2.73814587E+02
 21
-1.08644237E+02
  0
LINE
  8
0
 62
6
 10
2.68634586E+02
 20
-1.10934238E+02
 11
2.70234586E+02
 21
-1.04934238E+02
  0
LINE
  8
0
 62
6
 10
2.67394586E+02
 20
-1.10934238E+02
 11
2.68994586E+02
 21
-1.04934238E+02
  0
LINE
  8
0
 62
6
 10
2.62384584E+02
 20
-1.10194237E+02
 11
2.62673260E+02
 21
-1.10694237E+02
  0
LINE
  8
0
 62
6
 10
2.62673262E+02
 20
-1.10694237E+02
 11
2.63384586E+02
 21
-1.10694237E+02
  0
LINE
  8
0
 62
6
 10
2.61384584E+02
 20
-1.04394237E+02
 11
2.61673260E+02
 21
-1.03894237E+02
  0
LINE
  8
0
 62
6
 10
2.61673262E+02
 20
-1.03894237E+02
 11
2.62384586E+02
 21
-1.03894237E+02
  0
LINE
  8
0
 62
6
 10
2.63384586E+02
 20
-1.10694237E+02
 11
2.63384586E+02
 21
-1.05394237E+02
  0
LINE
  8
0
 62
6
 10
2.62384584E+02
 20
-1.05094481E+02
 11
2.60684584E+02
 21
-1.05394237E+02
  0
LINE
  8
0
 62
6
 10
2.62384586E+02
 20
-1.05094481E+02
 11
2.62384586E+02
 21
-1.03894237E+02
  0
LINE
  8
0
 62
6
 10
2.83814587E+02
 20
-1.08334237E+02
 11
2.83814587E+02
 21
-1.07534237E+02
  0
ARC
  8
0
 62
6
 10
2.47284586E+02
 20
-1.15194237E+02
 40
5.00000000E-01
 50
0.00000000E+00
 51
9.00000002E+01
  0
ARC
  8
0
 62
6
 10
2.47284586E+02
 20
-1.17194237E+02
 40
5.00000000E-01
 50
2.70000000E+02
 51
0.00000000E+00
  0
LINE
  8
0
  6
CENTER
 62
6
 10
3.39384583E+02
 20
-1.13694237E+02
 11
3.39384583E+02
 21
-1.18694237E+02
  0
LINE
  8
0
  6
CENTER
 62
6
 10
3.41884583E+02
 20
-1.16194237E+02
 11
3.36884583E+02
 21
-1.16194237E+02
  0
LINE
  8
0
  6
CENTER
 62
6
 10
3.32384583E+02
 20
-1.13694237E+02
 11
3.32384583E+02
 21
-1.18694237E+02
  0
LINE
  8
0
  6
CENTER
 62
6
 10
3.34884583E+02
 20
-1.16194237E+02
 11
3.29884583E+02
 21
-1.16194237E+02
  0
LINE
  8
0
  6
CENTER
 62
6
 10
3.35884583E+02
 20
-9.01003189E+01
 11
3.35884583E+02
 21
-1.26615637E+02
  0
LINE
  8
0
 62
6
 10
3.40584582E+02
 20
-9.26942368E+01
 11
3.31184582E+02
 21
-9.26942368E+01
  0
LINE
  8
0
 62
6
 10
3.37384583E+02
 20
-9.76942368E+01
 11
3.35884583E+02
 21
-9.76942368E+01
  0
LINE
  8
0
 62
6
 10
3.37384583E+02
 20
-9.76942368E+01
 11
3.37384583E+02
 21
-9.26942368E+01
  0
LINE
  8
0
 62
6
 10
3.34384583E+02
 20
-9.76942368E+01
 11
3.35884583E+02
 21
-9.76942368E+01
  0
LINE
  8
0
 62
6
 10
3.34384583E+02
 20
-9.76942368E+01
 11
3.34384583E+02
 21
-9.26942368E+01
  0
LINE
  8
0
 62
6
 10
3.30884583E+02
 20
-9.29942360E+01
 11
3.30884583E+02
 21
-1.24694237E+02
  0
LINE
  8
0
 62
6
 10
3.40884583E+02
 20
-9.29942360E+01
 11
3.40884583E+02
 21
-1.24703953E+02
  0
LINE
  8
0
 62
6
 10
3.30884583E+02
 20
-1.24694237E+02
 11
3.40884583E+02
 21
-1.24694237E+02
  0
LINE
  8
0
 62
6
 10
3.31184582E+02
 20
-1.10194237E+02
 11
3.30884583E+02
 21
-1.10194237E+02
  0
LINE
  8
0
 62
6
 10
3.31184582E+02
 20
-1.10294237E+02
 11
3.30884583E+02
 21
-1.10294237E+02
  0
LINE
  8
0
 62
6
 10
3.38384583E+02
 20
-1.04894237E+02
 11
3.40584582E+02
 21
-1.04894237E+02
  0
LINE
  8
0
 62
6
 10
3.38384583E+02
 20
-1.05894237E+02
 11
3.38784583E+02
 21
-1.05894237E+02
  0
LINE
  8
0
 62
6
 10
3.33384583E+02
 20
-1.05094236E+02
 11
3.38384583E+02
 21
-1.05094236E+02
  0
LINE
  8
0
 62
6
 10
3.33384583E+02
 20
-1.03894237E+02
 11
3.38384583E+02
 21
-1.03894237E+02
  0
LINE
  8
0
 62
6
 10
3.32184583E+02
 20
-1.06394237E+02
 11
3.39584582E+02
 21
-1.06394237E+02
  0
LINE
  8
0
 62
6
 10
3.31184582E+02
 20
-1.10694237E+02
 11
3.31184582E+02
 21
-1.05394237E+02
  0
LINE
  8
0
 62
6
 10
3.40584582E+02
 20
-1.10694237E+02
 11
3.40584582E+02
 21
-1.05394237E+02
  0
LINE
  8
0
 62
6
 10
3.31184582E+02
 20
-1.10694237E+02
 11
3.40584582E+02
 21
-1.10694237E+02
  0
LINE
  8
0
 62
6
 10
3.32794583E+02
 20
-1.08994237E+02
 11
3.32794583E+02
 21
-1.09494237E+02
  0
LINE
  8
0
 62
6
 10
3.33894583E+02
 20
-1.08994237E+02
 11
3.33894583E+02
 21
-1.09494237E+02
  0
LINE
  8
0
 62
6
 10
3.32394583E+02
 20
-1.06894237E+02
 11
3.34294582E+02
 21
-1.06894237E+02
  0
LINE
  8
0
 62
6
 10
3.32468583E+02
 20
-1.08994237E+02
 11
3.34218583E+02
 21
-1.08994237E+02
  0
LINE
  8
0
 62
6
 10
3.32794583E+02
 20
-1.09494237E+02
 11
3.33894583E+02
 21
-1.09494237E+02
  0
LINE
  8
0
 62
6
 10
3.37134583E+02
 20
-1.05394237E+02
 11
3.37134583E+02
 21
-1.06394237E+02
  0
LINE
  8
0
 62
6
 10
3.34634583E+02
 20
-1.05394237E+02
 11
3.34634583E+02
 21
-1.06394237E+02
  0
LINE
  8
0
 62
6
 10
3.31184582E+02
 20
-1.05394237E+02
 11
3.32184583E+02
 21
-1.05394237E+02
  0
LINE
  8
0
 62
6
 10
3.32184583E+02
 20
-1.06394237E+02
 11
3.32184583E+02
 21
-1.05394237E+02
  0
LINE
  8
0
 62
6
 10
3.40584582E+02
 20
-1.05394237E+02
 11
3.39584582E+02
 21
-1.05394237E+02
  0
LINE
  8
0
 62
6
 10
3.39584582E+02
 20
-1.06394237E+02
 11
3.39584582E+02
 21
-1.05394237E+02
  0
LINE
  8
0
 62
6
 10
3.34294582E+02
 20
-1.06894237E+02
 11
3.34418582E+02
 21
-1.08782237E+02
  0
LINE
  8
0
 62
6
 10
3.32268583E+02
 20
-1.08782237E+02
 11
3.32394583E+02
 21
-1.06894236E+02
  0
LINE
  8
0
 62
6
 10
3.34934582E+02
 20
-1.06894237E+02
 11
3.36834582E+02
 21
-1.06894237E+02
  0
LINE
  8
0
 62
6
 10
3.34808583E+02
 20
-1.08782237E+02
 11
3.34934583E+02
 21
-1.06894237E+02
  0
LINE
  8
0
 62
6
 10
3.35008583E+02
 20
-1.08994237E+02
 11
3.36758583E+02
 21
-1.08994237E+02
  0
LINE
  8
0
 62
6
 10
3.35334583E+02
 20
-1.08994237E+02
 11
3.35334583E+02
 21
-1.09494237E+02
  0
LINE
  8
0
 62
6
 10
3.35334583E+02
 20
-1.09494237E+02
 11
3.36434583E+02
 21
-1.09494237E+02
  0
LINE
  8
0
 62
6
 10
3.36434583E+02
 20
-1.08994237E+02
 11
3.36434583E+02
 21
-1.09494237E+02
  0
LINE
  8
0
 62
6
 10
3.36834583E+02
 20
-1.06894236E+02
 11
3.36958583E+02
 21
-1.08782237E+02
  0
LINE
  8
0
 62
6
 10
3.35484582E+02
 20
-1.07494237E+02
 11
3.35484582E+02
 21
-1.08294237E+02
  0
LINE
  8
0
 62
6
 10
3.36284583E+02
 20
-1.07494237E+02
 11
3.35484582E+02
 21
-1.07494237E+02
  0
LINE
  8
0
 62
6
 10
3.36284583E+02
 20
-1.07494237E+02
 11
3.36284583E+02
 21
-1.08294237E+02
  0
LINE
  8
0
 62
6
 10
3.36284583E+02
 20
-1.08294237E+02
 11
3.35484582E+02
 21
-1.08294237E+02
  0
LINE
  8
0
 62
6
 10
3.37474583E+02
 20
-1.06894237E+02
 11
3.39374582E+02
 21
-1.06894237E+02
  0
LINE
  8
0
 62
6
 10
3.37348583E+02
 20
-1.08782237E+02
 11
3.37474583E+02
 21
-1.06894236E+02
  0
LINE
  8
0
 62
6
 10
3.37548583E+02
 20
-1.08994237E+02
 11
3.39298583E+02
 21
-1.08994237E+02
  0
LINE
  8
0
 62
6
 10
3.37874582E+02
 20
-1.08994237E+02
 11
3.37874582E+02
 21
-1.09494237E+02
  0
LINE
  8
0
 62
6
 10
3.37874582E+02
 20
-1.09494237E+02
 11
3.38974583E+02
 21
-1.09494237E+02
  0
LINE
  8
0
 62
6
 10
3.38974583E+02
 20
-1.08994237E+02
 11
3.38974583E+02
 21
-1.09494237E+02
  0
LINE
  8
0
 62
6
 10
3.39374583E+02
 20
-1.06894237E+02
 11
3.39498583E+02
 21
-1.08782237E+02
  0
LINE
  8
0
 62
6
 10
3.33384583E+02
 20
-1.03894237E+02
 11
3.33384583E+02
 21
-1.06394237E+02
  0
LINE
  8
0
 62
6
 10
3.38384583E+02
 20
-1.03894237E+02
 11
3.38384583E+02
 21
-1.06394237E+02
  0
LINE
  8
0
 62
6
 10
3.32984583E+02
 20
-1.05394237E+02
 11
3.38784583E+02
 21
-1.05394237E+02
  0
LINE
  8
0
 62
6
 10
3.38784583E+02
 20
-1.05894237E+02
 11
3.38784583E+02
 21
-1.04894237E+02
  0
LINE
  8
0
 62
6
 10
3.32984583E+02
 20
-1.05894237E+02
 11
3.32984583E+02
 21
-1.04894237E+02
  0
LINE
  8
0
 62
6
 10
3.32984583E+02
 20
-1.05894237E+02
 11
3.33384583E+02
 21
-1.05894237E+02
  0
LINE
  8
0
 62
6
 10
3.31184582E+02
 20
-1.04894237E+02
 11
3.33384583E+02
 21
-1.04894237E+02
  0
LINE
  8
0
 62
6
 10
3.40884583E+02
 20
-1.10194237E+02
 11
3.40584582E+02
 21
-1.10194237E+02
  0
LINE
  8
0
 62
6
 10
3.33490212E+02
 20
-1.18735054E+02
 11
3.33234583E+02
 21
-1.18294237E+02
  0
LINE
  8
0
 62
6
 10
3.38534582E+02
 20
-1.18294237E+02
 11
3.38278953E+02
 21
-1.18735054E+02
  0
LINE
  8
0
 62
6
 10
3.34740212E+02
 20
-1.17485054E+02
 11
3.34484582E+02
 21
-1.17044237E+02
  0
LINE
  8
0
 62
6
 10
3.33234582E+02
 20
-1.18294237E+02
 11
3.34484582E+02
 21
-1.17044237E+02
  0
LINE
  8
0
 62
6
 10
3.34740212E+02
 20
-1.17485054E+02
 11
3.33490212E+02
 21
-1.18735054E+02
  0
LINE
  8
0
 62
6
 10
3.37028953E+02
 20
-1.17485054E+02
 11
3.37284583E+02
 21
-1.17044237E+02
  0
LINE
  8
0
 62
6
 10
3.40884583E+02
 20
-1.11603419E+02
 11
3.30884583E+02
 21
-1.11603419E+02
  0
LINE
  8
0
 62
6
 10
3.37028953E+02
 20
-1.17485054E+02
 11
3.38278953E+02
 21
-1.18735054E+02
  0
LINE
  8
0
 62
6
 10
3.40884583E+02
 20
-1.18735054E+02
 11
3.38278953E+02
 21
-1.18735054E+02
  0
LINE
  8
0
 62
6
 10
3.33490212E+02
 20
-1.18735054E+02
 11
3.30884583E+02
 21
-1.18735054E+02
  0
LINE
  8
0
 62
6
 10
3.34740212E+02
 20
-1.17485054E+02
 11
3.37028953E+02
 21
-1.17485054E+02
  0
LINE
  8
0
 62
6
 10
3.40884583E+02
 20
-1.18294237E+02
 11
3.38534583E+02
 21
-1.18294237E+02
  0
LINE
  8
0
 62
6
 10
3.38534582E+02
 20
-1.18294237E+02
 11
3.37284582E+02
 21
-1.17044237E+02
  0
LINE
  8
0
 62
6
 10
3.34484582E+02
 20
-1.17044237E+02
 11
3.37284583E+02
 21
-1.17044237E+02
  0
LINE
  8
0
 62
6
 10
3.33234583E+02
 20
-1.18294237E+02
 11
3.30884583E+02
 21
-1.18294237E+02
  0
LINE
  8
0
 62
6
 10
3.30884583E+02
 20
-1.10792315E+02
 11
3.40884583E+02
 21
-1.10792315E+02
  0
LINE
  8
0
 62
6
 10
3.40884583E+02
 20
-1.10294237E+02
 11
3.40584582E+02
 21
-1.10294237E+02
  0
LINE
  8
0
 62
6
 10
3.39384583E+02
 20
-1.14594237E+02
 11
3.40884583E+02
 21
-1.14594237E+02
  0
LINE
  8
0
 62
6
 10
3.40884583E+02
 20
-1.17794237E+02
 11
3.39384583E+02
 21
-1.17794237E+02
  0
LINE
  8
0
 62
6
 10
3.32384583E+02
 20
-1.17794237E+02
 11
3.30884583E+02
 21
-1.17794237E+02
  0
LINE
  8
0
 62
6
 10
3.30884583E+02
 20
-1.14594237E+02
 11
3.32384583E+02
 21
-1.14594237E+02
  0
LINE
  8
0
 62
6
 10
3.37710096E+02
 20
-1.14744237E+02
 11
3.34059069E+02
 21
-1.14744237E+02
  0
LINE
  8
0
 62
6
 10
3.35884583E+02
 20
-1.14144237E+02
 11
3.34059069E+02
 21
-1.14144237E+02
  0
LINE
  8
0
 62
6
 10
3.37710096E+02
 20
-1.14144237E+02
 11
3.35884583E+02
 21
-1.14144237E+02
  0
LINE
  8
0
 62
6
 10
3.31677476E+02
 20
-1.16901344E+02
 11
3.33091689E+02
 21
-1.15487130E+02
  0
LINE
  8
0
 62
6
 10
3.31677476E+02
 20
-1.15487130E+02
 11
3.33091689E+02
 21
-1.16901344E+02
  0
LINE
  8
0
 62
6
 10
3.40091689E+02
 20
-1.15487130E+02
 11
3.38677476E+02
 21
-1.16901344E+02
  0
LINE
  8
0
 62
6
 10
3.40091689E+02
 20
-1.16901344E+02
 11
3.38677476E+02
 21
-1.15487130E+02
  0
ARC
  8
0
 62
6
 10
3.31184582E+02
 20
-9.29942360E+01
 40
3.00000012E-01
 50
9.00000002E+01
 51
1.80000005E+02
  0
ARC
  8
0
 62
6
 10
3.40584582E+02
 20
-9.29942360E+01
 40
3.00000012E-01
 50
0.00000000E+00
 51
9.00000002E+01
  0
CIRCLE
  8
0
 62
6
 10
3.38424582E+02
 20
-1.07894237E+02
 40
7.50000000E-01
  0
CIRCLE
  8
0
 62
6
 10
3.33344582E+02
 20
-1.07894237E+02
 40
7.50000000E-01
  0
ARC
  8
0
 62
6
 10
3.32468927E+02
 20
-1.08793572E+02
 40
2.00664550E-01
 50
1.76761580E+02
 51
2.70000000E+02
  0
ARC
  8
0
 62
6
 10
3.34219297E+02
 20
-1.08794571E+02
 40
1.99666515E-01
 50
2.70000000E+02
 51
3.54180761E+00
  0
ARC
  8
0
 62
6
 10
3.35008927E+02
 20
-1.08793572E+02
 40
2.00664550E-01
 50
1.76761580E+02
 51
2.70000000E+02
  0
ARC
  8
0
 62
6
 10
3.36759297E+02
 20
-1.08794571E+02
 40
1.99666515E-01
 50
2.70000000E+02
 51
3.54180761E+00
  0
ARC
  8
0
 62
6
 10
3.37548927E+02
 20
-1.08793572E+02
 40
2.00664550E-01
 50
1.76761580E+02
 51
2.70000000E+02
  0
ARC
  8
0
 62
6
 10
3.39299297E+02
 20
-1.08794571E+02
 40
1.99666515E-01
 50
2.70000000E+02
 51
3.54180761E+00
  0
ARC
  8
0
 62
6
 10
3.40584582E+02
 20
-1.05194237E+02
 40
3.00000012E-01
 50
0.00000000E+00
 51
9.00000002E+01
  0
ARC
  8
0
 62
6
 10
3.31184582E+02
 20
-1.05194237E+02
 40
3.00000012E-01
 50
9.00000002E+01
 51
1.80000005E+02
  0
CIRCLE
  8
0
 62
6
 10
3.35884583E+02
 20
-1.14444237E+02
 40
2.04999995E+00
  0
ARC
  8
0
 62
6
 10
3.32384583E+02
 20
-1.16194237E+02
 40
1.60000002E+00
 50
2.70000000E+02
 51
9.00000002E+01
  0
ARC
  8
0
 62
6
 10
3.39384583E+02
 20
-1.16194237E+02
 40
1.60000002E+00
 50
9.00000002E+01
 51
2.70000000E+02
  0
CIRCLE
  8
0
 62
6
 10
3.35884583E+02
 20
-1.14444237E+02
 40
1.85000002E+00
  0
ARC
  8
0
 62
6
 10
3.35884583E+02
 20
-1.14444237E+02
 40
8.00000012E-01
 50
2.20243121E+01
 51
1.57975691E+02
  0
ARC
  8
0
 62
6
 10
3.35884583E+02
 20
-1.14444237E+02
 40
8.00000012E-01
 50
2.02024309E+02
 51
3.37975688E+02
  0
CIRCLE
  8
0
 62
6
 10
3.32384583E+02
 20
-1.16194237E+02
 40
1.50000000E+00
  0
CIRCLE
  8
0
 62
6
 10
3.39384583E+02
 20
-1.16194237E+02
 40
1.50000000E+00
  0
LINE
  8
0
 62
6
 10
3.52680054E+01
 20
-1.94175354E+02
 11
3.52680054E+01
 21
-1.96175354E+02
  0
LINE
  8
0
 62
6
 10
3.92680054E+01
 20
-1.94175354E+02
 11
3.92680054E+01
 21
-1.96175354E+02
  0
LINE
  8
0
 62
6
 10
3.57680061E+01
 20
-1.96675354E+02
 11
3.52680062E+01
 21
-1.96175354E+02
  0
LINE
  8
0
 62
6
 10
3.87680063E+01
 20
-1.96675353E+02
 11
3.92680054E+01
 21
-1.96175354E+02
  0
LINE
  8
0
 62
6
 10
3.57680054E+01
 20
-1.96675354E+02
 11
3.87680054E+01
 21
-1.96675354E+02
  0
LINE
  8
0
 62
6
 10
3.92680054E+01
 20
-1.94175354E+02
 11
3.92680054E+01
 21
-1.83175354E+02
  0
LINE
  8
0
  6
CENTER
 62
6
 10
3.16259823E+01
 20
-1.90675354E+02
 11
6.09100285E+01
 21
-1.90675354E+02
  0
LINE
  8
0
 62
6
 10
6.92680054E+01
 20
-2.22675354E+02
 11
5.52680054E+01
 21
-2.22675354E+02
  0
LINE
  8
0
 62
6
 10
6.92680054E+01
 20
-1.82675354E+02
 11
5.52680054E+01
 21
-1.82675354E+02
  0
LINE
  8
0
 62
6
 10
5.47680054E+01
 20
-1.83175354E+02
 11
5.47680054E+01
 21
-2.22175354E+02
  0
LINE
  8
0
 62
6
 10
6.97680054E+01
 20
-1.83175354E+02
 11
6.97680054E+01
 21
-2.22175354E+02
  0
LINE
  8
0
  6
CENTER
 62
6
 10
6.37680054E+01
 20
-1.77546259E+02
 11
6.37680054E+01
 21
-2.25775814E+02
  0
LINE
  8
0
 62
6
 10
6.87707710E+01
 20
-2.16675354E+02
 11
5.84108665E+01
 21
-2.16675354E+02
  0
LINE
  8
0
 62
6
 10
3.52680054E+01
 20
-1.83175354E+02
 11
3.52680054E+01
 21
-1.94175354E+02
  0
LINE
  8
0
 62
6
 10
3.57680054E+01
 20
-1.82675354E+02
 11
3.87680054E+01
 21
-1.82675354E+02
  0
LINE
  8
0
 62
6
 10
3.57680054E+01
 20
-1.94675354E+02
 11
3.87680054E+01
 21
-1.94675354E+02
  0
LINE
  8
0
 62
6
 10
3.52680056E+01
 20
-1.83175354E+02
 11
3.57680054E+01
 21
-1.82675354E+02
  0
LINE
  8
0
 62
6
 10
3.92680058E+01
 20
-1.83175354E+02
 11
3.87680059E+01
 21
-1.82675354E+02
  0
LINE
  8
0
 62
6
 10
3.87680059E+01
 20
-1.94675354E+02
 11
3.92680058E+01
 21
-1.94175354E+02
  0
LINE
  8
0
 62
6
 10
3.57680054E+01
 20
-1.94675354E+02
 11
3.52680056E+01
 21
-1.94175354E+02
  0
LINE
  8
0
  6
DASHED
 62
6
 10
5.62680054E+01
 20
-1.82675354E+02
 11
5.62680054E+01
 21
-2.22675354E+02
  0
LINE
  8
0
  6
CENTER
 62
6
 10
3.16259823E+01
 20
-1.88675354E+02
 11
6.87707710E+01
 21
-1.88675354E+02
  0
ARC
  8
0
 62
6
 10
6.92680054E+01
 20
-2.22175354E+02
 40
5.00000000E-01
 50
2.70000000E+02
 51
0.00000000E+00
  0
ARC
  8
0
 62
6
 10
5.52680054E+01
 20
-2.22175354E+02
 40
5.00000000E-01
 50
1.79999995E+02
 51
2.70000000E+02
  0
ARC
  8
0
 62
6
 10
5.52680054E+01
 20
-1.83175354E+02
 40
5.00000000E-01
 50
9.00000002E+01
 51
1.80000005E+02
  0
ARC
  8
0
 62
6
 10
6.92680054E+01
 20
-1.83175354E+02
 40
5.00000000E-01
 50
0.00000000E+00
 51
9.00000002E+01
  0
CIRCLE
  8
0
 62
6
 10
6.37680054E+01
 20
-2.16675354E+02
 40
2.25000000E+00
  0
CIRCLE
  8
0
 62
6
 10
6.37680054E+01
 20
-1.88675354E+02
 40
2.25000000E+00
  0
LINE
  8
0
 62
6
 10
5.62680054E+01
 20
-1.22576733E+01
 11
5.47680054E+01
 21
-1.22576733E+01
  0
LINE
  8
0
 62
6
 10
5.47680054E+01
 20
-4.75767326E+00
 11
5.47680054E+01
 21
-1.27257673E+02
  0
LINE
  8
0
 62
6
 10
5.62680054E+01
 20
-4.75767326E+00
 11
5.62680054E+01
 21
-1.27257673E+02
  0
LINE
  8
0
 62
6
 10
5.67680054E+01
 20
-1.29257673E+02
 11
6.92680054E+01
 21
-1.29257673E+02
  0
LINE
  8
0
 62
6
 10
5.67680054E+01
 20
-1.27757673E+02
 11
6.92680054E+01
 21
-1.27757673E+02
  0
LINE
  8
0
 62
6
 10
5.47680054E+01
 20
-7.17576733E+01
 11
5.62680054E+01
 21
-7.17576733E+01
  0
LINE
  8
0
 62
6
 10
5.52680054E+01
 20
-4.25767326E+00
 11
5.57680054E+01
 21
-4.25767326E+00
  0
LINE
  8
0
 62
6
 10
6.97680054E+01
 20
-1.28257673E+02
 11
6.97680054E+01
 21
-1.28757673E+02
  0
LINE
  8
0
 62
6
 10
3.92680054E+01
 20
-1.17576733E+01
 11
3.92680054E+01
 21
-4.75767326E+00
  0
LINE
  8
0
 62
6
 10
3.52680054E+01
 20
-4.75767326E+00
 11
3.52680054E+01
 21
-1.17576733E+01
  0
LINE
  8
0
 62
6
 10
3.52680054E+01
 20
-4.75767326E+00
 11
3.92680054E+01
 21
-4.75767326E+00
  0
LINE
  8
0
 62
6
 10
3.52680054E+01
 20
-1.17576733E+01
 11
3.92680054E+01
 21
-1.17576733E+01
  0
LINE
  8
0
 62
6
 10
3.87680054E+01
 20
-4.75767326E+00
 11
3.87680054E+01
 21
-1.17576733E+01
  0
LINE
  8
0
 62
6
 10
3.57680054E+01
 20
-4.75767326E+00
 11
3.57680054E+01
 21
-1.17576733E+01
  0
LINE
  8
0
 62
6
 10
3.57680054E+01
 20
-7.22549343E+01
 11
3.57680054E+01
 21
-7.92549343E+01
  0
LINE
  8
0
 62
6
 10
3.87680054E+01
 20
-7.22549343E+01
 11
3.87680054E+01
 21
-7.92549343E+01
  0
LINE
  8
0
 62
6
 10
3.52680054E+01
 20
-7.92549343E+01
 11
3.92680054E+01
 21
-7.92549343E+01
  0
LINE
  8
0
 62
6
 10
3.52680054E+01
 20
-7.22549343E+01
 11
3.92680054E+01
 21
-7.22549343E+01
  0
LINE
  8
0
 62
6
 10
3.52680054E+01
 20
-7.22549343E+01
 11
3.52680054E+01
 21
-7.92549343E+01
  0
LINE
  8
0
 62
6
 10
3.92680054E+01
 20
-7.92549343E+01
 11
3.92680054E+01
 21
-7.22549343E+01
  0
LINE
  8
0
 62
6
 10
5.90680056E+01
 20
-5.50767326E+00
 11
5.62680054E+01
 21
-5.50767326E+00
  0
LINE
  8
0
 62
6
 10
5.90680053E+01
 20
-5.50767363E+00
 11
5.92680053E+01
 21
-5.85408393E+00
  0
LINE
  8
0
 62
6
 10
5.90680056E+01
 20
-1.10076733E+01
 11
5.90680056E+01
 21
-5.50767326E+00
  0
LINE
  8
0
 62
6
 10
5.92680054E+01
 20
-1.06612625E+01
 11
5.92680054E+01
 21
-5.85408401E+00
  0
LINE
  8
0
 62
6
 10
5.90680044E+01
 20
-1.10076735E+01
 11
5.92680048E+01
 21
-1.06612628E+01
  0
LINE
  8
0
 62
6
 10
5.90680056E+01
 20
-1.10076733E+01
 11
5.62680054E+01
 21
-1.10076733E+01
  0
LINE
  8
0
 62
6
 10
5.90680056E+01
 20
-7.85049343E+01
 11
5.62680054E+01
 21
-7.85049343E+01
  0
LINE
  8
0
 62
6
 10
5.90680039E+01
 20
-7.85049355E+01
 11
5.92680048E+01
 21
-7.81585240E+01
  0
LINE
  8
0
 62
6
 10
5.92680054E+01
 20
-7.81585217E+01
 11
5.92680054E+01
 21
-7.33513470E+01
  0
LINE
  8
0
 62
6
 10
5.90680056E+01
 20
-7.85049343E+01
 11
5.90680056E+01
 21
-7.30049343E+01
  0
LINE
  8
0
 62
6
 10
5.90680048E+01
 20
-7.30049359E+01
 11
5.92680036E+01
 21
-7.33513442E+01
  0
LINE
  8
0
 62
6
 10
5.90680056E+01
 20
-7.30049343E+01
 11
5.62680054E+01
 21
-7.30049343E+01
  0
LINE
  8
0
  6
CENTER
 62
6
 10
3.30701160E+01
 20
-8.25767326E+00
 11
6.22969770E+01
 21
-8.25767326E+00
  0
LINE
  8
0
  6
CENTER
 62
6
 10
3.30701160E+01
 20
-7.57549343E+01
 11
6.22969770E+01
 21
-7.57549343E+01
  0
LINE
  8
0
  6
CENTER
 62
6
 10
6.37680054E+01
 20
-1.32007673E+02
 11
6.37680054E+01
 21
-1.25007673E+02
  0
ARC
  8
0
 62
6
 10
5.52680054E+01
 20
-4.75767326E+00
 40
5.00000000E-01
 50
9.00000002E+01
 51
1.80000005E+02
  0
ARC
  8
0
 62
6
 10
5.57680054E+01
 20
-4.75767326E+00
 40
5.00000000E-01
 50
0.00000000E+00
 51
9.00000002E+01
  0
ARC
  8
0
 62
6
 10
5.67680054E+01
 20
-1.27257673E+02
 40
2.00000000E+00
 50
1.79999995E+02
 51
2.70000000E+02
  0
ARC
  8
0
 62
6
 10
5.67680054E+01
 20
-1.27257673E+02
 40
5.00000000E-01
 50
1.79999995E+02
 51
2.70000000E+02
  0
ARC
  8
0
 62
6
 10
6.92680054E+01
 20
-1.28257673E+02
 40
5.00000000E-01
 50
0.00000000E+00
 51
9.00000002E+01
  0
ARC
  8
0
 62
6
 10
6.92680054E+01
 20
-1.28757673E+02
 40
5.00000000E-01
 50
2.70000000E+02
 51
0.00000000E+00
  0
LINE
  8
0
 62
6
 10
1.26777077E+02
 20
-8.22576733E+01
 11
1.26777077E+02
 21
-1.27757673E+02
  0
LINE
  8
0
 62
6
 10
1.26277077E+02
 20
-7.17576733E+01
 11
1.15777077E+02
 21
-7.17576733E+01
  0
LINE
  8
0
 62
6
 10
1.15777077E+02
 20
-1.22576733E+01
 11
1.26277077E+02
 21
-1.22576733E+01
  0
LINE
  8
0
 62
6
 10
1.15277077E+02
 20
-4.75767326E+00
 11
1.15277077E+02
 21
-1.17576733E+01
  0
LINE
  8
0
 62
6
 10
1.26777077E+02
 20
-1.27576733E+01
 11
1.26777077E+02
 21
-7.12576733E+01
  0
LINE
  8
0
 62
6
 10
1.36777077E+02
 20
-4.75767326E+00
 11
1.36777077E+02
 21
-8.12576733E+01
  0
LINE
  8
0
 62
6
 10
1.36277077E+02
 20
-4.25767326E+00
 11
1.15777077E+02
 21
-4.25767326E+00
  0
LINE
  8
0
 62
6
 10
1.52277077E+02
 20
-1.29257673E+02
 11
1.15777077E+02
 21
-1.29257673E+02
  0
LINE
  8
0
 62
6
 10
1.52277077E+02
 20
-1.27757673E+02
 11
1.15777077E+02
 21
-1.27757673E+02
  0
LINE
  8
0
 62
6
 10
1.52777077E+02
 20
-1.28257673E+02
 11
1.52777077E+02
 21
-1.28757673E+02
  0
LINE
  8
0
 62
6
 10
1.36277077E+02
 20
-8.17576733E+01
 11
1.27277077E+02
 21
-8.17576733E+01
  0
LINE
  8
0
 62
6
 10
1.15277077E+02
 20
-7.22576733E+01
 11
1.15277077E+02
 21
-1.28757673E+02
  0
LINE
  8
0
  6
CENTER
 62
6
 10
1.22277077E+02
 20
-1.31222334E+01
 11
1.22277077E+02
 21
-3.73568773E+00
  0
LINE
  8
0
  6
CENTER
 62
6
 10
1.14945979E+02
 20
-8.25767326E+00
 11
1.29265600E+02
 21
-8.25767326E+00
  0
LINE
  8
0
  6
CENTER
 62
6
 10
1.12945979E+02
 20
-7.57549343E+01
 11
1.27265600E+02
 21
-7.57549343E+01
  0
LINE
  8
0
  6
CENTER
 62
6
 10
1.20277077E+02
 20
-8.06194973E+01
 11
1.20277077E+02
 21
-7.12329464E+01
  0
LINE
  8
0
 62
6
 10
1.21027077E+02
 20
-8.97936122E+00
 11
1.22277077E+02
 21
-9.70104893E+00
  0
LINE
  8
0
 62
6
 10
1.22277076E+02
 20
-6.81429843E+00
 11
1.23527076E+02
 21
-7.53598613E+00
  0
LINE
  8
0
 62
6
 10
1.22277076E+02
 20
-9.70104810E+00
 11
1.23527076E+02
 21
-8.97936039E+00
  0
LINE
  8
0
 62
6
 10
1.21027077E+02
 20
-7.53598531E+00
 11
1.22277077E+02
 21
-6.81429760E+00
  0
LINE
  8
0
 62
6
 10
1.23527077E+02
 20
-7.53598535E+00
 11
1.23527077E+02
 21
-8.97936118E+00
  0
LINE
  8
0
 62
6
 10
1.21027077E+02
 20
-7.53598523E+00
 11
1.21027077E+02
 21
-8.97936130E+00
  0
LINE
  8
0
 62
6
 10
1.19027077E+02
 20
-7.50332470E+01
 11
1.19027077E+02
 21
-7.64766216E+01
  0
LINE
  8
0
 62
6
 10
1.21527077E+02
 20
-7.50332470E+01
 11
1.21527077E+02
 21
-7.64766216E+01
  0
LINE
  8
0
 62
6
 10
1.19027076E+02
 20
-7.50332477E+01
 11
1.20277079E+02
 21
-7.43115586E+01
  0
LINE
  8
0
 62
6
 10
1.20277074E+02
 20
-7.71983080E+01
 11
1.21527077E+02
 21
-7.64766189E+01
  0
LINE
  8
0
 62
6
 10
1.20277076E+02
 20
-7.43115597E+01
 11
1.21527076E+02
 21
-7.50332470E+01
  0
LINE
  8
0
 62
6
 10
1.19027076E+02
 20
-7.64766233E+01
 11
1.20277076E+02
 21
-7.71983106E+01
  0
LINE
  8
0
  6
CENTER
 62
6
 10
1.49277077E+02
 20
-1.32007673E+02
 11
1.49277077E+02
 21
-1.25007673E+02
  0
LINE
  8
0
  6
CENTER
 62
6
 10
1.21277077E+02
 20
-1.32007673E+02
 11
1.21277077E+02
 21
-1.25007673E+02
  0
ARC
  8
0
 62
6
 10
1.36277077E+02
 20
-4.75767326E+00
 40
5.00000000E-01
 50
0.00000000E+00
 51
9.00000002E+01
  0
ARC
  8
0
 62
6
 10
1.15777077E+02
 20
-4.75767326E+00
 40
5.00000000E-01
 50
9.00000002E+01
 51
1.80000005E+02
  0
ARC
  8
0
 62
6
 10
1.15777077E+02
 20
-1.17576733E+01
 40
5.00000000E-01
 50
1.79999995E+02
 51
2.70000000E+02
  0
ARC
  8
0
 62
6
 10
1.26277077E+02
 20
-1.27576733E+01
 40
5.00000000E-01
 50
0.00000000E+00
 51
9.00000002E+01
  0
ARC
  8
0
 62
6
 10
1.15777077E+02
 20
-7.22576733E+01
 40
5.00000000E-01
 50
9.00000002E+01
 51
1.80000005E+02
  0
ARC
  8
0
 62
6
 10
1.26277077E+02
 20
-7.12576733E+01
 40
5.00000000E-01
 50
2.70000000E+02
 51
0.00000000E+00
  0
ARC
  8
0
 62
6
 10
1.27277077E+02
 20
-8.22576733E+01
 40
5.00000000E-01
 50
9.00000002E+01
 51
1.80000005E+02
  0
ARC
  8
0
 62
6
 10
1.36277077E+02
 20
-8.12576733E+01
 40
5.00000000E-01
 50
2.70000000E+02
 51
0.00000000E+00
  0
ARC
  8
0
 62
6
 10
1.15777077E+02
 20
-1.28257673E+02
 40
5.00000000E-01
 50
9.00000002E+01
 51
1.80000005E+02
  0
ARC
  8
0
 62
6
 10
1.15777077E+02
 20
-1.28757673E+02
 40
5.00000000E-01
 50
1.79999995E+02
 51
2.70000000E+02
  0
ARC
  8
0
 62
6
 10
1.52277077E+02
 20
-1.28757673E+02
 40
5.00000000E-01
 50
2.70000000E+02
 51
0.00000000E+00
  0
ARC
  8
0
 62
6
 10
1.52277077E+02
 20
-1.28257673E+02
 40
5.00000000E-01
 50
0.00000000E+00
 51
9.00000002E+01
  0
CIRCLE
  8
0
 62
6
 10
1.22277077E+02
 20
-8.25767314E+00
 40
2.40358925E+00
  0
CIRCLE
  8
0
 62
6
 10
1.22277077E+02
 20
-8.25767326E+00
 40
2.75000000E+00
  0
CIRCLE
  8
0
 62
6
 10
1.20277077E+02
 20
-7.57549343E+01
 40
2.75000000E+00
  0
CIRCLE
  8
0
 62
6
 10
1.20277077E+02
 20
-7.57549343E+01
 40
2.40358925E+00
  0
LINE
  8
0
 62
7
 10
1.00169822E+02
 20
1.05590929E+02
 11
1.04355212E+02
 21
1.12840237E+02
  0
LINE
  8
0
 62
7
 10
1.00776040E+02
 20
1.05240928E+02
 11
1.04961431E+02
 21
1.12490237E+02
  0
LINE
  8
0
  6
CENTER
 62
6
 10
9.61376629E+01
 20
1.79537842E+02
 11
1.09064632E+02
 21
1.79537842E+02
  0
LINE
  8
0
  6
CENTER
 62
2
 10
9.61376629E+01
 20
8.65405807E+01
 11
1.08983298E+02
 21
8.65405807E+01
  0
LINE
  8
0
 62
6
 10
1.10315628E+02
 20
1.26537842E+02
 11
1.11815628E+02
 21
1.26537842E+02
  0
LINE
  8
0
 62
6
 10
1.10315628E+02
 20
1.72037842E+02
 11
1.11815628E+02
 21
1.72037842E+02
  0
LINE
  8
0
 62
6
 10
1.11815628E+02
 20
1.72037842E+02
 11
1.11815628E+02
 21
1.26537842E+02
  0
LINE
  8
0
 62
6
 10
9.48156281E+01
 20
1.26537842E+02
 11
9.33156281E+01
 21
1.26537842E+02
  0
LINE
  8
0
 62
6
 10
9.33156281E+01
 20
1.72037842E+02
 11
9.33156281E+01
 21
1.26537842E+02
  0
LINE
  8
0
 62
6
 10
9.48156281E+01
 20
1.72037842E+02
 11
9.33156281E+01
 21
1.72037842E+02
  0
LINE
  8
0
 62
6
 10
9.92156277E+01
 20
1.25109558E+02
 11
9.92156277E+01
 21
1.24513306E+02
  0
LINE
  8
0
 62
6
 10
9.87046152E+01
 20
1.27426832E+02
 11
9.68148099E+01
 21
1.25537026E+02
  0
LINE
  8
0
 62
6
 10
9.86970517E+01
 20
1.25656421E+02
 11
9.68978250E+01
 21
1.27455648E+02
  0
LINE
  8
0
 62
6
 10
1.08204615E+02
 20
1.72926829E+02
 11
1.06314811E+02
 21
1.71037025E+02
  0
LINE
  8
0
 62
6
 10
1.08197049E+02
 20
1.71156420E+02
 11
1.06397823E+02
 21
1.72955646E+02
  0
LINE
  8
0
 62
6
 10
1.05915628E+02
 20
1.73466127E+02
 11
1.05915628E+02
 21
1.74062376E+02
  0
LINE
  8
0
  6
CENTER
 62
6
 10
1.14191967E+02
 20
1.49340580E+02
 11
8.77697906E+01
 21
1.49340580E+02
  0
LINE
  8
0
 62
7
 10
9.48156281E+01
 20
7.85405807E+01
 11
9.48156281E+01
 21
1.21537842E+02
  0
LINE
  8
0
 62
7
 10
1.10315628E+02
 20
1.21537842E+02
 11
1.10315628E+02
 21
7.85405807E+01
  0
LINE
  8
0
 62
7
 10
9.48156281E+01
 20
1.21537842E+02
 11
1.10315628E+02
 21
1.21537842E+02
  0
LINE
  8
0
 62
7
 10
1.10315628E+02
 20
7.85405807E+01
 11
9.48156281E+01
 21
7.85405807E+01
  0
LINE
  8
0
 62
7
 10
1.00865628E+02
 20
8.70405807E+01
 11
1.04265628E+02
 21
8.70405807E+01
  0
LINE
  8
0
 62
7
 10
1.04565628E+02
 20
9.02905807E+01
 11
1.04565628E+02
 21
8.27905807E+01
  0
LINE
  8
0
 62
7
 10
1.00565628E+02
 20
9.02905807E+01
 11
1.00565628E+02
 21
8.27905807E+01
  0
LINE
  8
0
  6
CENTER
 62
2
 10
1.01309303E+02
 20
8.42405853E+01
 11
1.03824432E+02
 21
8.42405853E+01
  0
LINE
  8
0
 62
6
 10
1.10315628E+02
 20
1.96537842E+02
 11
1.10315628E+02
 21
1.21537842E+02
  0
LINE
  8
0
 62
6
 10
9.48156281E+01
 20
1.96537842E+02
 11
9.48156281E+01
 21
1.21537842E+02
  0
LINE
  8
0
 62
6
 10
9.48156281E+01
 20
1.96537842E+02
 11
1.10315628E+02
 21
1.96537842E+02
  0
LINE
  8
0
 62
6
 10
9.90879726E+01
 20
1.77037842E+02
 11
1.02565628E+02
 21
1.77037842E+02
  0
LINE
  8
0
 62
6
 10
9.85656281E+01
 20
1.81068884E+02
 11
9.85656281E+01
 21
1.78006800E+02
  0
LINE
  8
0
 62
6
 10
1.02565628E+02
 20
1.81537842E+02
 11
1.02565628E+02
 21
1.77037842E+02
  0
LINE
  8
0
 62
6
 10
1.02565628E+02
 20
1.81537842E+02
 11
9.87782688E+01
 21
1.81537842E+02
  0
LINE
  8
0
  6
CENTER
 62
2
 10
1.02565628E+02
 20
2.00440138E+02
 11
1.02565628E+02
 21
7.62873917E+01
  0
LINE
  8
0
  6
CENTER
 62
2
 10
9.25656281E+01
 20
1.92537842E+02
 11
1.12565628E+02
 21
1.92537842E+02
  0
LINE
  8
0
  6
CENTER
 62
2
 10
9.25656281E+01
 20
1.25040581E+02
 11
1.12565628E+02
 21
1.25040581E+02
  0
CIRCLE
  8
0
 62
7
 10
1.02565628E+02
 20
1.09040581E+02
 40
3.70000005E+00
  0
CIRCLE
  8
0
 62
7
 10
1.02565628E+02
 20
1.09040581E+02
 40
4.19999981E+00
  0
CIRCLE
  8
0
 62
7
 10
1.02565628E+02
 20
1.09040581E+02
 40
4.30000019E+00
  0
CIRCLE
  8
0
 62
6
 10
1.02565628E+02
 20
1.49340580E+02
 40
5.65000010E+00
  0
CIRCLE
  8
0
 62
6
 10
1.02565628E+02
 20
1.49340580E+02
 40
7.75000000E+00
  0
CIRCLE
  8
0
 62
6
 10
1.02565628E+02
 20
1.49340580E+02
 40
6.50000000E+00
  0
ARC
  8
0
 62
6
 10
1.02565628E+02
 20
1.49340580E+02
 40
1.11999998E+01
 50
4.62142006E+01
 51
1.33785798E+02
  0
ARC
  8
0
 62
6
 10
1.02565628E+02
 20
1.49340580E+02
 40
1.11999998E+01
 50
2.26214203E+02
 51
3.13785800E+02
  0
ARC
  8
0
 62
6
 10
1.02565628E+02
 20
1.49287842E+02
 40
2.50000000E+01
 50
2.62299199E+02
 51
2.88059229E+02
  0
ARC
  8
0
 62
6
 10
1.02565628E+02
 20
1.49287842E+02
 40
2.50000000E+01
 50
7.19407704E+01
 51
7.57590649E+01
  0
ARC
  8
0
 62
6
 10
1.02565628E+02
 20
1.49287842E+02
 40
2.50000000E+01
 50
2.51940772E+02
 51
2.55759060E+02
  0
CIRCLE
  8
0
 62
6
 10
9.78156281E+01
 20
1.26537842E+02
 40
2.00000000E+00
  0
CIRCLE
  8
0
 62
6
 10
1.07315628E+02
 20
1.72037842E+02
 40
2.00000000E+00
  0
ARC
  8
0
 62
6
 10
1.02565628E+02
 20
1.49287842E+02
 40
2.50000000E+01
 50
8.22992033E+01
 51
1.08059228E+02
  0
CIRCLE
  8
0
 62
2
 10
1.02565628E+02
 20
8.65405807E+01
 40
4.86399984E+00
  0
ARC
  8
0
 62
7
 10
1.02565628E+02
 20
8.85405807E+01
 40
2.00000000E+00
 50
0.00000000E+00
 51
1.80000005E+02
  0
ARC
  8
0
 62
7
 10
1.04265628E+02
 20
8.73405838E+01
 40
3.00000012E-01
 50
2.70000000E+02
 51
0.00000000E+00
  0
ARC
  8
0
 62
7
 10
1.00865628E+02
 20
8.73405838E+01
 40
3.00000012E-01
 50
1.79999995E+02
 51
2.70000000E+02
  0
CIRCLE
  8
0
 62
7
 10
1.02565628E+02
 20
8.65405807E+01
 40
4.25000000E+00
  0
CIRCLE
  8
0
 62
7
 10
1.02565628E+02
 20
8.42405853E+01
 40
8.00000012E-01
  0
CIRCLE
  8
0
 62
6
 10
1.02565628E+02
 20
1.79537842E+02
 40
4.28299999E+00
  0
CIRCLE
  8
0
 62
6
 10
1.02565628E+02
 20
1.79537842E+02
 40
4.86399984E+00
  0
LINE
  8
0
 62
6
 10
2.45306068E+02
 20
1.96537842E+02
 11
2.45306068E+02
 21
1.83037842E+02
  0
LINE
  8
0
 62
6
 10
1.95006070E+02
 20
1.26537842E+02
 11
1.95224019E+02
 21
1.26537842E+02
  0
LINE
  8
0
 62
7
 10
2.38306068E+02
 20
1.69237843E+02
 11
2.38306068E+02
 21
1.63836197E+02
  0
LINE
  8
0
 62
7
 10
2.14056070E+02
 20
8.01855850E+01
 11
2.14056070E+02
 21
8.15405807E+01
  0
LINE
  8
0
 62
7
 10
2.18556070E+02
 20
8.01855850E+01
 11
2.18556070E+02
 21
8.15405807E+01
  0
LINE
  8
0
 62
7
 10
2.14056070E+02
 20
8.08805847E+01
 11
2.18556070E+02
 21
8.08805847E+01
  0
LINE
  8
0
 62
7
 10
2.15006070E+02
 20
1.13537842E+02
 11
2.17606070E+02
 21
1.13537842E+02
  0
LINE
  8
0
 62
7
 10
2.17606070E+02
 20
8.35405807E+01
 11
2.17606070E+02
 21
1.19537842E+02
  0
LINE
  8
0
 62
7
 10
2.15006070E+02
 20
8.35405807E+01
 11
2.15006070E+02
 21
1.19537842E+02
  0
LINE
  8
0
 62
2
 10
2.17362570E+02
 20
1.13537842E+02
 11
2.17362570E+02
 21
1.19537842E+02
  0
LINE
  8
0
 62
2
 10
2.15249570E+02
 20
1.13537842E+02
 11
2.15249570E+02
 21
1.19537842E+02
  0
LINE
  8
0
 62
7
 10
2.19006070E+02
 20
8.15405807E+01
 11
2.13606070E+02
 21
8.15405807E+01
  0
LINE
  8
0
 62
7
 10
2.18506070E+02
 20
8.35405807E+01
 11
2.18506070E+02
 21
1.19537842E+02
  0
LINE
  8
0
 62
7
 10
2.14106070E+02
 20
8.35405807E+01
 11
2.14106070E+02
 21
1.19537842E+02
  0
LINE
  8
0
 62
7
 10
2.14106070E+02
 20
1.19537842E+02
 11
2.18506070E+02
 21
1.19537842E+02
  0
LINE
  8
0
 62
7
 10
2.18506070E+02
 20
8.35405807E+01
 11
2.14106070E+02
 21
8.35405807E+01
  0
LINE
  8
0
 62
7
 10
2.19006070E+02
 20
7.85405807E+01
 11
2.19006070E+02
 21
8.15405807E+01
  0
LINE
  8
0
 62
7
 10
2.13606070E+02
 20
7.85405807E+01
 11
2.13606070E+02
 21
8.15405807E+01
  0
LINE
  8
0
 62
7
 10
2.40806068E+02
 20
1.22036194E+02
 11
2.40806068E+02
 21
1.22536194E+02
  0
LINE
  8
0
 62
7
 10
2.37806068E+02
 20
1.22036194E+02
 11
2.37806068E+02
 21
1.22536194E+02
  0
LINE
  8
0
  6
CENTER
 62
2
 10
2.39306068E+02
 20
1.20232788E+02
 11
2.39306068E+02
 21
1.24242264E+02
  0
LINE
  8
0
 62
7
 10
2.37706070E+02
 20
1.22536194E+02
 11
2.41306068E+02
 21
1.22536194E+02
  0
LINE
  8
0
 62
7
 10
2.37706070E+02
 20
1.21536194E+02
 11
2.37706070E+02
 21
1.22536194E+02
  0
LINE
  8
0
 62
7
 10
2.39661072E+02
 20
1.64286196E+02
 11
2.38306068E+02
 21
1.64286196E+02
  0
LINE
  8
0
 62
7
 10
2.38966068E+02
 20
1.64286196E+02
 11
2.38966068E+02
 21
1.68786196E+02
  0
LINE
  8
0
 62
7
 10
2.39661072E+02
 20
1.68786196E+02
 11
2.38306068E+02
 21
1.68786196E+02
  0
LINE
  8
0
  6
CENTER
 62
2
 10
2.42562683E+02
 20
1.66536196E+02
 11
2.36724014E+02
 21
1.66536196E+02
  0
LINE
  8
0
 62
7
 10
2.41306068E+02
 20
1.69236197E+02
 11
2.38306068E+02
 21
1.69236197E+02
  0
LINE
  8
0
 62
7
 10
2.38306068E+02
 20
1.63836197E+02
 11
2.41306068E+02
 21
1.63836197E+02
  0
LINE
  8
0
 62
7
 10
2.20806070E+02
 20
1.96036196E+02
 11
2.20806070E+02
 21
1.95536196E+02
  0
LINE
  8
0
 62
7
 10
2.23906071E+02
 20
1.95536196E+02
 11
2.20306070E+02
 21
1.95536196E+02
  0
LINE
  8
0
 62
7
 10
2.23806070E+02
 20
1.96036196E+02
 11
2.23806070E+02
 21
1.95536196E+02
  0
LINE
  8
0
  6
CENTER
 62
2
 10
2.22306070E+02
 20
1.97983932E+02
 11
2.22306070E+02
 21
1.93410524E+02
  0
LINE
  8
0
 62
7
 10
2.23906071E+02
 20
1.96536196E+02
 11
2.23906071E+02
 21
1.95536196E+02
  0
LINE
  8
0
 62
6
 10
2.08956070E+02
 20
1.26537842E+02
 11
2.04721933E+02
 21
1.26537842E+02
  0
LINE
  8
0
 62
6
 10
2.09256070E+02
 20
1.70166061E+02
 11
2.09256070E+02
 21
1.26837845E+02
  0
LINE
  8
0
 62
6
 10
1.98688121E+02
 20
1.26537842E+02
 11
1.99190207E+02
 21
1.26537842E+02
  0
LINE
  8
0
 62
6
 10
2.08406545E+02
 20
1.70185452E+02
 11
2.06558068E+02
 21
1.72033929E+02
  0
LINE
  8
0
 62
6
 10
2.06597165E+02
 20
1.70209073E+02
 11
2.08413937E+02
 21
1.72025845E+02
  0
LINE
  8
0
 62
6
 10
1.95006070E+02
 20
1.72037842E+02
 11
2.05724019E+02
 21
1.72037842E+02
  0
LINE
  8
0
 62
6
 10
1.96063191E+02
 20
1.26644966E+02
 11
1.97879962E+02
 21
1.28461737E+02
  0
LINE
  8
0
 62
6
 10
1.97872568E+02
 20
1.26621343E+02
 11
1.96024092E+02
 21
1.28469818E+02
  0
LINE
  8
0
  6
CENTER
 62
2
 10
2.16306070E+02
 20
7.31582413E+01
 11
2.16306070E+02
 21
1.25020660E+02
  0
LINE
  8
0
 62
7
 10
2.41306068E+02
 20
1.69237843E+02
 11
2.38306068E+02
 21
1.69237843E+02
  0
LINE
  8
0
 62
7
 10
2.38306068E+02
 20
1.63837841E+02
 11
2.41306068E+02
 21
1.63837841E+02
  0
LINE
  8
0
 62
6
 10
1.84306070E+02
 20
1.57037842E+02
 11
1.90306070E+02
 21
1.60501944E+02
  0
LINE
  8
0
 62
6
 10
1.90306070E+02
 20
1.74287842E+02
 11
1.94306070E+02
 21
1.74287842E+02
  0
LINE
  8
0
 62
6
 10
1.90306070E+02
 20
1.57373478E+02
 11
1.90306070E+02
 21
1.74287842E+02
  0
LINE
  8
0
  6
CENTER
 62
6
 10
1.98523074E+02
 20
1.25040581E+02
 11
2.06044359E+02
 21
1.25040581E+02
  0
LINE
  8
0
 62
6
 10
1.90306070E+02
 20
1.41202206E+02
 11
1.90306070E+02
 21
1.24287842E+02
  0
LINE
  8
0
 62
6
 10
1.84306070E+02
 20
1.41537844E+02
 11
1.90306070E+02
 21
1.38073742E+02
  0
LINE
  8
0
 62
6
 10
1.84306070E+02
 20
1.57037842E+02
 11
1.84306070E+02
 21
1.41537842E+02
  0
LINE
  8
0
  6
CENTER
 62
6
 10
1.96914155E+02
 20
1.49287842E+02
 11
1.80737133E+02
 21
1.49287842E+02
  0
LINE
  8
0
 62
6
 10
1.90306070E+02
 20
1.24287842E+02
 11
1.94306070E+02
 21
1.24287842E+02
  0
LINE
  8
0
  6
CENTER
 62
6
 10
2.02206070E+02
 20
1.21905823E+02
 11
2.02206070E+02
 21
1.28423866E+02
  0
LINE
  8
0
 62
7
 10
2.65306068E+02
 20
9.65405807E+01
 11
2.65306068E+02
 21
8.27405853E+01
  0
LINE
  8
0
 62
6
 10
2.41306068E+02
 20
1.21536194E+02
 11
2.52806068E+02
 21
1.21536194E+02
  0
LINE
  8
0
 62
6
 10
2.44506069E+02
 20
1.22236198E+02
 11
2.44506069E+02
 21
1.23036194E+02
  0
LINE
  8
0
 62
6
 10
2.52106071E+02
 20
1.23036194E+02
 11
2.52106071E+02
 21
1.22236198E+02
  0
LINE
  8
0
 62
6
 10
2.52106071E+02
 20
1.23036194E+02
 11
2.44506069E+02
 21
1.23036194E+02
  0
LINE
  8
0
 62
6
 10
2.52106071E+02
 20
1.22236198E+02
 11
2.44506069E+02
 21
1.22236198E+02
  0
LINE
  8
0
 62
6
 10
2.52806068E+02
 20
1.21536194E+02
 11
2.52806068E+02
 21
1.27319054E+02
  0
LINE
  8
0
 62
6
 10
2.55906071E+02
 20
1.29036198E+02
 11
2.55906071E+02
 21
1.31036198E+02
  0
LINE
  8
0
 62
6
 10
2.55406071E+02
 20
1.31536198E+02
 11
2.55306068E+02
 21
1.31536198E+02
  0
LINE
  8
0
 62
6
 10
2.55406071E+02
 20
1.28536194E+02
 11
2.55306068E+02
 21
1.28536194E+02
  0
LINE
  8
0
 62
6
 10
2.66796070E+02
 20
1.40886196E+02
 11
2.70106071E+02
 21
1.40886196E+02
  0
LINE
  8
0
 62
6
 10
2.66446072E+02
 20
1.39586197E+02
 11
2.70106071E+02
 21
1.39586197E+02
  0
LINE
  8
0
 62
6
 10
2.70106071E+02
 20
1.39986195E+02
 11
2.74106071E+02
 21
1.39986195E+02
  0
LINE
  8
0
 62
6
 10
2.70106071E+02
 20
1.40486195E+02
 11
2.74106071E+02
 21
1.40486195E+02
  0
LINE
  8
0
 62
6
 10
2.70106071E+02
 20
1.40886196E+02
 11
2.70106071E+02
 21
1.39586197E+02
  0
LINE
  8
0
 62
6
 10
2.74106071E+02
 20
1.40486195E+02
 11
2.74106071E+02
 21
1.39986195E+02
  0
LINE
  8
0
 62
6
 10
2.65156073E+02
 20
1.38636194E+02
 11
2.66016073E+02
 21
1.41836195E+02
  0
LINE
  8
0
 62
6
 10
2.66186067E+02
 20
1.38636196E+02
 11
2.67046067E+02
 21
1.41836197E+02
  0
LINE
  8
0
 62
6
 10
2.61906071E+02
 20
1.40886196E+02
 11
2.65756069E+02
 21
1.40886196E+02
  0
LINE
  8
0
 62
6
 10
2.61906071E+02
 20
1.39586197E+02
 11
2.65406071E+02
 21
1.39586197E+02
  0
LINE
  8
0
 62
6
 10
2.56306068E+02
 20
1.28436195E+02
 11
2.55306068E+02
 21
1.28436195E+02
  0
LINE
  8
0
 62
6
 10
2.56306068E+02
 20
1.31636196E+02
 11
2.55306068E+02
 21
1.31636196E+02
  0
LINE
  8
0
 62
6
 10
2.55306068E+02
 20
1.28436195E+02
 11
2.55306068E+02
 21
1.31636196E+02
  0
LINE
  8
0
 62
6
 10
2.55006069E+02
 20
1.36036198E+02
 11
2.60906071E+02
 21
1.36036198E+02
  0
LINE
  8
0
 62
6
 10
2.61706070E+02
 20
1.42236195E+02
 11
2.60906071E+02
 21
1.42236195E+02
  0
LINE
  8
0
 62
6
 10
2.61906071E+02
 20
1.38436195E+02
 11
2.61906071E+02
 21
1.42036198E+02
  0
LINE
  8
0
 62
6
 10
2.61706070E+02
 20
1.38236195E+02
 11
2.60906071E+02
 21
1.38236195E+02
  0
LINE
  8
0
 62
6
 10
2.56306068E+02
 20
1.27936195E+02
 11
2.56306068E+02
 21
1.34627014E+02
  0
LINE
  8
0
 62
6
 10
2.55006069E+02
 20
1.35936195E+02
 11
2.60906071E+02
 21
1.35936195E+02
  0
LINE
  8
0
 62
6
 10
2.56306068E+02
 20
1.34627015E+02
 11
2.60906068E+02
 21
1.35438120E+02
  0
LINE
  8
0
 62
6
 10
2.60906071E+02
 20
1.35438118E+02
 11
2.60906071E+02
 21
1.35936195E+02
  0
LINE
  8
0
 62
6
 10
2.60306068E+02
 20
1.36036198E+02
 11
2.60306068E+02
 21
1.35936195E+02
  0
LINE
  8
0
 62
6
 10
2.52806070E+02
 20
1.27319051E+02
 11
2.56306070E+02
 21
1.27936195E+02
  0
LINE
  8
0
  6
CENTER
 62
6
 10
2.75522560E+02
 20
1.40236195E+02
 11
2.59794071E+02
 21
1.40236195E+02
  0
LINE
  8
0
 62
6
 10
2.41306068E+02
 20
1.53536198E+02
 11
2.60606071E+02
 21
1.53536198E+02
  0
LINE
  8
0
 62
6
 10
2.42506069E+02
 20
1.53536198E+02
 11
2.42506069E+02
 21
1.52036198E+02
  0
LINE
  8
0
 62
6
 10
2.55006069E+02
 20
1.52036198E+02
 11
2.42506069E+02
 21
1.52036198E+02
  0
LINE
  8
0
 62
6
 10
2.60906071E+02
 20
1.36036198E+02
 11
2.60906071E+02
 21
1.53236195E+02
  0
LINE
  8
0
 62
6
 10
2.55006069E+02
 20
1.52036198E+02
 11
2.55006069E+02
 21
1.35936195E+02
  0
LINE
  8
0
 62
7
 10
2.65306068E+02
 20
8.27405853E+01
 11
2.65306068E+02
 21
7.85405807E+01
  0
LINE
  8
0
 62
7
 10
2.41306068E+02
 20
1.83037842E+02
 11
2.41306068E+02
 21
1.21537842E+02
  0
LINE
  8
0
 62
7
 10
2.20306070E+02
 20
1.96537842E+02
 11
2.20306070E+02
 21
1.21537842E+02
  0
LINE
  8
0
 62
6
 10
2.45306068E+02
 20
1.83037842E+02
 11
2.41306068E+02
 21
1.83037842E+02
  0
LINE
  8
0
 62
6
 10
2.42806068E+02
 20
1.86537842E+02
 11
2.42306068E+02
 21
1.86537842E+02
  0
LINE
  8
0
 62
6
 10
2.42806068E+02
 20
1.89537842E+02
 11
2.42306068E+02
 21
1.89537842E+02
  0
LINE
  8
0
 62
6
 10
2.45306068E+02
 20
1.89637842E+02
 11
2.42306068E+02
 21
1.89637842E+02
  0
LINE
  8
0
 62
6
 10
2.45306068E+02
 20
1.86437842E+02
 11
2.42306068E+02
 21
1.86437842E+02
  0
LINE
  8
0
 62
6
 10
2.42306068E+02
 20
1.89637842E+02
 11
2.42306068E+02
 21
1.86437842E+02
  0
LINE
  8
0
 62
7
 10
1.94306070E+02
 20
7.85405807E+01
 11
2.20306070E+02
 21
7.85405807E+01
  0
LINE
  8
0
 62
6
 10
1.94306070E+02
 20
1.96537842E+02
 11
1.94306070E+02
 21
1.21537842E+02
  0
LINE
  8
0
 62
7
 10
1.94306070E+02
 20
1.21537842E+02
 11
2.20306070E+02
 21
1.21537842E+02
  0
LINE
  8
0
 62
7
 10
2.20306070E+02
 20
1.21537842E+02
 11
2.20306070E+02
 21
7.85405807E+01
  0
LINE
  8
0
 62
6
 10
1.94706070E+02
 20
1.71737843E+02
 11
1.94706070E+02
 21
1.26837845E+02
  0
LINE
  8
0
  6
CENTER
 62
6
 10
2.04206070E+02
 20
1.88518879E+02
 11
2.04206070E+02
 21
1.95962473E+02
  0
LINE
  8
0
  6
CENTER
 62
6
 10
2.08082364E+02
 20
1.92537842E+02
 11
2.00238948E+02
 21
1.92537842E+02
  0
LINE
  8
0
 62
7
 10
2.20306070E+02
 20
9.65405807E+01
 11
2.65306068E+02
 21
9.65405807E+01
  0
LINE
  8
0
 62
7
 10
2.41306068E+02
 20
1.21537842E+02
 11
2.20306070E+02
 21
1.21537842E+02
  0
LINE
  8
0
 62
7
 10
2.41306068E+02
 20
1.35037842E+02
 11
2.20306070E+02
 21
1.35037842E+02
  0
LINE
  8
0
 62
6
 10
2.20306070E+02
 20
1.96537842E+02
 11
1.94306070E+02
 21
1.96537842E+02
  0
LINE
  8
0
 62
7
 10
2.41306068E+02
 20
1.96537842E+02
 11
2.41306068E+02
 21
1.83037842E+02
  0
LINE
  8
0
 62
7
 10
2.65606071E+02
 20
8.91905823E+01
 11
2.71806068E+02
 21
8.91905823E+01
  0
LINE
  8
0
 62
7
 10
2.65606071E+02
 20
7.92905807E+01
 11
2.71806068E+02
 21
7.92905807E+01
  0
LINE
  8
0
 62
7
 10
2.73306068E+02
 20
8.76905823E+01
 11
2.73306068E+02
 21
8.07905807E+01
  0
LINE
  8
0
 62
7
 10
2.65606069E+02
 20
8.91905840E+01
 11
2.65306068E+02
 21
8.88905835E+01
  0
LINE
  8
0
 62
7
 10
2.65606070E+02
 20
7.92905835E+01
 11
2.65306071E+02
 21
7.95905828E+01
  0
LINE
  8
0
 62
7
 10
2.65306068E+02
 20
7.85405807E+01
 11
2.20306070E+02
 21
7.85405807E+01
  0
LINE
  8
0
 62
7
 10
2.20306070E+02
 20
1.96537842E+02
 11
2.41306068E+02
 21
1.96537842E+02
  0
LINE
  8
0
 62
6
 10
2.41306068E+02
 20
1.96537842E+02
 11
2.45306068E+02
 21
1.96537842E+02
  0
LINE
  8
0
 62
6
 10
2.20306070E+02
 20
9.70405807E+01
 11
2.28806070E+02
 21
9.70405807E+01
  0
LINE
  8
0
 62
6
 10
2.28806070E+02
 20
9.70405807E+01
 11
2.28806070E+02
 21
1.21040581E+02
  0
LINE
  8
0
 62
6
 10
2.20306070E+02
 20
1.21040581E+02
 11
2.28806070E+02
 21
1.21040581E+02
  0
LINE
  8
0
 62
7
 10
2.41306068E+02
 20
1.83037842E+02
 11
2.20306070E+02
 21
1.83037842E+02
  0
LINE
  8
0
  6
CENTER
 62
6
 10
2.39492054E+02
 20
1.30036198E+02
 11
2.58572594E+02
 21
1.30036198E+02
  0
LINE
  8
0
  6
CENTER
 62
6
 10
2.39492054E+02
 20
1.88037842E+02
 11
2.46878071E+02
 21
1.88037842E+02
  0
LINE
  8
0
 62
7
 10
1.94306070E+02
 20
1.21537842E+02
 11
1.94306070E+02
 21
7.85405807E+01
  0
ARC
  8
0
 62
6
 10
1.95006070E+02
 20
1.26837845E+02
 40
3.00000012E-01
 50
1.79999995E+02
 51
2.70000000E+02
  0
ARC
  8
0
 62
6
 10
1.95006070E+02
 20
1.71737843E+02
 40
3.00000012E-01
 50
9.00000002E+01
 51
1.80000005E+02
  0
ARC
  8
0
 62
7
 10
2.16303570E+02
 20
8.51779938E+01
 40
5.99541616E+00
 50
2.53801671E+02
 51
2.86198330E+02
  0
ARC
  8
0
 62
7
 10
2.17756303E+02
 20
8.01895752E+01
 40
7.99777389E-01
 50
2.85949247E+02
 51
3.59714132E+02
  0
ARC
  8
0
 62
7
 10
2.14851709E+02
 20
8.01850204E+01
 40
7.95639873E-01
 50
1.79959311E+02
 51
2.53900234E+02
  0
ARC
  8
0
 62
7
 10
2.39306068E+02
 20
1.24036194E+02
 40
2.50000000E+00
 50
2.33130097E+02
 51
3.06869898E+02
  0
ARC
  8
0
 62
7
 10
2.34668661E+02
 20
1.66533695E+02
 40
5.99541616E+00
 50
3.43801670E+02
 51
1.61983298E+01
  0
ARC
  8
0
 62
7
 10
2.39657078E+02
 20
1.67986429E+02
 40
7.99777389E-01
 50
1.59492465E+01
 51
8.97141315E+01
  0
ARC
  8
0
 62
7
 10
2.39661636E+02
 20
1.65081837E+02
 40
7.95639873E-01
 50
2.70000000E+02
 51
3.43900220E+02
  0
ARC
  8
0
 62
7
 10
2.22306070E+02
 20
1.94036196E+02
 40
2.50000000E+00
 50
5.31301018E+01
 51
1.26869903E+02
  0
ARC
  8
0
 62
6
 10
2.08956070E+02
 20
1.26837845E+02
 40
3.00000012E-01
 50
2.70000000E+02
 51
0.00000000E+00
  0
ARC
  8
0
 62
6
 10
2.01956070E+02
 20
1.25037842E+02
 40
3.00000000E+00
 50
3.30557318E+01
 51
1.46944266E+02
  0
ARC
  8
0
 62
6
 10
2.04721933E+02
 20
1.26837845E+02
 40
3.00000012E-01
 50
2.13055734E+02
 51
2.70000000E+02
  0
ARC
  8
0
 62
6
 10
1.99190207E+02
 20
1.26837845E+02
 40
3.00000012E-01
 50
2.70000000E+02
 51
3.26944268E+02
  0
CIRCLE
  8
0
 62
6
 10
2.07490045E+02
 20
1.71101952E+02
 40
2.00000000E+00
  0
CIRCLE
  8
0
 62
6
 10
1.96956070E+02
 20
1.27537842E+02
 40
2.00000000E+00
  0
CIRCLE
  8
0
 62
6
 10
2.02206070E+02
 20
1.25040581E+02
 40
2.29999995E+00
  0
ARC
  8
0
 62
6
 10
2.55406071E+02
 20
1.29036198E+02
 40
5.00000000E-01
 50
2.70000000E+02
 51
0.00000000E+00
  0
ARC
  8
0
 62
6
 10
2.55406071E+02
 20
1.31036198E+02
 40
5.00000000E-01
 50
0.00000000E+00
 51
9.00000002E+01
  0
ARC
  8
0
 62
6
 10
2.61706779E+02
 20
1.42036907E+02
 40
1.99289829E-01
 50
3.59795462E+02
 51
9.00000002E+01
  0
ARC
  8
0
 62
6
 10
2.61706779E+02
 20
1.38435486E+02
 40
1.99289829E-01
 50
2.70000000E+02
 51
2.04538593E-01
  0
ARC
  8
0
 62
6
 10
2.60606071E+02
 20
1.53236195E+02
 40
3.00000012E-01
 50
0.00000000E+00
 51
9.00000002E+01
  0
ARC
  8
0
 62
6
 10
2.40806068E+02
 20
1.88037842E+02
 40
2.50000000E+00
 50
3.23130102E+02
 51
3.68698973E+01
  0
CIRCLE
  8
0
 62
6
 10
2.04206070E+02
 20
1.92537842E+02
 40
2.29999995E+00
  0
ARC
  8
0
 62
7
 10
2.71806068E+02
 20
8.76905823E+01
 40
1.50000000E+00
 50
0.00000000E+00
 51
9.00000002E+01
  0
ARC
  8
0
 62
7
 10
2.71806068E+02
 20
8.07905807E+01
 40
1.50000000E+00
 50
2.70000000E+02
 51
0.00000000E+00
  0
POLYLINE
  8
0
 62
6
 66
1
  0
VERTEX
  8
0
 62
6
 10
1.84306070E+02
 20
1.49287842E+02
  0
VERTEX
  8
0
 62
6
 10
1.84328421E+02
 20
1.49433325E+02
  0
VERTEX
  8
0
 62
6
 10
1.84352161E+02
 20
1.49578566E+02
  0
VERTEX
  8
0
 62
6
 10
1.84377199E+02
 20
1.49723582E+02
  0
VERTEX
  8
0
 62
6
 10
1.84403446E+02
 20
1.49868393E+02
  0
VERTEX
  8
0
 62
6
 10
1.84430811E+02
 20
1.50013016E+02
  0
VERTEX
  8
0
 62
6
 10
1.84459205E+02
 20
1.50157471E+02
  0
VERTEX
  8
0
 62
6
 10
1.84488536E+02
 20
1.50301776E+02
  0
VERTEX
  8
0
 62
6
 10
1.84518715E+02
 20
1.50445949E+02
  0
VERTEX
  8
0
 62
6
 10
1.84549651E+02
 20
1.50590009E+02
  0
VERTEX
  8
0
 62
6
 10
1.84581255E+02
 20
1.50733974E+02
  0
VERTEX
  8
0
 62
6
 10
1.84623282E+02
 20
1.50920945E+02
  0
VERTEX
  8
0
 62
6
 10
1.84666695E+02
 20
1.51107630E+02
  0
VERTEX
  8
0
 62
6
 10
1.84711906E+02
 20
1.51293870E+02
  0
VERTEX
  8
0
 62
6
 10
1.84759325E+02
 20
1.51479506E+02
  0
VERTEX
  8
0
 62
6
 10
1.84809365E+02
 20
1.51664383E+02
  0
VERTEX
  8
0
 62
6
 10
1.84862436E+02
 20
1.51848340E+02
  0
VERTEX
  8
0
 62
6
 10
1.84918951E+02
 20
1.52031220E+02
  0
VERTEX
  8
0
 62
6
 10
1.84979319E+02
 20
1.52212864E+02
  0
VERTEX
  8
0
 62
6
 10
1.85043952E+02
 20
1.52393116E+02
  0
VERTEX
  8
0
 62
6
 10
1.85113262E+02
 20
1.52571815E+02
  0
VERTEX
  8
0
 62
6
 10
1.85181234E+02
 20
1.52734185E+02
  0
VERTEX
  8
0
 62
6
 10
1.85253474E+02
 20
1.52894901E+02
  0
VERTEX
  8
0
 62
6
 10
1.85329973E+02
 20
1.53053749E+02
  0
VERTEX
  8
0
 62
6
 10
1.85410719E+02
 20
1.53210514E+02
  0
VERTEX
  8
0
 62
6
 10
1.85495703E+02
 20
1.53364980E+02
  0
VERTEX
  8
0
 62
6
 10
1.85584914E+02
 20
1.53516931E+02
  0
VERTEX
  8
0
 62
6
 10
1.85678341E+02
 20
1.53666153E+02
  0
VERTEX
  8
0
 62
6
 10
1.85775975E+02
 20
1.53812431E+02
  0
VERTEX
  8
0
 62
6
 10
1.85877804E+02
 20
1.53955549E+02
  0
VERTEX
  8
0
 62
6
 10
1.85983818E+02
 20
1.54095291E+02
  0
VERTEX
  8
0
 62
6
 10
1.86153067E+02
 20
1.54301279E+02
  0
VERTEX
  8
0
 62
6
 10
1.86331111E+02
 20
1.54499578E+02
  0
VERTEX
  8
0
 62
6
 10
1.86517074E+02
 20
1.54690817E+02
  0
VERTEX
  8
0
 62
6
 10
1.86710075E+02
 20
1.54875627E+02
  0
VERTEX
  8
0
 62
6
 10
1.86909239E+02
 20
1.55054639E+02
  0
VERTEX
  8
0
 62
6
 10
1.87113686E+02
 20
1.55228482E+02
  0
VERTEX
  8
0
 62
6
 10
1.87322540E+02
 20
1.55397786E+02
  0
VERTEX
  8
0
 62
6
 10
1.87534921E+02
 20
1.55563182E+02
  0
VERTEX
  8
0
 62
6
 10
1.87749952E+02
 20
1.55725300E+02
  0
VERTEX
  8
0
 62
6
 10
1.87966755E+02
 20
1.55884769E+02
  0
VERTEX
  8
0
 62
6
 10
1.88192956E+02
 20
1.56048029E+02
  0
VERTEX
  8
0
 62
6
 10
1.88420326E+02
 20
1.56208834E+02
  0
VERTEX
  8
0
 62
6
 10
1.88649071E+02
 20
1.56366908E+02
  0
VERTEX
  8
0
 62
6
 10
1.88879397E+02
 20
1.56521969E+02
  0
VERTEX
  8
0
 62
6
 10
1.89111510E+02
 20
1.56673741E+02
  0
VERTEX
  8
0
 62
6
 10
1.89345615E+02
 20
1.56821943E+02
  0
VERTEX
  8
0
 62
6
 10
1.89581917E+02
 20
1.56966296E+02
  0
VERTEX
  8
0
 62
6
 10
1.89820624E+02
 20
1.57106523E+02
  0
VERTEX
  8
0
 62
6
 10
1.90061939E+02
 20
1.57242343E+02
  0
VERTEX
  8
0
 62
6
 10
1.90306070E+02
 20
1.57373478E+02
  0
SEQEND
  8
0
  0
POLYLINE
  8
0
 62
6
 66
1
  0
VERTEX
  8
0
 62
6
 10
1.84306070E+02
 20
1.49287842E+02
  0
VERTEX
  8
0
 62
6
 10
1.84328421E+02
 20
1.49142358E+02
  0
VERTEX
  8
0
 62
6
 10
1.84352161E+02
 20
1.48997118E+02
  0
VERTEX
  8
0
 62
6
 10
1.84377199E+02
 20
1.48852102E+02
  0
VERTEX
  8
0
 62
6
 10
1.84403446E+02
 20
1.48707291E+02
  0
VERTEX
  8
0
 62
6
 10
1.84430811E+02
 20
1.48562668E+02
  0
VERTEX
  8
0
 62
6
 10
1.84459205E+02
 20
1.48418213E+02
  0
VERTEX
  8
0
 62
6
 10
1.84488536E+02
 20
1.48273908E+02
  0
VERTEX
  8
0
 62
6
 10
1.84518715E+02
 20
1.48129735E+02
  0
VERTEX
  8
0
 62
6
 10
1.84549651E+02
 20
1.47985675E+02
  0
VERTEX
  8
0
 62
6
 10
1.84581255E+02
 20
1.47841709E+02
  0
VERTEX
  8
0
 62
6
 10
1.84623282E+02
 20
1.47654738E+02
  0
VERTEX
  8
0
 62
6
 10
1.84666695E+02
 20
1.47468054E+02
  0
VERTEX
  8
0
 62
6
 10
1.84711906E+02
 20
1.47281814E+02
  0
VERTEX
  8
0
 62
6
 10
1.84759325E+02
 20
1.47096177E+02
  0
VERTEX
  8
0
 62
6
 10
1.84809365E+02
 20
1.46911301E+02
  0
VERTEX
  8
0
 62
6
 10
1.84862436E+02
 20
1.46727344E+02
  0
VERTEX
  8
0
 62
6
 10
1.84918951E+02
 20
1.46544464E+02
  0
VERTEX
  8
0
 62
6
 10
1.84979319E+02
 20
1.46362819E+02
  0
VERTEX
  8
0
 62
6
 10
1.85043952E+02
 20
1.46182568E+02
  0
VERTEX
  8
0
 62
6
 10
1.85113262E+02
 20
1.46003868E+02
  0
VERTEX
  8
0
 62
6
 10
1.85181234E+02
 20
1.45841499E+02
  0
VERTEX
  8
0
 62
6
 10
1.85253474E+02
 20
1.45680782E+02
  0
VERTEX
  8
0
 62
6
 10
1.85329973E+02
 20
1.45521934E+02
  0
VERTEX
  8
0
 62
6
 10
1.85410719E+02
 20
1.45365170E+02
  0
VERTEX
  8
0
 62
6
 10
1.85495703E+02
 20
1.45210704E+02
  0
VERTEX
  8
0
 62
6
 10
1.85584914E+02
 20
1.45058752E+02
  0
VERTEX
  8
0
 62
6
 10
1.85678341E+02
 20
1.44909530E+02
  0
VERTEX
  8
0
 62
6
 10
1.85775975E+02
 20
1.44763253E+02
  0
VERTEX
  8
0
 62
6
 10
1.85877804E+02
 20
1.44620135E+02
  0
VERTEX
  8
0
 62
6
 10
1.85983818E+02
 20
1.44480392E+02
  0
VERTEX
  8
0
 62
6
 10
1.86153067E+02
 20
1.44274405E+02
  0
VERTEX
  8
0
 62
6
 10
1.86331111E+02
 20
1.44076106E+02
  0
VERTEX
  8
0
 62
6
 10
1.86517074E+02
 20
1.43884867E+02
  0
VERTEX
  8
0
 62
6
 10
1.86710075E+02
 20
1.43700056E+02
  0
VERTEX
  8
0
 62
6
 10
1.86909239E+02
 20
1.43521045E+02
  0
VERTEX
  8
0
 62
6
 10
1.87113686E+02
 20
1.43347202E+02
  0
VERTEX
  8
0
 62
6
 10
1.87322540E+02
 20
1.43177897E+02
  0
VERTEX
  8
0
 62
6
 10
1.87534921E+02
 20
1.43012501E+02
  0
VERTEX
  8
0
 62
6
 10
1.87749952E+02
 20
1.42850384E+02
  0
VERTEX
  8
0
 62
6
 10
1.87966755E+02
 20
1.42690914E+02
  0
VERTEX
  8
0
 62
6
 10
1.88192956E+02
 20
1.42527655E+02
  0
VERTEX
  8
0
 62
6
 10
1.88420326E+02
 20
1.42366849E+02
  0
VERTEX
  8
0
 62
6
 10
1.88649071E+02
 20
1.42208776E+02
  0
VERTEX
  8
0
 62
6
 10
1.88879397E+02
 20
1.42053714E+02
  0
VERTEX
  8
0
 62
6
 10
1.89111510E+02
 20
1.41901943E+02
  0
VERTEX
  8
0
 62
6
 10
1.89345615E+02
 20
1.41753741E+02
  0
VERTEX
  8
0
 62
6
 10
1.89581917E+02
 20
1.41609387E+02
  0
VERTEX
  8
0
 62
6
 10
1.89820624E+02
 20
1.41469161E+02
  0
VERTEX
  8
0
 62
6
 10
1.90061939E+02
 20
1.41333341E+02
  0
VERTEX
  8
0
 62
6
 10
1.90306070E+02
 20
1.41202206E+02
  0
SEQEND
  8
0
  0
LINE
  8
0
  6
CENTER
 62
2
 10
-2.16987555E+02
 20
-5.02661514E+01
 11
-2.16987555E+02
 21
-5.90161514E+01
  0
LINE
  8
0
  6
CENTER
 62
2
 10
-2.12612555E+02
 20
-5.46411514E+01
 11
-2.21362555E+02
 21
-5.46411514E+01
  0
LINE
  8
0
 62
7
 10
-1.56487556E+02
 20
-5.11911516E+01
 11
-1.56487556E+02
 21
-4.91911516E+01
  0
LINE
  8
0
 62
7
 10
-1.63487556E+02
 20
-5.65911515E+01
 11
-1.63487556E+02
 21
-5.44911513E+01
  0
LINE
  8
0
 62
7
 10
-1.65487556E+02
 20
-5.65911515E+01
 11
-1.65487556E+02
 21
-5.44911513E+01
  0
LINE
  8
0
 62
7
 10
-1.65487556E+02
 20
-5.07911510E+01
 11
-1.65487556E+02
 21
-4.86911516E+01
  0
LINE
  8
0
 62
7
 10
-1.63487556E+02
 20
-5.07911510E+01
 11
-1.63487556E+02
 21
-4.86911516E+01
  0
LINE
  8
0
  6
PHANTOM
 62
2
 10
-1.13586334E+02
 20
-4.82411518E+01
 11
-1.13586334E+02
 21
-4.88411512E+01
  0
LINE
  8
0
  6
PHANTOM
 62
2
 10
-1.13586334E+02
 20
-4.78411512E+01
 11
-1.13586334E+02
 21
-4.72411518E+01
  0
LINE
  8
0
  6
PHANTOM
 62
2
 10
-1.33753555E+02
 20
-4.92411518E+01
 11
-1.33753555E+02
 21
-4.68411512E+01
  0
LINE
  8
0
  6
PHANTOM
 62
2
 10
-1.33753555E+02
 20
-4.88411512E+01
 11
-1.13586334E+02
 21
-4.88411512E+01
  0
LINE
  8
0
  6
PHANTOM
 62
2
 10
-1.33753555E+02
 20
-4.82411518E+01
 11
-1.13586334E+02
 21
-4.82411518E+01
  0
LINE
  8
0
  6
PHANTOM
 62
2
 10
-1.33753555E+02
 20
-4.78411512E+01
 11
-1.13586334E+02
 21
-4.78411512E+01
  0
LINE
  8
0
  6
PHANTOM
 62
2
 10
-1.33753555E+02
 20
-4.72411518E+01
 11
-1.13586334E+02
 21
-4.72411518E+01
  0
LINE
  8
0
  6
PHANTOM
 62
2
 10
-1.39287552E+02
 20
-4.92411518E+01
 11
-1.33753555E+02
 21
-4.92411518E+01
  0
LINE
  8
0
  6
PHANTOM
 62
2
 10
-1.39287552E+02
 20
-4.68411512E+01
 11
-1.33753555E+02
 21
-4.68411512E+01
  0
LINE
  8
0
  6
PHANTOM
 62
2
 10
-1.67987556E+02
 20
-4.59411516E+01
 11
-1.67987556E+02
 21
-4.51411514E+01
  0
LINE
  8
0
  6
PHANTOM
 62
2
 10
-1.66364265E+02
 20
-5.83911514E+01
 11
-1.66364265E+02
 21
-5.78911514E+01
  0
LINE
  8
0
  6
PHANTOM
 62
2
 10
-1.67887554E+02
 20
-5.83911514E+01
 11
-1.63482632E+02
 21
-5.83911514E+01
  0
LINE
  8
0
  6
PHANTOM
 62
2
 10
-1.67887554E+02
 20
-4.68911514E+01
 11
-1.63487556E+02
 21
-4.68911514E+01
  0
LINE
  8
0
  6
PHANTOM
 62
2
 10
-1.67987556E+02
 20
-6.01411514E+01
 11
-1.67987556E+02
 21
-5.93411515E+01
  0
LINE
  8
0
  6
PHANTOM
 62
2
 10
-1.64487556E+02
 20
-6.01411514E+01
 11
-1.64487556E+02
 21
-5.78911514E+01
  0
LINE
  8
0
  6
PHANTOM
 62
2
 10
-1.88487556E+02
 20
-6.01411514E+01
 11
-1.64487556E+02
 21
-6.01411514E+01
  0
LINE
  8
0
  6
PHANTOM
 62
2
 10
-1.88487556E+02
 20
-4.51411514E+01
 11
-1.64487556E+02
 21
-4.51411514E+01
  0
LINE
  8
0
  6
PHANTOM
 62
2
 10
-1.51682449E+02
 20
-4.99411516E+01
 11
-1.39287552E+02
 21
-4.99411516E+01
  0
LINE
  8
0
  6
PHANTOM
 62
2
 10
-1.49488525E+02
 20
-4.61411514E+01
 11
-1.39287552E+02
 21
-4.61411514E+01
  0
LINE
  8
0
  6
PHANTOM
 62
2
 10
-1.52859758E+02
 20
-5.19802994E+01
 11
-1.48034908E+02
 21
-4.36234140E+01
  0
LINE
  8
0
  6
PHANTOM
 62
2
 10
-1.55626168E+02
 20
-5.17718629E+01
 11
-1.50813939E+02
 21
-4.34368376E+01
  0
LINE
  8
0
  6
PHANTOM
 62
2
 10
-1.39287552E+02
 20
-4.99411516E+01
 11
-1.39287552E+02
 21
-4.61411514E+01
  0
LINE
  8
0
  6
PHANTOM
 62
2
 10
-1.63487556E+02
 20
-4.99411516E+01
 11
-1.54569206E+02
 21
-4.99411516E+01
  0
LINE
  8
0
  6
PHANTOM
 62
2
 10
-1.63487556E+02
 20
-4.61411514E+01
 11
-1.52375275E+02
 21
-4.61411514E+01
  0
LINE
  8
0
  6
PHANTOM
 62
2
 10
-1.64487556E+02
 20
-4.52411518E+01
 11
-1.63487556E+02
 21
-4.52411518E+01
  0
LINE
  8
0
  6
PHANTOM
 62
2
 10
-1.63487556E+02
 20
-4.68911514E+01
 11
-1.63487556E+02
 21
-4.52411518E+01
  0
LINE
  8
0
  6
PHANTOM
 62
2
 10
-1.63482632E+02
 20
-4.68911514E+01
 11
-1.63482632E+02
 21
-4.73911514E+01
  0
LINE
  8
0
  6
CENTER
 62
6
 10
-1.90883224E+02
 20
-5.43411512E+01
 11
-1.66664246E+02
 21
-5.43411512E+01
  0
LINE
  8
0
  6
CENTER
 62
6
 10
-1.90883224E+02
 20
-5.09411516E+01
 11
-1.66664246E+02
 21
-5.09411516E+01
  0
LINE
  8
0
 62
7
 10
-1.88487557E+02
 20
-6.00478181E+01
 11
-1.64686668E+02
 21
-5.99420364E+01
  0
LINE
  8
0
 62
7
 10
-1.88487555E+02
 20
-4.52344848E+01
 11
-1.64686665E+02
 21
-4.53402666E+01
  0
LINE
  8
0
 62
7
 10
-1.56487556E+02
 20
-5.60911512E+01
 11
-1.56487556E+02
 21
-5.40911512E+01
  0
LINE
  8
0
 62
7
 10
-1.59687553E+02
 20
-4.76911516E+01
 11
-1.57987556E+02
 21
-4.76911516E+01
  0
LINE
  8
0
 62
7
 10
-1.59687553E+02
 20
-5.75911515E+01
 11
-1.57987556E+02
 21
-5.75911515E+01
  0
LINE
  8
0
 62
7
 10
-1.64487556E+02
 20
-5.97420384E+01
 11
-1.64487556E+02
 21
-5.83911514E+01
  0
LINE
  8
0
  6
CENTER
 62
2
 10
-2.38928556E+02
 20
-5.26411514E+01
 11
-1.51512085E+02
 21
-5.26411514E+01
  0
LINE
  8
0
 62
7
 10
-2.06709738E+02
 20
-5.73633340E+01
 11
-2.08265372E+02
 21
-5.89189688E+01
  0
LINE
  8
0
 62
7
 10
-2.06709738E+02
 20
-5.89189695E+01
 11
-2.08265373E+02
 21
-5.73633340E+01
  0
LINE
  8
0
 62
7
 10
-1.89709737E+02
 20
-4.79189686E+01
 11
-1.91265372E+02
 21
-4.63633338E+01
  0
LINE
  8
0
 62
7
 10
-1.89709739E+02
 20
-4.63633345E+01
 11
-1.91265374E+02
 21
-4.79189699E+01
  0
LINE
  8
0
 62
7
 10
-1.88487556E+02
 20
-4.51411514E+01
 11
-2.09487555E+02
 21
-4.51411514E+01
  0
LINE
  8
0
 62
7
 10
-1.88487556E+02
 20
-6.01411514E+01
 11
-2.09487555E+02
 21
-6.01411514E+01
  0
LINE
  8
0
 62
7
 10
-1.88487556E+02
 20
-4.51411514E+01
 11
-1.88487556E+02
 21
-6.01411514E+01
  0
LINE
  8
0
 62
7
 10
-1.89487556E+02
 20
-5.49411516E+01
 11
-1.89487556E+02
 21
-5.37411513E+01
  0
LINE
  8
0
 62
7
 10
-1.89487556E+02
 20
-5.37411513E+01
 11
-1.88487556E+02
 21
-5.37411513E+01
  0
LINE
  8
0
 62
7
 10
-1.89487556E+02
 20
-5.49411516E+01
 11
-1.88487556E+02
 21
-5.49411516E+01
  0
LINE
  8
0
 62
7
 10
-2.05887554E+02
 20
-5.81411514E+01
 11
-2.05887554E+02
 21
-6.01411514E+01
  0
LINE
  8
0
 62
7
 10
-2.07487555E+02
 20
-5.65411515E+01
 11
-2.09487555E+02
 21
-5.65411515E+01
  0
LINE
  8
0
 62
7
 10
-1.90487556E+02
 20
-4.87411518E+01
 11
-1.88487556E+02
 21
-4.87411518E+01
  0
LINE
  8
0
 62
7
 10
-1.92087555E+02
 20
-4.71411514E+01
 11
-1.92087555E+02
 21
-4.51411514E+01
  0
LINE
  8
0
 62
7
 10
-2.35487555E+02
 20
-4.48911514E+01
 11
-2.35487555E+02
 21
-6.03911514E+01
  0
LINE
  8
0
 62
7
 10
-2.09487555E+02
 20
-6.03911514E+01
 11
-2.09487555E+02
 21
-4.48911514E+01
  0
LINE
  8
0
 62
7
 10
-2.35487555E+02
 20
-6.03911514E+01
 11
-2.09487555E+02
 21
-6.03911514E+01
  0
LINE
  8
0
 62
7
 10
-2.35487555E+02
 20
-4.48911514E+01
 11
-2.09487555E+02
 21
-4.48911514E+01
  0
LINE
  8
0
 62
7
 10
-1.63487556E+02
 20
-5.83911514E+01
 11
-1.63487556E+02
 21
-5.78911514E+01
  0
LINE
  8
0
 62
7
 10
-1.65487556E+02
 20
-5.83911514E+01
 11
-1.65487556E+02
 21
-5.78911514E+01
  0
LINE
  8
0
 62
7
 10
-1.63487556E+02
 20
-5.83911514E+01
 11
-1.65487556E+02
 21
-5.83911514E+01
  0
LINE
  8
0
 62
7
 10
-1.63487556E+02
 20
-4.68911514E+01
 11
-1.65487556E+02
 21
-4.68911514E+01
  0
LINE
  8
0
 62
7
 10
-1.64487556E+02
 20
-4.68911514E+01
 11
-1.64487556E+02
 21
-4.55402641E+01
  0
LINE
  8
0
 62
7
 10
-1.63487556E+02
 20
-4.73911514E+01
 11
-1.63487556E+02
 21
-4.68911514E+01
  0
LINE
  8
0
 62
7
 10
-1.65487556E+02
 20
-4.73911514E+01
 11
-1.65487556E+02
 21
-4.68911514E+01
  0
LINE
  8
0
 62
7
 10
-1.63487556E+02
 20
-5.31911516E+01
 11
-1.63487556E+02
 21
-5.20911512E+01
  0
LINE
  8
0
 62
7
 10
-1.65487556E+02
 20
-5.31911516E+01
 11
-1.65487556E+02
 21
-5.20911512E+01
  0
LINE
  8
0
 62
7
 10
-1.56487556E+02
 20
-5.35911512E+01
 11
-1.56487556E+02
 21
-5.16911516E+01
  0
LINE
  8
0
 62
6
 10
-1.68887554E+02
 20
-4.59411516E+01
 11
-1.67887554E+02
 21
-4.59411516E+01
  0
LINE
  8
0
 62
6
 10
-1.67887554E+02
 20
-4.73911514E+01
 11
-1.59687553E+02
 21
-4.73911514E+01
  0
LINE
  8
0
 62
6
 10
-1.67887554E+02
 20
-4.86911516E+01
 11
-1.59687553E+02
 21
-4.86911516E+01
  0
LINE
  8
0
 62
6
 10
-1.59687553E+02
 20
-4.86911516E+01
 11
-1.59687553E+02
 21
-4.73911514E+01
  0
LINE
  8
0
 62
6
 10
-1.55687553E+02
 20
-4.82911510E+01
 11
-1.55687553E+02
 21
-4.77911510E+01
  0
LINE
  8
0
 62
6
 10
-1.59687553E+02
 20
-4.82911510E+01
 11
-1.55687553E+02
 21
-4.82911510E+01
  0
LINE
  8
0
 62
6
 10
-1.59687553E+02
 20
-4.77911510E+01
 11
-1.55687553E+02
 21
-4.77911510E+01
  0
LINE
  8
0
 62
6
 10
-1.59687553E+02
 20
-5.35911512E+01
 11
-1.55687553E+02
 21
-5.35911512E+01
  0
LINE
  8
0
 62
6
 10
-1.59687553E+02
 20
-5.40911512E+01
 11
-1.55687553E+02
 21
-5.40911512E+01
  0
LINE
  8
0
 62
6
 10
-1.55687553E+02
 20
-5.40911512E+01
 11
-1.55687553E+02
 21
-5.35911512E+01
  0
LINE
  8
0
 62
6
 10
-1.59687553E+02
 20
-5.44911513E+01
 11
-1.59687553E+02
 21
-5.31911516E+01
  0
LINE
  8
0
 62
6
 10
-1.67887554E+02
 20
-5.44911513E+01
 11
-1.59687553E+02
 21
-5.44911513E+01
  0
LINE
  8
0
 62
6
 10
-1.67887554E+02
 20
-5.31911516E+01
 11
-1.59687553E+02
 21
-5.31911516E+01
  0
LINE
  8
0
 62
6
 10
-1.67887554E+02
 20
-4.59411516E+01
 11
-1.67887554E+02
 21
-4.93411512E+01
  0
LINE
  8
0
 62
6
 10
-1.84487556E+02
 20
-5.93411515E+01
 11
-1.84487556E+02
 21
-4.93411512E+01
  0
LINE
  8
0
 62
6
 10
-1.88487556E+02
 20
-4.59411516E+01
 11
-1.68887554E+02
 21
-4.59411516E+01
  0
LINE
  8
0
 62
6
 10
-1.88487556E+02
 20
-5.93411515E+01
 11
-1.68887554E+02
 21
-5.93411515E+01
  0
LINE
  8
0
 62
6
 10
-1.68887554E+02
 20
-5.93411515E+01
 11
-1.67887554E+02
 21
-5.93411515E+01
  0
LINE
  8
0
 62
6
 10
-1.68887554E+02
 20
-4.93411512E+01
 11
-1.67887554E+02
 21
-4.93411512E+01
  0
LINE
  8
0
 62
6
 10
-1.88487556E+02
 20
-4.93411512E+01
 11
-1.68887554E+02
 21
-4.93411512E+01
  0
LINE
  8
0
 62
6
 10
-1.67887554E+02
 20
-5.65911515E+01
 11
-1.59687553E+02
 21
-5.65911515E+01
  0
LINE
  8
0
 62
6
 10
-1.67887554E+02
 20
-5.78911514E+01
 11
-1.59687553E+02
 21
-5.78911514E+01
  0
LINE
  8
0
 62
6
 10
-1.59687553E+02
 20
-5.78911514E+01
 11
-1.59687553E+02
 21
-5.65911515E+01
  0
LINE
  8
0
 62
6
 10
-1.55687553E+02
 20
-5.74911513E+01
 11
-1.55687553E+02
 21
-5.69911513E+01
  0
LINE
  8
0
 62
6
 10
-1.59687553E+02
 20
-5.74911513E+01
 11
-1.55687553E+02
 21
-5.74911513E+01
  0
LINE
  8
0
 62
6
 10
-1.59687553E+02
 20
-5.69911513E+01
 11
-1.55687553E+02
 21
-5.69911513E+01
  0
LINE
  8
0
 62
6
 10
-1.59687553E+02
 20
-5.11911516E+01
 11
-1.55687553E+02
 21
-5.11911516E+01
  0
LINE
  8
0
 62
6
 10
-1.59687553E+02
 20
-5.16911516E+01
 11
-1.55687553E+02
 21
-5.16911516E+01
  0
LINE
  8
0
 62
6
 10
-1.55687553E+02
 20
-5.16911516E+01
 11
-1.55687553E+02
 21
-5.11911516E+01
  0
LINE
  8
0
 62
6
 10
-1.59687553E+02
 20
-5.20911512E+01
 11
-1.59687553E+02
 21
-5.07911510E+01
  0
LINE
  8
0
 62
6
 10
-1.67887554E+02
 20
-5.20911512E+01
 11
-1.59687553E+02
 21
-5.20911512E+01
  0
LINE
  8
0
 62
6
 10
-1.67887554E+02
 20
-5.07911510E+01
 11
-1.59687553E+02
 21
-5.07911510E+01
  0
LINE
  8
0
 62
6
 10
-1.73487556E+02
 20
-4.93411512E+01
 11
-1.73487556E+02
 21
-5.93411515E+01
  0
LINE
  8
0
 62
6
 10
-1.76987556E+02
 20
-4.93411512E+01
 11
-1.76987556E+02
 21
-5.93411515E+01
  0
LINE
  8
0
 62
6
 10
-1.68887554E+02
 20
-4.93411512E+01
 11
-1.68887554E+02
 21
-5.93411515E+01
  0
LINE
  8
0
 62
6
 10
-1.67887554E+02
 20
-4.93411512E+01
 11
-1.67887554E+02
 21
-5.93411515E+01
  0
LINE
  8
0
 62
6
 10
-1.68887554E+02
 20
-4.93411512E+01
 11
-1.68887554E+02
 21
-4.59411516E+01
  0
LINE
  8
0
 62
6
 10
-1.87287556E+02
 20
-4.93411512E+01
 11
-1.87287556E+02
 21
-4.59411516E+01
  0
LINE
  8
0
  6
PHANTOM
 62
2
 10
-1.63487556E+02
 20
-4.73911514E+01
 11
-1.63487556E+02
 21
-4.68911514E+01
  0
LINE
  8
0
  6
PHANTOM
 62
2
 10
-1.64487556E+02
 20
-4.73911514E+01
 11
-1.64487556E+02
 21
-4.51411514E+01
  0
LINE
  8
0
  6
PHANTOM
 62
2
 10
-1.66364265E+02
 20
-4.73911514E+01
 11
-1.66364265E+02
 21
-4.68911514E+01
  0
LINE
  8
0
  6
PHANTOM
 62
2
 10
-1.66364265E+02
 20
-5.07911510E+01
 11
-1.66364265E+02
 21
-4.86911516E+01
  0
LINE
  8
0
  6
PHANTOM
 62
2
 10
-1.63487556E+02
 20
-5.07911510E+01
 11
-1.63487556E+02
 21
-4.86911516E+01
  0
LINE
  8
0
  6
PHANTOM
 62
2
 10
-1.64487556E+02
 20
-5.07911510E+01
 11
-1.64487556E+02
 21
-4.86911516E+01
  0
LINE
  8
0
  6
PHANTOM
 62
2
 10
-1.63487556E+02
 20
-5.31911516E+01
 11
-1.63487556E+02
 21
-5.20911512E+01
  0
LINE
  8
0
  6
PHANTOM
 62
2
 10
-1.64487556E+02
 20
-5.31911516E+01
 11
-1.64487556E+02
 21
-5.20911512E+01
  0
LINE
  8
0
  6
PHANTOM
 62
2
 10
-1.66364265E+02
 20
-5.31911516E+01
 11
-1.66364265E+02
 21
-5.20911512E+01
  0
LINE
  8
0
  6
PHANTOM
 62
2
 10
-1.66364265E+02
 20
-5.65911515E+01
 11
-1.66364265E+02
 21
-5.44911513E+01
  0
LINE
  8
0
  6
PHANTOM
 62
2
 10
-1.64487556E+02
 20
-5.65911515E+01
 11
-1.64487556E+02
 21
-5.44911513E+01
  0
LINE
  8
0
  6
PHANTOM
 62
2
 10
-1.63482632E+02
 20
-5.78911514E+01
 11
-1.63482632E+02
 21
-5.83911514E+01
  0
LINE
  8
0
  6
PHANTOM
 62
2
 10
-1.63482632E+02
 20
-5.44911513E+01
 11
-1.63482632E+02
 21
-5.65911515E+01
  0
LINE
  8
0
  6
CENTER
 62
2
 10
-2.25587555E+02
 20
-6.26411514E+01
 11
-2.25587555E+02
 21
-4.26411514E+01
  0
LINE
  8
0
  6
CENTER
 62
2
 10
-2.27587555E+02
 20
-6.26411514E+01
 11
-2.27587555E+02
 21
-4.26411514E+01
  0
CIRCLE
  8
0
 62
7
 10
-2.16987555E+02
 20
-5.46411514E+01
 40
2.50000000E+00
  0
ARC
  8
0
 62
7
 10
-1.57987556E+02
 20
-5.60911512E+01
 40
1.50000000E+00
 50
2.70000000E+02
 51
2.91039473E+02
  0
ARC
  8
0
 62
7
 10
-1.64687553E+02
 20
-4.55402641E+01
 40
2.00000003E-01
 50
0.00000000E+00
 51
9.00000002E+01
  0
ARC
  8
0
 62
7
 10
-1.64687553E+02
 20
-5.97420384E+01
 40
2.00000003E-01
 50
2.70000000E+02
 51
0.00000000E+00
  0
ARC
  8
0
 62
7
 10
-1.57987556E+02
 20
-4.91911516E+01
 40
1.50000000E+00
 50
0.00000000E+00
 51
3.68698973E+01
  0
ARC
  8
0
 62
7
 10
-1.57987556E+02
 20
-5.60911512E+01
 40
1.50000000E+00
 50
3.23130102E+02
 51
0.00000000E+00
  0
CIRCLE
  8
0
 62
7
 10
-2.07487555E+02
 20
-5.81411514E+01
 40
1.50000000E+00
  0
CIRCLE
  8
0
 62
7
 10
-1.90487556E+02
 20
-4.71411514E+01
 40
1.50000000E+00
  0
ARC
  8
0
 62
7
 10
-2.07487555E+02
 20
-5.81411514E+01
 40
1.60000002E+00
 50
0.00000000E+00
 51
9.00000002E+01
  0
ARC
  8
0
 62
7
 10
-1.90487556E+02
 20
-4.71411514E+01
 40
1.60000002E+00
 50
1.79999995E+02
 51
2.70000000E+02
  0
ARC
  8
0
 62
7
 10
-1.57987556E+02
 20
-4.91911516E+01
 40
1.50000000E+00
 50
6.89605270E+01
 51
9.00000002E+01
  0
CIRCLE
  8
0
 62
7
 10
-2.16987555E+02
 20
-5.46411514E+01
 40
3.50000000E+00
  0
CIRCLE
  8
0
 62
7
 10
-2.16987555E+02
 20
-5.46411514E+01
 40
4.00000000E+00
  0
LINE
  8
0
 62
6
 10
-7.53377962E+01
 20
-1.78489231E+02
 11
-6.53377960E+01
 21
-1.78489231E+02
  0
LINE
  8
0
 62
6
 10
-6.53377960E+01
 20
-1.77991150E+02
 11
-7.53377962E+01
 21
-1.77991150E+02
  0
LINE
  8
0
 62
6
 10
-6.53377960E+01
 20
-1.77891151E+02
 11
-7.53377962E+01
 21
-1.77891151E+02
  0
LINE
  8
0
 62
7
 10
-7.95377960E+01
 20
-1.92391151E+02
 11
-7.95377960E+01
 21
-1.17391151E+02
  0
LINE
  8
0
 62
7
 10
-6.45377960E+01
 20
-1.92391151E+02
 11
-6.45377960E+01
 21
-1.17391151E+02
  0
LINE
  8
0
 62
6
 10
-6.53377960E+01
 20
-1.60691151E+02
 11
-6.53377960E+01
 21
-1.92400871E+02
  0
LINE
  8
0
  6
CENTER
 62
6
 10
-6.74377961E+01
 20
-1.76399227E+02
 11
-6.74377961E+01
 21
-1.70854446E+02
  0
LINE
  8
0
  6
CENTER
 62
6
 10
-7.32377958E+01
 20
-1.76399227E+02
 11
-7.32377958E+01
 21
-1.70854446E+02
  0
LINE
  8
0
 62
6
 10
-6.74377961E+01
 20
-1.71691151E+02
 11
-7.32377958E+01
 21
-1.71691151E+02
  0
LINE
  8
0
 62
6
 10
-6.74377961E+01
 20
-1.75691151E+02
 11
-7.32377958E+01
 21
-1.75691151E+02
  0
LINE
  8
0
  6
CENTER
 62
6
 10
-6.48733808E+01
 20
-1.73691151E+02
 11
-7.57496786E+01
 21
-1.73691151E+02
  0
LINE
  8
0
 62
6
 10
-7.87377958E+01
 20
-1.31891151E+02
 11
-6.87377958E+01
 21
-1.31891151E+02
  0
LINE
  8
0
 62
6
 10
-7.87377958E+01
 20
-1.31791151E+02
 11
-6.87377958E+01
 21
-1.31791151E+02
  0
LINE
  8
0
  6
CENTER
 62
6
 10
-7.66377964E+01
 20
-1.33383076E+02
 11
-7.66377964E+01
 21
-1.38927855E+02
  0
LINE
  8
0
  6
CENTER
 62
6
 10
-7.08377962E+01
 20
-1.33383076E+02
 11
-7.08377962E+01
 21
-1.38927855E+02
  0
LINE
  8
0
 62
6
 10
-7.66377964E+01
 20
-1.38091152E+02
 11
-7.08377962E+01
 21
-1.38091152E+02
  0
LINE
  8
0
 62
6
 10
-7.66377964E+01
 20
-1.34091151E+02
 11
-7.08377962E+01
 21
-1.34091151E+02
  0
LINE
  8
0
  6
CENTER
 62
6
 10
-7.92022114E+01
 20
-1.36091151E+02
 11
-6.83259130E+01
 21
-1.36091151E+02
  0
LINE
  8
0
 62
7
 10
-7.92327957E+01
 20
-1.91891151E+02
 11
-7.92327957E+01
 21
-1.91391151E+02
  0
LINE
  8
0
 62
7
 10
-7.59377956E+01
 20
-1.92391151E+02
 11
-7.59377956E+01
 21
-1.91591148E+02
  0
LINE
  8
0
 62
7
 10
-7.62327957E+01
 20
-1.91391151E+02
 11
-7.62327957E+01
 21
-1.91891151E+02
  0
LINE
  8
0
  6
CENTER
 62
2
 10
-7.77377958E+01
 20
-1.93256134E+02
 11
-7.77377958E+01
 21
-1.90549759E+02
  0
LINE
  8
0
 62
7
 10
-7.61377964E+01
 20
-1.91391151E+02
 11
-7.95377960E+01
 21
-1.91391151E+02
  0
LINE
  8
0
  6
CENTER
 62
2
 10
-6.63377960E+01
 20
-1.16526167E+02
 11
-6.63377960E+01
 21
-1.19232541E+02
  0
LINE
  8
0
  6
CENTER
 62
2
 10
-7.87328596E+01
 20
-2.29688408E+02
 11
-6.54712582E+01
 21
-2.29688408E+02
  0
LINE
  8
0
 62
7
 10
-6.48427960E+01
 20
-1.18391151E+02
 11
-6.48427960E+01
 21
-1.17891151E+02
  0
LINE
  8
0
 62
7
 10
-6.78427961E+01
 20
-1.18391151E+02
 11
-6.78427961E+01
 21
-1.17891151E+02
  0
LINE
  8
0
 62
7
 10
-6.81377959E+01
 20
-1.17391151E+02
 11
-6.81377959E+01
 21
-1.18191151E+02
  0
LINE
  8
0
 62
7
 10
-6.79377961E+01
 20
-1.18391151E+02
 11
-6.45377960E+01
 21
-1.18391151E+02
  0
LINE
  8
0
 62
7
 10
-6.53377960E+01
 20
-1.64591152E+02
 11
-6.45377960E+01
 21
-1.64591152E+02
  0
LINE
  8
0
 62
7
 10
-6.70377960E+01
 20
-1.59191151E+02
 11
-6.45377960E+01
 21
-1.59191151E+02
  0
LINE
  8
0
 62
7
 10
-7.70377960E+01
 20
-1.50091152E+02
 11
-7.95377960E+01
 21
-1.50091152E+02
  0
LINE
  8
0
 62
7
 10
-7.87377958E+01
 20
-1.44691151E+02
 11
-7.95377960E+01
 21
-1.44691151E+02
  0
LINE
  8
0
 62
7
 10
-6.42877960E+01
 20
-2.35398125E+02
 11
-7.97877960E+01
 21
-2.35398125E+02
  0
LINE
  8
0
  6
PHANTOM
 62
2
 10
-7.02377958E+01
 20
-2.16600868E+02
 11
-7.02377958E+01
 21
-2.10000870E+02
  0
LINE
  8
0
  6
PHANTOM
 62
2
 10
-6.97377958E+01
 20
-2.09500870E+02
 11
-6.51377960E+01
 21
-2.09500870E+02
  0
LINE
  8
0
  6
PHANTOM
 62
2
 10
-6.46377960E+01
 20
-2.16600868E+02
 11
-6.46377960E+01
 21
-2.10000870E+02
  0
LINE
  8
0
  6
PHANTOM
 62
2
 10
-6.97377958E+01
 20
-2.17100868E+02
 11
-6.51377960E+01
 21
-2.17100868E+02
  0
LINE
  8
0
  6
PHANTOM
 62
2
 10
-7.75235891E+01
 20
-2.11000870E+02
 11
-7.55358229E+01
 21
-2.11000870E+02
  0
LINE
  8
0
  6
PHANTOM
 62
2
 10
-7.75235891E+01
 20
-2.10400871E+02
 11
-7.55358229E+01
 21
-2.10400871E+02
  0
LINE
  8
0
  6
PHANTOM
 62
2
 10
-7.74311352E+01
 20
-2.03000870E+02
 11
-7.55820503E+01
 21
-2.03000870E+02
  0
LINE
  8
0
  6
PHANTOM
 62
2
 10
-7.74773617E+01
 20
-2.02400871E+02
 11
-7.55820503E+01
 21
-2.02400871E+02
  0
LINE
  8
0
  6
CENTER
 62
2
 10
-7.89536362E+01
 20
-2.10700867E+02
 11
-7.40208044E+01
 21
-2.10700867E+02
  0
LINE
  8
0
  6
CENTER
 62
2
 10
-7.65377960E+01
 20
-2.13149025E+02
 11
-7.65377960E+01
 21
-2.08216194E+02
  0
LINE
  8
0
  6
CENTER
 62
2
 10
-7.65377960E+01
 20
-2.05082397E+02
 11
-7.65377960E+01
 21
-2.00381699E+02
  0
LINE
  8
0
  6
CENTER
 62
2
 10
-7.88375702E+01
 20
-2.02700867E+02
 11
-7.43690042E+01
 21
-2.02700867E+02
  0
LINE
  8
0
  6
PHANTOM
 62
2
 10
-6.62877960E+01
 20
-1.99700867E+02
 11
-6.50377960E+01
 21
-1.99700867E+02
  0
LINE
  8
0
  6
PHANTOM
 62
2
 10
-7.90377960E+01
 20
-1.99700867E+02
 11
-7.77877960E+01
 21
-1.99700867E+02
  0
LINE
  8
0
  6
PHANTOM
 62
2
 10
-7.77877960E+01
 20
-2.00400871E+02
 11
-6.62877960E+01
 21
-2.00400871E+02
  0
LINE
  8
0
  6
PHANTOM
 62
2
 10
-7.72877960E+01
 20
-1.97400871E+02
 11
-6.67877960E+01
 21
-1.97400871E+02
  0
LINE
  8
0
 62
7
 10
-6.62877960E+01
 20
-1.92400871E+02
 11
-6.50377960E+01
 21
-1.92400871E+02
  0
LINE
  8
0
  6
PHANTOM
 62
2
 10
-7.72877960E+01
 20
-1.91400871E+02
 11
-6.67877960E+01
 21
-1.91400871E+02
  0
LINE
  8
0
  6
PHANTOM
 62
2
 10
-6.62877960E+01
 20
-1.91840569E+02
 11
-6.62877960E+01
 21
-2.00400871E+02
  0
LINE
  8
0
  6
PHANTOM
 62
2
 10
-7.77877960E+01
 20
-2.00400871E+02
 11
-7.77877960E+01
 21
-1.91900871E+02
  0
LINE
  8
0
 62
7
 10
-7.90377960E+01
 20
-1.92400871E+02
 11
-7.77877960E+01
 21
-1.92400871E+02
  0
LINE
  8
0
  6
PHANTOM
 62
2
 10
-7.90377960E+01
 20
-2.17200867E+02
 11
-6.50377960E+01
 21
-2.17200867E+02
  0
LINE
  8
0
 62
7
 10
-6.45377960E+01
 20
-2.34898125E+02
 11
-6.45377960E+01
 21
-2.17700867E+02
  0
LINE
  8
0
 62
7
 10
-7.95377960E+01
 20
-2.34898125E+02
 11
-7.95377960E+01
 21
-2.17700867E+02
  0
LINE
  8
0
  6
PHANTOM
 62
2
 10
-6.45377960E+01
 20
-2.16700867E+02
 11
-6.45377960E+01
 21
-1.92900871E+02
  0
LINE
  8
0
  6
PHANTOM
 62
2
 10
-7.95377960E+01
 20
-2.16700867E+02
 11
-7.95377960E+01
 21
-1.92900871E+02
  0
LINE
  8
0
 62
7
 10
-6.50377960E+01
 20
-2.17398125E+02
 11
-7.90377960E+01
 21
-2.17398125E+02
  0
LINE
  8
0
  6
CENTER
 62
2
 10
-7.20377960E+01
 20
-2.38681450E+02
 11
-7.20377960E+01
 21
-1.12906182E+02
  0
LINE
  8
0
 62
6
 10
-6.90377960E+01
 20
-1.49391151E+02
 11
-7.84377956E+01
 21
-1.49391151E+02
  0
LINE
  8
0
 62
6
 10
-7.22377958E+01
 20
-1.44391151E+02
 11
-7.22377958E+01
 21
-1.49391151E+02
  0
LINE
  8
0
 62
6
 10
-7.52377958E+01
 20
-1.44391151E+02
 11
-7.22377958E+01
 21
-1.44391151E+02
  0
LINE
  8
0
 62
6
 10
-7.52377958E+01
 20
-1.44391151E+02
 11
-7.52377958E+01
 21
-1.49391151E+02
  0
LINE
  8
0
 62
6
 10
-7.61321661E+01
 20
-1.23350334E+02
 11
-7.63877960E+01
 21
-1.23791152E+02
  0
LINE
  8
0
 62
6
 10
-7.10877958E+01
 20
-1.23791151E+02
 11
-7.13434253E+01
 21
-1.23350334E+02
  0
LINE
  8
0
 62
6
 10
-7.48821664E+01
 20
-1.24600334E+02
 11
-7.51377960E+01
 21
-1.25041151E+02
  0
LINE
  8
0
 62
6
 10
-7.63877956E+01
 20
-1.23791151E+02
 11
-7.51377956E+01
 21
-1.25041151E+02
  0
LINE
  8
0
 62
6
 10
-7.48821662E+01
 20
-1.24600334E+02
 11
-7.61321662E+01
 21
-1.23350334E+02
  0
LINE
  8
0
 62
6
 10
-7.25934256E+01
 20
-1.24600334E+02
 11
-7.23377960E+01
 21
-1.25041152E+02
  0
LINE
  8
0
 62
6
 10
-6.87377958E+01
 20
-1.30481969E+02
 11
-7.87377958E+01
 21
-1.30481969E+02
  0
LINE
  8
0
 62
6
 10
-7.25934253E+01
 20
-1.24600334E+02
 11
-7.13434257E+01
 21
-1.23350334E+02
  0
LINE
  8
0
 62
6
 10
-6.87377958E+01
 20
-1.23350334E+02
 11
-7.13434258E+01
 21
-1.23350334E+02
  0
LINE
  8
0
 62
6
 10
-7.61321669E+01
 20
-1.23350334E+02
 11
-7.87377958E+01
 21
-1.23350334E+02
  0
LINE
  8
0
 62
6
 10
-7.48821669E+01
 20
-1.24600334E+02
 11
-7.25934258E+01
 21
-1.24600334E+02
  0
LINE
  8
0
 62
6
 10
-6.87377958E+01
 20
-1.23791152E+02
 11
-7.10877962E+01
 21
-1.23791152E+02
  0
LINE
  8
0
 62
6
 10
-7.10877961E+01
 20
-1.23791151E+02
 11
-7.23377961E+01
 21
-1.25041151E+02
  0
LINE
  8
0
 62
6
 10
-7.51377964E+01
 20
-1.25041152E+02
 11
-7.23377962E+01
 21
-1.25041152E+02
  0
LINE
  8
0
 62
6
 10
-7.63877964E+01
 20
-1.23791152E+02
 11
-7.87377958E+01
 21
-1.23791152E+02
  0
LINE
  8
0
 62
6
 10
-7.87377958E+01
 20
-1.31293073E+02
 11
-6.87377958E+01
 21
-1.31293073E+02
  0
LINE
  8
0
 62
6
 10
-7.02377958E+01
 20
-1.27491151E+02
 11
-6.87377958E+01
 21
-1.27491151E+02
  0
LINE
  8
0
 62
6
 10
-6.87377958E+01
 20
-1.24291152E+02
 11
-7.02377958E+01
 21
-1.24291152E+02
  0
LINE
  8
0
 62
6
 10
-7.72377958E+01
 20
-1.24291152E+02
 11
-7.87377958E+01
 21
-1.24291152E+02
  0
LINE
  8
0
 62
6
 10
-7.87377958E+01
 20
-1.27491151E+02
 11
-7.72377958E+01
 21
-1.27491151E+02
  0
LINE
  8
0
 62
6
 10
-7.87377958E+01
 20
-1.49091152E+02
 11
-7.87377958E+01
 21
-1.17391151E+02
  0
LINE
  8
0
 62
6
 10
-6.87377958E+01
 20
-1.49091152E+02
 11
-6.87377958E+01
 21
-1.17391151E+02
  0
LINE
  8
0
 62
6
 10
-7.19122825E+01
 20
-1.27341151E+02
 11
-7.55633097E+01
 21
-1.27341151E+02
  0
LINE
  8
0
 62
6
 10
-7.37377958E+01
 20
-1.27941152E+02
 11
-7.55633097E+01
 21
-1.27941152E+02
  0
LINE
  8
0
 62
6
 10
-7.19122825E+01
 20
-1.27941152E+02
 11
-7.37377958E+01
 21
-1.27941152E+02
  0
LINE
  8
0
 62
6
 10
-7.79449024E+01
 20
-1.25184044E+02
 11
-7.65306889E+01
 21
-1.26598258E+02
  0
LINE
  8
0
 62
6
 10
-7.79449024E+01
 20
-1.26598258E+02
 11
-7.65306889E+01
 21
-1.25184044E+02
  0
LINE
  8
0
 62
6
 10
-6.95306893E+01
 20
-1.26598258E+02
 11
-7.09449028E+01
 21
-1.25184045E+02
  0
LINE
  8
0
 62
6
 10
-6.95306892E+01
 20
-1.25184045E+02
 11
-7.09449028E+01
 21
-1.26598258E+02
  0
LINE
  8
0
 62
7
 10
-6.42877960E+01
 20
-1.17391151E+02
 11
-7.97877960E+01
 21
-1.17391151E+02
  0
LINE
  8
0
 62
6
 10
-6.56377960E+01
 20
-1.60391151E+02
 11
-7.50377960E+01
 21
-1.60391151E+02
  0
LINE
  8
0
 62
6
 10
-6.88377962E+01
 20
-1.65391151E+02
 11
-6.88377962E+01
 21
-1.60391151E+02
  0
LINE
  8
0
 62
6
 10
-7.18377962E+01
 20
-1.65391151E+02
 11
-6.88377962E+01
 21
-1.65391151E+02
  0
LINE
  8
0
 62
6
 10
-7.18377962E+01
 20
-1.65391151E+02
 11
-7.18377962E+01
 21
-1.60391151E+02
  0
LINE
  8
0
 62
6
 10
-7.27321648E+01
 20
-1.86431967E+02
 11
-7.29877944E+01
 21
-1.85991150E+02
  0
LINE
  8
0
 62
6
 10
-6.76877972E+01
 20
-1.85991152E+02
 11
-6.79434269E+01
 21
-1.86431969E+02
  0
LINE
  8
0
 62
6
 10
-7.14821656E+01
 20
-1.85181969E+02
 11
-7.17377952E+01
 21
-1.84741151E+02
  0
LINE
  8
0
 62
6
 10
-7.29877982E+01
 20
-1.85991150E+02
 11
-7.17377969E+01
 21
-1.84741149E+02
  0
LINE
  8
0
 62
6
 10
-7.14821672E+01
 20
-1.85181966E+02
 11
-7.27321685E+01
 21
-1.86431967E+02
  0
LINE
  8
0
 62
6
 10
-6.91934258E+01
 20
-1.85181967E+02
 11
-6.89377961E+01
 21
-1.84741149E+02
  0
LINE
  8
0
 62
6
 10
-6.53377960E+01
 20
-1.79300335E+02
 11
-7.53377962E+01
 21
-1.79300335E+02
  0
LINE
  8
0
 62
6
 10
-6.91934248E+01
 20
-1.85181966E+02
 11
-6.79434234E+01
 21
-1.86431967E+02
  0
LINE
  8
0
 62
6
 10
-6.53377960E+01
 20
-1.86431969E+02
 11
-6.79434257E+01
 21
-1.86431969E+02
  0
LINE
  8
0
 62
6
 10
-7.27321663E+01
 20
-1.86431969E+02
 11
-7.53377962E+01
 21
-1.86431969E+02
  0
LINE
  8
0
 62
6
 10
-7.14821663E+01
 20
-1.85181969E+02
 11
-6.91934257E+01
 21
-1.85181969E+02
  0
LINE
  8
0
 62
6
 10
-6.53377960E+01
 20
-1.85991150E+02
 11
-6.76877961E+01
 21
-1.85991150E+02
  0
LINE
  8
0
 62
6
 10
-6.76877937E+01
 20
-1.85991150E+02
 11
-6.89377950E+01
 21
-1.84741149E+02
  0
LINE
  8
0
 62
6
 10
-7.17377958E+01
 20
-1.84741150E+02
 11
-6.89377961E+01
 21
-1.84741150E+02
  0
LINE
  8
0
 62
6
 10
-7.29877958E+01
 20
-1.85991150E+02
 11
-7.53377962E+01
 21
-1.85991150E+02
  0
LINE
  8
0
 62
6
 10
-6.68377960E+01
 20
-1.82291153E+02
 11
-6.53377960E+01
 21
-1.82291153E+02
  0
LINE
  8
0
 62
6
 10
-6.53377960E+01
 20
-1.85491150E+02
 11
-6.68377960E+01
 21
-1.85491150E+02
  0
LINE
  8
0
 62
6
 10
-7.38377962E+01
 20
-1.85491150E+02
 11
-7.53377962E+01
 21
-1.85491150E+02
  0
LINE
  8
0
 62
6
 10
-7.53377962E+01
 20
-1.82291153E+02
 11
-7.38377962E+01
 21
-1.82291153E+02
  0
LINE
  8
0
 62
6
 10
-7.53377962E+01
 20
-1.60691151E+02
 11
-7.53377962E+01
 21
-1.92391151E+02
  0
LINE
  8
0
 62
6
 10
-6.85122824E+01
 20
-1.82441151E+02
 11
-7.21633096E+01
 21
-1.82441151E+02
  0
LINE
  8
0
 62
6
 10
-7.21633096E+01
 20
-1.81841152E+02
 11
-6.85122824E+01
 21
-1.81841152E+02
  0
LINE
  8
0
 62
6
 10
-7.45449038E+01
 20
-1.84598257E+02
 11
-7.31306902E+01
 21
-1.83184044E+02
  0
LINE
  8
0
 62
6
 10
-7.45449038E+01
 20
-1.83184044E+02
 11
-7.31306902E+01
 21
-1.84598257E+02
  0
LINE
  8
0
 62
6
 10
-6.61306882E+01
 20
-1.83184044E+02
 11
-6.75449017E+01
 21
-1.84598257E+02
  0
LINE
  8
0
 62
6
 10
-6.61306882E+01
 20
-1.84598257E+02
 11
-6.75449017E+01
 21
-1.83184044E+02
  0
LINE
  8
0
 62
7
 10
-7.97877960E+01
 20
-1.92391151E+02
 11
-6.42877960E+01
 21
-1.92391151E+02
  0
LINE
  8
0
 62
7
 10
-7.95377960E+01
 20
-1.30891151E+02
 11
-7.87377958E+01
 21
-1.30891151E+02
  0
LINE
  8
0
 62
6
 10
-7.95377960E+01
 20
-1.78891151E+02
 11
-7.53377962E+01
 21
-1.78891151E+02
  0
LINE
  8
0
 62
7
 10
-6.87377958E+01
 20
-1.30891151E+02
 11
-6.45377960E+01
 21
-1.30891151E+02
  0
LINE
  8
0
 62
7
 10
-6.53377960E+01
 20
-1.78891151E+02
 11
-6.45377960E+01
 21
-1.78891151E+02
  0
LINE
  8
0
 62
7
 10
-6.42877960E+01
 20
-2.35398125E+02
 11
-6.42877960E+01
 21
-1.17391151E+02
  0
LINE
  8
0
 62
7
 10
-7.97877960E+01
 20
-2.35398125E+02
 11
-7.97877960E+01
 21
-1.17391151E+02
  0
LINE
  8
0
 62
7
 10
-7.19877958E+01
 20
-1.05686152E+02
 11
-7.59877958E+01
 21
-1.05686152E+02
  0
LINE
  8
0
 62
7
 10
-7.59877958E+01
 20
-1.10686152E+02
 11
-7.19877958E+01
 21
-1.10686152E+02
  0
LINE
  8
0
 62
7
 10
-7.09877958E+01
 20
-1.13391151E+02
 11
-7.69877958E+01
 21
-1.13391151E+02
  0
LINE
  8
0
 62
7
 10
-7.04877958E+01
 20
-1.15891151E+02
 11
-7.04877958E+01
 21
-1.13891151E+02
  0
LINE
  8
0
 62
7
 10
-7.27377958E+01
 20
-1.10686152E+02
 11
-7.27377958E+01
 21
-1.13391151E+02
  0
LINE
  8
0
 62
7
 10
-7.04877958E+01
 20
-1.13891152E+02
 11
-7.09877956E+01
 21
-1.13391152E+02
  0
LINE
  8
0
 62
7
 10
-7.14877960E+01
 20
-1.10186152E+02
 11
-7.19877958E+01
 21
-1.10686152E+02
  0
LINE
  8
0
 62
7
 10
-7.14877960E+01
 20
-1.06186151E+02
 11
-7.19877952E+01
 21
-1.05686152E+02
  0
LINE
  8
0
 62
7
 10
-7.14877958E+01
 20
-1.06186152E+02
 11
-7.14877958E+01
 21
-1.10186152E+02
  0
LINE
  8
0
 62
7
 10
-7.74877956E+01
 20
-1.15891152E+02
 11
-7.69877957E+01
 21
-1.16391152E+02
  0
LINE
  8
0
 62
7
 10
-7.74877959E+01
 20
-1.13891151E+02
 11
-7.69877961E+01
 21
-1.13391151E+02
  0
LINE
  8
0
 62
7
 10
-7.64877959E+01
 20
-1.06186151E+02
 11
-7.59877960E+01
 21
-1.05686152E+02
  0
LINE
  8
0
 62
7
 10
-7.59877960E+01
 20
-1.10686151E+02
 11
-7.64877952E+01
 21
-1.10186152E+02
  0
LINE
  8
0
 62
7
 10
-7.64877958E+01
 20
-1.06186152E+02
 11
-7.64877958E+01
 21
-1.10186152E+02
  0
LINE
  8
0
 62
7
 10
-7.74877958E+01
 20
-1.15891151E+02
 11
-7.74877958E+01
 21
-1.13891151E+02
  0
LINE
  8
0
 62
7
 10
-7.52377958E+01
 20
-1.10686152E+02
 11
-7.52377958E+01
 21
-1.13391151E+02
  0
LINE
  8
0
 62
7
 10
-7.04877960E+01
 20
-1.15891151E+02
 11
-7.09877960E+01
 21
-1.16391151E+02
  0
LINE
  8
0
 62
7
 10
-7.76877956E+01
 20
-1.16391151E+02
 11
-7.02877960E+01
 21
-1.16391151E+02
  0
LINE
  8
0
 62
7
 10
-6.99877958E+01
 20
-1.17391151E+02
 11
-6.99877958E+01
 21
-1.16691152E+02
  0
LINE
  8
0
 62
7
 10
-7.79877958E+01
 20
-1.17391151E+02
 11
-7.79877958E+01
 21
-1.16691152E+02
  0
LINE
  8
0
 62
7
 10
-7.79877961E+01
 20
-1.16691151E+02
 11
-7.76877959E+01
 21
-1.16391151E+02
  0
LINE
  8
0
 62
7
 10
-7.02877958E+01
 20
-1.16391152E+02
 11
-6.99877959E+01
 21
-1.16691152E+02
  0
LINE
  8
0
 62
7
 10
-7.79877958E+01
 20
-1.16691152E+02
 11
-6.99877958E+01
 21
-1.16691152E+02
  0
LINE
  8
0
  6
CENTER
 62
2
 10
-7.39877958E+01
 20
-1.01904873E+02
 11
-7.39877958E+01
 21
-1.18868702E+02
  0
LINE
  8
0
  6
CENTER
 62
6
 10
-7.97377958E+01
 20
-1.25891151E+02
 11
-7.47377958E+01
 21
-1.25891151E+02
  0
LINE
  8
0
  6
CENTER
 62
6
 10
-7.27377958E+01
 20
-1.25891151E+02
 11
-6.77377961E+01
 21
-1.25891151E+02
  0
LINE
  8
0
  6
CENTER
 62
6
 10
-7.02377958E+01
 20
-1.28391151E+02
 11
-7.02377958E+01
 21
-1.23391151E+02
  0
LINE
  8
0
  6
CENTER
 62
6
 10
-7.72377958E+01
 20
-1.28391151E+02
 11
-7.72377958E+01
 21
-1.23391151E+02
  0
LINE
  8
0
  6
CENTER
 62
6
 10
-6.68377960E+01
 20
-1.86391151E+02
 11
-6.68377960E+01
 21
-1.81391151E+02
  0
LINE
  8
0
  6
CENTER
 62
6
 10
-7.38377962E+01
 20
-1.86391151E+02
 11
-7.38377962E+01
 21
-1.81391151E+02
  0
LINE
  8
0
  6
CENTER
 62
6
 10
-6.93377962E+01
 20
-1.83891151E+02
 11
-6.43377960E+01
 21
-1.83891151E+02
  0
LINE
  8
0
  6
CENTER
 62
6
 10
-7.63377962E+01
 20
-1.83891151E+02
 11
-7.13377962E+01
 21
-1.83891151E+02
  0
LINE
  8
0
 62
6
 10
-7.95377960E+01
 20
-1.92888412E+02
 11
-6.45377960E+01
 21
-1.92888412E+02
  0
LINE
  8
0
 62
6
 10
-7.95377960E+01
 20
-2.16888412E+02
 11
-6.45377960E+01
 21
-2.16888412E+02
  0
LINE
  8
0
 62
6
 10
-7.95377960E+01
 20
-2.16888412E+02
 11
-7.95377960E+01
 21
-1.92888412E+02
  0
LINE
  8
0
 62
6
 10
-6.45377960E+01
 20
-2.16888412E+02
 11
-6.45377960E+01
 21
-1.92888412E+02
  0
LINE
  8
0
  6
CENTER
 62
2
 10
-8.20377960E+01
 20
-1.88888412E+02
 11
-6.20377960E+01
 21
-1.88888412E+02
  0
LINE
  8
0
  6
CENTER
 62
2
 10
-8.20377960E+01
 20
-1.21391151E+02
 11
-6.20377960E+01
 21
-1.21391151E+02
  0
LINE
  8
0
  6
CENTER
 62
2
 10
-6.74377961E+01
 20
-2.17391571E+02
 11
-6.74377961E+01
 21
-2.09653923E+02
  0
LINE
  8
0
  6
CENTER
 62
2
 10
-7.02747331E+01
 20
-2.13300865E+02
 11
-6.44730348E+01
 21
-2.13300865E+02
  0
LINE
  8
0
  6
CENTER
 62
2
 10
-6.74377961E+01
 20
-2.17391571E+02
 11
-6.74377961E+01
 21
-2.09653923E+02
  0
LINE
  8
0
  6
CENTER
 62
2
 10
-7.02747331E+01
 20
-2.13300865E+02
 11
-6.44730348E+01
 21
-2.13300865E+02
  0
CIRCLE
  8
0
 62
6
 10
-6.74377961E+01
 20
-1.73691151E+02
 40
8.75000000E-01
  0
ARC
  8
0
 62
6
 10
-6.74377961E+01
 20
-1.73691151E+02
 40
2.00000000E+00
 50
2.70000000E+02
 51
9.00000002E+01
  0
CIRCLE
  8
0
 62
6
 10
-7.32377958E+01
 20
-1.73691151E+02
 40
8.75000000E-01
  0
ARC
  8
0
 62
6
 10
-7.32377958E+01
 20
-1.73691151E+02
 40
2.00000000E+00
 50
9.00000002E+01
 51
2.70000000E+02
  0
CIRCLE
  8
0
 62
6
 10
-7.66377964E+01
 20
-1.36091151E+02
 40
8.75000000E-01
  0
ARC
  8
0
 62
6
 10
-7.66377964E+01
 20
-1.36091151E+02
 40
2.00000000E+00
 50
9.00000002E+01
 51
2.70000000E+02
  0
CIRCLE
  8
0
 62
6
 10
-7.08377962E+01
 20
-1.36091151E+02
 40
8.75000000E-01
  0
ARC
  8
0
 62
6
 10
-7.08377962E+01
 20
-1.36091151E+02
 40
2.00000000E+00
 50
2.70000000E+02
 51
9.00000002E+01
  0
ARC
  8
0
 62
7
 10
-7.77327957E+01
 20
-1.89891151E+02
 40
2.50000000E+00
 50
2.33130097E+02
 51
3.06869898E+02
  0
ARC
  8
0
 62
7
 10
-7.61377964E+01
 20
-1.91591148E+02
 40
2.00000003E-01
 50
0.00000000E+00
 51
9.00000002E+01
  0
ARC
  8
0
 62
7
 10
-6.63427961E+01
 20
-1.19891151E+02
 40
2.50000000E+00
 50
5.31301018E+01
 51
1.26869903E+02
  0
ARC
  8
0
 62
7
 10
-6.79377961E+01
 20
-1.18191151E+02
 40
2.00000003E-01
 50
1.79999995E+02
 51
2.70000000E+02
  0
ARC
  8
0
 62
7
 10
-7.70377960E+01
 20
-1.47391151E+02
 40
2.70000005E+00
 50
2.70000000E+02
 51
3.12205447E+02
  0
ARC
  8
0
 62
7
 10
-6.70377960E+01
 20
-1.61891151E+02
 40
2.70000005E+00
 50
9.00000002E+01
 51
1.46251016E+02
  0
ARC
  8
0
 62
7
 10
-6.70377960E+01
 20
-1.61891151E+02
 40
2.50000000E+00
 50
3.12843643E+02
 51
1.43130097E+02
  0
ARC
  8
0
 62
7
 10
-7.70377960E+01
 20
-1.47391151E+02
 40
2.50000000E+00
 50
1.32843641E+02
 51
3.06869908E+02
  0
CIRCLE
  8
0
  6
PHANTOM
 62
2
 10
-6.74377961E+01
 20
-2.13300865E+02
 40
1.89999998E+00
  0
ARC
  8
0
  6
PHANTOM
 62
2
 10
-6.51377960E+01
 20
-2.16600868E+02
 40
5.00000000E-01
 50
2.70000000E+02
 51
0.00000000E+00
  0
ARC
  8
0
  6
PHANTOM
 62
2
 10
-6.97377958E+01
 20
-2.16600868E+02
 40
5.00000000E-01
 50
1.79999995E+02
 51
2.70000000E+02
  0
ARC
  8
0
  6
PHANTOM
 62
2
 10
-6.51377960E+01
 20
-2.10000870E+02
 40
5.00000000E-01
 50
0.00000000E+00
 51
9.00000002E+01
  0
ARC
  8
0
  6
PHANTOM
 62
2
 10
-6.97377958E+01
 20
-2.10000870E+02
 40
5.00000000E-01
 50
9.00000002E+01
 51
1.80000005E+02
  0
CIRCLE
  8
0
  6
PHANTOM
 62
2
 10
-7.65377960E+01
 20
-2.10700867E+02
 40
1.00000000E+00
  0
CIRCLE
  8
0
  6
PHANTOM
 62
2
 10
-7.65377960E+01
 20
-2.02700867E+02
 40
1.00000000E+00
  0
CIRCLE
  8
0
  6
PHANTOM
 62
2
 10
-7.65377960E+01
 20
-2.10700867E+02
 40
1.75000000E+00
  0
CIRCLE
  8
0
  6
PHANTOM
 62
2
 10
-7.65377960E+01
 20
-2.02700867E+02
 40
1.75000000E+00
  0
ARC
  8
0
  6
PHANTOM
 62
2
 10
-7.90377960E+01
 20
-1.99200867E+02
 40
5.00000000E-01
 50
1.79999995E+02
 51
2.70000000E+02
  0
ARC
  8
0
  6
PHANTOM
 62
2
 10
-6.50377960E+01
 20
-1.99200867E+02
 40
5.00000000E-01
 50
2.70000000E+02
 51
0.00000000E+00
  0
ARC
  8
0
  6
PHANTOM
 62
2
 10
-7.72877960E+01
 20
-1.96900871E+02
 40
5.00000000E-01
 50
1.79999995E+02
 51
2.70000000E+02
  0
ARC
  8
0
  6
PHANTOM
 62
2
 10
-6.67877960E+01
 20
-1.96900871E+02
 40
5.00000000E-01
 50
2.70000000E+02
 51
0.00000000E+00
  0
ARC
  8
0
  6
PHANTOM
 62
2
 10
-7.72877960E+01
 20
-1.91900871E+02
 40
5.00000000E-01
 50
9.00000002E+01
 51
1.80000005E+02
  0
ARC
  8
0
  6
PHANTOM
 62
2
 10
-6.67877960E+01
 20
-1.91900871E+02
 40
5.00000000E-01
 50
0.00000000E+00
 51
9.00000002E+01
  0
ARC
  8
0
  6
PHANTOM
 62
2
 10
-7.90377960E+01
 20
-1.92900871E+02
 40
5.00000000E-01
 50
9.00000002E+01
 51
1.80000005E+02
  0
ARC
  8
0
  6
PHANTOM
 62
2
 10
-7.90377960E+01
 20
-2.16700867E+02
 40
5.00000000E-01
 50
1.79999995E+02
 51
2.70000000E+02
  0
ARC
  8
0
  6
PHANTOM
 62
2
 10
-6.50377960E+01
 20
-2.16700867E+02
 40
5.00000000E-01
 50
2.70000000E+02
 51
0.00000000E+00
  0
ARC
  8
0
  6
PHANTOM
 62
2
 10
-6.50377960E+01
 20
-1.92900871E+02
 40
5.00000000E-01
 50
0.00000000E+00
 51
9.00000002E+01
  0
CIRCLE
  8
0
 62
7
 10
-7.20377960E+01
 20
-2.29688408E+02
 40
4.94999981E+00
  0
ARC
  8
0
 62
7
 10
-7.90377960E+01
 20
-2.34898125E+02
 40
5.00000000E-01
 50
1.79999995E+02
 51
2.70000000E+02
  0
ARC
  8
0
 62
7
 10
-6.50377960E+01
 20
-2.34898125E+02
 40
5.00000000E-01
 50
2.70000000E+02
 51
0.00000000E+00
  0
ARC
  8
0
 62
7
 10
-6.50377960E+01
 20
-2.17898125E+02
 40
5.00000000E-01
 50
0.00000000E+00
 51
9.00000002E+01
  0
ARC
  8
0
 62
7
 10
-7.90377960E+01
 20
-2.17898125E+02
 40
5.00000000E-01
 50
9.00000002E+01
 51
1.80000005E+02
  0
ARC
  8
0
 62
7
 10
-7.84377956E+01
 20
-1.49091152E+02
 40
3.00000012E-01
 50
1.79999995E+02
 51
2.70000000E+02
  0
ARC
  8
0
 62
6
 10
-6.90377960E+01
 20
-1.49091152E+02
 40
3.00000012E-01
 50
2.70000000E+02
 51
0.00000000E+00
  0
CIRCLE
  8
0
 62
6
 10
-7.37377958E+01
 20
-1.27641151E+02
 40
2.04999995E+00
  0
ARC
  8
0
 62
6
 10
-7.72377958E+01
 20
-1.25891151E+02
 40
1.60000002E+00
 50
2.70000000E+02
 51
9.00000002E+01
  0
ARC
  8
0
 62
6
 10
-7.02377958E+01
 20
-1.25891151E+02
 40
1.60000002E+00
 50
9.00000002E+01
 51
2.70000000E+02
  0
CIRCLE
  8
0
 62
6
 10
-7.37377958E+01
 20
-1.27641151E+02
 40
1.85000002E+00
  0
ARC
  8
0
 62
6
 10
-7.37377958E+01
 20
-1.27641151E+02
 40
8.00000012E-01
 50
2.02024309E+02
 51
3.37975688E+02
  0
ARC
  8
0
 62
6
 10
-7.37377958E+01
 20
-1.27641151E+02
 40
8.00000012E-01
 50
2.20243121E+01
 51
1.57975691E+02
  0
CIRCLE
  8
0
 62
6
 10
-7.72377958E+01
 20
-1.25891151E+02
 40
1.50000000E+00
  0
CIRCLE
  8
0
 62
6
 10
-7.02377958E+01
 20
-1.25891151E+02
 40
1.50000000E+00
  0
ARC
  8
0
 62
6
 10
-7.50377960E+01
 20
-1.60691151E+02
 40
3.00000012E-01
 50
9.00000002E+01
 51
1.80000005E+02
  0
ARC
  8
0
 62
6
 10
-6.56377960E+01
 20
-1.60691151E+02
 40
3.00000012E-01
 50
0.00000000E+00
 51
9.00000002E+01
  0
CIRCLE
  8
0
 62
6
 10
-7.03377962E+01
 20
-1.82141151E+02
 40
2.04999995E+00
  0
ARC
  8
0
 62
6
 10
-7.38377962E+01
 20
-1.83891151E+02
 40
1.60000002E+00
 50
2.70000000E+02
 51
9.00000002E+01
  0
ARC
  8
0
 62
6
 10
-6.68377960E+01
 20
-1.83891151E+02
 40
1.60000002E+00
 50
9.00000002E+01
 51
2.70000000E+02
  0
CIRCLE
  8
0
 62
6
 10
-7.03377962E+01
 20
-1.82141151E+02
 40
1.85000002E+00
  0
ARC
  8
0
 62
6
 10
-7.03377962E+01
 20
-1.82141151E+02
 40
8.00000012E-01
 50
2.20243121E+01
 51
1.57975691E+02
  0
ARC
  8
0
 62
6
 10
-7.03377962E+01
 20
-1.82141151E+02
 40
8.00000012E-01
 50
2.02024309E+02
 51
3.37975688E+02
  0
CIRCLE
  8
0
 62
6
 10
-7.38377962E+01
 20
-1.83891151E+02
 40
1.50000000E+00
  0
CIRCLE
  8
0
 62
6
 10
-6.68377960E+01
 20
-1.83891151E+02
 40
1.50000000E+00
  0
CIRCLE
  8
0
  6
PHANTOM
 62
2
 10
-6.74377961E+01
 20
-2.13300865E+02
 40
1.20000005E+00
  0
CIRCLE
  8
0
  6
PHANTOM
 62
2
 10
-6.69377961E+01
 20
-2.12800865E+02
 40
3.00000012E-01
  0
CIRCLE
  8
0
  6
PHANTOM
 62
2
 10
-6.69377961E+01
 20
-2.13800865E+02
 40
3.00000012E-01
  0
CIRCLE
  8
0
  6
PHANTOM
 62
2
 10
-6.79377961E+01
 20
-2.13800865E+02
 40
3.00000012E-01
  0
CIRCLE
  8
0
  6
PHANTOM
 62
2
 10
-6.79377961E+01
 20
-2.12800865E+02
 40
3.00000012E-01
  0
CIRCLE
  8
0
  6
PHANTOM
 62
2
 10
-6.74377961E+01
 20
-2.13300865E+02
 40
1.20000005E+00
  0
CIRCLE
  8
0
  6
PHANTOM
 62
2
 10
-6.69377961E+01
 20
-2.12800865E+02
 40
3.00000012E-01
  0
CIRCLE
  8
0
  6
PHANTOM
 62
2
 10
-6.69377961E+01
 20
-2.13800865E+02
 40
3.00000012E-01
  0
CIRCLE
  8
0
  6
PHANTOM
 62
2
 10
-6.79377961E+01
 20
-2.13800865E+02
 40
3.00000012E-01
  0
CIRCLE
  8
0
  6
PHANTOM
 62
2
 10
-6.79377961E+01
 20
-2.12800865E+02
 40
3.00000012E-01
  0
LINE
  8
0
 62
7
 10
-3.31017585E+02
 20
-2.08688065E+02
 11
-3.26832195E+02
 21
-2.01438756E+02
  0
LINE
  8
0
 62
7
 10
-3.31623801E+02
 20
-2.08338066E+02
 11
-3.27438410E+02
 21
-2.01088758E+02
  0
LINE
  8
0
  6
CENTER
 62
2
 10
-3.35929067E+02
 20
-2.27388412E+02
 11
-3.22306754E+02
 21
-2.27388412E+02
  0
LINE
  8
0
  6
CENTER
 62
2
 10
-3.35929067E+02
 20
-1.34391151E+02
 11
-3.22416737E+02
 21
-1.34391151E+02
  0
LINE
  8
0
 62
7
 10
-3.29227997E+02
 20
-1.32391151E+02
 11
-3.33015356E+02
 21
-1.32391151E+02
  0
LINE
  8
0
 62
7
 10
-3.29227997E+02
 20
-1.32391151E+02
 11
-3.29227997E+02
 21
-1.36891151E+02
  0
LINE
  8
0
 62
7
 10
-3.33227997E+02
 20
-1.32860109E+02
 11
-3.33227997E+02
 21
-1.35922194E+02
  0
LINE
  8
0
 62
7
 10
-3.32705652E+02
 20
-1.36891151E+02
 11
-3.29227997E+02
 21
-1.36891151E+02
  0
LINE
  8
0
 62
7
 10
-3.36977997E+02
 20
-1.17391151E+02
 11
-3.21477997E+02
 21
-1.17391151E+02
  0
LINE
  8
0
 62
7
 10
-3.36977997E+02
 20
-1.17391151E+02
 11
-3.36977997E+02
 21
-1.92391151E+02
  0
LINE
  8
0
 62
7
 10
-3.21477997E+02
 20
-1.17391151E+02
 11
-3.21477997E+02
 21
-1.92391151E+02
  0
LINE
  8
0
 62
7
 10
-3.36977997E+02
 20
-1.92391151E+02
 11
-3.21477997E+02
 21
-1.92391151E+02
  0
LINE
  8
0
  6
CENTER
 62
2
 10
-3.30484321E+02
 20
-2.29688408E+02
 11
-3.27969193E+02
 21
-2.29688408E+02
  0
LINE
  8
0
 62
7
 10
-3.31227997E+02
 20
-2.23638412E+02
 11
-3.31227997E+02
 21
-2.31138412E+02
  0
LINE
  8
0
 62
7
 10
-3.27227997E+02
 20
-2.23638412E+02
 11
-3.27227997E+02
 21
-2.31138412E+02
  0
LINE
  8
0
 62
7
 10
-3.30927997E+02
 20
-2.26888412E+02
 11
-3.27527997E+02
 21
-2.26888412E+02
  0
LINE
  8
0
 62
7
 10
-3.21477997E+02
 20
-2.35388412E+02
 11
-3.36977997E+02
 21
-2.35388412E+02
  0
LINE
  8
0
 62
7
 10
-3.21477997E+02
 20
-1.92391151E+02
 11
-3.21477997E+02
 21
-2.35388412E+02
  0
LINE
  8
0
 62
7
 10
-3.36977997E+02
 20
-2.35388412E+02
 11
-3.36977997E+02
 21
-1.92391151E+02
  0
LINE
  8
0
  6
CENTER
 62
2
 10
-3.29227997E+02
 20
-1.12465998E+02
 11
-3.29227997E+02
 21
-2.37641602E+02
  0
LINE
  8
0
 62
7
 10
-3.25227997E+02
 20
-1.05686152E+02
 11
-3.29227997E+02
 21
-1.05686152E+02
  0
LINE
  8
0
 62
7
 10
-3.29227997E+02
 20
-1.10686152E+02
 11
-3.25227997E+02
 21
-1.10686152E+02
  0
LINE
  8
0
 62
7
 10
-3.24227997E+02
 20
-1.13391151E+02
 11
-3.30227997E+02
 21
-1.13391151E+02
  0
LINE
  8
0
 62
7
 10
-3.23727997E+02
 20
-1.15891151E+02
 11
-3.23727997E+02
 21
-1.13891151E+02
  0
LINE
  8
0
 62
7
 10
-3.25977997E+02
 20
-1.10686152E+02
 11
-3.25977997E+02
 21
-1.13391151E+02
  0
LINE
  8
0
 62
7
 10
-3.23727997E+02
 20
-1.13891152E+02
 11
-3.24227997E+02
 21
-1.13391152E+02
  0
LINE
  8
0
 62
7
 10
-3.24727997E+02
 20
-1.10186151E+02
 11
-3.25227997E+02
 21
-1.10686151E+02
  0
LINE
  8
0
 62
7
 10
-3.24727997E+02
 20
-1.06186152E+02
 11
-3.25227997E+02
 21
-1.05686152E+02
  0
LINE
  8
0
 62
7
 10
-3.24727997E+02
 20
-1.06186152E+02
 11
-3.24727997E+02
 21
-1.10186152E+02
  0
LINE
  8
0
 62
7
 10
-3.30727997E+02
 20
-1.15891151E+02
 11
-3.30227997E+02
 21
-1.16391151E+02
  0
LINE
  8
0
 62
7
 10
-3.30727997E+02
 20
-1.13891152E+02
 11
-3.30227997E+02
 21
-1.13391152E+02
  0
LINE
  8
0
 62
7
 10
-3.29727997E+02
 20
-1.06186151E+02
 11
-3.29227997E+02
 21
-1.05686152E+02
  0
LINE
  8
0
 62
7
 10
-3.29227997E+02
 20
-1.10686152E+02
 11
-3.29727997E+02
 21
-1.10186151E+02
  0
LINE
  8
0
 62
7
 10
-3.29727997E+02
 20
-1.06186152E+02
 11
-3.29727997E+02
 21
-1.10186152E+02
  0
LINE
  8
0
 62
7
 10
-3.30727997E+02
 20
-1.15891151E+02
 11
-3.30727997E+02
 21
-1.13891151E+02
  0
LINE
  8
0
 62
7
 10
-3.28477997E+02
 20
-1.10686152E+02
 11
-3.28477997E+02
 21
-1.13391151E+02
  0
LINE
  8
0
 62
7
 10
-3.23727997E+02
 20
-1.15891152E+02
 11
-3.24227997E+02
 21
-1.16391152E+02
  0
LINE
  8
0
 62
7
 10
-3.30927997E+02
 20
-1.16391151E+02
 11
-3.23527997E+02
 21
-1.16391151E+02
  0
LINE
  8
0
 62
7
 10
-3.23227997E+02
 20
-1.17391151E+02
 11
-3.23227997E+02
 21
-1.16691152E+02
  0
LINE
  8
0
 62
7
 10
-3.31227997E+02
 20
-1.17391151E+02
 11
-3.31227997E+02
 21
-1.16691152E+02
  0
LINE
  8
0
 62
7
 10
-3.31227997E+02
 20
-1.16691151E+02
 11
-3.30927997E+02
 21
-1.16391151E+02
  0
LINE
  8
0
 62
7
 10
-3.23527997E+02
 20
-1.16391152E+02
 11
-3.23227997E+02
 21
-1.16691152E+02
  0
LINE
  8
0
 62
7
 10
-3.31227997E+02
 20
-1.16691152E+02
 11
-3.23227997E+02
 21
-1.16691152E+02
  0
LINE
  8
0
  6
CENTER
 62
2
 10
-3.27227997E+02
 20
-1.01904873E+02
 11
-3.27227997E+02
 21
-1.18868702E+02
  0
LINE
  8
0
  6
CENTER
 62
2
 10
-3.39227997E+02
 20
-1.21391151E+02
 11
-3.19227997E+02
 21
-1.21391151E+02
  0
LINE
  8
0
  6
CENTER
 62
2
 10
-3.39227997E+02
 20
-1.88888412E+02
 11
-3.19227997E+02
 21
-1.88888412E+02
  0
CIRCLE
  8
0
 62
7
 10
-3.29227997E+02
 20
-2.04888412E+02
 40
4.30000019E+00
  0
CIRCLE
  8
0
 62
7
 10
-3.29227997E+02
 20
-2.04888412E+02
 40
4.19999981E+00
  0
CIRCLE
  8
0
 62
7
 10
-3.29227997E+02
 20
-2.04888412E+02
 40
3.70000005E+00
  0
CIRCLE
  8
0
 62
2
 10
-3.29227997E+02
 20
-1.34391151E+02
 40
4.86399984E+00
  0
CIRCLE
  8
0
 62
7
 10
-3.29227997E+02
 20
-1.34391151E+02
 40
4.28299999E+00
  0
CIRCLE
  8
0
 62
7
 10
-3.29227997E+02
 20
-2.29688408E+02
 40
8.00000012E-01
  0
CIRCLE
  8
0
 62
7
 10
-3.29227997E+02
 20
-2.27388412E+02
 40
4.25000000E+00
  0
ARC
  8
0
 62
7
 10
-3.30927997E+02
 20
-2.26588409E+02
 40
3.00000012E-01
 50
1.79999995E+02
 51
2.70000000E+02
  0
ARC
  8
0
 62
7
 10
-3.27527997E+02
 20
-2.26588409E+02
 40
3.00000012E-01
 50
2.70000000E+02
 51
0.00000000E+00
  0
ARC
  8
0
 62
7
 10
-3.29227997E+02
 20
-2.25388412E+02
 40
2.00000000E+00
 50
0.00000000E+00
 51
1.80000005E+02
  0
CIRCLE
  8
0
 62
2
 10
-3.29227997E+02
 20
-2.27388412E+02
 40
4.86399984E+00
  0
LINE
  8
0
 62
7
 10
-2.32287555E+02
 20
-1.45891151E+02
 11
-2.22787555E+02
 21
-1.45891151E+02
  0
LINE
  8
0
 62
7
 10
-2.32587555E+02
 20
-1.46191151E+02
 11
-2.32587555E+02
 21
-1.83191151E+02
  0
LINE
  8
0
 62
7
 10
-2.22887555E+02
 20
-1.83391151E+02
 11
-2.32387555E+02
 21
-1.83391151E+02
  0
LINE
  8
0
 62
7
 10
-2.22587555E+02
 20
-1.46091152E+02
 11
-2.22587555E+02
 21
-1.83091152E+02
  0
LINE
  8
0
 62
7
 10
-2.21287555E+02
 20
-1.44791151E+02
 11
-2.21287555E+02
 21
-1.84391151E+02
  0
LINE
  8
0
 62
7
 10
-2.33587555E+02
 20
-1.44591152E+02
 11
-2.21487555E+02
 21
-1.44591152E+02
  0
LINE
  8
0
 62
7
 10
-2.33887555E+02
 20
-1.44891151E+02
 11
-2.33887555E+02
 21
-1.84391151E+02
  0
LINE
  8
0
 62
7
 10
-2.21587555E+02
 20
-1.84691151E+02
 11
-2.33587555E+02
 21
-1.84691151E+02
  0
LINE
  8
0
 62
7
 10
-2.23887555E+02
 20
-1.82391151E+02
 11
-2.31387555E+02
 21
-1.82391151E+02
  0
LINE
  8
0
 62
7
 10
-2.31587555E+02
 20
-1.46191151E+02
 11
-2.31587555E+02
 21
-1.82191151E+02
  0
LINE
  8
0
 62
7
 10
-2.23587555E+02
 20
-1.46091152E+02
 11
-2.23587555E+02
 21
-1.82091152E+02
  0
LINE
  8
0
 62
7
 10
-2.11287555E+02
 20
-2.30388412E+02
 11
-2.15687555E+02
 21
-2.30388412E+02
  0
LINE
  8
0
 62
7
 10
-2.10787555E+02
 20
-2.32388412E+02
 11
-2.16187555E+02
 21
-2.32388412E+02
  0
LINE
  8
0
 62
7
 10
-2.14787555E+02
 20
-2.00391151E+02
 11
-2.12187555E+02
 21
-2.00391151E+02
  0
LINE
  8
0
 62
7
 10
-2.15737555E+02
 20
-2.33048409E+02
 11
-2.11237555E+02
 21
-2.33048409E+02
  0
LINE
  8
0
 62
7
 10
-2.11237555E+02
 20
-2.33743408E+02
 11
-2.11237555E+02
 21
-2.32388412E+02
  0
LINE
  8
0
 62
7
 10
-2.15737555E+02
 20
-2.33743408E+02
 11
-2.15737555E+02
 21
-2.32388412E+02
  0
LINE
  8
0
 62
7
 10
-2.12187555E+02
 20
-2.30388412E+02
 11
-2.12187555E+02
 21
-1.94391151E+02
  0
LINE
  8
0
 62
7
 10
-2.14787555E+02
 20
-2.30388412E+02
 11
-2.14787555E+02
 21
-1.94391151E+02
  0
LINE
  8
0
 62
2
 10
-2.12431055E+02
 20
-2.00391151E+02
 11
-2.12431055E+02
 21
-1.94391151E+02
  0
LINE
  8
0
 62
2
 10
-2.14544055E+02
 20
-2.00391151E+02
 11
-2.14544055E+02
 21
-1.94391151E+02
  0
LINE
  8
0
 62
7
 10
-2.11287555E+02
 20
-2.30388412E+02
 11
-2.11287555E+02
 21
-1.94391151E+02
  0
LINE
  8
0
 62
7
 10
-2.15687555E+02
 20
-2.30388412E+02
 11
-2.15687555E+02
 21
-1.94391151E+02
  0
LINE
  8
0
 62
7
 10
-2.10787555E+02
 20
-2.35388412E+02
 11
-2.10787555E+02
 21
-2.32388412E+02
  0
LINE
  8
0
 62
7
 10
-2.16187555E+02
 20
-2.35388412E+02
 11
-2.16187555E+02
 21
-2.32388412E+02
  0
LINE
  8
0
 62
7
 10
-2.09487555E+02
 20
-1.92391151E+02
 11
-2.09487555E+02
 21
-2.35388412E+02
  0
LINE
  8
0
 62
7
 10
-2.09487555E+02
 20
-2.17388412E+02
 11
-1.64487556E+02
 21
-2.17388412E+02
  0
LINE
  8
0
 62
7
 10
-1.88987556E+02
 20
-1.91891151E+02
 11
-1.88987556E+02
 21
-1.91391151E+02
  0
LINE
  8
0
 62
7
 10
-1.91987556E+02
 20
-1.91891151E+02
 11
-1.91987556E+02
 21
-1.91391151E+02
  0
LINE
  8
0
  6
CENTER
 62
2
 10
-1.90487556E+02
 20
-1.93694565E+02
 11
-1.90487556E+02
 21
-1.89685081E+02
  0
LINE
  8
0
 62
7
 10
-1.92087555E+02
 20
-1.91391151E+02
 11
-1.88487556E+02
 21
-1.91391151E+02
  0
LINE
  8
0
 62
7
 10
-1.92087555E+02
 20
-1.92391151E+02
 11
-1.92087555E+02
 21
-1.91391151E+02
  0
LINE
  8
0
 62
7
 10
-1.91487556E+02
 20
-1.44691151E+02
 11
-1.91487556E+02
 21
-1.50091152E+02
  0
LINE
  8
0
 62
7
 10
-1.90132553E+02
 20
-1.45141151E+02
 11
-1.91487556E+02
 21
-1.45141151E+02
  0
LINE
  8
0
 62
7
 10
-1.90132553E+02
 20
-1.49641151E+02
 11
-1.91487556E+02
 21
-1.49641151E+02
  0
LINE
  8
0
 62
7
 10
-1.90827557E+02
 20
-1.49641151E+02
 11
-1.90827557E+02
 21
-1.45141151E+02
  0
LINE
  8
0
 62
7
 10
-1.88487556E+02
 20
-1.44691151E+02
 11
-1.91487556E+02
 21
-1.44691151E+02
  0
LINE
  8
0
 62
7
 10
-1.91487556E+02
 20
-1.50091152E+02
 11
-1.88487556E+02
 21
-1.50091152E+02
  0
LINE
  8
0
 62
7
 10
-2.05987555E+02
 20
-1.17891151E+02
 11
-2.05987555E+02
 21
-1.18391151E+02
  0
LINE
  8
0
 62
7
 10
-2.08987555E+02
 20
-1.17891151E+02
 11
-2.08987555E+02
 21
-1.18391151E+02
  0
LINE
  8
0
  6
CENTER
 62
2
 10
-2.07487555E+02
 20
-1.15943415E+02
 11
-2.07487555E+02
 21
-1.20516823E+02
  0
LINE
  8
0
 62
7
 10
-2.05887554E+02
 20
-1.18391151E+02
 11
-2.09487555E+02
 21
-1.18391151E+02
  0
LINE
  8
0
 62
7
 10
-2.05887554E+02
 20
-1.17391151E+02
 11
-2.05887554E+02
 21
-1.18391151E+02
  0
LINE
  8
0
 62
7
 10
-2.15687555E+02
 20
-1.94391151E+02
 11
-2.11287555E+02
 21
-1.94391151E+02
  0
LINE
  8
0
  6
CENTER
 62
2
 10
-2.13487555E+02
 20
-2.37699203E+02
 11
-2.13487555E+02
 21
-1.88908333E+02
  0
LINE
  8
0
  6
CENTER
 62
2
 10
-1.87230942E+02
 20
-1.47391151E+02
 11
-1.96104576E+02
 21
-1.47391151E+02
  0
LINE
  8
0
 62
6
 10
-1.74787556E+02
 20
-1.47891151E+02
 11
-1.87287556E+02
 21
-1.47891151E+02
  0
LINE
  8
0
 62
6
 10
-1.87287556E+02
 20
-1.49391151E+02
 11
-1.87287556E+02
 21
-1.47891151E+02
  0
LINE
  8
0
 62
6
 10
-1.88487556E+02
 20
-1.49391151E+02
 11
-1.68887554E+02
 21
-1.49391151E+02
  0
LINE
  8
0
 62
6
 10
-1.88487556E+02
 20
-1.17391151E+02
 11
-1.76987556E+02
 21
-1.17391151E+02
  0
LINE
  8
0
 62
6
 10
-1.76987557E+02
 20
-1.23174007E+02
 11
-1.73487557E+02
 21
-1.23791152E+02
  0
LINE
  8
0
 62
6
 10
-1.62997555E+02
 20
-1.35441152E+02
 11
-1.59687553E+02
 21
-1.35441152E+02
  0
LINE
  8
0
 62
6
 10
-1.63347553E+02
 20
-1.36741152E+02
 11
-1.59687553E+02
 21
-1.36741152E+02
  0
LINE
  8
0
 62
6
 10
-1.59687553E+02
 20
-1.36341151E+02
 11
-1.55687553E+02
 21
-1.36341151E+02
  0
LINE
  8
0
 62
6
 10
-1.59687553E+02
 20
-1.35841151E+02
 11
-1.55687553E+02
 21
-1.35841151E+02
  0
LINE
  8
0
 62
6
 10
-1.59687553E+02
 20
-1.35441152E+02
 11
-1.59687553E+02
 21
-1.36741152E+02
  0
LINE
  8
0
 62
6
 10
-1.55687553E+02
 20
-1.36341151E+02
 11
-1.55687553E+02
 21
-1.35841151E+02
  0
LINE
  8
0
 62
6
 10
-1.64637556E+02
 20
-1.37691151E+02
 11
-1.63777556E+02
 21
-1.34491151E+02
  0
LINE
  8
0
 62
6
 10
-1.63607555E+02
 20
-1.37691151E+02
 11
-1.62747555E+02
 21
-1.34491151E+02
  0
LINE
  8
0
 62
6
 10
-1.73887554E+02
 20
-1.24891151E+02
 11
-1.73887554E+02
 21
-1.26891151E+02
  0
LINE
  8
0
 62
6
 10
-1.74387554E+02
 20
-1.27391151E+02
 11
-1.74487556E+02
 21
-1.27391151E+02
  0
LINE
  8
0
 62
6
 10
-1.74387554E+02
 20
-1.24391151E+02
 11
-1.74487556E+02
 21
-1.24391151E+02
  0
LINE
  8
0
 62
6
 10
-1.73487556E+02
 20
-1.24291152E+02
 11
-1.74487556E+02
 21
-1.24291152E+02
  0
LINE
  8
0
 62
6
 10
-1.73487556E+02
 20
-1.27491151E+02
 11
-1.74487556E+02
 21
-1.27491151E+02
  0
LINE
  8
0
 62
6
 10
-1.74487556E+02
 20
-1.24291152E+02
 11
-1.74487556E+02
 21
-1.27491151E+02
  0
LINE
  8
0
 62
6
 10
-1.74787556E+02
 20
-1.31891151E+02
 11
-1.68887554E+02
 21
-1.31891151E+02
  0
LINE
  8
0
 62
6
 10
-1.68087555E+02
 20
-1.38091152E+02
 11
-1.68887554E+02
 21
-1.38091152E+02
  0
LINE
  8
0
 62
6
 10
-1.67887554E+02
 20
-1.34291151E+02
 11
-1.67887554E+02
 21
-1.37891151E+02
  0
LINE
  8
0
 62
6
 10
-1.68087555E+02
 20
-1.34091151E+02
 11
-1.68887554E+02
 21
-1.34091151E+02
  0
LINE
  8
0
 62
6
 10
-1.73487556E+02
 20
-1.23791152E+02
 11
-1.73487556E+02
 21
-1.30481969E+02
  0
LINE
  8
0
 62
6
 10
-1.74787556E+02
 20
-1.31791151E+02
 11
-1.68887554E+02
 21
-1.31791151E+02
  0
LINE
  8
0
 62
6
 10
-1.73487555E+02
 20
-1.30481969E+02
 11
-1.68887554E+02
 21
-1.31293073E+02
  0
LINE
  8
0
 62
6
 10
-1.68887554E+02
 20
-1.31293073E+02
 11
-1.68887554E+02
 21
-1.31791151E+02
  0
LINE
  8
0
 62
6
 10
-1.69487556E+02
 20
-1.31891151E+02
 11
-1.69487556E+02
 21
-1.31791151E+02
  0
LINE
  8
0
 62
6
 10
-1.67887554E+02
 20
-1.36741152E+02
 11
-1.64387554E+02
 21
-1.36741152E+02
  0
LINE
  8
0
 62
6
 10
-1.67887554E+02
 20
-1.35441152E+02
 11
-1.64037556E+02
 21
-1.35441152E+02
  0
LINE
  8
0
 62
6
 10
-1.76987556E+02
 20
-1.17391151E+02
 11
-1.76987556E+02
 21
-1.23174007E+02
  0
LINE
  8
0
 62
6
 10
-1.85287556E+02
 20
-1.18091151E+02
 11
-1.85287556E+02
 21
-1.18891151E+02
  0
LINE
  8
0
 62
6
 10
-1.77687553E+02
 20
-1.18891151E+02
 11
-1.77687553E+02
 21
-1.18091151E+02
  0
LINE
  8
0
 62
6
 10
-1.77687553E+02
 20
-1.18891151E+02
 11
-1.85287556E+02
 21
-1.18891151E+02
  0
LINE
  8
0
 62
6
 10
-1.77687553E+02
 20
-1.18091151E+02
 11
-1.85287556E+02
 21
-1.18091151E+02
  0
LINE
  8
0
  6
CENTER
 62
6
 10
-1.54271065E+02
 20
-1.36091151E+02
 11
-1.69999554E+02
 21
-1.36091151E+02
  0
LINE
  8
0
 62
6
 10
-1.68887554E+02
 20
-1.31891151E+02
 11
-1.68887554E+02
 21
-1.49391151E+02
  0
LINE
  8
0
 62
6
 10
-1.74787556E+02
 20
-1.47891151E+02
 11
-1.74787556E+02
 21
-1.31791151E+02
  0
LINE
  8
0
 62
6
 10
-1.77687553E+02
 20
-1.91692795E+02
 11
-1.85287556E+02
 21
-1.91692795E+02
  0
LINE
  8
0
 62
6
 10
-1.77687553E+02
 20
-1.90892799E+02
 11
-1.85287556E+02
 21
-1.90892799E+02
  0
LINE
  8
0
 62
6
 10
-1.77687553E+02
 20
-1.90892799E+02
 11
-1.77687553E+02
 21
-1.91692795E+02
  0
LINE
  8
0
 62
6
 10
-1.85287556E+02
 20
-1.91692795E+02
 11
-1.85287556E+02
 21
-1.90892799E+02
  0
LINE
  8
0
 62
6
 10
-1.88487556E+02
 20
-1.92392799E+02
 11
-1.76987556E+02
 21
-1.92392799E+02
  0
LINE
  8
0
 62
6
 10
-1.76987555E+02
 20
-1.86609943E+02
 11
-1.73487555E+02
 21
-1.85992798E+02
  0
LINE
  8
0
 62
6
 10
-1.74487556E+02
 20
-1.85492798E+02
 11
-1.74487556E+02
 21
-1.82292797E+02
  0
LINE
  8
0
 62
6
 10
-1.73487556E+02
 20
-1.82292797E+02
 11
-1.74487556E+02
 21
-1.82292797E+02
  0
LINE
  8
0
 62
6
 10
-1.73487556E+02
 20
-1.85492798E+02
 11
-1.74487556E+02
 21
-1.85492798E+02
  0
LINE
  8
0
 62
6
 10
-1.74387554E+02
 20
-1.85392799E+02
 11
-1.74487556E+02
 21
-1.85392799E+02
  0
LINE
  8
0
 62
6
 10
-1.74387554E+02
 20
-1.82392796E+02
 11
-1.74487556E+02
 21
-1.82392796E+02
  0
LINE
  8
0
 62
6
 10
-1.73887554E+02
 20
-1.84892796E+02
 11
-1.73887554E+02
 21
-1.82892796E+02
  0
LINE
  8
0
 62
6
 10
-1.76987556E+02
 20
-1.92392799E+02
 11
-1.76987556E+02
 21
-1.86609940E+02
  0
LINE
  8
0
  6
CENTER
 62
6
 10
-1.54271065E+02
 20
-1.73692799E+02
 11
-1.69999554E+02
 21
-1.73692799E+02
  0
LINE
  8
0
 62
6
 10
-1.69487556E+02
 20
-1.77892796E+02
 11
-1.69487556E+02
 21
-1.77992798E+02
  0
LINE
  8
0
 62
6
 10
-1.68887554E+02
 20
-1.78490875E+02
 11
-1.68887554E+02
 21
-1.77992798E+02
  0
LINE
  8
0
 62
6
 10
-1.73487557E+02
 20
-1.79301978E+02
 11
-1.68887557E+02
 21
-1.78490873E+02
  0
LINE
  8
0
 62
6
 10
-1.74787556E+02
 20
-1.77992798E+02
 11
-1.68887554E+02
 21
-1.77992798E+02
  0
LINE
  8
0
 62
6
 10
-1.68087555E+02
 20
-1.75692799E+02
 11
-1.68887554E+02
 21
-1.75692799E+02
  0
LINE
  8
0
 62
6
 10
-1.67887554E+02
 20
-1.75492798E+02
 11
-1.67887554E+02
 21
-1.71892796E+02
  0
LINE
  8
0
 62
6
 10
-1.68087555E+02
 20
-1.71692799E+02
 11
-1.68887554E+02
 21
-1.71692799E+02
  0
LINE
  8
0
 62
6
 10
-1.74787556E+02
 20
-1.77892796E+02
 11
-1.68887554E+02
 21
-1.77892796E+02
  0
LINE
  8
0
 62
6
 10
-1.67887554E+02
 20
-1.74342796E+02
 11
-1.64387554E+02
 21
-1.74342796E+02
  0
LINE
  8
0
 62
6
 10
-1.67887554E+02
 20
-1.73042797E+02
 11
-1.64037556E+02
 21
-1.73042797E+02
  0
LINE
  8
0
 62
6
 10
-1.63607558E+02
 20
-1.75292797E+02
 11
-1.62747558E+02
 21
-1.72092796E+02
  0
LINE
  8
0
 62
6
 10
-1.64637552E+02
 20
-1.75292799E+02
 11
-1.63777551E+02
 21
-1.72092798E+02
  0
LINE
  8
0
 62
6
 10
-1.55687553E+02
 20
-1.73442799E+02
 11
-1.55687553E+02
 21
-1.73942799E+02
  0
LINE
  8
0
 62
6
 10
-1.59687553E+02
 20
-1.73042797E+02
 11
-1.59687553E+02
 21
-1.74342796E+02
  0
LINE
  8
0
 62
6
 10
-1.59687553E+02
 20
-1.73442799E+02
 11
-1.55687553E+02
 21
-1.73442799E+02
  0
LINE
  8
0
 62
6
 10
-1.59687553E+02
 20
-1.73942799E+02
 11
-1.55687553E+02
 21
-1.73942799E+02
  0
LINE
  8
0
 62
6
 10
-1.63347553E+02
 20
-1.74342796E+02
 11
-1.59687553E+02
 21
-1.74342796E+02
  0
LINE
  8
0
 62
6
 10
-1.62997555E+02
 20
-1.73042797E+02
 11
-1.59687553E+02
 21
-1.73042797E+02
  0
LINE
  8
0
 62
6
 10
-1.73487556E+02
 20
-1.85992798E+02
 11
-1.73487556E+02
 21
-1.79301979E+02
  0
LINE
  8
0
 62
6
 10
-1.74787556E+02
 20
-1.61892796E+02
 11
-1.87287556E+02
 21
-1.61892796E+02
  0
LINE
  8
0
 62
6
 10
-1.87287556E+02
 20
-1.60392796E+02
 11
-1.87287556E+02
 21
-1.61892796E+02
  0
LINE
  8
0
 62
6
 10
-1.88487556E+02
 20
-1.60392796E+02
 11
-1.68887554E+02
 21
-1.60392796E+02
  0
LINE
  8
0
 62
6
 10
-1.68887554E+02
 20
-1.77892796E+02
 11
-1.68887554E+02
 21
-1.60392796E+02
  0
LINE
  8
0
 62
6
 10
-1.74787556E+02
 20
-1.61892796E+02
 11
-1.74787556E+02
 21
-1.77992798E+02
  0
LINE
  8
0
 62
7
 10
-1.64487556E+02
 20
-2.31188408E+02
 11
-1.64487556E+02
 21
-2.28188408E+02
  0
LINE
  8
0
 62
7
 10
-2.35487555E+02
 20
-1.17391151E+02
 11
-2.09487555E+02
 21
-1.17391151E+02
  0
LINE
  8
0
 62
7
 10
-1.64487556E+02
 20
-2.31188408E+02
 11
-1.64487556E+02
 21
-2.35388412E+02
  0
LINE
  8
0
 62
7
 10
-1.88487556E+02
 20
-1.92391151E+02
 11
-2.09487555E+02
 21
-1.92391151E+02
  0
LINE
  8
0
 62
7
 10
-1.88487556E+02
 20
-1.78891151E+02
 11
-2.09487555E+02
 21
-1.78891151E+02
  0
LINE
  8
0
 62
7
 10
-1.88487556E+02
 20
-1.17391151E+02
 11
-1.88487556E+02
 21
-1.30891151E+02
  0
LINE
  8
0
 62
7
 10
-1.88487556E+02
 20
-1.30891151E+02
 11
-1.88487556E+02
 21
-1.92391151E+02
  0
LINE
  8
0
 62
7
 10
-1.88487556E+02
 20
-1.30891151E+02
 11
-2.09487555E+02
 21
-1.30891151E+02
  0
LINE
  8
0
 62
7
 10
-2.35487555E+02
 20
-2.35388412E+02
 11
-2.09487555E+02
 21
-2.35388412E+02
  0
LINE
  8
0
 62
7
 10
-2.35487555E+02
 20
-1.17391151E+02
 11
-2.35487555E+02
 21
-2.35388412E+02
  0
LINE
  8
0
 62
7
 10
-2.35487555E+02
 20
-1.92391151E+02
 11
-2.09487555E+02
 21
-1.92391151E+02
  0
LINE
  8
0
  6
PHANTOM
 62
2
 10
-1.64487556E+02
 20
-2.17388412E+02
 11
-1.63887554E+02
 21
-2.17388412E+02
  0
LINE
  8
0
  6
CENTER
 62
2
 10
-2.27587555E+02
 20
-1.92153618E+02
 11
-2.27587555E+02
 21
-1.85593628E+02
  0
LINE
  8
0
  6
CENTER
 62
2
 10
-2.31588177E+02
 20
-1.88888412E+02
 11
-2.23945814E+02
 21
-1.88888412E+02
  0
LINE
  8
0
 62
7
 10
-2.09487555E+02
 20
-1.92391151E+02
 11
-2.09487555E+02
 21
-1.17391151E+02
  0
LINE
  8
0
  6
CENTER
 62
2
 10
-2.25587555E+02
 20
-1.25410114E+02
 11
-2.25587555E+02
 21
-1.17880060E+02
  0
LINE
  8
0
  6
CENTER
 62
2
 10
-2.21711261E+02
 20
-1.21391151E+02
 11
-2.29354232E+02
 21
-1.21391151E+02
  0
LINE
  8
0
  6
PHANTOM
 62
2
 10
-1.64487556E+02
 20
-2.17388412E+02
 11
-1.64487556E+02
 21
-1.99888412E+02
  0
LINE
  8
0
  6
PHANTOM
 62
2
 10
-2.09487555E+02
 20
-1.92588409E+02
 11
-1.67987556E+02
 21
-1.92588409E+02
  0
LINE
  8
0
  6
PHANTOM
 62
2
 10
-1.67987555E+02
 20
-1.92588411E+02
 11
-1.64487557E+02
 21
-1.99888406E+02
  0
LINE
  8
0
  6
PHANTOM
 62
2
 10
-1.71864265E+02
 20
-1.91588409E+02
 11
-1.66364265E+02
 21
-1.91588409E+02
  0
LINE
  8
0
  6
PHANTOM
 62
2
 10
-1.63687553E+02
 20
-2.17188408E+02
 11
-1.63687553E+02
 21
-2.09988411E+02
  0
LINE
  8
0
  6
PHANTOM
 62
2
 10
-1.63487556E+02
 20
-2.00588409E+02
 11
-1.64487556E+02
 21
-2.00588409E+02
  0
LINE
  8
0
  6
PHANTOM
 62
2
 10
-1.63487556E+02
 20
-1.97588409E+02
 11
-1.63487556E+02
 21
-2.00588409E+02
  0
LINE
  8
0
  6
PHANTOM
 62
2
 10
-1.66364268E+02
 20
-1.91588412E+02
 11
-1.63487558E+02
 21
-1.97588407E+02
  0
LINE
  8
0
  6
PHANTOM
 62
2
 10
-1.72364265E+02
 20
-1.92588410E+02
 11
-1.71864267E+02
 21
-1.91588413E+02
  0
LINE
  8
0
  6
PHANTOM
 62
2
 10
-1.64487556E+02
 20
-2.09788414E+02
 11
-1.63887554E+02
 21
-2.09788414E+02
  0
LINE
  8
0
  6
PHANTOM
 62
2
 10
-1.63687553E+02
 20
-2.15388412E+02
 11
-1.54769203E+02
 21
-2.15388412E+02
  0
LINE
  8
0
  6
PHANTOM
 62
2
 10
-1.63687553E+02
 20
-2.11588409E+02
 11
-1.52575272E+02
 21
-2.11588409E+02
  0
LINE
  8
0
  6
PHANTOM
 62
2
 10
-1.39487556E+02
 20
-2.15388412E+02
 11
-1.39487556E+02
 21
-2.11588409E+02
  0
LINE
  8
0
  6
PHANTOM
 62
2
 10
-1.55826165E+02
 20
-2.17219125E+02
 11
-1.51013934E+02
 21
-2.08884097E+02
  0
LINE
  8
0
  6
PHANTOM
 62
2
 10
-1.53059753E+02
 20
-2.17427558E+02
 11
-1.48234905E+02
 21
-2.09070676E+02
  0
LINE
  8
0
  6
PHANTOM
 62
2
 10
-1.49688522E+02
 20
-2.11588409E+02
 11
-1.39487556E+02
 21
-2.11588409E+02
  0
LINE
  8
0
  6
PHANTOM
 62
2
 10
-1.51882454E+02
 20
-2.15388412E+02
 11
-1.39487556E+02
 21
-2.15388412E+02
  0
LINE
  8
0
  6
PHANTOM
 62
2
 10
-1.33753555E+02
 20
-2.11888412E+02
 11
-1.39487556E+02
 21
-2.11888412E+02
  0
LINE
  8
0
  6
PHANTOM
 62
2
 10
-1.39487557E+02
 20
-2.14901435E+02
 11
-1.31010272E+02
 21
-2.15643101E+02
  0
LINE
  8
0
  6
PHANTOM
 62
2
 10
-1.31162935E+02
 20
-2.15628301E+02
 11
-1.13861419E+02
 21
-2.18679025E+02
  0
LINE
  8
0
  6
PHANTOM
 62
2
 10
-1.30989287E+02
 20
-2.14643493E+02
 11
-1.13514126E+02
 21
-2.17724836E+02
  0
LINE
  8
0
  6
PHANTOM
 62
2
 10
-1.33744365E+02
 20
-2.11888415E+02
 11
-1.30989285E+02
 21
-2.14643494E+02
  0
LINE
  8
0
  6
PHANTOM
 62
2
 10
-1.13861423E+02
 20
-2.18679024E+02
 11
-1.13514127E+02
 21
-2.17724835E+02
  0
LINE
  8
0
  6
PHANTOM
 62
2
 10
-1.31462761E+02
 20
-2.14170021E+02
 11
-1.13586334E+02
 21
-2.14170021E+02
  0
LINE
  8
0
  6
PHANTOM
 62
2
 10
-1.32462761E+02
 20
-2.13170021E+02
 11
-1.13586334E+02
 21
-2.13170021E+02
  0
LINE
  8
0
  6
PHANTOM
 62
2
 10
-1.33462761E+02
 20
-2.12170021E+02
 11
-1.13586334E+02
 21
-2.12170021E+02
  0
LINE
  8
0
  6
PHANTOM
 62
2
 10
-1.13586334E+02
 20
-2.15106880E+02
 11
-1.13586334E+02
 21
-2.14170021E+02
  0
LINE
  8
0
  6
PHANTOM
 62
2
 10
-1.20586334E+02
 20
-2.14740028E+02
 11
-1.20586334E+02
 21
-2.11495193E+02
  0
LINE
  8
0
  6
PHANTOM
 62
2
 10
-1.13586334E+02
 20
-2.14170021E+02
 11
-1.13586334E+02
 21
-2.12170021E+02
  0
LINE
  8
0
  6
PHANTOM
 62
2
 10
-1.13586334E+02
 20
-2.12170021E+02
 11
-1.13586334E+02
 21
-2.11128342E+02
  0
LINE
  8
0
  6
PHANTOM
 62
2
 10
-1.33462761E+02
 20
-2.12170018E+02
 11
-1.13586337E+02
 21
-2.11128339E+02
  0
LINE
  8
0
  6
PHANTOM
 62
2
 10
-1.31462762E+02
 20
-2.14170019E+02
 11
-1.13586333E+02
 21
-2.15106883E+02
  0
LINE
  8
0
 62
7
 10
-1.64187553E+02
 20
-2.24738411E+02
 11
-1.57987556E+02
 21
-2.24738411E+02
  0
LINE
  8
0
 62
7
 10
-1.64187553E+02
 20
-2.34638412E+02
 11
-1.57987556E+02
 21
-2.34638412E+02
  0
LINE
  8
0
 62
7
 10
-1.56487556E+02
 20
-2.26238411E+02
 11
-1.56487556E+02
 21
-2.33138412E+02
  0
LINE
  8
0
 62
7
 10
-1.64187556E+02
 20
-2.24738409E+02
 11
-1.64487557E+02
 21
-2.25038410E+02
  0
LINE
  8
0
 62
7
 10
-1.64187555E+02
 20
-2.34638410E+02
 11
-1.64487554E+02
 21
-2.34338410E+02
  0
LINE
  8
0
 62
7
 10
-1.64487556E+02
 20
-2.35388412E+02
 11
-2.09487555E+02
 21
-2.35388412E+02
  0
LINE
  8
0
 62
7
 10
-1.64487556E+02
 20
-2.17388412E+02
 11
-1.64487556E+02
 21
-2.28188408E+02
  0
LINE
  8
0
 62
7
 10
-1.88487556E+02
 20
-1.17391151E+02
 11
-2.09487555E+02
 21
-1.17391151E+02
  0
LINE
  8
0
 62
7
 10
-2.14987555E+02
 20
-1.05686152E+02
 11
-2.18987555E+02
 21
-1.05686152E+02
  0
LINE
  8
0
 62
7
 10
-2.18987555E+02
 20
-1.10686152E+02
 11
-2.14987555E+02
 21
-1.10686152E+02
  0
LINE
  8
0
 62
7
 10
-2.13987555E+02
 20
-1.13391151E+02
 11
-2.19987555E+02
 21
-1.13391151E+02
  0
LINE
  8
0
 62
7
 10
-2.13487555E+02
 20
-1.15891151E+02
 11
-2.13487555E+02
 21
-1.13891151E+02
  0
LINE
  8
0
 62
7
 10
-2.15737555E+02
 20
-1.10686152E+02
 11
-2.15737555E+02
 21
-1.13391151E+02
  0
LINE
  8
0
 62
7
 10
-2.13487555E+02
 20
-1.13891152E+02
 11
-2.13987555E+02
 21
-1.13391152E+02
  0
LINE
  8
0
 62
7
 10
-2.14487555E+02
 20
-1.10186152E+02
 11
-2.14987555E+02
 21
-1.10686152E+02
  0
LINE
  8
0
 62
7
 10
-2.14487554E+02
 20
-1.06186151E+02
 11
-2.14987554E+02
 21
-1.05686151E+02
  0
LINE
  8
0
 62
7
 10
-2.14487555E+02
 20
-1.06186152E+02
 11
-2.14487555E+02
 21
-1.10186152E+02
  0
LINE
  8
0
 62
7
 10
-2.20487555E+02
 20
-1.15891152E+02
 11
-2.19987555E+02
 21
-1.16391152E+02
  0
LINE
  8
0
 62
7
 10
-2.20487555E+02
 20
-1.13891151E+02
 11
-2.19987555E+02
 21
-1.13391151E+02
  0
LINE
  8
0
 62
7
 10
-2.19487555E+02
 20
-1.06186152E+02
 11
-2.18987555E+02
 21
-1.05686152E+02
  0
LINE
  8
0
 62
7
 10
-2.18987555E+02
 20
-1.10686152E+02
 11
-2.19487555E+02
 21
-1.10186152E+02
  0
LINE
  8
0
 62
7
 10
-2.19487555E+02
 20
-1.06186152E+02
 11
-2.19487555E+02
 21
-1.10186152E+02
  0
LINE
  8
0
 62
7
 10
-2.20487555E+02
 20
-1.15891151E+02
 11
-2.20487555E+02
 21
-1.13891151E+02
  0
LINE
  8
0
 62
7
 10
-2.18237555E+02
 20
-1.10686152E+02
 11
-2.18237555E+02
 21
-1.13391151E+02
  0
LINE
  8
0
 62
7
 10
-2.13487555E+02
 20
-1.15891151E+02
 11
-2.13987555E+02
 21
-1.16391152E+02
  0
LINE
  8
0
 62
7
 10
-2.20687555E+02
 20
-1.16391151E+02
 11
-2.13287555E+02
 21
-1.16391151E+02
  0
LINE
  8
0
 62
7
 10
-2.12987555E+02
 20
-1.17391151E+02
 11
-2.12987555E+02
 21
-1.16691152E+02
  0
LINE
  8
0
 62
7
 10
-2.20987555E+02
 20
-1.17391151E+02
 11
-2.20987555E+02
 21
-1.16691152E+02
  0
LINE
  8
0
 62
7
 10
-2.20987555E+02
 20
-1.16691151E+02
 11
-2.20687555E+02
 21
-1.16391151E+02
  0
LINE
  8
0
 62
7
 10
-2.13287555E+02
 20
-1.16391152E+02
 11
-2.12987555E+02
 21
-1.16691151E+02
  0
LINE
  8
0
 62
7
 10
-2.20987555E+02
 20
-1.16691152E+02
 11
-2.12987555E+02
 21
-1.16691152E+02
  0
LINE
  8
0
  6
CENTER
 62
2
 10
-2.16987555E+02
 20
-1.01904873E+02
 11
-2.16987555E+02
 21
-1.18868702E+02
  0
LINE
  8
0
  6
CENTER
 62
6
 10
-1.90028641E+02
 20
-1.25891151E+02
 11
-1.71011082E+02
 21
-1.25891151E+02
  0
LINE
  8
0
  6
CENTER
 62
6
 10
-1.90028641E+02
 20
-1.83892796E+02
 11
-1.71011082E+02
 21
-1.83892796E+02
  0
LINE
  8
0
 62
6
 10
-2.09487555E+02
 20
-2.16888412E+02
 11
-2.00987555E+02
 21
-2.16888412E+02
  0
LINE
  8
0
 62
6
 10
-2.00987555E+02
 20
-2.16888412E+02
 11
-2.00987555E+02
 21
-1.92888412E+02
  0
LINE
  8
0
 62
6
 10
-2.09487555E+02
 20
-1.92888412E+02
 11
-2.00987555E+02
 21
-1.92888412E+02
  0
ARC
  8
0
 62
7
 10
-2.22787555E+02
 20
-1.46091152E+02
 40
2.00000003E-01
 50
0.00000000E+00
 51
9.00000002E+01
  0
ARC
  8
0
 62
7
 10
-2.32387555E+02
 20
-1.83191151E+02
 40
2.00000003E-01
 50
1.79999995E+02
 51
2.70000000E+02
  0
ARC
  8
0
 62
7
 10
-2.21487555E+02
 20
-1.44791151E+02
 40
2.00000003E-01
 50
0.00000000E+00
 51
9.00000002E+01
  0
ARC
  8
0
 62
7
 10
-2.33587555E+02
 20
-1.44891151E+02
 40
3.00000012E-01
 50
9.00000002E+01
 51
1.80000005E+02
  0
ARC
  8
0
 62
7
 10
-2.21587555E+02
 20
-1.84391151E+02
 40
3.00000012E-01
 50
2.70000000E+02
 51
0.00000000E+00
  0
ARC
  8
0
 62
7
 10
-2.33587555E+02
 20
-1.84391151E+02
 40
3.00000012E-01
 50
1.79999995E+02
 51
2.70000000E+02
  0
ARC
  8
0
 62
7
 10
-2.32287555E+02
 20
-1.46191151E+02
 40
3.00000012E-01
 50
9.00000002E+01
 51
1.80000005E+02
  0
ARC
  8
0
 62
7
 10
-2.22887555E+02
 20
-1.83091152E+02
 40
3.00000012E-01
 50
2.70000000E+02
 51
0.00000000E+00
  0
ARC
  8
0
 62
7
 10
-2.31387555E+02
 20
-1.82191151E+02
 40
2.00000003E-01
 50
1.79999995E+02
 51
2.70000000E+02
  0
ARC
  8
0
 62
7
 10
-2.23887555E+02
 20
-1.82091152E+02
 40
3.00000012E-01
 50
2.70000000E+02
 51
0.00000000E+00
  0
ARC
  8
0
 62
7
 10
-2.31287555E+02
 20
-1.46191151E+02
 40
3.00000012E-01
 50
9.00000002E+01
 51
1.80000005E+02
  0
ARC
  8
0
 62
7
 10
-2.23787555E+02
 20
-1.46091152E+02
 40
2.00000003E-01
 50
0.00000000E+00
 51
9.00000002E+01
  0
ARC
  8
0
 62
7
 10
-2.12037322E+02
 20
-2.33739418E+02
 40
7.99777389E-01
 50
2.85949247E+02
 51
3.59714132E+02
  0
ARC
  8
0
 62
7
 10
-2.14941916E+02
 20
-2.33743973E+02
 40
7.95639873E-01
 50
1.79959311E+02
 51
2.53900234E+02
  0
ARC
  8
0
 62
7
 10
-2.13490055E+02
 20
-2.28750999E+02
 40
5.99541616E+00
 50
2.53801671E+02
 51
2.86198330E+02
  0
ARC
  8
0
 62
7
 10
-1.90487556E+02
 20
-1.89891151E+02
 40
2.50000000E+00
 50
2.33130097E+02
 51
3.06869898E+02
  0
ARC
  8
0
 62
7
 10
-1.95124964E+02
 20
-1.47393652E+02
 40
5.99541616E+00
 50
3.43801670E+02
 51
1.61983298E+01
  0
ARC
  8
0
 62
7
 10
-1.90131989E+02
 20
-1.48845512E+02
 40
7.95639873E-01
 50
2.70000000E+02
 51
3.43900220E+02
  0
ARC
  8
0
 62
7
 10
-1.90136547E+02
 20
-1.45940918E+02
 40
7.99777389E-01
 50
1.59492465E+01
 51
8.97141315E+01
  0
ARC
  8
0
 62
7
 10
-2.07487555E+02
 20
-1.19891151E+02
 40
2.50000000E+00
 50
5.31301018E+01
 51
1.26869903E+02
  0
ARC
  8
0
 62
6
 10
-1.74387554E+02
 20
-1.24891151E+02
 40
5.00000000E-01
 50
0.00000000E+00
 51
9.00000002E+01
  0
ARC
  8
0
 62
6
 10
-1.74387554E+02
 20
-1.26891151E+02
 40
5.00000000E-01
 50
2.70000000E+02
 51
0.00000000E+00
  0
ARC
  8
0
 62
6
 10
-1.68086845E+02
 20
-1.37891863E+02
 40
1.99289829E-01
 50
2.70000000E+02
 51
2.04538593E-01
  0
ARC
  8
0
 62
6
 10
-1.68086845E+02
 20
-1.34290440E+02
 40
1.99289829E-01
 50
3.59795462E+02
 51
9.00000002E+01
  0
ARC
  8
0
 62
6
 10
-1.74387554E+02
 20
-1.82892796E+02
 40
5.00000000E-01
 50
0.00000000E+00
 51
9.00000002E+01
  0
ARC
  8
0
 62
6
 10
-1.74387554E+02
 20
-1.84892796E+02
 40
5.00000000E-01
 50
2.70000000E+02
 51
0.00000000E+00
  0
ARC
  8
0
 62
6
 10
-1.68086845E+02
 20
-1.75493507E+02
 40
1.99289829E-01
 50
2.70000000E+02
 51
2.04538593E-01
  0
ARC
  8
0
 62
6
 10
-1.68086845E+02
 20
-1.71892086E+02
 40
1.99289829E-01
 50
3.59795462E+02
 51
9.00000002E+01
  0
CIRCLE
  8
0
 62
7
 10
-2.27587555E+02
 20
-1.88888412E+02
 40
2.29999995E+00
  0
CIRCLE
  8
0
 62
7
 10
-2.25587555E+02
 20
-1.21391151E+02
 40
2.29999995E+00
  0
ARC
  8
0
  6
PHANTOM
 62
2
 10
-1.63887554E+02
 20
-2.09988411E+02
 40
2.00000003E-01
 50
0.00000000E+00
 51
9.00000002E+01
  0
ARC
  8
0
  6
PHANTOM
 62
2
 10
-1.63887554E+02
 20
-2.17188408E+02
 40
2.00000003E-01
 50
2.70000000E+02
 51
0.00000000E+00
  0
CIRCLE
  8
0
  6
PHANTOM
 62
2
 10
-2.04987555E+02
 20
-1.98988411E+02
 40
1.64999998E+00
  0
CIRCLE
  8
0
  6
PHANTOM
 62
2
 10
-2.04987555E+02
 20
-2.10988411E+02
 40
1.64999998E+00
  0
ARC
  8
0
 62
7
 10
-1.57987556E+02
 20
-2.26238411E+02
 40
1.50000000E+00
 50
0.00000000E+00
 51
9.00000002E+01
  0
ARC
  8
0
 62
7
 10
-1.57987556E+02
 20
-2.33138412E+02
 40
1.50000000E+00
 50
2.70000000E+02
 51
0.00000000E+00
  0
LINE
  8
0
  6
PHANTOM
 62
2
 10
-1.13586334E+02
 20
2.35779181E+02
 11
-1.13586334E+02
 21
2.35179181E+02
  0
LINE
  8
0
  6
PHANTOM
 62
2
 10
-1.13586334E+02
 20
2.36179181E+02
 11
-1.13586334E+02
 21
2.36779181E+02
  0
LINE
  8
0
  6
PHANTOM
 62
2
 10
-1.33753555E+02
 20
2.34779181E+02
 11
-1.33753555E+02
 21
2.37179181E+02
  0
LINE
  8
0
  6
PHANTOM
 62
2
 10
-1.33753555E+02
 20
2.35179181E+02
 11
-1.13586334E+02
 21
2.35179181E+02
  0
LINE
  8
0
  6
PHANTOM
 62
2
 10
-1.33753555E+02
 20
2.35779181E+02
 11
-1.13586334E+02
 21
2.35779181E+02
  0
LINE
  8
0
  6
PHANTOM
 62
2
 10
-1.33753555E+02
 20
2.36179181E+02
 11
-1.13586334E+02
 21
2.36179181E+02
  0
LINE
  8
0
  6
PHANTOM
 62
2
 10
-1.33753555E+02
 20
2.36779181E+02
 11
-1.13586334E+02
 21
2.36779181E+02
  0
LINE
  8
0
  6
PHANTOM
 62
2
 10
-1.39287552E+02
 20
2.34779181E+02
 11
-1.33753555E+02
 21
2.34779181E+02
  0
LINE
  8
0
  6
PHANTOM
 62
2
 10
-1.39287552E+02
 20
2.37179181E+02
 11
-1.33753555E+02
 21
2.37179181E+02
  0
LINE
  8
0
  6
PHANTOM
 62
2
 10
-1.67987556E+02
 20
2.38079181E+02
 11
-1.67987556E+02
 21
2.38879181E+02
  0
LINE
  8
0
  6
PHANTOM
 62
2
 10
-1.72364265E+02
 20
2.25629181E+02
 11
-1.72364265E+02
 21
2.28079181E+02
  0
LINE
  8
0
  6
PHANTOM
 62
2
 10
-1.71864265E+02
 20
2.25629181E+02
 11
-1.71864265E+02
 21
2.28079181E+02
  0
LINE
  8
0
  6
PHANTOM
 62
2
 10
-1.66364265E+02
 20
2.25629181E+02
 11
-1.66364265E+02
 21
2.29529181E+02
  0
LINE
  8
0
  6
PHANTOM
 62
2
 10
-1.63487556E+02
 20
2.25629181E+02
 11
-1.63487556E+02
 21
2.29529181E+02
  0
LINE
  8
0
  6
PHANTOM
 62
2
 10
-1.72364265E+02
 20
2.25629181E+02
 11
-1.63482632E+02
 21
2.25629181E+02
  0
LINE
  8
0
  6
PHANTOM
 62
2
 10
-1.67887554E+02
 20
2.37129181E+02
 11
-1.63487556E+02
 21
2.37129181E+02
  0
LINE
  8
0
  6
PHANTOM
 62
2
 10
-1.67987556E+02
 20
2.23879181E+02
 11
-1.67987556E+02
 21
2.25629181E+02
  0
LINE
  8
0
  6
PHANTOM
 62
2
 10
-1.64487556E+02
 20
2.23879181E+02
 11
-1.64487556E+02
 21
2.29529181E+02
  0
LINE
  8
0
  6
PHANTOM
 62
2
 10
-1.88487556E+02
 20
2.23879181E+02
 11
-1.64487556E+02
 21
2.23879181E+02
  0
LINE
  8
0
  6
PHANTOM
 62
2
 10
-1.88487556E+02
 20
2.38879181E+02
 11
-1.64487556E+02
 21
2.38879181E+02
  0
LINE
  8
0
  6
PHANTOM
 62
2
 10
-1.51682449E+02
 20
2.34079181E+02
 11
-1.39287552E+02
 21
2.34079181E+02
  0
LINE
  8
0
  6
PHANTOM
 62
2
 10
-1.49488525E+02
 20
2.37879181E+02
 11
-1.39287552E+02
 21
2.37879181E+02
  0
LINE
  8
0
  6
PHANTOM
 62
2
 10
-1.52859758E+02
 20
2.32040033E+02
 11
-1.48034908E+02
 21
2.40396918E+02
  0
LINE
  8
0
  6
PHANTOM
 62
2
 10
-1.55626168E+02
 20
2.32248469E+02
 11
-1.50813939E+02
 21
2.40583495E+02
  0
LINE
  8
0
  6
PHANTOM
 62
2
 10
-1.39287552E+02
 20
2.34079181E+02
 11
-1.39287552E+02
 21
2.37879181E+02
  0
LINE
  8
0
  6
PHANTOM
 62
2
 10
-1.63487556E+02
 20
2.34079181E+02
 11
-1.54569206E+02
 21
2.34079181E+02
  0
LINE
  8
0
  6
PHANTOM
 62
2
 10
-1.63487556E+02
 20
2.37879181E+02
 11
-1.52375275E+02
 21
2.37879181E+02
  0
LINE
  8
0
  6
PHANTOM
 62
2
 10
-1.64487556E+02
 20
2.38779181E+02
 11
-1.63487556E+02
 21
2.38779181E+02
  0
LINE
  8
0
  6
PHANTOM
 62
2
 10
-1.63487556E+02
 20
2.37129181E+02
 11
-1.63487556E+02
 21
2.38779181E+02
  0
LINE
  8
0
 62
6
 10
-1.88487556E+02
 20
2.24679181E+02
 11
-1.84487556E+02
 21
2.24679181E+02
  0
LINE
  8
0
  6
PHANTOM
 62
2
 10
-1.63482632E+02
 20
2.37129181E+02
 11
-1.63482632E+02
 21
2.36629181E+02
  0
LINE
  8
0
  6
CENTER
 62
6
 10
-1.90883224E+02
 20
2.29679181E+02
 11
-1.81323421E+02
 21
2.29679181E+02
  0
LINE
  8
0
 62
6
 10
-1.84487556E+02
 20
2.24679181E+02
 11
-1.84487556E+02
 21
2.34679181E+02
  0
LINE
  8
0
  6
CENTER
 62
6
 10
-1.90883224E+02
 20
2.33079181E+02
 11
-1.66664246E+02
 21
2.33079181E+02
  0
LINE
  8
0
 62
6
 10
-1.88487556E+02
 20
2.34679181E+02
 11
-1.84487556E+02
 21
2.34679181E+02
  0
LINE
  8
0
 62
6
 10
-1.84487556E+02
 20
2.28079181E+02
 11
-1.68887554E+02
 21
2.28079181E+02
  0
LINE
  8
0
 62
6
 10
-1.88487556E+02
 20
2.38079181E+02
 11
-1.68887554E+02
 21
2.38079181E+02
  0
LINE
  8
0
 62
6
 10
-1.68887554E+02
 20
2.38079181E+02
 11
-1.68887554E+02
 21
2.28079181E+02
  0
LINE
  8
0
 62
6
 10
-1.67887554E+02
 20
2.38079181E+02
 11
-1.67887554E+02
 21
2.28079181E+02
  0
LINE
  8
0
 62
6
 10
-1.67887554E+02
 20
2.30829181E+02
 11
-1.59687553E+02
 21
2.30829181E+02
  0
LINE
  8
0
 62
6
 10
-1.67887554E+02
 20
2.29529181E+02
 11
-1.59687553E+02
 21
2.29529181E+02
  0
LINE
  8
0
 62
6
 10
-1.55687553E+02
 20
2.29929181E+02
 11
-1.55687553E+02
 21
2.30429181E+02
  0
LINE
  8
0
 62
6
 10
-1.59687553E+02
 20
2.29929181E+02
 11
-1.55687553E+02
 21
2.29929181E+02
  0
LINE
  8
0
 62
6
 10
-1.59687553E+02
 20
2.30429181E+02
 11
-1.55687553E+02
 21
2.30429181E+02
  0
LINE
  8
0
 62
6
 10
-1.59687553E+02
 20
2.36229181E+02
 11
-1.55687553E+02
 21
2.36229181E+02
  0
LINE
  8
0
 62
6
 10
-1.59687553E+02
 20
2.35729181E+02
 11
-1.55687553E+02
 21
2.35729181E+02
  0
LINE
  8
0
 62
6
 10
-1.55687553E+02
 20
2.35729181E+02
 11
-1.55687553E+02
 21
2.36229181E+02
  0
LINE
  8
0
 62
6
 10
-1.59687553E+02
 20
2.35329181E+02
 11
-1.59687553E+02
 21
2.36629181E+02
  0
LINE
  8
0
 62
6
 10
-1.67887554E+02
 20
2.35329181E+02
 11
-1.59687553E+02
 21
2.35329181E+02
  0
LINE
  8
0
 62
6
 10
-1.67887554E+02
 20
2.36629181E+02
 11
-1.59687553E+02
 21
2.36629181E+02
  0
LINE
  8
0
 62
6
 10
-1.68887554E+02
 20
2.28079181E+02
 11
-1.67887554E+02
 21
2.28079181E+02
  0
LINE
  8
0
 62
6
 10
-1.68887554E+02
 20
2.38079181E+02
 11
-1.67887554E+02
 21
2.38079181E+02
  0
LINE
  8
0
  6
PHANTOM
 62
2
 10
-1.63482632E+02
 20
2.29529181E+02
 11
-1.63482632E+02
 21
2.25629181E+02
  0
LINE
  8
0
 62
6
 10
-1.87287556E+02
 20
2.34679181E+02
 11
-1.87287556E+02
 21
2.38079181E+02
  0
LINE
  8
0
 62
7
 10
-1.88487557E+02
 20
2.23972514E+02
 11
-1.64686668E+02
 21
2.24078296E+02
  0
LINE
  8
0
 62
7
 10
-1.88487555E+02
 20
2.38785848E+02
 11
-1.64686665E+02
 21
2.38680066E+02
  0
LINE
  8
0
 62
7
 10
-1.56487556E+02
 20
2.27929181E+02
 11
-1.56487556E+02
 21
2.29929181E+02
  0
LINE
  8
0
 62
7
 10
-1.59687553E+02
 20
2.36329181E+02
 11
-1.57987556E+02
 21
2.36329181E+02
  0
LINE
  8
0
 62
7
 10
-1.63487556E+02
 20
2.26429181E+02
 11
-1.57987556E+02
 21
2.26429181E+02
  0
LINE
  8
0
 62
7
 10
-1.64487556E+02
 20
2.24278294E+02
 11
-1.64487556E+02
 21
2.25629181E+02
  0
LINE
  8
0
  6
CENTER
 62
2
 10
-2.38928556E+02
 20
2.31379181E+02
 11
-1.51512085E+02
 21
2.31379181E+02
  0
LINE
  8
0
 62
7
 10
-2.06709738E+02
 20
2.26656998E+02
 11
-2.08265372E+02
 21
2.25101364E+02
  0
LINE
  8
0
 62
7
 10
-2.06709738E+02
 20
2.25101363E+02
 11
-2.08265373E+02
 21
2.26656998E+02
  0
LINE
  8
0
 62
7
 10
-1.89709737E+02
 20
2.36101364E+02
 11
-1.91265372E+02
 21
2.37656999E+02
  0
LINE
  8
0
 62
7
 10
-1.89709739E+02
 20
2.37656998E+02
 11
-1.91265374E+02
 21
2.36101362E+02
  0
LINE
  8
0
 62
7
 10
-1.88487556E+02
 20
2.38879181E+02
 11
-2.09487555E+02
 21
2.38879181E+02
  0
LINE
  8
0
 62
7
 10
-1.88487556E+02
 20
2.23879181E+02
 11
-2.09487555E+02
 21
2.23879181E+02
  0
LINE
  8
0
 62
7
 10
-1.88487556E+02
 20
2.38879181E+02
 11
-1.88487556E+02
 21
2.23879181E+02
  0
LINE
  8
0
 62
7
 10
-1.89487556E+02
 20
2.29079181E+02
 11
-1.89487556E+02
 21
2.30279181E+02
  0
LINE
  8
0
 62
7
 10
-1.89487556E+02
 20
2.30279181E+02
 11
-1.88487556E+02
 21
2.30279181E+02
  0
LINE
  8
0
 62
7
 10
-1.89487556E+02
 20
2.29079181E+02
 11
-1.88487556E+02
 21
2.29079181E+02
  0
LINE
  8
0
 62
7
 10
-2.05887554E+02
 20
2.25879181E+02
 11
-2.05887554E+02
 21
2.23879181E+02
  0
LINE
  8
0
 62
7
 10
-2.07487555E+02
 20
2.27479181E+02
 11
-2.09487555E+02
 21
2.27479181E+02
  0
LINE
  8
0
 62
7
 10
-1.90487556E+02
 20
2.35279181E+02
 11
-1.88487556E+02
 21
2.35279181E+02
  0
LINE
  8
0
 62
7
 10
-1.92087555E+02
 20
2.36879181E+02
 11
-1.92087555E+02
 21
2.38879181E+02
  0
LINE
  8
0
 62
7
 10
-2.35487555E+02
 20
2.39129181E+02
 11
-2.35487555E+02
 21
2.23629181E+02
  0
LINE
  8
0
 62
7
 10
-2.09487555E+02
 20
2.23629181E+02
 11
-2.09487555E+02
 21
2.39129181E+02
  0
LINE
  8
0
 62
7
 10
-2.35487555E+02
 20
2.23629181E+02
 11
-2.09487555E+02
 21
2.23629181E+02
  0
LINE
  8
0
 62
7
 10
-2.35487555E+02
 20
2.39129181E+02
 11
-2.09487555E+02
 21
2.39129181E+02
  0
LINE
  8
0
 62
7
 10
-1.63487556E+02
 20
2.25629181E+02
 11
-1.63487556E+02
 21
2.29529181E+02
  0
LINE
  8
0
 62
7
 10
-1.65487556E+02
 20
2.25629181E+02
 11
-1.65487556E+02
 21
2.29529181E+02
  0
LINE
  8
0
 62
7
 10
-1.63487556E+02
 20
2.25629181E+02
 11
-1.65487556E+02
 21
2.25629181E+02
  0
LINE
  8
0
 62
7
 10
-1.63487556E+02
 20
2.37129181E+02
 11
-1.65487556E+02
 21
2.37129181E+02
  0
LINE
  8
0
 62
7
 10
-1.64487556E+02
 20
2.37129181E+02
 11
-1.64487556E+02
 21
2.38480068E+02
  0
LINE
  8
0
 62
6
 10
-1.59687553E+02
 20
2.29529181E+02
 11
-1.59687553E+02
 21
2.30829181E+02
  0
LINE
  8
0
 62
7
 10
-1.63487556E+02
 20
2.36629181E+02
 11
-1.63487556E+02
 21
2.37129181E+02
  0
LINE
  8
0
 62
7
 10
-1.65487556E+02
 20
2.36629181E+02
 11
-1.65487556E+02
 21
2.37129181E+02
  0
LINE
  8
0
 62
7
 10
-1.63487556E+02
 20
2.30829181E+02
 11
-1.63487556E+02
 21
2.35329181E+02
  0
LINE
  8
0
 62
7
 10
-1.65487556E+02
 20
2.30829181E+02
 11
-1.65487556E+02
 21
2.35329181E+02
  0
LINE
  8
0
 62
7
 10
-1.56487556E+02
 20
2.30429181E+02
 11
-1.56487556E+02
 21
2.34829181E+02
  0
LINE
  8
0
  6
PHANTOM
 62
2
 10
-1.63487556E+02
 20
2.36629181E+02
 11
-1.63487556E+02
 21
2.37129181E+02
  0
LINE
  8
0
  6
PHANTOM
 62
2
 10
-1.64487556E+02
 20
2.36629181E+02
 11
-1.64487556E+02
 21
2.38879181E+02
  0
LINE
  8
0
  6
PHANTOM
 62
2
 10
-1.66364265E+02
 20
2.36629181E+02
 11
-1.66364265E+02
 21
2.37129181E+02
  0
LINE
  8
0
  6
PHANTOM
 62
2
 10
-1.63487556E+02
 20
2.30829181E+02
 11
-1.63487556E+02
 21
2.35329181E+02
  0
LINE
  8
0
  6
PHANTOM
 62
2
 10
-1.64487556E+02
 20
2.30829181E+02
 11
-1.64487556E+02
 21
2.35329181E+02
  0
LINE
  8
0
  6
PHANTOM
 62
2
 10
-1.66364265E+02
 20
2.30829181E+02
 11
-1.66364265E+02
 21
2.35329181E+02
  0
LINE
  8
0
  6
CENTER
 62
2
 10
-2.25587555E+02
 20
2.21379181E+02
 11
-2.25587555E+02
 21
2.41379181E+02
  0
LINE
  8
0
  6
CENTER
 62
2
 10
-2.27587555E+02
 20
2.21379181E+02
 11
-2.27587555E+02
 21
2.41379181E+02
  0
ARC
  8
0
 62
7
 10
-1.64687553E+02
 20
2.38480068E+02
 40
2.00000003E-01
 50
0.00000000E+00
 51
9.00000002E+01
  0
ARC
  8
0
 62
7
 10
-1.64687553E+02
 20
2.24278294E+02
 40
2.00000003E-01
 50
2.70000000E+02
 51
0.00000000E+00
  0
ARC
  8
0
 62
7
 10
-1.57987556E+02
 20
2.34829181E+02
 40
1.50000000E+00
 50
0.00000000E+00
 51
3.68698973E+01
  0
ARC
  8
0
 62
7
 10
-1.57987556E+02
 20
2.27929181E+02
 40
1.50000000E+00
 50
2.70000000E+02
 51
0.00000000E+00
  0
CIRCLE
  8
0
 62
7
 10
-2.07487555E+02
 20
2.25879181E+02
 40
1.50000000E+00
  0
CIRCLE
  8
0
 62
7
 10
-1.90487556E+02
 20
2.36879181E+02
 40
1.50000000E+00
  0
ARC
  8
0
 62
7
 10
-2.07487555E+02
 20
2.25879181E+02
 40
1.60000002E+00
 50
0.00000000E+00
 51
9.00000002E+01
  0
ARC
  8
0
 62
7
 10
-1.90487556E+02
 20
2.36879181E+02
 40
1.60000002E+00
 50
1.79999995E+02
 51
2.70000000E+02
  0
ARC
  8
0
 62
7
 10
-1.57987556E+02
 20
2.34829181E+02
 40
1.50000000E+00
 50
6.89605270E+01
 51
9.00000002E+01
  0
LINE
  8
0
 62
6
 10
-6.53377960E+01
 20
1.02049240E+02
 11
-7.53377962E+01
 21
1.02049240E+02
  0
LINE
  8
0
 62
6
 10
-6.53377960E+01
 20
1.01949242E+02
 11
-7.53377962E+01
 21
1.01949242E+02
  0
LINE
  8
0
  6
CENTER
 62
6
 10
-6.74377961E+01
 20
1.03541164E+02
 11
-6.74377961E+01
 21
1.09085945E+02
  0
LINE
  8
0
  6
CENTER
 62
6
 10
-7.32377958E+01
 20
1.03541164E+02
 11
-7.32377958E+01
 21
1.09085945E+02
  0
LINE
  8
0
 62
6
 10
-6.74377961E+01
 20
1.08249241E+02
 11
-7.32377958E+01
 21
1.08249241E+02
  0
LINE
  8
0
 62
6
 10
-6.74377961E+01
 20
1.04249241E+02
 11
-7.32377958E+01
 21
1.04249241E+02
  0
LINE
  8
0
  6
CENTER
 62
6
 10
-6.48733808E+01
 20
1.06249241E+02
 11
-7.57496786E+01
 21
1.06249241E+02
  0
LINE
  8
0
 62
7
 10
-7.62327957E+01
 20
8.85492401E+01
 11
-7.62327957E+01
 21
8.80492401E+01
  0
LINE
  8
0
 62
7
 10
-7.92327957E+01
 20
8.85492401E+01
 11
-7.92327957E+01
 21
8.80492401E+01
  0
LINE
  8
0
  6
CENTER
 62
2
 10
-7.77377958E+01
 20
8.98807907E+01
 11
-7.77377958E+01
 21
8.61673431E+01
  0
LINE
  8
0
 62
7
 10
-7.59377956E+01
 20
8.75492401E+01
 11
-7.59377956E+01
 21
8.83492432E+01
  0
LINE
  8
0
 62
7
 10
-7.61377964E+01
 20
8.85492401E+01
 11
-7.95377960E+01
 21
8.85492401E+01
  0
LINE
  8
0
  6
CENTER
 62
2
 10
-6.63377960E+01
 20
1.60217692E+02
 11
-6.63377960E+01
 21
1.63931135E+02
  0
LINE
  8
0
 62
7
 10
-6.48427960E+01
 20
1.61549240E+02
 11
-6.48427960E+01
 21
1.62049240E+02
  0
LINE
  8
0
 62
7
 10
-6.78427961E+01
 20
1.61549240E+02
 11
-6.78427961E+01
 21
1.62049240E+02
  0
LINE
  8
0
  6
CENTER
 62
2
 10
-7.86401110E+01
 20
5.02519836E+01
 11
-6.55292698E+01
 21
5.02519836E+01
  0
LINE
  8
0
 62
7
 10
-7.80984569E+01
 20
1.31488580E+02
 11
-7.59771366E+01
 21
1.33609900E+02
  0
LINE
  8
0
 62
7
 10
-7.80984566E+01
 20
1.33609900E+02
 11
-7.59771366E+01
 21
1.31488580E+02
  0
LINE
  8
0
 62
6
 10
-7.09449028E+01
 20
1.54756347E+02
 11
-6.95306893E+01
 21
1.53342133E+02
  0
LINE
  8
0
 62
6
 10
-7.09449028E+01
 20
1.53342133E+02
 11
-6.95306892E+01
 21
1.54756347E+02
  0
LINE
  8
0
 62
6
 10
-7.79449024E+01
 20
1.54756347E+02
 11
-7.65306889E+01
 21
1.53342134E+02
  0
LINE
  8
0
 62
6
 10
-7.79449024E+01
 20
1.53342134E+02
 11
-7.65306889E+01
 21
1.54756347E+02
  0
LINE
  8
0
 62
6
 10
-7.87377958E+01
 20
1.62549240E+02
 11
-7.87377958E+01
 21
1.49049240E+02
  0
LINE
  8
0
 62
6
 10
-6.87377958E+01
 20
1.62549240E+02
 11
-6.87377958E+01
 21
1.49049240E+02
  0
LINE
  8
0
 62
6
 10
-7.72377958E+01
 20
1.55649240E+02
 11
-7.87377958E+01
 21
1.55649240E+02
  0
LINE
  8
0
 62
6
 10
-7.72377958E+01
 20
1.52449240E+02
 11
-7.87377958E+01
 21
1.52449240E+02
  0
LINE
  8
0
 62
6
 10
-7.02377958E+01
 20
1.52449240E+02
 11
-6.87377958E+01
 21
1.52449240E+02
  0
LINE
  8
0
 62
6
 10
-7.02377958E+01
 20
1.55649240E+02
 11
-6.87377958E+01
 21
1.55649240E+02
  0
LINE
  8
0
  6
CENTER
 62
6
 10
-7.37377958E+01
 20
1.48349761E+02
 11
-7.37377958E+01
 21
1.63472433E+02
  0
LINE
  8
0
 62
7
 10
-6.42877960E+01
 20
4.45422668E+01
 11
-6.42877960E+01
 21
1.62549240E+02
  0
LINE
  8
0
 62
7
 10
-6.45377960E+01
 20
8.75492401E+01
 11
-6.45377960E+01
 21
1.49049240E+02
  0
LINE
  8
0
 62
7
 10
-7.70377960E+01
 20
1.29849239E+02
 11
-7.95377960E+01
 21
1.29849239E+02
  0
LINE
  8
0
 62
7
 10
-7.70377960E+01
 20
1.35249241E+02
 11
-7.95377960E+01
 21
1.35249241E+02
  0
LINE
  8
0
 62
7
 10
-6.53377960E+01
 20
1.15349239E+02
 11
-6.45377960E+01
 21
1.15349239E+02
  0
LINE
  8
0
 62
7
 10
-6.70377960E+01
 20
1.20749241E+02
 11
-6.45377960E+01
 21
1.20749241E+02
  0
LINE
  8
0
 62
7
 10
-7.95377960E+01
 20
1.49049240E+02
 11
-6.45377960E+01
 21
1.49049240E+02
  0
LINE
  8
0
 62
7
 10
-6.81377959E+01
 20
1.62549240E+02
 11
-6.81377959E+01
 21
1.61749240E+02
  0
LINE
  8
0
 62
7
 10
-7.95377960E+01
 20
1.54049240E+02
 11
-7.95377960E+01
 21
1.62549240E+02
  0
LINE
  8
0
 62
7
 10
-6.79377961E+01
 20
1.61549240E+02
 11
-6.45377960E+01
 21
1.61549240E+02
  0
LINE
  8
0
 62
7
 10
-6.45377960E+01
 20
1.49049240E+02
 11
-6.45377960E+01
 21
1.62549240E+02
  0
LINE
  8
0
 62
7
 10
-7.95377960E+01
 20
1.49049240E+02
 11
-7.95377960E+01
 21
1.54049240E+02
  0
LINE
  8
0
 62
7
 10
-6.42877960E+01
 20
1.62549240E+02
 11
-7.97877960E+01
 21
1.62549240E+02
  0
LINE
  8
0
 62
7
 10
-7.97877960E+01
 20
4.45422668E+01
 11
-7.97877960E+01
 21
1.62549240E+02
  0
LINE
  8
0
  6
CENTER
 62
2
 10
-7.20377960E+01
 20
1.66321522E+02
 11
-7.20377960E+01
 21
4.17284470E+01
  0
LINE
  8
0
 62
7
 10
-7.95377960E+01
 20
8.75492401E+01
 11
-7.95377960E+01
 21
1.49049240E+02
  0
LINE
  8
0
 62
7
 10
-7.97877960E+01
 20
8.75492401E+01
 11
-6.42877960E+01
 21
8.75492401E+01
  0
LINE
  8
0
 62
7
 10
-6.53377960E+01
 20
1.01049240E+02
 11
-6.45377960E+01
 21
1.01049240E+02
  0
LINE
  8
0
 62
7
 10
-7.95377960E+01
 20
1.01049240E+02
 11
-7.53377962E+01
 21
1.01049240E+02
  0
LINE
  8
0
 62
6
 10
-6.61306882E+01
 20
9.53421344E+01
 11
-6.75449017E+01
 21
9.67563480E+01
  0
LINE
  8
0
 62
6
 10
-6.61306882E+01
 20
9.67563480E+01
 11
-6.75449017E+01
 21
9.53421344E+01
  0
LINE
  8
0
 62
6
 10
-7.45449038E+01
 20
9.67563480E+01
 11
-7.31306902E+01
 21
9.53421344E+01
  0
LINE
  8
0
 62
6
 10
-7.45449038E+01
 20
9.53421344E+01
 11
-7.31306902E+01
 21
9.67563480E+01
  0
LINE
  8
0
 62
6
 10
-6.85122824E+01
 20
9.80992393E+01
 11
-7.03377962E+01
 21
9.80992393E+01
  0
LINE
  8
0
 62
6
 10
-7.03377962E+01
 20
9.80992393E+01
 11
-7.21633096E+01
 21
9.80992393E+01
  0
LINE
  8
0
 62
6
 10
-6.85122824E+01
 20
9.74992409E+01
 11
-7.21633096E+01
 21
9.74992409E+01
  0
LINE
  8
0
 62
7
 10
-6.53377960E+01
 20
1.19249241E+02
 11
-6.53377960E+01
 21
8.75395203E+01
  0
LINE
  8
0
 62
6
 10
-7.53377962E+01
 20
1.19249241E+02
 11
-7.53377962E+01
 21
8.75492401E+01
  0
LINE
  8
0
 62
6
 10
-7.53377962E+01
 20
9.76492386E+01
 11
-7.38377962E+01
 21
9.76492386E+01
  0
LINE
  8
0
 62
6
 10
-7.38377962E+01
 20
9.44492416E+01
 11
-7.53377962E+01
 21
9.44492416E+01
  0
LINE
  8
0
 62
6
 10
-6.53377960E+01
 20
9.44492416E+01
 11
-6.68377960E+01
 21
9.44492416E+01
  0
LINE
  8
0
 62
6
 10
-6.68377960E+01
 20
9.76492386E+01
 11
-6.53377960E+01
 21
9.76492386E+01
  0
LINE
  8
0
 62
6
 10
-7.53377962E+01
 20
1.01451160E+02
 11
-6.53377960E+01
 21
1.01451160E+02
  0
LINE
  8
0
 62
6
 10
-7.29877958E+01
 20
9.39492416E+01
 11
-7.53377962E+01
 21
9.39492416E+01
  0
LINE
  8
0
 62
6
 10
-7.17377958E+01
 20
9.51992416E+01
 11
-6.89377961E+01
 21
9.51992416E+01
  0
LINE
  8
0
 62
6
 10
-6.76877937E+01
 20
9.39492411E+01
 11
-6.89377950E+01
 21
9.51992425E+01
  0
LINE
  8
0
 62
6
 10
-6.53377960E+01
 20
9.39492416E+01
 11
-6.76877961E+01
 21
9.39492416E+01
  0
LINE
  8
0
 62
6
 10
-7.14821663E+01
 20
9.47584229E+01
 11
-6.91934257E+01
 21
9.47584229E+01
  0
LINE
  8
0
 62
6
 10
-7.27321663E+01
 20
9.35084229E+01
 11
-7.53377962E+01
 21
9.35084229E+01
  0
LINE
  8
0
 62
6
 10
-6.53377960E+01
 20
9.35084229E+01
 11
-6.79434257E+01
 21
9.35084229E+01
  0
LINE
  8
0
 62
6
 10
-6.91934248E+01
 20
9.47584255E+01
 11
-6.79434234E+01
 21
9.35084242E+01
  0
LINE
  8
0
 62
6
 10
-6.53377960E+01
 20
1.00640057E+02
 11
-7.53377962E+01
 21
1.00640057E+02
  0
LINE
  8
0
 62
6
 10
-6.91934258E+01
 20
9.47584247E+01
 11
-6.89377961E+01
 21
9.51992422E+01
  0
LINE
  8
0
 62
6
 10
-7.14821672E+01
 20
9.47584255E+01
 11
-7.27321685E+01
 21
9.35084242E+01
  0
LINE
  8
0
 62
6
 10
-7.29877982E+01
 20
9.39492411E+01
 11
-7.17377969E+01
 21
9.51992425E+01
  0
LINE
  8
0
 62
6
 10
-7.14821656E+01
 20
9.47584226E+01
 11
-7.17377952E+01
 21
9.51992401E+01
  0
LINE
  8
0
 62
6
 10
-6.76877972E+01
 20
9.39492396E+01
 11
-6.79434269E+01
 21
9.35084221E+01
  0
LINE
  8
0
 62
6
 10
-7.27321648E+01
 20
9.35084243E+01
 11
-7.29877944E+01
 21
9.39492418E+01
  0
LINE
  8
0
 62
6
 10
-7.18377962E+01
 20
1.14549240E+02
 11
-7.18377962E+01
 21
1.19549240E+02
  0
LINE
  8
0
 62
6
 10
-6.88377962E+01
 20
1.14549240E+02
 11
-6.88377962E+01
 21
1.19549240E+02
  0
LINE
  8
0
 62
6
 10
-6.88377962E+01
 20
1.14549240E+02
 11
-7.18377962E+01
 21
1.14549240E+02
  0
LINE
  8
0
 62
6
 10
-6.56377960E+01
 20
1.19549240E+02
 11
-7.50377960E+01
 21
1.19549240E+02
  0
LINE
  8
0
 62
7
 10
-6.50377960E+01
 20
6.25422668E+01
 11
-7.90377960E+01
 21
6.25422668E+01
  0
LINE
  8
0
  6
PHANTOM
 62
2
 10
-7.95377960E+01
 20
6.32395248E+01
 11
-7.95377960E+01
 21
8.70395203E+01
  0
LINE
  8
0
  6
PHANTOM
 62
2
 10
-6.45377960E+01
 20
6.32395248E+01
 11
-6.45377960E+01
 21
8.70395203E+01
  0
LINE
  8
0
 62
7
 10
-7.95377960E+01
 20
4.50422668E+01
 11
-7.95377960E+01
 21
6.22395248E+01
  0
LINE
  8
0
 62
7
 10
-6.45377960E+01
 20
4.50422668E+01
 11
-6.45377960E+01
 21
6.22395248E+01
  0
LINE
  8
0
  6
PHANTOM
 62
2
 10
-7.90377960E+01
 20
6.27395248E+01
 11
-6.50377960E+01
 21
6.27395248E+01
  0
LINE
  8
0
 62
7
 10
-7.90377960E+01
 20
8.75395203E+01
 11
-7.77877960E+01
 21
8.75395203E+01
  0
LINE
  8
0
  6
PHANTOM
 62
2
 10
-7.77877960E+01
 20
7.95395203E+01
 11
-7.77877960E+01
 21
8.80395203E+01
  0
LINE
  8
0
  6
PHANTOM
 62
2
 10
-6.62877960E+01
 20
8.80998230E+01
 11
-6.62877960E+01
 21
7.95395203E+01
  0
LINE
  8
0
  6
PHANTOM
 62
2
 10
-7.72877960E+01
 20
8.85395203E+01
 11
-6.67877960E+01
 21
8.85395203E+01
  0
LINE
  8
0
 62
7
 10
-6.62877960E+01
 20
8.75395203E+01
 11
-6.50377960E+01
 21
8.75395203E+01
  0
LINE
  8
0
  6
PHANTOM
 62
2
 10
-7.72877960E+01
 20
8.25395203E+01
 11
-6.67877960E+01
 21
8.25395203E+01
  0
LINE
  8
0
  6
PHANTOM
 62
2
 10
-7.77877960E+01
 20
7.95395203E+01
 11
-6.62877960E+01
 21
7.95395203E+01
  0
LINE
  8
0
  6
PHANTOM
 62
2
 10
-7.90377960E+01
 20
8.02395248E+01
 11
-7.77877960E+01
 21
8.02395248E+01
  0
LINE
  8
0
  6
PHANTOM
 62
2
 10
-6.62877960E+01
 20
8.02395248E+01
 11
-6.50377960E+01
 21
8.02395248E+01
  0
LINE
  8
0
  6
CENTER
 62
2
 10
-7.88375702E+01
 20
7.72395248E+01
 11
-7.43690042E+01
 21
7.72395248E+01
  0
LINE
  8
0
  6
CENTER
 62
2
 10
-7.65377960E+01
 20
7.48579941E+01
 11
-7.65377960E+01
 21
7.95586929E+01
  0
LINE
  8
0
  6
CENTER
 62
2
 10
-7.65377960E+01
 20
6.67913666E+01
 11
-7.65377960E+01
 21
7.17241974E+01
  0
LINE
  8
0
  6
CENTER
 62
2
 10
-7.89536362E+01
 20
6.92395248E+01
 11
-7.40208044E+01
 21
6.92395248E+01
  0
LINE
  8
0
  6
PHANTOM
 62
2
 10
-7.74773617E+01
 20
7.75395203E+01
 11
-7.55820503E+01
 21
7.75395203E+01
  0
LINE
  8
0
  6
PHANTOM
 62
2
 10
-7.74311352E+01
 20
7.69395218E+01
 11
-7.55820503E+01
 21
7.69395218E+01
  0
LINE
  8
0
  6
PHANTOM
 62
2
 10
-7.75235891E+01
 20
6.95395203E+01
 11
-7.55358229E+01
 21
6.95395203E+01
  0
LINE
  8
0
  6
PHANTOM
 62
2
 10
-7.75235891E+01
 20
6.89395218E+01
 11
-7.55358229E+01
 21
6.89395218E+01
  0
LINE
  8
0
  6
PHANTOM
 62
2
 10
-6.97377958E+01
 20
6.28395233E+01
 11
-6.51377960E+01
 21
6.28395233E+01
  0
LINE
  8
0
  6
PHANTOM
 62
2
 10
-6.46377960E+01
 20
6.33395233E+01
 11
-6.46377960E+01
 21
6.99395218E+01
  0
LINE
  8
0
  6
PHANTOM
 62
2
 10
-6.97377958E+01
 20
7.04395218E+01
 11
-6.51377960E+01
 21
7.04395218E+01
  0
LINE
  8
0
  6
PHANTOM
 62
2
 10
-7.02377958E+01
 20
6.33395233E+01
 11
-7.02377958E+01
 21
6.99395218E+01
  0
LINE
  8
0
 62
7
 10
-6.42877960E+01
 20
4.45422668E+01
 11
-7.97877960E+01
 21
4.45422668E+01
  0
LINE
  8
0
  6
CENTER
 62
6
 10
-7.03377962E+01
 20
1.23233593E+02
 11
-7.03377962E+01
 21
8.57643127E+01
  0
LINE
  8
0
  6
CENTER
 62
6
 10
-7.63377962E+01
 20
9.60492401E+01
 11
-7.13377962E+01
 21
9.60492401E+01
  0
LINE
  8
0
  6
CENTER
 62
6
 10
-6.93377962E+01
 20
9.60492401E+01
 11
-6.43377960E+01
 21
9.60492401E+01
  0
LINE
  8
0
  6
CENTER
 62
6
 10
-6.68377960E+01
 20
9.35492401E+01
 11
-6.68377960E+01
 21
9.85492401E+01
  0
LINE
  8
0
  6
CENTER
 62
6
 10
-7.38377962E+01
 20
9.35492401E+01
 11
-7.38377962E+01
 21
9.85492401E+01
  0
LINE
  8
0
 62
6
 10
-7.95377960E+01
 20
8.70519791E+01
 11
-6.45377960E+01
 21
8.70519791E+01
  0
LINE
  8
0
 62
6
 10
-7.95377960E+01
 20
6.30519791E+01
 11
-6.45377960E+01
 21
6.30519791E+01
  0
LINE
  8
0
 62
6
 10
-7.95377960E+01
 20
6.30519791E+01
 11
-7.95377960E+01
 21
8.70519791E+01
  0
LINE
  8
0
 62
6
 10
-6.45377960E+01
 20
6.30519791E+01
 11
-6.45377960E+01
 21
8.70519791E+01
  0
LINE
  8
0
  6
CENTER
 62
2
 10
-8.20377960E+01
 20
1.58549240E+02
 11
-6.20377960E+01
 21
1.58549240E+02
  0
LINE
  8
0
  6
CENTER
 62
2
 10
-8.20377960E+01
 20
9.10519791E+01
 11
-6.20377960E+01
 21
9.10519791E+01
  0
LINE
  8
0
  6
CENTER
 62
2
 10
-6.74377961E+01
 20
6.25488205E+01
 11
-6.74377961E+01
 21
7.02864685E+01
  0
LINE
  8
0
  6
CENTER
 62
2
 10
-7.02747331E+01
 20
6.66395264E+01
 11
-6.44730348E+01
 21
6.66395264E+01
  0
CIRCLE
  8
0
 62
6
 10
-6.74377961E+01
 20
1.06249241E+02
 40
8.75000000E-01
  0
ARC
  8
0
 62
6
 10
-6.74377961E+01
 20
1.06249241E+02
 40
2.00000000E+00
 50
2.70000000E+02
 51
9.00000002E+01
  0
CIRCLE
  8
0
 62
6
 10
-7.32377958E+01
 20
1.06249241E+02
 40
8.75000000E-01
  0
ARC
  8
0
 62
6
 10
-7.32377958E+01
 20
1.06249241E+02
 40
2.00000000E+00
 50
9.00000002E+01
 51
2.70000000E+02
  0
ARC
  8
0
 62
7
 10
-7.61377964E+01
 20
8.83492432E+01
 40
2.00000003E-01
 50
0.00000000E+00
 51
9.00000002E+01
  0
ARC
  8
0
 62
7
 10
-7.77327957E+01
 20
9.00492401E+01
 40
2.50000000E+00
 50
2.33130097E+02
 51
3.06869898E+02
  0
ARC
  8
0
 62
7
 10
-6.63427961E+01
 20
1.60049240E+02
 40
2.50000000E+00
 50
5.31301018E+01
 51
1.26869903E+02
  0
ARC
  8
0
 62
7
 10
-6.70377960E+01
 20
1.18049240E+02
 40
2.50000000E+00
 50
3.12843643E+02
 51
1.43130097E+02
  0
CIRCLE
  8
0
 62
7
 10
-7.70377960E+01
 20
1.32549240E+02
 40
2.50000000E+00
  0
CIRCLE
  8
0
 62
6
 10
-7.02377958E+01
 20
1.54049240E+02
 40
1.50000000E+00
  0
CIRCLE
  8
0
 62
6
 10
-7.72377958E+01
 20
1.54049240E+02
 40
1.50000000E+00
  0
ARC
  8
0
 62
6
 10
-7.02377958E+01
 20
1.54049240E+02
 40
1.60000002E+00
 50
9.00000002E+01
 51
2.70000000E+02
  0
ARC
  8
0
 62
6
 10
-7.72377958E+01
 20
1.54049240E+02
 40
1.60000002E+00
 50
2.70000000E+02
 51
9.00000002E+01
  0
ARC
  8
0
 62
7
 10
-7.70377960E+01
 20
1.32549240E+02
 40
2.70000005E+00
 50
2.70000000E+02
 51
9.00000002E+01
  0
ARC
  8
0
 62
7
 10
-6.70377960E+01
 20
1.18049240E+02
 40
2.70000005E+00
 50
9.00000002E+01
 51
1.46251016E+02
  0
ARC
  8
0
 62
7
 10
-6.79377961E+01
 20
1.61749240E+02
 40
2.00000003E-01
 50
1.79999995E+02
 51
2.70000000E+02
  0
CIRCLE
  8
0
 62
6
 10
-6.68377960E+01
 20
9.60492401E+01
 40
1.50000000E+00
  0
CIRCLE
  8
0
 62
6
 10
-7.38377962E+01
 20
9.60492401E+01
 40
1.50000000E+00
  0
ARC
  8
0
 62
6
 10
-7.03377962E+01
 20
9.77992401E+01
 40
8.00000012E-01
 50
2.02024309E+02
 51
3.37975688E+02
  0
ARC
  8
0
 62
6
 10
-7.03377962E+01
 20
9.77992401E+01
 40
8.00000012E-01
 50
2.20243121E+01
 51
1.57975691E+02
  0
CIRCLE
  8
0
 62
6
 10
-7.03377962E+01
 20
9.77992401E+01
 40
1.85000002E+00
  0
ARC
  8
0
 62
6
 10
-6.68377960E+01
 20
9.60492401E+01
 40
1.60000002E+00
 50
9.00000002E+01
 51
2.70000000E+02
  0
ARC
  8
0
 62
6
 10
-7.38377962E+01
 20
9.60492401E+01
 40
1.60000002E+00
 50
2.70000000E+02
 51
9.00000002E+01
  0
CIRCLE
  8
0
 62
6
 10
-7.03377962E+01
 20
9.77992401E+01
 40
2.04999995E+00
  0
ARC
  8
0
 62
7
 10
-6.56377960E+01
 20
1.19249241E+02
 40
3.00000012E-01
 50
0.00000000E+00
 51
9.00000002E+01
  0
ARC
  8
0
 62
6
 10
-7.50377960E+01
 20
1.19249241E+02
 40
3.00000012E-01
 50
9.00000002E+01
 51
1.80000005E+02
  0
ARC
  8
0
 62
7
 10
-7.90377960E+01
 20
6.20422668E+01
 40
5.00000000E-01
 50
9.00000002E+01
 51
1.80000005E+02
  0
ARC
  8
0
 62
7
 10
-6.50377960E+01
 20
6.20422668E+01
 40
5.00000000E-01
 50
0.00000000E+00
 51
9.00000002E+01
  0
ARC
  8
0
 62
7
 10
-6.50377960E+01
 20
4.50422668E+01
 40
5.00000000E-01
 50
2.70000000E+02
 51
0.00000000E+00
  0
ARC
  8
0
 62
7
 10
-7.90377960E+01
 20
4.50422668E+01
 40
5.00000000E-01
 50
1.79999995E+02
 51
2.70000000E+02
  0
CIRCLE
  8
0
 62
7
 10
-7.20377960E+01
 20
5.02519836E+01
 40
4.94999981E+00
  0
ARC
  8
0
  6
PHANTOM
 62
2
 10
-6.50377960E+01
 20
8.70395203E+01
 40
5.00000000E-01
 50
0.00000000E+00
 51
9.00000002E+01
  0
ARC
  8
0
  6
PHANTOM
 62
2
 10
-6.50377960E+01
 20
6.32395248E+01
 40
5.00000000E-01
 50
2.70000000E+02
 51
0.00000000E+00
  0
ARC
  8
0
  6
PHANTOM
 62
2
 10
-7.90377960E+01
 20
6.32395248E+01
 40
5.00000000E-01
 50
1.79999995E+02
 51
2.70000000E+02
  0
ARC
  8
0
  6
PHANTOM
 62
2
 10
-7.90377960E+01
 20
8.70395203E+01
 40
5.00000000E-01
 50
9.00000002E+01
 51
1.80000005E+02
  0
ARC
  8
0
  6
PHANTOM
 62
2
 10
-6.67877960E+01
 20
8.80395203E+01
 40
5.00000000E-01
 50
0.00000000E+00
 51
9.00000002E+01
  0
ARC
  8
0
  6
PHANTOM
 62
2
 10
-7.72877960E+01
 20
8.80395203E+01
 40
5.00000000E-01
 50
9.00000002E+01
 51
1.80000005E+02
  0
ARC
  8
0
  6
PHANTOM
 62
2
 10
-6.67877960E+01
 20
8.30395203E+01
 40
5.00000000E-01
 50
2.70000000E+02
 51
0.00000000E+00
  0
ARC
  8
0
  6
PHANTOM
 62
2
 10
-7.72877960E+01
 20
8.30395203E+01
 40
5.00000000E-01
 50
1.79999995E+02
 51
2.70000000E+02
  0
ARC
  8
0
  6
PHANTOM
 62
2
 10
-6.50377960E+01
 20
8.07395248E+01
 40
5.00000000E-01
 50
2.70000000E+02
 51
0.00000000E+00
  0
ARC
  8
0
  6
PHANTOM
 62
2
 10
-7.90377960E+01
 20
8.07395248E+01
 40
5.00000000E-01
 50
1.79999995E+02
 51
2.70000000E+02
  0
CIRCLE
  8
0
  6
PHANTOM
 62
2
 10
-7.65377960E+01
 20
7.72395248E+01
 40
1.75000000E+00
  0
CIRCLE
  8
0
  6
PHANTOM
 62
2
 10
-7.65377960E+01
 20
6.92395248E+01
 40
1.75000000E+00
  0
CIRCLE
  8
0
  6
PHANTOM
 62
2
 10
-7.65377960E+01
 20
7.72395248E+01
 40
1.00000000E+00
  0
CIRCLE
  8
0
  6
PHANTOM
 62
2
 10
-7.65377960E+01
 20
6.92395248E+01
 40
1.00000000E+00
  0
ARC
  8
0
  6
PHANTOM
 62
2
 10
-6.97377958E+01
 20
6.99395218E+01
 40
5.00000000E-01
 50
9.00000002E+01
 51
1.80000005E+02
  0
ARC
  8
0
  6
PHANTOM
 62
2
 10
-6.51377960E+01
 20
6.99395218E+01
 40
5.00000000E-01
 50
0.00000000E+00
 51
9.00000002E+01
  0
ARC
  8
0
  6
PHANTOM
 62
2
 10
-6.97377958E+01
 20
6.33395233E+01
 40
5.00000000E-01
 50
1.79999995E+02
 51
2.70000000E+02
  0
ARC
  8
0
  6
PHANTOM
 62
2
 10
-6.51377960E+01
 20
6.33395233E+01
 40
5.00000000E-01
 50
2.70000000E+02
 51
0.00000000E+00
  0
CIRCLE
  8
0
  6
PHANTOM
 62
2
 10
-6.74377961E+01
 20
6.66395264E+01
 40
1.89999998E+00
  0
CIRCLE
  8
0
  6
PHANTOM
 62
2
 10
-6.74377961E+01
 20
6.66395264E+01
 40
1.20000005E+00
  0
CIRCLE
  8
0
  6
PHANTOM
 62
2
 10
-6.69377961E+01
 20
6.71395264E+01
 40
3.00000012E-01
  0
CIRCLE
  8
0
  6
PHANTOM
 62
2
 10
-6.69377961E+01
 20
6.61395264E+01
 40
3.00000012E-01
  0
CIRCLE
  8
0
  6
PHANTOM
 62
2
 10
-6.79377961E+01
 20
6.61395264E+01
 40
3.00000012E-01
  0
CIRCLE
  8
0
  6
PHANTOM
 62
2
 10
-6.79377961E+01
 20
6.71395264E+01
 40
3.00000012E-01
  0
LINE
  8
0
 62
7
 10
-3.31623803E+02
 20
7.16023270E+01
 11
-3.27438413E+02
 21
7.88516358E+01
  0
LINE
  8
0
 62
7
 10
-3.31017585E+02
 20
7.12523266E+01
 11
-3.26832194E+02
 21
7.85016354E+01
  0
LINE
  8
0
  6
CENTER
 62
2
 10
-3.35653931E+02
 20
5.25519791E+01
 11
-3.22515662E+02
 21
5.25519791E+01
  0
LINE
  8
0
  6
CENTER
 62
2
 10
-3.35653931E+02
 20
1.45549240E+02
 11
-3.22612593E+02
 21
1.45549240E+02
  0
LINE
  8
0
 62
7
 10
-3.36977997E+02
 20
4.45519791E+01
 11
-3.36977997E+02
 21
8.75492401E+01
  0
LINE
  8
0
 62
7
 10
-3.21477997E+02
 20
8.75492401E+01
 11
-3.21477997E+02
 21
4.45519791E+01
  0
LINE
  8
0
 62
7
 10
-3.36977997E+02
 20
8.75492401E+01
 11
-3.21477997E+02
 21
8.75492401E+01
  0
LINE
  8
0
 62
7
 10
-3.21477997E+02
 20
4.45519791E+01
 11
-3.36977997E+02
 21
4.45519791E+01
  0
LINE
  8
0
 62
7
 10
-3.30927997E+02
 20
5.30519791E+01
 11
-3.27527997E+02
 21
5.30519791E+01
  0
LINE
  8
0
 62
7
 10
-3.27227997E+02
 20
5.63019791E+01
 11
-3.27227997E+02
 21
4.88019791E+01
  0
LINE
  8
0
 62
7
 10
-3.31227997E+02
 20
5.63019791E+01
 11
-3.31227997E+02
 21
4.88019791E+01
  0
LINE
  8
0
  6
CENTER
 62
2
 10
-3.30484322E+02
 20
5.02519836E+01
 11
-3.27969193E+02
 21
5.02519836E+01
  0
LINE
  8
0
 62
7
 10
-3.21477997E+02
 20
1.62549240E+02
 11
-3.21477997E+02
 21
8.75492401E+01
  0
LINE
  8
0
 62
7
 10
-3.36977997E+02
 20
1.62549240E+02
 11
-3.36977997E+02
 21
8.75492401E+01
  0
LINE
  8
0
 62
7
 10
-3.36977997E+02
 20
1.62549240E+02
 11
-3.21477997E+02
 21
1.62549240E+02
  0
LINE
  8
0
 62
7
 10
-3.32705652E+02
 20
1.43049240E+02
 11
-3.29227997E+02
 21
1.43049240E+02
  0
LINE
  8
0
 62
7
 10
-3.33227997E+02
 20
1.47080282E+02
 11
-3.33227997E+02
 21
1.44018198E+02
  0
LINE
  8
0
 62
7
 10
-3.29227997E+02
 20
1.47549240E+02
 11
-3.29227997E+02
 21
1.43049240E+02
  0
LINE
  8
0
 62
7
 10
-3.29227997E+02
 20
1.47549240E+02
 11
-3.33015356E+02
 21
1.47549240E+02
  0
LINE
  8
0
  6
CENTER
 62
2
 10
-3.29227997E+02
 20
1.67517511E+02
 11
-3.29227997E+02
 21
4.22987900E+01
  0
LINE
  8
0
  6
CENTER
 62
2
 10
-3.39227997E+02
 20
1.58549240E+02
 11
-3.19227997E+02
 21
1.58549240E+02
  0
LINE
  8
0
  6
CENTER
 62
2
 10
-3.39227997E+02
 20
9.10519791E+01
 11
-3.19227997E+02
 21
9.10519791E+01
  0
CIRCLE
  8
0
 62
7
 10
-3.29227997E+02
 20
7.50519791E+01
 40
3.70000005E+00
  0
CIRCLE
  8
0
 62
7
 10
-3.29227997E+02
 20
7.50519791E+01
 40
4.19999981E+00
  0
CIRCLE
  8
0
 62
7
 10
-3.29227997E+02
 20
7.50519791E+01
 40
4.30000019E+00
  0
CIRCLE
  8
0
 62
2
 10
-3.29227997E+02
 20
5.25519791E+01
 40
4.86399984E+00
  0
ARC
  8
0
 62
7
 10
-3.29227997E+02
 20
5.45519791E+01
 40
2.00000000E+00
 50
0.00000000E+00
 51
1.80000005E+02
  0
ARC
  8
0
 62
7
 10
-3.27527997E+02
 20
5.33519821E+01
 40
3.00000012E-01
 50
2.70000000E+02
 51
0.00000000E+00
  0
ARC
  8
0
 62
7
 10
-3.30927997E+02
 20
5.33519821E+01
 40
3.00000012E-01
 50
1.79999995E+02
 51
2.70000000E+02
  0
CIRCLE
  8
0
 62
7
 10
-3.29227997E+02
 20
5.25519791E+01
 40
4.25000000E+00
  0
CIRCLE
  8
0
 62
7
 10
-3.29227997E+02
 20
5.02519836E+01
 40
8.00000012E-01
  0
CIRCLE
  8
0
 62
7
 10
-3.29227997E+02
 20
1.45549240E+02
 40
4.28299999E+00
  0
CIRCLE
  8
0
 62
2
 10
-3.29227997E+02
 20
1.45549240E+02
 40
4.86399984E+00
  0
LINE
  8
0
 62
6
 10
-1.84487556E+02
 20
1.62549240E+02
 11
-1.84487556E+02
 21
1.49049240E+02
  0
LINE
  8
0
 62
7
 10
-2.32287555E+02
 20
1.34049240E+02
 11
-2.22787555E+02
 21
1.34049240E+02
  0
LINE
  8
0
 62
7
 10
-2.32587555E+02
 20
1.33749241E+02
 11
-2.32587555E+02
 21
9.67492409E+01
  0
LINE
  8
0
 62
7
 10
-2.22887555E+02
 20
9.65492401E+01
 11
-2.32387555E+02
 21
9.65492401E+01
  0
LINE
  8
0
 62
7
 10
-2.22587555E+02
 20
1.33849239E+02
 11
-2.22587555E+02
 21
9.68492393E+01
  0
LINE
  8
0
 62
7
 10
-2.21287555E+02
 20
1.35149240E+02
 11
-2.21287555E+02
 21
9.55492401E+01
  0
LINE
  8
0
 62
7
 10
-2.33587555E+02
 20
1.35349239E+02
 11
-2.21487555E+02
 21
1.35349239E+02
  0
LINE
  8
0
 62
7
 10
-2.33887555E+02
 20
1.35049240E+02
 11
-2.33887555E+02
 21
9.55492401E+01
  0
LINE
  8
0
 62
7
 10
-2.21587555E+02
 20
9.52492409E+01
 11
-2.33587555E+02
 21
9.52492409E+01
  0
LINE
  8
0
 62
7
 10
-2.23887555E+02
 20
9.75492401E+01
 11
-2.31387555E+02
 21
9.75492401E+01
  0
LINE
  8
0
 62
7
 10
-2.31587555E+02
 20
1.33749241E+02
 11
-2.31587555E+02
 21
9.77492409E+01
  0
LINE
  8
0
 62
7
 10
-2.23587555E+02
 20
1.33849239E+02
 11
-2.23587555E+02
 21
9.78492393E+01
  0
LINE
  8
0
 62
7
 10
-1.91987556E+02
 20
8.80492401E+01
 11
-1.91987556E+02
 21
8.85492401E+01
  0
LINE
  8
0
 62
7
 10
-1.88987556E+02
 20
8.80492401E+01
 11
-1.88987556E+02
 21
8.85492401E+01
  0
LINE
  8
0
 62
7
 10
-2.08987555E+02
 20
1.62049240E+02
 11
-2.08987555E+02
 21
1.61549240E+02
  0
LINE
  8
0
 62
7
 10
-2.05987555E+02
 20
1.62049240E+02
 11
-2.05987555E+02
 21
1.61549240E+02
  0
LINE
  8
0
 62
7
 10
-1.90827557E+02
 20
1.30299240E+02
 11
-1.90827557E+02
 21
1.34799240E+02
  0
LINE
  8
0
 62
7
 10
-1.90132553E+02
 20
1.30299240E+02
 11
-1.91487556E+02
 21
1.30299240E+02
  0
LINE
  8
0
 62
7
 10
-1.90132553E+02
 20
1.34799240E+02
 11
-1.91487556E+02
 21
1.34799240E+02
  0
LINE
  8
0
  6
CENTER
 62
2
 10
-1.90487556E+02
 20
8.62458267E+01
 11
-1.90487556E+02
 21
9.02553101E+01
  0
LINE
  8
0
 62
7
 10
-1.92087555E+02
 20
8.85492401E+01
 11
-1.88487556E+02
 21
8.85492401E+01
  0
LINE
  8
0
 62
7
 10
-1.92087555E+02
 20
8.75492401E+01
 11
-1.92087555E+02
 21
8.85492401E+01
  0
LINE
  8
0
  6
CENTER
 62
2
 10
-2.07487555E+02
 20
1.63996976E+02
 11
-2.07487555E+02
 21
1.59423568E+02
  0
LINE
  8
0
 62
7
 10
-2.05887554E+02
 20
1.61549240E+02
 11
-2.09487555E+02
 21
1.61549240E+02
  0
LINE
  8
0
 62
7
 10
-2.05887554E+02
 20
1.62549240E+02
 11
-2.05887554E+02
 21
1.61549240E+02
  0
LINE
  8
0
 62
7
 10
-2.15737555E+02
 20
4.61969833E+01
 11
-2.15737555E+02
 21
4.75519791E+01
  0
LINE
  8
0
 62
7
 10
-2.11237555E+02
 20
4.61969833E+01
 11
-2.11237555E+02
 21
4.75519791E+01
  0
LINE
  8
0
 62
7
 10
-2.15737555E+02
 20
4.68919830E+01
 11
-2.11237555E+02
 21
4.68919830E+01
  0
LINE
  8
0
 62
7
 10
-2.14787555E+02
 20
7.95492401E+01
 11
-2.12187555E+02
 21
7.95492401E+01
  0
LINE
  8
0
 62
7
 10
-2.12187555E+02
 20
4.95519791E+01
 11
-2.12187555E+02
 21
8.55492401E+01
  0
LINE
  8
0
 62
7
 10
-2.14787555E+02
 20
4.95519791E+01
 11
-2.14787555E+02
 21
8.55492401E+01
  0
LINE
  8
0
 62
2
 10
-2.12431055E+02
 20
7.95492401E+01
 11
-2.12431055E+02
 21
8.55492401E+01
  0
LINE
  8
0
 62
2
 10
-2.14544055E+02
 20
7.95492401E+01
 11
-2.14544055E+02
 21
8.55492401E+01
  0
LINE
  8
0
 62
7
 10
-2.10787555E+02
 20
4.75519791E+01
 11
-2.16187555E+02
 21
4.75519791E+01
  0
LINE
  8
0
 62
7
 10
-2.11287555E+02
 20
4.95519791E+01
 11
-2.11287555E+02
 21
8.55492401E+01
  0
LINE
  8
0
 62
7
 10
-2.15687555E+02
 20
4.95519791E+01
 11
-2.15687555E+02
 21
8.55492401E+01
  0
LINE
  8
0
 62
7
 10
-2.15687555E+02
 20
8.55492401E+01
 11
-2.11287555E+02
 21
8.55492401E+01
  0
LINE
  8
0
 62
7
 10
-2.11287555E+02
 20
4.95519791E+01
 11
-2.15687555E+02
 21
4.95519791E+01
  0
LINE
  8
0
 62
7
 10
-2.10787555E+02
 20
4.45519791E+01
 11
-2.10787555E+02
 21
4.75519791E+01
  0
LINE
  8
0
  6
CENTER
 62
2
 10
-2.13487555E+02
 20
3.91696396E+01
 11
-2.13487555E+02
 21
9.10320587E+01
  0
LINE
  8
0
 62
7
 10
-2.16187555E+02
 20
4.45519791E+01
 11
-2.16187555E+02
 21
4.75519791E+01
  0
LINE
  8
0
 62
7
 10
-1.91487556E+02
 20
1.35249241E+02
 11
-1.91487556E+02
 21
1.29849239E+02
  0
LINE
  8
0
 62
7
 10
-1.88487556E+02
 20
1.35249241E+02
 11
-1.91487556E+02
 21
1.35249241E+02
  0
LINE
  8
0
 62
7
 10
-1.91487556E+02
 20
1.29849239E+02
 11
-1.88487556E+02
 21
1.29849239E+02
  0
LINE
  8
0
  6
CENTER
 62
2
 10
-1.87230942E+02
 20
1.32549240E+02
 11
-1.93069611E+02
 21
1.32549240E+02
  0
LINE
  8
0
 62
7
 10
-1.64487556E+02
 20
6.25519791E+01
 11
-1.64487556E+02
 21
4.87519836E+01
  0
LINE
  8
0
 62
6
 10
-1.88487556E+02
 20
8.75475922E+01
 11
-1.76987556E+02
 21
8.75475922E+01
  0
LINE
  8
0
 62
6
 10
-1.85287556E+02
 20
8.82475967E+01
 11
-1.85287556E+02
 21
8.90475922E+01
  0
LINE
  8
0
 62
6
 10
-1.77687553E+02
 20
8.90475922E+01
 11
-1.77687553E+02
 21
8.82475967E+01
  0
LINE
  8
0
 62
6
 10
-1.77687553E+02
 20
8.90475922E+01
 11
-1.85287556E+02
 21
8.90475922E+01
  0
LINE
  8
0
 62
6
 10
-1.77687553E+02
 20
8.82475967E+01
 11
-1.85287556E+02
 21
8.82475967E+01
  0
LINE
  8
0
 62
6
 10
-1.76987556E+02
 20
8.75475922E+01
 11
-1.76987556E+02
 21
9.33304520E+01
  0
LINE
  8
0
 62
6
 10
-1.73887554E+02
 20
9.50475960E+01
 11
-1.73887554E+02
 21
9.70475960E+01
  0
LINE
  8
0
 62
6
 10
-1.74387554E+02
 20
9.75475960E+01
 11
-1.74487556E+02
 21
9.75475960E+01
  0
LINE
  8
0
 62
6
 10
-1.74387554E+02
 20
9.45475922E+01
 11
-1.74487556E+02
 21
9.45475922E+01
  0
LINE
  8
0
 62
6
 10
-1.62997555E+02
 20
1.06897594E+02
 11
-1.59687553E+02
 21
1.06897594E+02
  0
LINE
  8
0
 62
6
 10
-1.63347553E+02
 20
1.05597595E+02
 11
-1.59687553E+02
 21
1.05597595E+02
  0
LINE
  8
0
 62
6
 10
-1.59687553E+02
 20
1.05997593E+02
 11
-1.55687553E+02
 21
1.05997593E+02
  0
LINE
  8
0
 62
6
 10
-1.59687553E+02
 20
1.06497593E+02
 11
-1.55687553E+02
 21
1.06497593E+02
  0
LINE
  8
0
 62
6
 10
-1.59687553E+02
 20
1.06897594E+02
 11
-1.59687553E+02
 21
1.05597595E+02
  0
LINE
  8
0
 62
6
 10
-1.55687553E+02
 20
1.06497593E+02
 11
-1.55687553E+02
 21
1.05997593E+02
  0
LINE
  8
0
 62
6
 10
-1.64637552E+02
 20
1.04647593E+02
 11
-1.63777551E+02
 21
1.07847594E+02
  0
LINE
  8
0
 62
6
 10
-1.63607558E+02
 20
1.04647594E+02
 11
-1.62747558E+02
 21
1.07847595E+02
  0
LINE
  8
0
 62
6
 10
-1.67887554E+02
 20
1.06897594E+02
 11
-1.64037556E+02
 21
1.06897594E+02
  0
LINE
  8
0
 62
6
 10
-1.67887554E+02
 20
1.05597595E+02
 11
-1.64387554E+02
 21
1.05597595E+02
  0
LINE
  8
0
 62
6
 10
-1.73487556E+02
 20
9.44475937E+01
 11
-1.74487556E+02
 21
9.44475937E+01
  0
LINE
  8
0
 62
6
 10
-1.73487556E+02
 20
9.76475945E+01
 11
-1.74487556E+02
 21
9.76475945E+01
  0
LINE
  8
0
 62
6
 10
-1.74487556E+02
 20
9.44475937E+01
 11
-1.74487556E+02
 21
9.76475945E+01
  0
LINE
  8
0
 62
6
 10
-1.74787556E+02
 20
1.02047596E+02
 11
-1.68887554E+02
 21
1.02047596E+02
  0
LINE
  8
0
 62
6
 10
-1.68087555E+02
 20
1.08247593E+02
 11
-1.68887554E+02
 21
1.08247593E+02
  0
LINE
  8
0
 62
6
 10
-1.67887554E+02
 20
1.04447594E+02
 11
-1.67887554E+02
 21
1.08047596E+02
  0
LINE
  8
0
 62
6
 10
-1.68087555E+02
 20
1.04247593E+02
 11
-1.68887554E+02
 21
1.04247593E+02
  0
LINE
  8
0
 62
6
 10
-1.73487556E+02
 20
9.39475937E+01
 11
-1.73487556E+02
 21
1.00638412E+02
  0
LINE
  8
0
 62
6
 10
-1.74787556E+02
 20
1.01947594E+02
 11
-1.68887554E+02
 21
1.01947594E+02
  0
LINE
  8
0
 62
6
 10
-1.73487557E+02
 20
1.00638414E+02
 11
-1.68887557E+02
 21
1.01449518E+02
  0
LINE
  8
0
 62
6
 10
-1.68887554E+02
 20
1.01449516E+02
 11
-1.68887554E+02
 21
1.01947594E+02
  0
LINE
  8
0
 62
6
 10
-1.69487556E+02
 20
1.02047596E+02
 11
-1.69487556E+02
 21
1.01947594E+02
  0
LINE
  8
0
 62
6
 10
-1.76987555E+02
 20
9.33304490E+01
 11
-1.73487555E+02
 21
9.39475934E+01
  0
LINE
  8
0
  6
CENTER
 62
6
 10
-1.54271065E+02
 20
1.06247593E+02
 11
-1.69999554E+02
 21
1.06247593E+02
  0
LINE
  8
0
 62
6
 10
-1.88487556E+02
 20
1.19547596E+02
 11
-1.68887554E+02
 21
1.19547596E+02
  0
LINE
  8
0
 62
6
 10
-1.87287556E+02
 20
1.19547596E+02
 11
-1.87287556E+02
 21
1.18047596E+02
  0
LINE
  8
0
 62
6
 10
-1.74787556E+02
 20
1.18047596E+02
 11
-1.87287556E+02
 21
1.18047596E+02
  0
LINE
  8
0
 62
6
 10
-1.68887554E+02
 20
1.02047596E+02
 11
-1.68887554E+02
 21
1.19547596E+02
  0
LINE
  8
0
 62
6
 10
-1.74787556E+02
 20
1.18047596E+02
 11
-1.74787556E+02
 21
1.01947594E+02
  0
LINE
  8
0
 62
7
 10
-1.64487556E+02
 20
4.87519836E+01
 11
-1.64487556E+02
 21
4.45519791E+01
  0
LINE
  8
0
 62
7
 10
-1.88487556E+02
 20
1.49049240E+02
 11
-1.88487556E+02
 21
8.75492401E+01
  0
LINE
  8
0
 62
7
 10
-2.09487555E+02
 20
1.62549240E+02
 11
-2.09487555E+02
 21
8.75492401E+01
  0
LINE
  8
0
 62
6
 10
-1.84487556E+02
 20
1.49049240E+02
 11
-1.88487556E+02
 21
1.49049240E+02
  0
LINE
  8
0
 62
6
 10
-1.86987556E+02
 20
1.52549240E+02
 11
-1.87487556E+02
 21
1.52549240E+02
  0
LINE
  8
0
 62
6
 10
-1.86987556E+02
 20
1.55549240E+02
 11
-1.87487556E+02
 21
1.55549240E+02
  0
LINE
  8
0
 62
6
 10
-1.84487556E+02
 20
1.55649240E+02
 11
-1.87487556E+02
 21
1.55649240E+02
  0
LINE
  8
0
 62
6
 10
-1.84487556E+02
 20
1.52449240E+02
 11
-1.87487556E+02
 21
1.52449240E+02
  0
LINE
  8
0
 62
6
 10
-1.87487556E+02
 20
1.55649240E+02
 11
-1.87487556E+02
 21
1.52449240E+02
  0
LINE
  8
0
 62
7
 10
-2.35487555E+02
 20
4.45519791E+01
 11
-2.09487555E+02
 21
4.45519791E+01
  0
LINE
  8
0
 62
7
 10
-2.35487555E+02
 20
1.62549240E+02
 11
-2.35487555E+02
 21
4.45519791E+01
  0
LINE
  8
0
 62
7
 10
-2.35487555E+02
 20
8.75492401E+01
 11
-2.09487555E+02
 21
8.75492401E+01
  0
LINE
  8
0
 62
7
 10
-2.09487555E+02
 20
8.75492401E+01
 11
-2.09487555E+02
 21
4.45519791E+01
  0
LINE
  8
0
  6
PHANTOM
 62
2
 10
-1.64487556E+02
 20
6.25519791E+01
 11
-1.63887554E+02
 21
6.25519791E+01
  0
LINE
  8
0
  6
CENTER
 62
2
 10
-2.27587555E+02
 20
8.77847214E+01
 11
-2.27587555E+02
 21
9.43467636E+01
  0
LINE
  8
0
  6
CENTER
 62
2
 10
-2.31234402E+02
 20
9.10519791E+01
 11
-2.23945814E+02
 21
9.10519791E+01
  0
LINE
  8
0
  6
CENTER
 62
2
 10
-2.25587555E+02
 20
1.54530278E+02
 11
-2.25587555E+02
 21
1.62078528E+02
  0
LINE
  8
0
  6
CENTER
 62
2
 10
-2.21711261E+02
 20
1.58549240E+02
 11
-2.29889584E+02
 21
1.58549240E+02
  0
LINE
  8
0
  6
PHANTOM
 62
2
 10
-1.64487556E+02
 20
6.25519791E+01
 11
-1.64487556E+02
 21
8.00519791E+01
  0
LINE
  8
0
  6
PHANTOM
 62
2
 10
-2.09487555E+02
 20
8.73519821E+01
 11
-1.67987556E+02
 21
8.73519821E+01
  0
LINE
  8
0
 62
7
 10
-2.09487555E+02
 20
6.25519791E+01
 11
-1.64487556E+02
 21
6.25519791E+01
  0
LINE
  8
0
  6
PHANTOM
 62
2
 10
-1.67987555E+02
 20
8.73519803E+01
 11
-1.64487557E+02
 21
8.00519852E+01
  0
LINE
  8
0
  6
PHANTOM
 62
2
 10
-1.71864265E+02
 20
8.83519821E+01
 11
-1.66364265E+02
 21
8.83519821E+01
  0
LINE
  8
0
  6
PHANTOM
 62
2
 10
-1.63687553E+02
 20
6.27519836E+01
 11
-1.63687553E+02
 21
6.99519806E+01
  0
LINE
  8
0
  6
PHANTOM
 62
2
 10
-1.63487556E+02
 20
7.93519821E+01
 11
-1.64487556E+02
 21
7.93519821E+01
  0
LINE
  8
0
  6
PHANTOM
 62
2
 10
-1.63487556E+02
 20
8.23519821E+01
 11
-1.63487556E+02
 21
7.93519821E+01
  0
LINE
  8
0
  6
PHANTOM
 62
2
 10
-1.66364268E+02
 20
8.83519798E+01
 11
-1.63487558E+02
 21
8.23519848E+01
  0
LINE
  8
0
  6
PHANTOM
 62
2
 10
-1.72364265E+02
 20
8.73519815E+01
 11
-1.71864267E+02
 21
8.83519784E+01
  0
LINE
  8
0
  6
PHANTOM
 62
2
 10
-1.64487556E+02
 20
7.01519775E+01
 11
-1.63887554E+02
 21
7.01519775E+01
  0
LINE
  8
0
  6
PHANTOM
 62
2
 10
-1.63687553E+02
 20
6.45519791E+01
 11
-1.54769203E+02
 21
6.45519791E+01
  0
LINE
  8
0
  6
PHANTOM
 62
2
 10
-1.63687553E+02
 20
6.83519821E+01
 11
-1.52575272E+02
 21
6.83519821E+01
  0
LINE
  8
0
  6
PHANTOM
 62
2
 10
-1.39487556E+02
 20
6.45519791E+01
 11
-1.39487556E+02
 21
6.83519821E+01
  0
LINE
  8
0
  6
PHANTOM
 62
2
 10
-1.55826165E+02
 20
6.27212663E+01
 11
-1.51013934E+02
 21
7.10562949E+01
  0
LINE
  8
0
  6
PHANTOM
 62
2
 10
-1.53059753E+02
 20
6.25128331E+01
 11
-1.48234905E+02
 21
7.08697151E+01
  0
LINE
  8
0
  6
PHANTOM
 62
2
 10
-1.49688522E+02
 20
6.83519821E+01
 11
-1.39487556E+02
 21
6.83519821E+01
  0
LINE
  8
0
  6
PHANTOM
 62
2
 10
-1.51882454E+02
 20
6.45519791E+01
 11
-1.39487556E+02
 21
6.45519791E+01
  0
LINE
  8
0
  6
PHANTOM
 62
2
 10
-1.33753555E+02
 20
6.80519791E+01
 11
-1.39487556E+02
 21
6.80519791E+01
  0
LINE
  8
0
  6
PHANTOM
 62
2
 10
-1.39487557E+02
 20
6.50389569E+01
 11
-1.31010272E+02
 21
6.42972906E+01
  0
LINE
  8
0
  6
PHANTOM
 62
2
 10
-1.31162935E+02
 20
6.43120906E+01
 11
-1.13861419E+02
 21
6.12613664E+01
  0
LINE
  8
0
  6
PHANTOM
 62
2
 10
-1.30989287E+02
 20
6.52968983E+01
 11
-1.13514126E+02
 21
6.22155560E+01
  0
LINE
  8
0
  6
PHANTOM
 62
2
 10
-1.33744365E+02
 20
6.80519766E+01
 11
-1.30989285E+02
 21
6.52968971E+01
  0
LINE
  8
0
  6
PHANTOM
 62
2
 10
-1.13861423E+02
 20
6.12613674E+01
 11
-1.13514127E+02
 21
6.22155563E+01
  0
LINE
  8
0
  6
PHANTOM
 62
2
 10
-1.31462761E+02
 20
6.57703705E+01
 11
-1.13586334E+02
 21
6.57703705E+01
  0
LINE
  8
0
  6
PHANTOM
 62
2
 10
-1.32462761E+02
 20
6.67703705E+01
 11
-1.13586334E+02
 21
6.67703705E+01
  0
LINE
  8
0
  6
PHANTOM
 62
2
 10
-1.33462761E+02
 20
6.77703705E+01
 11
-1.13586334E+02
 21
6.77703705E+01
  0
LINE
  8
0
  6
PHANTOM
 62
2
 10
-1.13586334E+02
 20
6.48335114E+01
 11
-1.13586334E+02
 21
6.57703705E+01
  0
LINE
  8
0
  6
PHANTOM
 62
2
 10
-1.20586334E+02
 20
6.52003632E+01
 11
-1.20586334E+02
 21
6.84451981E+01
  0
LINE
  8
0
  6
PHANTOM
 62
2
 10
-1.13586334E+02
 20
6.57703705E+01
 11
-1.13586334E+02
 21
6.77703705E+01
  0
LINE
  8
0
  6
PHANTOM
 62
2
 10
-1.13586334E+02
 20
6.77703705E+01
 11
-1.13586334E+02
 21
6.88120499E+01
  0
LINE
  8
0
  6
PHANTOM
 62
2
 10
-1.33462761E+02
 20
6.77703736E+01
 11
-1.13586337E+02
 21
6.88120529E+01
  0
LINE
  8
0
  6
PHANTOM
 62
2
 10
-1.31462762E+02
 20
6.57703722E+01
 11
-1.13586333E+02
 21
6.48335082E+01
  0
LINE
  8
0
 62
7
 10
-1.88487556E+02
 20
8.75492401E+01
 11
-2.09487555E+02
 21
8.75492401E+01
  0
LINE
  8
0
 62
7
 10
-1.88487556E+02
 20
1.01049240E+02
 11
-2.09487555E+02
 21
1.01049240E+02
  0
LINE
  8
0
 62
6
 10
-1.84487556E+02
 20
1.62549240E+02
 11
-1.88487556E+02
 21
1.62549240E+02
  0
LINE
  8
0
 62
7
 10
-1.88487556E+02
 20
1.62549240E+02
 11
-1.88487556E+02
 21
1.49049240E+02
  0
LINE
  8
0
 62
7
 10
-1.64187553E+02
 20
5.52019806E+01
 11
-1.57987556E+02
 21
5.52019806E+01
  0
LINE
  8
0
 62
7
 10
-1.64187553E+02
 20
4.53019791E+01
 11
-1.57987556E+02
 21
4.53019791E+01
  0
LINE
  8
0
 62
7
 10
-1.56487556E+02
 20
5.37019806E+01
 11
-1.56487556E+02
 21
4.68019791E+01
  0
LINE
  8
0
 62
7
 10
-1.64187556E+02
 20
5.52019824E+01
 11
-1.64487557E+02
 21
5.49019818E+01
  0
LINE
  8
0
 62
7
 10
-1.64187555E+02
 20
4.53019818E+01
 11
-1.64487554E+02
 21
4.56019811E+01
  0
LINE
  8
0
 62
7
 10
-1.64487556E+02
 20
4.45519791E+01
 11
-2.09487555E+02
 21
4.45519791E+01
  0
LINE
  8
0
 62
7
 10
-1.88487556E+02
 20
1.62549240E+02
 11
-2.35487555E+02
 21
1.62549240E+02
  0
LINE
  8
0
 62
7
 10
-1.88487556E+02
 20
1.49049240E+02
 11
-2.09487555E+02
 21
1.49049240E+02
  0
LINE
  8
0
  6
CENTER
 62
6
 10
-1.90028641E+02
 20
9.60475960E+01
 11
-1.71011082E+02
 21
9.60475960E+01
  0
LINE
  8
0
 62
6
 10
-2.09487555E+02
 20
6.30519791E+01
 11
-2.00987555E+02
 21
6.30519791E+01
  0
LINE
  8
0
 62
6
 10
-2.00987555E+02
 20
6.30519791E+01
 11
-2.00987555E+02
 21
8.70519791E+01
  0
LINE
  8
0
 62
6
 10
-2.09487555E+02
 20
8.70519791E+01
 11
-2.00987555E+02
 21
8.70519791E+01
  0
ARC
  8
0
 62
7
 10
-2.22787555E+02
 20
1.33849239E+02
 40
2.00000003E-01
 50
0.00000000E+00
 51
9.00000002E+01
  0
ARC
  8
0
 62
7
 10
-2.32387555E+02
 20
9.67492409E+01
 40
2.00000003E-01
 50
1.79999995E+02
 51
2.70000000E+02
  0
ARC
  8
0
 62
7
 10
-2.21487555E+02
 20
1.35149240E+02
 40
2.00000003E-01
 50
0.00000000E+00
 51
9.00000002E+01
  0
ARC
  8
0
 62
7
 10
-2.33587555E+02
 20
1.35049240E+02
 40
3.00000012E-01
 50
9.00000002E+01
 51
1.80000005E+02
  0
ARC
  8
0
 62
7
 10
-2.21587555E+02
 20
9.55492401E+01
 40
3.00000012E-01
 50
2.70000000E+02
 51
0.00000000E+00
  0
ARC
  8
0
 62
7
 10
-2.33587555E+02
 20
9.55492401E+01
 40
3.00000012E-01
 50
1.79999995E+02
 51
2.70000000E+02
  0
ARC
  8
0
 62
7
 10
-2.32287555E+02
 20
1.33749241E+02
 40
3.00000012E-01
 50
9.00000002E+01
 51
1.80000005E+02
  0
ARC
  8
0
 62
7
 10
-2.22887555E+02
 20
9.68492393E+01
 40
3.00000012E-01
 50
2.70000000E+02
 51
0.00000000E+00
  0
ARC
  8
0
 62
7
 10
-2.31387555E+02
 20
9.77492409E+01
 40
2.00000003E-01
 50
1.79999995E+02
 51
2.70000000E+02
  0
ARC
  8
0
 62
7
 10
-2.23887555E+02
 20
9.78492393E+01
 40
3.00000012E-01
 50
2.70000000E+02
 51
0.00000000E+00
  0
ARC
  8
0
 62
7
 10
-2.31287555E+02
 20
1.33749241E+02
 40
3.00000012E-01
 50
9.00000002E+01
 51
1.80000005E+02
  0
ARC
  8
0
 62
7
 10
-2.23787555E+02
 20
1.33849239E+02
 40
2.00000003E-01
 50
0.00000000E+00
 51
9.00000002E+01
  0
ARC
  8
0
 62
7
 10
-1.90487556E+02
 20
9.00492401E+01
 40
2.50000000E+00
 50
2.33130097E+02
 51
3.06869898E+02
  0
ARC
  8
0
 62
7
 10
-2.07487555E+02
 20
1.60049240E+02
 40
2.50000000E+00
 50
5.31301018E+01
 51
1.26869903E+02
  0
ARC
  8
0
 62
7
 10
-1.90136547E+02
 20
1.33999474E+02
 40
7.99777389E-01
 50
1.59492465E+01
 51
8.97141315E+01
  0
ARC
  8
0
 62
7
 10
-1.90131989E+02
 20
1.31094879E+02
 40
7.95639873E-01
 50
2.70000000E+02
 51
3.43900220E+02
  0
ARC
  8
0
 62
7
 10
-1.95124964E+02
 20
1.32546740E+02
 40
5.99541616E+00
 50
3.43801670E+02
 51
1.61983298E+01
  0
ARC
  8
0
 62
7
 10
-2.13490055E+02
 20
5.11893921E+01
 40
5.99541616E+00
 50
2.53801671E+02
 51
2.86198330E+02
  0
ARC
  8
0
 62
7
 10
-2.14941916E+02
 20
4.61964188E+01
 40
7.95639873E-01
 50
1.79959311E+02
 51
2.53900234E+02
  0
ARC
  8
0
 62
7
 10
-2.12037322E+02
 20
4.62009735E+01
 40
7.99777389E-01
 50
2.85949247E+02
 51
3.59714132E+02
  0
ARC
  8
0
 62
6
 10
-1.74387554E+02
 20
9.50475960E+01
 40
5.00000000E-01
 50
2.70000000E+02
 51
0.00000000E+00
  0
ARC
  8
0
 62
6
 10
-1.74387554E+02
 20
9.70475960E+01
 40
5.00000000E-01
 50
0.00000000E+00
 51
9.00000002E+01
  0
ARC
  8
0
 62
6
 10
-1.68086845E+02
 20
1.08048306E+02
 40
1.99289829E-01
 50
3.59795462E+02
 51
9.00000002E+01
  0
ARC
  8
0
 62
6
 10
-1.68086845E+02
 20
1.04446884E+02
 40
1.99289829E-01
 50
2.70000000E+02
 51
2.04538593E-01
  0
ARC
  8
0
 62
6
 10
-1.88987556E+02
 20
1.54049240E+02
 40
2.50000000E+00
 50
3.23130102E+02
 51
3.68698973E+01
  0
CIRCLE
  8
0
 62
7
 10
-2.27587555E+02
 20
9.10519791E+01
 40
2.29999995E+00
  0
CIRCLE
  8
0
 62
7
 10
-2.25587555E+02
 20
1.58549240E+02
 40
2.29999995E+00
  0
ARC
  8
0
  6
PHANTOM
 62
2
 10
-1.63887554E+02
 20
6.99519806E+01
 40
2.00000003E-01
 50
0.00000000E+00
 51
9.00000002E+01
  0
ARC
  8
0
  6
PHANTOM
 62
2
 10
-1.63887554E+02
 20
6.27519836E+01
 40
2.00000003E-01
 50
2.70000000E+02
 51
0.00000000E+00
  0
CIRCLE
  8
0
  6
PHANTOM
 62
2
 10
-2.04987555E+02
 20
8.09519806E+01
 40
1.64999998E+00
  0
CIRCLE
  8
0
  6
PHANTOM
 62
2
 10
-2.04987555E+02
 20
6.89519806E+01
 40
1.64999998E+00
  0
ARC
  8
0
 62
7
 10
-1.57987556E+02
 20
5.37019806E+01
 40
1.50000000E+00
 50
0.00000000E+00
 51
9.00000002E+01
  0
ARC
  8
0
 62
7
 10
-1.57987556E+02
 20
4.68019791E+01
 40
1.50000000E+00
 50
2.70000000E+02
 51
0.00000000E+00
  0
TEXT
  8
0
 62
7
 10
-3.69850268E+02
 20
2.63100000E+02
 40
6.29999924E+00
  1
GME SERIES
 41
1.06382946E+00
  7
MONOTXT
  0
TEXT
  8
0
 62
7
 10
-3.85600561E+02
 20
2.38100000E+02
 40
6.29999924E+00
  1
MODEL:GME07-E1
 41
9.99999697E-01
  7
MONOTXT
  0
TEXT
  8
0
 62
7
 10
3.15499656E+02
 20
2.63100000E+02
 40
6.29999924E+00
  1
Ver. 1.0
 41
1.08108075E+00
  7
MONOTXT
  0
TEXT
  8
0
 62
7
 10
2.87585227E+02
 20
-2.71250000E+02
 40
9.00000000E+00
  1
KOGANEI CORP.
 41
1.04838732E+00
  7
MONOTXT
  0
TEXT
  8
0
 62
7
 10
-3.85600561E+02
 20
-1.83999996E+01
 40
6.29999924E+00
  1
MODEL:GME07-E2
 41
9.99999697E-01
  7
MONOTXT
  0
TEXT
  8
0
 62
7
 10
1.39243412E+01
 20
2.58100000E+02
 40
6.29999924E+00
  1
-UR(GME07-E1)
 41
9.99999697E-01
  7
MONOTXT
  0
TEXT
  8
0
 62
7
 10
1.97185089E+02
 20
2.16000004E+01
 40
6.29999924E+00
  1
-PL,-ML
 41
9.99999697E-01
  7
MONOTXT
  0
TEXT
  8
0
 62
7
 10
1.61746211E+01
 20
2.16000004E+01
 40
6.29999924E+00
  1
-21
 41
9.99999697E-01
  7
MONOTXT
  0
LINE
  8
0
 62
7
 10
3.99799805E+02
 20
2.76250000E+02
 11
3.99799805E+02
 21
-2.76750000E+02
  0
LINE
  8
0
 62
7
 10
-3.99250000E+02
 20
2.76250000E+02
 11
-3.99250000E+02
 21
-2.76750000E+02
  0
LINE
  8
0
 62
7
 10
-3.99250000E+02
 20
2.76250000E+02
 11
3.99799805E+02
 21
2.76250000E+02
  0
LINE
  8
0
 62
7
 10
-3.99250000E+02
 20
-2.76750000E+02
 11
3.99799805E+02
 21
-2.76750000E+02
  0
LINE
  8
0
 62
7
 10
-2.79250000E+02
 20
2.76250000E+02
 11
-2.79250000E+02
 21
2.56250000E+02
  0
LINE
  8
0
 62
7
 10
-3.99250000E+02
 20
2.56250000E+02
 11
-2.79250000E+02
 21
2.56250000E+02
  0
LINE
  8
0
 62
7
 10
2.79799927E+02
 20
2.76250000E+02
 11
2.79799927E+02
 21
2.56250000E+02
  0
LINE
  8
0
 62
7
 10
2.79799927E+02
 20
2.56250000E+02
 11
3.99799805E+02
 21
2.56250000E+02
  0
LINE
  8
0
 62
7
 10
2.79799927E+02
 20
-2.56750000E+02
 11
2.79799927E+02
 21
-2.76750000E+02
  0
LINE
  8
0
 62
7
 10
2.79799927E+02
 20
-2.56750000E+02
 11
3.99799805E+02
 21
-2.56750000E+02
  0
LINE
  8
0
 62
7
 10
2.74902344E-01
 20
-2.76750000E+02
 11
2.74902344E-01
 21
2.76250000E+02
  0
LINE
  8
0
 62
7
 10
-3.99250000E+02
 20
-2.50000000E-01
 11
2.74902344E-01
 21
-2.50000000E-01
  0
LINE
  8
0
  6
DASHED
 62
2
 10
4.70180054E+01
 20
-1.92576733E+01
 11
4.70180054E+01
 21
-2.37576733E+01
  0
LINE
  8
0
  6
DASHED
 62
2
 10
3.92680054E+01
 20
-4.25767279E+00
 11
5.47680054E+01
 21
-4.25767279E+00
  0
LINE
  8
0
  6
DASHED
 62
2
 10
3.92680054E+01
 20
-4.25767279E+00
 11
3.92680054E+01
 21
-7.92576752E+01
  0
LINE
  8
0
  6
DASHED
 62
2
 10
5.47680054E+01
 20
-4.25767279E+00
 11
5.47680054E+01
 21
-7.92576752E+01
  0
LINE
  8
0
  6
DASHED
 62
2
 10
3.92680054E+01
 20
-7.92576752E+01
 11
5.47680054E+01
 21
-7.92576752E+01
  0
LINE
  8
0
 62
2
 10
5.47680054E+01
 20
-1.22254936E+02
 11
3.92680054E+01
 21
-1.22254936E+02
  0
LINE
  8
0
  6
DASHED
 62
2
 10
5.47680054E+01
 20
-7.92576752E+01
 11
5.47680054E+01
 21
-1.22254936E+02
  0
LINE
  8
0
  6
DASHED
 62
2
 10
3.92680054E+01
 20
-1.22254936E+02
 11
3.92680054E+01
 21
-7.92576752E+01
  0
LINE
  8
0
  6
CENTER
 62
2
 10
4.70180054E+01
 20
6.67480767E-01
 11
4.70180054E+01
 21
-1.24508118E+02
  0
LINE
  8
0
  6
DASHED
 62
2
 10
5.10180054E+01
 20
7.44732714E+00
 11
4.70180054E+01
 21
7.44732714E+00
  0
LINE
  8
0
  6
DASHED
 62
2
 10
4.70180054E+01
 20
2.44732714E+00
 11
5.10180054E+01
 21
2.44732714E+00
  0
LINE
  8
0
  6
DASHED
 62
2
 10
5.20180054E+01
 20
-2.57672846E-01
 11
4.60180054E+01
 21
-2.57672846E-01
  0
LINE
  8
0
  6
DASHED
 62
2
 10
5.25180054E+01
 20
-2.75767279E+00
 11
5.25180054E+01
 21
-7.57672846E-01
  0
LINE
  8
0
  6
DASHED
 62
2
 10
5.02680054E+01
 20
2.44732714E+00
 11
5.02680054E+01
 21
-2.57672846E-01
  0
LINE
  8
0
  6
DASHED
 62
2
 10
5.25180042E+01
 20
-7.57672197E-01
 11
5.20180037E+01
 21
-2.57671666E-01
  0
LINE
  8
0
  6
DASHED
 62
2
 10
5.15180032E+01
 20
2.94732839E+00
 11
5.10180026E+01
 21
2.44732786E+00
  0
LINE
  8
0
  6
DASHED
 62
2
 10
5.15180032E+01
 20
6.94732724E+00
 11
5.10180040E+01
 21
7.44732643E+00
  0
LINE
  8
0
  6
DASHED
 62
2
 10
5.15180054E+01
 20
6.94732714E+00
 11
5.15180054E+01
 21
2.94732714E+00
  0
LINE
  8
0
  6
DASHED
 62
2
 10
4.55180035E+01
 20
-2.75767297E+00
 11
4.60180041E+01
 21
-3.25767350E+00
  0
LINE
  8
0
  6
DASHED
 62
2
 10
4.55180022E+01
 20
-7.57672197E-01
 11
4.60180027E+01
 21
-2.57671666E-01
  0
LINE
  8
0
  6
DASHED
 62
2
 10
4.65180032E+01
 20
6.94732724E+00
 11
4.70180038E+01
 21
7.44732777E+00
  0
LINE
  8
0
  6
DASHED
 62
2
 10
4.70180038E+01
 20
2.44732786E+00
 11
4.65180046E+01
 21
2.94732704E+00
  0
LINE
  8
0
  6
DASHED
 62
2
 10
4.65180054E+01
 20
6.94732714E+00
 11
4.65180054E+01
 21
2.94732714E+00
  0
LINE
  8
0
  6
DASHED
 62
2
 10
4.55180054E+01
 20
-2.75767279E+00
 11
4.55180054E+01
 21
-7.57672846E-01
  0
LINE
  8
0
  6
DASHED
 62
2
 10
4.77680054E+01
 20
2.44732714E+00
 11
4.77680054E+01
 21
-2.57672846E-01
  0
LINE
  8
0
  6
DASHED
 62
2
 10
5.25180042E+01
 20
-2.75767432E+00
 11
5.20180037E+01
 21
-3.25767485E+00
  0
LINE
  8
0
  6
DASHED
 62
2
 10
4.53180046E+01
 20
-3.25767279E+00
 11
5.27180061E+01
 21
-3.25767279E+00
  0
LINE
  8
0
  6
DASHED
 62
2
 10
5.30180054E+01
 20
-4.25767279E+00
 11
5.30180054E+01
 21
-3.55767274E+00
  0
LINE
  8
0
  6
DASHED
 62
2
 10
4.50180054E+01
 20
-4.25767279E+00
 11
4.50180054E+01
 21
-3.55767274E+00
  0
LINE
  8
0
  6
DASHED
 62
2
 10
4.50180030E+01
 20
-3.55767274E+00
 11
4.53180036E+01
 21
-3.25767215E+00
  0
LINE
  8
0
  6
DASHED
 62
2
 10
5.27180028E+01
 20
-3.25767215E+00
 11
5.30180048E+01
 21
-3.55767409E+00
  0
LINE
  8
0
  6
DASHED
 62
2
 10
4.50180054E+01
 20
-3.55767274E+00
 11
5.30180054E+01
 21
-3.55767274E+00
  0
LINE
  8
0
  6
DASHED
 62
2
 10
4.90180054E+01
 20
1.12286062E+01
 11
4.90180054E+01
 21
-5.73522329E+00
  0
ENDSEC
  0
EOF
