  0
SECTION
  2
HEADER
  9
$ACADVER
  1
AC1003
  9
$EXTMIN
 10
-3.99250000E+02
 20
-2.76750000E+02
  9
$EXTMAX
 10
3.99799805E+02
 20
2.76250000E+02
  9
$LIMMIN
 10
-3.99251000E+02
 20
-2.76751000E+02
  9
$LIMMAX
 10
3.99800805E+02
 20
2.76251000E+02
  9
$SNAPUNIT
 10
1
 20
1
  9
$SNAPBASE
 10
0
 20
0
  9
$GRIDMODE
 70
0
  9
$GRIDUNIT
 10
0
 20
0
  9
$LTSCALE
 40
1.33174967E+01
  9
$TEXTSIZE
 40
3.2
  9
$DIMTAD
 70
0
  9
$LUNITS
 70
2
  9
$LUPREC
 70
4
  9
$FILLETRAD
 40
0
  9
$AUNITS
 70
0
  9
$AUPREC
 70
0
  0
ENDSEC
  0
SECTION
  2
TABLES
  0
TABLE
  2
LTYPE
 70
2
  0
LTYPE
  2
CONTINUOUS
 70
64
  3
Solid-Line
 72
65
 73
0
 40
0
  0
LTYPE
  2
DASHED
 70
64
  3
DASHED
 72
65
 73
2
 40
.75
 49
.5
 49
-.25
  0
LTYPE
  2
HIDDEN
 70
64
  3
HIDDEN
 72
65
 73
2
 40
.375
 49
.25
 49
-.125
  0
LTYPE
  2
CENTER
 70
64
  3
CENTER
 72
65
 73
4
 40
2
 49
1.25
 49
-.25
 49
.25
 49
-.25
  0
LTYPE
  2
PHANTOM
 70
64
  3
PHANTOM
 72
65
 73
6
 40
2.5
 49
1.25
 49
-.25
 49
.25
 49
-.25
 49
.25
 49
-.25
  0
ENDTAB
  0
TABLE
  2
LAYER
 70
1
  0
LAYER
  2
1
 70
0
 62
7
  6
CONTINUOUS
 0
ENDTAB
  0
TABLE
  2
STYLE
 70
2
  0
STYLE
  2
MONOTXT
 70
0
 40
0
 41
1
 50
0
 71
0
 42
.2
  3
monotxt
  0
STYLE
  2
BIGFONT
 70
0
 40
0
 41
1
 50
0
 71
0
 42
.2
  3
txt
  4
bigfont
  0
ENDTAB
  0
ENDSEC
  0
SECTION
  2
ENTITIES
  0
LINE
  8
0
  6
CENTER
 62
6
 10
3.35884583E+02
 20
-2.14399569E+02
 11
3.35884583E+02
 21
-1.77511894E+02
  0
LINE
  8
0
 62
6
 10
3.30884583E+02
 20
-2.10892899E+02
 11
3.40884583E+02
 21
-2.10892899E+02
  0
LINE
  8
0
 62
6
 10
3.40884583E+02
 20
-2.10892899E+02
 11
3.40884583E+02
 21
-1.85292898E+02
  0
LINE
  8
0
 62
6
 10
3.30884583E+02
 20
-2.10892899E+02
 11
3.30884583E+02
 21
-1.85292898E+02
  0
LINE
  8
0
 62
6
 10
3.30884583E+02
 20
-1.85292898E+02
 11
3.40884583E+02
 21
-1.85292898E+02
  0
LINE
  8
0
 62
6
 10
3.31184582E+02
 20
-1.85192898E+02
 11
3.40584582E+02
 21
-1.85192898E+02
  0
LINE
  8
0
 62
6
 10
3.39984582E+02
 20
-1.85192898E+02
 11
3.39984582E+02
 21
-1.85292898E+02
  0
LINE
  8
0
 62
6
 10
3.31784582E+02
 20
-1.85192898E+02
 11
3.31784582E+02
 21
-1.85292898E+02
  0
LINE
  8
0
 62
6
 10
3.31184582E+02
 20
-1.80192898E+02
 11
3.31184582E+02
 21
-1.85192898E+02
  0
LINE
  8
0
 62
6
 10
3.34024583E+02
 20
-1.75364132E+02
 11
3.34024583E+02
 21
-1.69762897E+02
  0
LINE
  8
0
 62
6
 10
3.32594583E+02
 20
-1.75792591E+02
 11
3.32594583E+02
 21
-1.69762897E+02
  0
LINE
  8
0
 62
6
 10
3.32594583E+02
 20
-1.80192898E+02
 11
3.32594583E+02
 21
-1.76822590E+02
  0
LINE
  8
0
 62
6
 10
3.34024583E+02
 20
-1.80192898E+02
 11
3.34024583E+02
 21
-1.76394135E+02
  0
LINE
  8
0
 62
6
 10
3.32984583E+02
 20
-1.69762897E+02
 11
3.32984583E+02
 21
-1.64762897E+02
  0
LINE
  8
0
 62
6
 10
3.33784582E+02
 20
-1.69762897E+02
 11
3.33784582E+02
 21
-1.64762897E+02
  0
LINE
  8
0
 62
6
 10
3.32594583E+02
 20
-1.69762897E+02
 11
3.34094583E+02
 21
-1.69762897E+02
  0
LINE
  8
0
 62
6
 10
3.32984583E+02
 20
-1.64762897E+02
 11
3.33784582E+02
 21
-1.64762897E+02
  0
LINE
  8
0
 62
6
 10
3.39104582E+02
 20
-1.73842068E+02
 11
3.39104582E+02
 21
-1.69762897E+02
  0
LINE
  8
0
 62
6
 10
3.37674582E+02
 20
-1.74270523E+02
 11
3.37674582E+02
 21
-1.69762897E+02
  0
LINE
  8
0
 62
6
 10
3.37674582E+02
 20
-1.80192898E+02
 11
3.37674582E+02
 21
-1.75300522E+02
  0
LINE
  8
0
 62
6
 10
3.39104582E+02
 20
-1.80192898E+02
 11
3.39104582E+02
 21
-1.74872066E+02
  0
LINE
  8
0
 62
6
 10
3.38784583E+02
 20
-1.69762897E+02
 11
3.38784583E+02
 21
-1.64762897E+02
  0
LINE
  8
0
 62
6
 10
3.37984582E+02
 20
-1.69762897E+02
 11
3.37984582E+02
 21
-1.64762897E+02
  0
LINE
  8
0
 62
6
 10
3.39104582E+02
 20
-1.69762897E+02
 11
3.37674582E+02
 21
-1.69762897E+02
  0
LINE
  8
0
 62
6
 10
3.38784583E+02
 20
-1.64762897E+02
 11
3.37984582E+02
 21
-1.64762897E+02
  0
LINE
  8
0
  6
PHANTOM
 62
6
 10
3.40220861E+02
 20
-1.74537608E+02
 11
3.31423769E+02
 21
-1.77173389E+02
  0
LINE
  8
0
  6
PHANTOM
 62
6
 10
3.40220861E+02
 20
-1.73507608E+02
 11
3.31423769E+02
 21
-1.76143389E+02
  0
LINE
  8
0
 62
6
 10
3.31184582E+02
 20
-1.80904222E+02
 11
3.40584582E+02
 21
-1.80904222E+02
  0
LINE
  8
0
 62
6
 10
3.31184582E+02
 20
-1.81192898E+02
 11
3.40584582E+02
 21
-1.81192898E+02
  0
LINE
  8
0
 62
6
 10
3.40584582E+02
 20
-1.80192898E+02
 11
3.40584582E+02
 21
-1.85192898E+02
  0
LINE
  8
0
 62
6
 10
3.31184582E+02
 20
-1.80192898E+02
 11
3.40584582E+02
 21
-1.80192898E+02
  0
LINE
  8
0
 62
6
 10
3.40884583E+02
 20
-1.91292898E+02
 11
3.30884583E+02
 21
-1.91292898E+02
  0
LINE
  8
0
 62
6
 10
3.40884583E+02
 20
-1.95892899E+02
 11
3.30884583E+02
 21
-1.95892899E+02
  0
LINE
  8
0
 62
6
 10
3.40884583E+02
 20
-1.99392899E+02
 11
3.30884583E+02
 21
-1.99392899E+02
  0
LINE
  8
0
 62
6
 10
3.30884583E+02
 20
-1.90292898E+02
 11
3.40884583E+02
 21
-1.90292898E+02
  0
LINE
  8
0
  6
CENTER
 62
6
 10
3.32384583E+02
 20
-2.14399569E+02
 11
3.32384583E+02
 21
-2.07828732E+02
  0
LINE
  8
0
  6
CENTER
 62
6
 10
3.39384583E+02
 20
-2.14399569E+02
 11
3.39384583E+02
 21
-2.07828732E+02
  0
LINE
  8
0
 62
6
 10
3.30884583E+02
 20
-2.17928982E+01
 11
3.40884583E+02
 21
-2.17928982E+01
  0
LINE
  8
0
 62
6
 10
3.38384583E+02
 20
-4.68928986E+01
 11
3.40884583E+02
 21
-4.68928986E+01
  0
LINE
  8
0
 62
6
 10
3.38384583E+02
 20
-4.32589245E+01
 11
3.33384583E+02
 21
-4.32589245E+01
  0
LINE
  8
0
 62
6
 10
3.40584582E+02
 20
-4.68928986E+01
 11
3.40584582E+02
 21
-5.18928986E+01
  0
LINE
  8
0
 62
6
 10
3.38384583E+02
 20
-4.23928986E+01
 11
3.38384583E+02
 21
-5.08928986E+01
  0
LINE
  8
0
 62
6
 10
3.39484582E+02
 20
-4.68928986E+01
 11
3.39484582E+02
 21
-5.18928986E+01
  0
LINE
  8
0
 62
6
 10
3.32284583E+02
 20
-4.68928986E+01
 11
3.32284583E+02
 21
-5.18928986E+01
  0
LINE
  8
0
 62
6
 10
3.38384583E+02
 20
-4.98928986E+01
 11
3.33384583E+02
 21
-4.98928986E+01
  0
LINE
  8
0
 62
6
 10
3.38384583E+02
 20
-5.01815739E+01
 11
3.33384583E+02
 21
-5.01815739E+01
  0
LINE
  8
0
 62
6
 10
3.33384583E+02
 20
-4.23928986E+01
 11
3.33384583E+02
 21
-5.08928986E+01
  0
LINE
  8
0
 62
6
 10
3.31184582E+02
 20
-4.68928986E+01
 11
3.31184582E+02
 21
-5.18928986E+01
  0
LINE
  8
0
 62
6
 10
3.33384583E+02
 20
-5.08928986E+01
 11
3.38384583E+02
 21
-5.08928986E+01
  0
LINE
  8
0
 62
6
 10
3.31184582E+02
 20
-5.18928986E+01
 11
3.40584582E+02
 21
-5.18928986E+01
  0
LINE
  8
0
 62
6
 10
3.33384583E+02
 20
-4.23928986E+01
 11
3.38384583E+02
 21
-4.23928986E+01
  0
LINE
  8
0
 62
6
 10
3.37384583E+02
 20
-3.83928986E+01
 11
3.37384583E+02
 21
-4.13928986E+01
  0
LINE
  8
0
 62
6
 10
3.34384583E+02
 20
-3.83928986E+01
 11
3.34384583E+02
 21
-4.13928986E+01
  0
LINE
  8
0
 62
6
 10
3.37384583E+02
 20
-3.83928986E+01
 11
3.34384583E+02
 21
-3.83928986E+01
  0
LINE
  8
0
 62
6
 10
3.38784583E+02
 20
-4.13928986E+01
 11
3.38784583E+02
 21
-4.68928986E+01
  0
LINE
  8
0
 62
6
 10
3.32984583E+02
 20
-4.13928986E+01
 11
3.32984583E+02
 21
-4.68928986E+01
  0
LINE
  8
0
 62
6
 10
3.30884583E+02
 20
-4.68928986E+01
 11
3.33384583E+02
 21
-4.68928986E+01
  0
LINE
  8
0
 62
6
 10
3.30884583E+02
 20
-2.17928982E+01
 11
3.30884583E+02
 21
-4.68928986E+01
  0
LINE
  8
0
 62
6
 10
3.40884583E+02
 20
-2.17928982E+01
 11
3.40884583E+02
 21
-4.68928986E+01
  0
LINE
  8
0
 62
6
 10
3.40884583E+02
 20
-2.29928982E+01
 11
3.30884583E+02
 21
-2.29928982E+01
  0
LINE
  8
0
 62
6
 10
3.40584582E+02
 20
-4.13928986E+01
 11
3.31184582E+02
 21
-4.13928986E+01
  0
LINE
  8
0
  6
PHANTOM
 62
6
 10
3.41464583E+02
 20
-5.72428977E+01
 11
3.30366270E+02
 21
-6.02024479E+01
  0
LINE
  8
0
  6
PHANTOM
 62
6
 10
3.41464583E+02
 20
-5.60028975E+01
 11
3.30366269E+02
 21
-5.89624479E+01
  0
LINE
  8
0
 62
6
 10
3.32629583E+02
 20
-5.18928986E+01
 11
3.32629583E+02
 21
-5.83589001E+01
  0
LINE
  8
0
 62
6
 10
3.34059582E+02
 20
-5.18928986E+01
 11
3.34059582E+02
 21
-5.79775639E+01
  0
LINE
  8
0
 62
6
 10
3.33744583E+02
 20
-6.74228992E+01
 11
3.32944583E+02
 21
-6.74228992E+01
  0
LINE
  8
0
 62
6
 10
3.32944583E+02
 20
-6.24228992E+01
 11
3.32944583E+02
 21
-6.74228992E+01
  0
LINE
  8
0
 62
6
 10
3.33744583E+02
 20
-6.24228992E+01
 11
3.33744583E+02
 21
-6.74228992E+01
  0
LINE
  8
0
 62
6
 10
3.32629583E+02
 20
-5.95988979E+01
 11
3.32629583E+02
 21
-6.24228992E+01
  0
LINE
  8
0
 62
6
 10
3.34059582E+02
 20
-5.92175655E+01
 11
3.34059582E+02
 21
-6.24228992E+01
  0
LINE
  8
0
 62
6
 10
3.32629583E+02
 20
-6.24228992E+01
 11
3.34059582E+02
 21
-6.24228992E+01
  0
LINE
  8
0
 62
6
 10
3.37709582E+02
 20
-5.18928986E+01
 11
3.37709582E+02
 21
-5.70042324E+01
  0
LINE
  8
0
 62
6
 10
3.39139583E+02
 20
-5.18928986E+01
 11
3.39139583E+02
 21
-5.66229000E+01
  0
LINE
  8
0
 62
6
 10
3.39139583E+02
 20
-5.78628979E+01
 11
3.39139583E+02
 21
-6.24228992E+01
  0
LINE
  8
0
 62
6
 10
3.37709582E+02
 20
-5.82442303E+01
 11
3.37709582E+02
 21
-6.24228992E+01
  0
LINE
  8
0
 62
6
 10
3.38024582E+02
 20
-6.24228992E+01
 11
3.38024582E+02
 21
-6.74228992E+01
  0
LINE
  8
0
 62
6
 10
3.38824583E+02
 20
-6.24228992E+01
 11
3.38824583E+02
 21
-6.74228992E+01
  0
LINE
  8
0
 62
6
 10
3.37709582E+02
 20
-6.24228992E+01
 11
3.39139583E+02
 21
-6.24228992E+01
  0
LINE
  8
0
 62
6
 10
3.38024582E+02
 20
-6.74228992E+01
 11
3.38824583E+02
 21
-6.74228992E+01
  0
LINE
  8
0
  6
CENTER
 62
6
 10
3.35884583E+02
 20
-1.94597275E+01
 11
3.35884583E+02
 21
-5.51739025E+01
  0
LINE
  8
0
  6
CENTER
 62
6
 10
3.39384583E+02
 20
-1.94597275E+01
 11
3.39384583E+02
 21
-2.63675303E+01
  0
LINE
  8
0
  6
CENTER
 62
6
 10
3.32384583E+02
 20
-1.94597275E+01
 11
3.32384583E+02
 21
-2.63675303E+01
  0
ARC
  8
0
 62
6
 10
3.40584582E+02
 20
-4.10928974E+01
 40
3.00000012E-01
 50
2.70000000E+02
 51
0.00000000E+00
  0
ARC
  8
0
 62
6
 10
3.31184582E+02
 20
-4.10928974E+01
 40
3.00000012E-01
 50
1.80000005E+02
 51
2.70000000E+02
  0
LINE
  8
0
  6
CENTER
 62
6
 10
2.51145096E+02
 20
-1.22894229E+02
 11
2.86260139E+02
 21
-1.22894229E+02
  0
LINE
  8
0
  6
CENTER
 62
6
 10
2.29914298E+02
 20
-1.31194229E+02
 11
2.52391800E+02
 21
-1.31194229E+02
  0
LINE
  8
0
 62
6
 10
2.33184586E+02
 20
-1.39694229E+02
 11
2.33184586E+02
 21
-1.07694229E+02
  0
LINE
  8
0
 62
6
 10
2.58384586E+02
 20
-1.25194229E+02
 11
2.62384586E+02
 21
-1.25194229E+02
  0
LINE
  8
0
 62
6
 10
2.58284586E+02
 20
-1.20394229E+02
 11
2.63384586E+02
 21
-1.20394229E+02
  0
LINE
  8
0
 62
6
 10
2.54850611E+02
 20
-1.19394229E+02
 11
2.61384586E+02
 21
-1.19394229E+02
  0
LINE
  8
0
 62
6
 10
2.34384586E+02
 20
-1.07694229E+02
 11
2.34384586E+02
 21
-1.09194229E+02
  0
LINE
  8
0
 62
6
 10
2.52184586E+02
 20
-1.25194229E+02
 11
2.52184586E+02
 21
-1.25294229E+02
  0
LINE
  8
0
 62
6
 10
2.53984585E+02
 20
-1.19894229E+02
 11
2.54850610E+02
 21
-1.19394229E+02
  0
LINE
  8
0
 62
6
 10
2.58284586E+02
 20
-1.24494229E+02
 11
2.58384586E+02
 21
-1.24494229E+02
  0
LINE
  8
0
 62
6
 10
2.58384586E+02
 20
-1.20394229E+02
 11
2.58384586E+02
 21
-1.25194229E+02
  0
LINE
  8
0
 62
6
 10
2.34384586E+02
 20
-1.09194229E+02
 11
2.46884585E+02
 21
-1.09194229E+02
  0
LINE
  8
0
 62
6
 10
2.58284586E+02
 20
-1.25194229E+02
 11
2.58284586E+02
 21
-1.19894229E+02
  0
LINE
  8
0
 62
6
 10
2.52784586E+02
 20
-1.19894229E+02
 11
2.52784586E+02
 21
-1.07694229E+02
  0
LINE
  8
0
 62
6
 10
2.34384586E+02
 20
-1.07694229E+02
 11
2.52784586E+02
 21
-1.07694229E+02
  0
LINE
  8
0
 62
6
 10
2.58284586E+02
 20
-1.19894229E+02
 11
2.52784586E+02
 21
-1.19894229E+02
  0
LINE
  8
0
 62
6
 10
2.58284586E+02
 20
-1.25194229E+02
 11
2.46884585E+02
 21
-1.25194229E+02
  0
LINE
  8
0
 62
6
 10
2.44684586E+02
 20
-1.39694229E+02
 11
2.44684586E+02
 21
-1.33911374E+02
  0
LINE
  8
0
 62
6
 10
2.44684586E+02
 20
-1.33911374E+02
 11
2.48184586E+02
 21
-1.33294229E+02
  0
LINE
  8
0
 62
6
 10
2.52784586E+02
 20
-1.25792307E+02
 11
2.52784586E+02
 21
-1.25294229E+02
  0
LINE
  8
0
 62
6
 10
2.48184585E+02
 20
-1.26603412E+02
 11
2.52784584E+02
 21
-1.25792308E+02
  0
LINE
  8
0
 62
6
 10
2.46884585E+02
 20
-1.25294229E+02
 11
2.52784586E+02
 21
-1.25294229E+02
  0
LINE
  8
0
 62
6
 10
2.43984586E+02
 20
-1.38994229E+02
 11
2.36384586E+02
 21
-1.38994229E+02
  0
LINE
  8
0
 62
6
 10
2.33184586E+02
 20
-1.07694229E+02
 11
2.34384586E+02
 21
-1.07694229E+02
  0
LINE
  8
0
 62
6
 10
2.48184586E+02
 20
-1.33294229E+02
 11
2.48184586E+02
 21
-1.26603412E+02
  0
LINE
  8
0
 62
6
 10
2.43984586E+02
 20
-1.38194229E+02
 11
2.36384586E+02
 21
-1.38194229E+02
  0
LINE
  8
0
 62
6
 10
2.43984586E+02
 20
-1.38194229E+02
 11
2.43984586E+02
 21
-1.38994229E+02
  0
LINE
  8
0
 62
6
 10
2.36384586E+02
 20
-1.38994229E+02
 11
2.36384586E+02
 21
-1.38194229E+02
  0
LINE
  8
0
 62
6
 10
2.46884585E+02
 20
-1.09194229E+02
 11
2.46884585E+02
 21
-1.25294229E+02
  0
LINE
  8
0
 62
6
 10
2.47184586E+02
 20
-1.32794229E+02
 11
2.47184586E+02
 21
-1.29594229E+02
  0
LINE
  8
0
 62
6
 10
2.48184586E+02
 20
-1.29594229E+02
 11
2.47184586E+02
 21
-1.29594229E+02
  0
LINE
  8
0
 62
6
 10
2.48184586E+02
 20
-1.32794229E+02
 11
2.47184586E+02
 21
-1.32794229E+02
  0
LINE
  8
0
 62
6
 10
2.47284586E+02
 20
-1.32694229E+02
 11
2.47184586E+02
 21
-1.32694229E+02
  0
LINE
  8
0
 62
6
 10
2.47284586E+02
 20
-1.29694229E+02
 11
2.47184586E+02
 21
-1.29694229E+02
  0
LINE
  8
0
 62
6
 10
2.47784586E+02
 20
-1.32194229E+02
 11
2.47784586E+02
 21
-1.30194229E+02
  0
LINE
  8
0
 62
6
 10
2.44684586E+02
 20
-1.39694229E+02
 11
2.33184586E+02
 21
-1.39694229E+02
  0
LINE
  8
0
 62
6
 10
2.63384586E+02
 20
-1.23644229E+02
 11
2.68004585E+02
 21
-1.23644229E+02
  0
LINE
  8
0
 62
6
 10
2.63384586E+02
 20
-1.22214230E+02
 11
2.68384586E+02
 21
-1.22214230E+02
  0
LINE
  8
0
 62
6
 10
2.73814587E+02
 20
-1.22214230E+02
 11
2.73814587E+02
 21
-1.23644229E+02
  0
LINE
  8
0
 62
6
 10
2.73814587E+02
 20
-1.22934229E+02
 11
2.83814587E+02
 21
-1.22934229E+02
  0
LINE
  8
0
 62
6
 10
2.73814587E+02
 20
-1.23334229E+02
 11
2.83814587E+02
 21
-1.23334229E+02
  0
LINE
  8
0
 62
6
 10
2.73814587E+02
 20
-1.22534229E+02
 11
2.83814587E+02
 21
-1.22534229E+02
  0
LINE
  8
0
 62
6
 10
2.69624584E+02
 20
-1.22214230E+02
 11
2.73814587E+02
 21
-1.22214230E+02
  0
LINE
  8
0
 62
6
 10
2.69244587E+02
 20
-1.23644229E+02
 11
2.73814587E+02
 21
-1.23644229E+02
  0
LINE
  8
0
 62
6
 10
2.68634586E+02
 20
-1.25934230E+02
 11
2.70234586E+02
 21
-1.19934230E+02
  0
LINE
  8
0
 62
6
 10
2.67394586E+02
 20
-1.25934230E+02
 11
2.68994586E+02
 21
-1.19934230E+02
  0
LINE
  8
0
 62
6
 10
2.62384584E+02
 20
-1.25194229E+02
 11
2.62673260E+02
 21
-1.25694230E+02
  0
LINE
  8
0
 62
6
 10
2.62673262E+02
 20
-1.25694229E+02
 11
2.63384586E+02
 21
-1.25694229E+02
  0
LINE
  8
0
 62
6
 10
2.61384584E+02
 20
-1.19394229E+02
 11
2.61673260E+02
 21
-1.18894229E+02
  0
LINE
  8
0
 62
6
 10
2.61673262E+02
 20
-1.18894229E+02
 11
2.62384586E+02
 21
-1.18894229E+02
  0
LINE
  8
0
 62
6
 10
2.63384586E+02
 20
-1.25694229E+02
 11
2.63384586E+02
 21
-1.20394229E+02
  0
LINE
  8
0
 62
6
 10
2.62384584E+02
 20
-1.20094473E+02
 11
2.60684584E+02
 21
-1.20394229E+02
  0
LINE
  8
0
 62
6
 10
2.62384586E+02
 20
-1.20094473E+02
 11
2.62384586E+02
 21
-1.18894229E+02
  0
LINE
  8
0
 62
6
 10
2.83814587E+02
 20
-1.23334229E+02
 11
2.83814587E+02
 21
-1.22534229E+02
  0
ARC
  8
0
 62
6
 10
2.47284586E+02
 20
-1.30194229E+02
 40
5.00000000E-01
 50
0.00000000E+00
 51
9.00000002E+01
  0
ARC
  8
0
 62
6
 10
2.47284586E+02
 20
-1.32194229E+02
 40
5.00000000E-01
 50
2.70000000E+02
 51
0.00000000E+00
  0
LINE
  8
0
  6
CENTER
 62
6
 10
3.39384583E+02
 20
-1.28694229E+02
 11
3.39384583E+02
 21
-1.33694229E+02
  0
LINE
  8
0
  6
CENTER
 62
6
 10
3.41884583E+02
 20
-1.31194229E+02
 11
3.36884583E+02
 21
-1.31194229E+02
  0
LINE
  8
0
  6
CENTER
 62
6
 10
3.32384583E+02
 20
-1.28694229E+02
 11
3.32384583E+02
 21
-1.33694229E+02
  0
LINE
  8
0
  6
CENTER
 62
6
 10
3.34884583E+02
 20
-1.31194229E+02
 11
3.29884583E+02
 21
-1.31194229E+02
  0
LINE
  8
0
  6
CENTER
 62
6
 10
3.35884583E+02
 20
-1.05100311E+02
 11
3.35884583E+02
 21
-1.41615629E+02
  0
LINE
  8
0
 62
6
 10
3.40584582E+02
 20
-1.07694229E+02
 11
3.31184582E+02
 21
-1.07694229E+02
  0
LINE
  8
0
 62
6
 10
3.37384583E+02
 20
-1.12694229E+02
 11
3.35884583E+02
 21
-1.12694229E+02
  0
LINE
  8
0
 62
6
 10
3.37384583E+02
 20
-1.12694229E+02
 11
3.37384583E+02
 21
-1.07694229E+02
  0
LINE
  8
0
 62
6
 10
3.34384583E+02
 20
-1.12694229E+02
 11
3.35884583E+02
 21
-1.12694229E+02
  0
LINE
  8
0
 62
6
 10
3.34384583E+02
 20
-1.12694229E+02
 11
3.34384583E+02
 21
-1.07694229E+02
  0
LINE
  8
0
 62
6
 10
3.30884583E+02
 20
-1.07994228E+02
 11
3.30884583E+02
 21
-1.39694229E+02
  0
LINE
  8
0
 62
6
 10
3.40884583E+02
 20
-1.07994228E+02
 11
3.40884583E+02
 21
-1.39703945E+02
  0
LINE
  8
0
 62
6
 10
3.30884583E+02
 20
-1.39694229E+02
 11
3.40884583E+02
 21
-1.39694229E+02
  0
LINE
  8
0
 62
6
 10
3.31184582E+02
 20
-1.25194229E+02
 11
3.30884583E+02
 21
-1.25194229E+02
  0
LINE
  8
0
 62
6
 10
3.31184582E+02
 20
-1.25294229E+02
 11
3.30884583E+02
 21
-1.25294229E+02
  0
LINE
  8
0
 62
6
 10
3.38384583E+02
 20
-1.19894229E+02
 11
3.40584582E+02
 21
-1.19894229E+02
  0
LINE
  8
0
 62
6
 10
3.38384583E+02
 20
-1.20894229E+02
 11
3.38784583E+02
 21
-1.20894229E+02
  0
LINE
  8
0
 62
6
 10
3.33384583E+02
 20
-1.20094229E+02
 11
3.38384583E+02
 21
-1.20094229E+02
  0
LINE
  8
0
 62
6
 10
3.33384583E+02
 20
-1.18894229E+02
 11
3.38384583E+02
 21
-1.18894229E+02
  0
LINE
  8
0
 62
6
 10
3.32184583E+02
 20
-1.21394229E+02
 11
3.39584582E+02
 21
-1.21394229E+02
  0
LINE
  8
0
 62
6
 10
3.31184582E+02
 20
-1.25694229E+02
 11
3.31184582E+02
 21
-1.20394229E+02
  0
LINE
  8
0
 62
6
 10
3.40584582E+02
 20
-1.25694229E+02
 11
3.40584582E+02
 21
-1.20394229E+02
  0
LINE
  8
0
 62
6
 10
3.31184582E+02
 20
-1.25694229E+02
 11
3.40584582E+02
 21
-1.25694229E+02
  0
LINE
  8
0
 62
6
 10
3.32794583E+02
 20
-1.23994229E+02
 11
3.32794583E+02
 21
-1.24494229E+02
  0
LINE
  8
0
 62
6
 10
3.33894583E+02
 20
-1.23994229E+02
 11
3.33894583E+02
 21
-1.24494229E+02
  0
LINE
  8
0
 62
6
 10
3.32394583E+02
 20
-1.21894229E+02
 11
3.34294582E+02
 21
-1.21894229E+02
  0
LINE
  8
0
 62
6
 10
3.32468583E+02
 20
-1.23994229E+02
 11
3.34218583E+02
 21
-1.23994229E+02
  0
LINE
  8
0
 62
6
 10
3.32794583E+02
 20
-1.24494229E+02
 11
3.33894583E+02
 21
-1.24494229E+02
  0
LINE
  8
0
 62
6
 10
3.37134583E+02
 20
-1.20394229E+02
 11
3.37134583E+02
 21
-1.21394229E+02
  0
LINE
  8
0
 62
6
 10
3.34634583E+02
 20
-1.20394229E+02
 11
3.34634583E+02
 21
-1.21394229E+02
  0
LINE
  8
0
 62
6
 10
3.31184582E+02
 20
-1.20394229E+02
 11
3.32184583E+02
 21
-1.20394229E+02
  0
LINE
  8
0
 62
6
 10
3.32184583E+02
 20
-1.21394229E+02
 11
3.32184583E+02
 21
-1.20394229E+02
  0
LINE
  8
0
 62
6
 10
3.40584582E+02
 20
-1.20394229E+02
 11
3.39584582E+02
 21
-1.20394229E+02
  0
LINE
  8
0
 62
6
 10
3.39584582E+02
 20
-1.21394229E+02
 11
3.39584582E+02
 21
-1.20394229E+02
  0
LINE
  8
0
 62
6
 10
3.34294582E+02
 20
-1.21894229E+02
 11
3.34418582E+02
 21
-1.23782229E+02
  0
LINE
  8
0
 62
6
 10
3.32268583E+02
 20
-1.23782229E+02
 11
3.32394583E+02
 21
-1.21894229E+02
  0
LINE
  8
0
 62
6
 10
3.34934582E+02
 20
-1.21894229E+02
 11
3.36834582E+02
 21
-1.21894229E+02
  0
LINE
  8
0
 62
6
 10
3.34808583E+02
 20
-1.23782229E+02
 11
3.34934583E+02
 21
-1.21894229E+02
  0
LINE
  8
0
 62
6
 10
3.35008583E+02
 20
-1.23994229E+02
 11
3.36758583E+02
 21
-1.23994229E+02
  0
LINE
  8
0
 62
6
 10
3.35334583E+02
 20
-1.23994229E+02
 11
3.35334583E+02
 21
-1.24494229E+02
  0
LINE
  8
0
 62
6
 10
3.35334583E+02
 20
-1.24494229E+02
 11
3.36434583E+02
 21
-1.24494229E+02
  0
LINE
  8
0
 62
6
 10
3.36434583E+02
 20
-1.23994229E+02
 11
3.36434583E+02
 21
-1.24494229E+02
  0
LINE
  8
0
 62
6
 10
3.36834583E+02
 20
-1.21894229E+02
 11
3.36958583E+02
 21
-1.23782229E+02
  0
LINE
  8
0
 62
6
 10
3.35484582E+02
 20
-1.22494229E+02
 11
3.35484582E+02
 21
-1.23294229E+02
  0
LINE
  8
0
 62
6
 10
3.36284583E+02
 20
-1.22494229E+02
 11
3.35484582E+02
 21
-1.22494229E+02
  0
LINE
  8
0
 62
6
 10
3.36284583E+02
 20
-1.22494229E+02
 11
3.36284583E+02
 21
-1.23294229E+02
  0
LINE
  8
0
 62
6
 10
3.36284583E+02
 20
-1.23294229E+02
 11
3.35484582E+02
 21
-1.23294229E+02
  0
LINE
  8
0
 62
6
 10
3.37474583E+02
 20
-1.21894229E+02
 11
3.39374582E+02
 21
-1.21894229E+02
  0
LINE
  8
0
 62
6
 10
3.37348583E+02
 20
-1.23782229E+02
 11
3.37474583E+02
 21
-1.21894229E+02
  0
LINE
  8
0
 62
6
 10
3.37548583E+02
 20
-1.23994229E+02
 11
3.39298583E+02
 21
-1.23994229E+02
  0
LINE
  8
0
 62
6
 10
3.37874582E+02
 20
-1.23994229E+02
 11
3.37874582E+02
 21
-1.24494229E+02
  0
LINE
  8
0
 62
6
 10
3.37874582E+02
 20
-1.24494229E+02
 11
3.38974583E+02
 21
-1.24494229E+02
  0
LINE
  8
0
 62
6
 10
3.38974583E+02
 20
-1.23994229E+02
 11
3.38974583E+02
 21
-1.24494229E+02
  0
LINE
  8
0
 62
6
 10
3.39374583E+02
 20
-1.21894229E+02
 11
3.39498583E+02
 21
-1.23782229E+02
  0
LINE
  8
0
 62
6
 10
3.33384583E+02
 20
-1.18894229E+02
 11
3.33384583E+02
 21
-1.21394229E+02
  0
LINE
  8
0
 62
6
 10
3.38384583E+02
 20
-1.18894229E+02
 11
3.38384583E+02
 21
-1.21394229E+02
  0
LINE
  8
0
 62
6
 10
3.32984583E+02
 20
-1.20394229E+02
 11
3.38784583E+02
 21
-1.20394229E+02
  0
LINE
  8
0
 62
6
 10
3.38784583E+02
 20
-1.20894229E+02
 11
3.38784583E+02
 21
-1.19894229E+02
  0
LINE
  8
0
 62
6
 10
3.32984583E+02
 20
-1.20894229E+02
 11
3.32984583E+02
 21
-1.19894229E+02
  0
LINE
  8
0
 62
6
 10
3.32984583E+02
 20
-1.20894229E+02
 11
3.33384583E+02
 21
-1.20894229E+02
  0
LINE
  8
0
 62
6
 10
3.31184582E+02
 20
-1.19894229E+02
 11
3.33384583E+02
 21
-1.19894229E+02
  0
LINE
  8
0
 62
6
 10
3.40884583E+02
 20
-1.25194229E+02
 11
3.40584582E+02
 21
-1.25194229E+02
  0
LINE
  8
0
 62
6
 10
3.33490212E+02
 20
-1.33735047E+02
 11
3.33234583E+02
 21
-1.33294229E+02
  0
LINE
  8
0
 62
6
 10
3.38534582E+02
 20
-1.33294229E+02
 11
3.38278953E+02
 21
-1.33735047E+02
  0
LINE
  8
0
 62
6
 10
3.34740212E+02
 20
-1.32485046E+02
 11
3.34484582E+02
 21
-1.32044229E+02
  0
LINE
  8
0
 62
6
 10
3.33234582E+02
 20
-1.33294229E+02
 11
3.34484582E+02
 21
-1.32044229E+02
  0
LINE
  8
0
 62
6
 10
3.34740212E+02
 20
-1.32485046E+02
 11
3.33490212E+02
 21
-1.33735046E+02
  0
LINE
  8
0
 62
6
 10
3.37028953E+02
 20
-1.32485047E+02
 11
3.37284583E+02
 21
-1.32044229E+02
  0
LINE
  8
0
 62
6
 10
3.40884583E+02
 20
-1.26603412E+02
 11
3.30884583E+02
 21
-1.26603412E+02
  0
LINE
  8
0
 62
6
 10
3.37028953E+02
 20
-1.32485047E+02
 11
3.38278953E+02
 21
-1.33735047E+02
  0
LINE
  8
0
 62
6
 10
3.40884583E+02
 20
-1.33735047E+02
 11
3.38278953E+02
 21
-1.33735047E+02
  0
LINE
  8
0
 62
6
 10
3.33490212E+02
 20
-1.33735047E+02
 11
3.30884583E+02
 21
-1.33735047E+02
  0
LINE
  8
0
 62
6
 10
3.34740212E+02
 20
-1.32485047E+02
 11
3.37028953E+02
 21
-1.32485047E+02
  0
LINE
  8
0
 62
6
 10
3.40884583E+02
 20
-1.33294229E+02
 11
3.38534583E+02
 21
-1.33294229E+02
  0
LINE
  8
0
 62
6
 10
3.38534582E+02
 20
-1.33294229E+02
 11
3.37284582E+02
 21
-1.32044229E+02
  0
LINE
  8
0
 62
6
 10
3.34484582E+02
 20
-1.32044229E+02
 11
3.37284583E+02
 21
-1.32044229E+02
  0
LINE
  8
0
 62
6
 10
3.33234583E+02
 20
-1.33294229E+02
 11
3.30884583E+02
 21
-1.33294229E+02
  0
LINE
  8
0
 62
6
 10
3.30884583E+02
 20
-1.25792307E+02
 11
3.40884583E+02
 21
-1.25792307E+02
  0
LINE
  8
0
 62
6
 10
3.40884583E+02
 20
-1.25294229E+02
 11
3.40584582E+02
 21
-1.25294229E+02
  0
LINE
  8
0
 62
6
 10
3.39384583E+02
 20
-1.29594229E+02
 11
3.40884583E+02
 21
-1.29594229E+02
  0
LINE
  8
0
 62
6
 10
3.40884583E+02
 20
-1.32794229E+02
 11
3.39384583E+02
 21
-1.32794229E+02
  0
LINE
  8
0
 62
6
 10
3.32384583E+02
 20
-1.32794229E+02
 11
3.30884583E+02
 21
-1.32794229E+02
  0
LINE
  8
0
 62
6
 10
3.30884583E+02
 20
-1.29594229E+02
 11
3.32384583E+02
 21
-1.29594229E+02
  0
LINE
  8
0
 62
6
 10
3.37710096E+02
 20
-1.29744229E+02
 11
3.34059069E+02
 21
-1.29744229E+02
  0
LINE
  8
0
 62
6
 10
3.35884583E+02
 20
-1.29144229E+02
 11
3.34059069E+02
 21
-1.29144229E+02
  0
LINE
  8
0
 62
6
 10
3.37710096E+02
 20
-1.29144229E+02
 11
3.35884583E+02
 21
-1.29144229E+02
  0
LINE
  8
0
 62
6
 10
3.31677476E+02
 20
-1.31901336E+02
 11
3.33091689E+02
 21
-1.30487122E+02
  0
LINE
  8
0
 62
6
 10
3.31677476E+02
 20
-1.30487122E+02
 11
3.33091689E+02
 21
-1.31901336E+02
  0
LINE
  8
0
 62
6
 10
3.40091689E+02
 20
-1.30487122E+02
 11
3.38677476E+02
 21
-1.31901336E+02
  0
LINE
  8
0
 62
6
 10
3.40091689E+02
 20
-1.31901336E+02
 11
3.38677476E+02
 21
-1.30487122E+02
  0
ARC
  8
0
 62
6
 10
3.31184582E+02
 20
-1.07994228E+02
 40
3.00000012E-01
 50
9.00000002E+01
 51
1.80000005E+02
  0
ARC
  8
0
 62
6
 10
3.40584582E+02
 20
-1.07994228E+02
 40
3.00000012E-01
 50
0.00000000E+00
 51
9.00000002E+01
  0
CIRCLE
  8
0
 62
6
 10
3.38424582E+02
 20
-1.22894229E+02
 40
7.50000000E-01
  0
CIRCLE
  8
0
 62
6
 10
3.33344582E+02
 20
-1.22894229E+02
 40
7.50000000E-01
  0
ARC
  8
0
 62
6
 10
3.32468927E+02
 20
-1.23793565E+02
 40
2.00664550E-01
 50
1.76761580E+02
 51
2.70000000E+02
  0
ARC
  8
0
 62
6
 10
3.34219297E+02
 20
-1.23794564E+02
 40
1.99666515E-01
 50
2.70000000E+02
 51
3.54180761E+00
  0
ARC
  8
0
 62
6
 10
3.35008927E+02
 20
-1.23793565E+02
 40
2.00664550E-01
 50
1.76761580E+02
 51
2.70000000E+02
  0
ARC
  8
0
 62
6
 10
3.36759297E+02
 20
-1.23794564E+02
 40
1.99666515E-01
 50
2.70000000E+02
 51
3.54180761E+00
  0
ARC
  8
0
 62
6
 10
3.37548927E+02
 20
-1.23793565E+02
 40
2.00664550E-01
 50
1.76761580E+02
 51
2.70000000E+02
  0
ARC
  8
0
 62
6
 10
3.39299297E+02
 20
-1.23794564E+02
 40
1.99666515E-01
 50
2.70000000E+02
 51
3.54180761E+00
  0
ARC
  8
0
 62
6
 10
3.40584582E+02
 20
-1.20194229E+02
 40
3.00000012E-01
 50
0.00000000E+00
 51
9.00000002E+01
  0
ARC
  8
0
 62
6
 10
3.31184582E+02
 20
-1.20194229E+02
 40
3.00000012E-01
 50
9.00000002E+01
 51
1.80000005E+02
  0
CIRCLE
  8
0
 62
6
 10
3.35884583E+02
 20
-1.29444229E+02
 40
2.04999995E+00
  0
ARC
  8
0
 62
6
 10
3.32384583E+02
 20
-1.31194229E+02
 40
1.60000002E+00
 50
2.70000000E+02
 51
9.00000002E+01
  0
ARC
  8
0
 62
6
 10
3.39384583E+02
 20
-1.31194229E+02
 40
1.60000002E+00
 50
9.00000002E+01
 51
2.70000000E+02
  0
CIRCLE
  8
0
 62
6
 10
3.35884583E+02
 20
-1.29444229E+02
 40
1.85000002E+00
  0
ARC
  8
0
 62
6
 10
3.35884583E+02
 20
-1.29444229E+02
 40
8.00000012E-01
 50
2.20243121E+01
 51
1.57975691E+02
  0
ARC
  8
0
 62
6
 10
3.35884583E+02
 20
-1.29444229E+02
 40
8.00000012E-01
 50
2.02024309E+02
 51
3.37975688E+02
  0
CIRCLE
  8
0
 62
6
 10
3.32384583E+02
 20
-1.31194229E+02
 40
1.50000000E+00
  0
CIRCLE
  8
0
 62
6
 10
3.39384583E+02
 20
-1.31194229E+02
 40
1.50000000E+00
  0
LINE
  8
0
 62
6
 10
3.72680054E+01
 20
-2.06175354E+02
 11
3.72680054E+01
 21
-2.08175354E+02
  0
LINE
  8
0
 62
6
 10
4.12680054E+01
 20
-2.06175354E+02
 11
4.12680054E+01
 21
-2.08175354E+02
  0
LINE
  8
0
 62
6
 10
3.77680056E+01
 20
-2.08675354E+02
 11
3.72680058E+01
 21
-2.08175354E+02
  0
LINE
  8
0
 62
6
 10
4.07680054E+01
 20
-2.08675354E+02
 11
4.12680060E+01
 21
-2.08175353E+02
  0
LINE
  8
0
 62
6
 10
3.77680054E+01
 20
-2.08675354E+02
 11
4.07680054E+01
 21
-2.08675354E+02
  0
LINE
  8
0
 62
6
 10
4.12680054E+01
 20
-2.06175354E+02
 11
4.12680054E+01
 21
-1.95175354E+02
  0
LINE
  8
0
  6
CENTER
 62
6
 10
3.66259823E+01
 20
-2.02675354E+02
 11
6.59100285E+01
 21
-2.02675354E+02
  0
LINE
  8
0
 62
6
 10
7.42680054E+01
 20
-2.34675354E+02
 11
6.02680054E+01
 21
-2.34675354E+02
  0
LINE
  8
0
 62
6
 10
7.42680054E+01
 20
-1.94675354E+02
 11
6.02680054E+01
 21
-1.94675354E+02
  0
LINE
  8
0
 62
6
 10
5.97680054E+01
 20
-1.95175354E+02
 11
5.97680054E+01
 21
-2.34175354E+02
  0
LINE
  8
0
 62
6
 10
7.47680054E+01
 20
-1.95175354E+02
 11
7.47680054E+01
 21
-2.34175354E+02
  0
LINE
  8
0
  6
CENTER
 62
6
 10
6.87680054E+01
 20
-1.89546259E+02
 11
6.87680054E+01
 21
-2.37775814E+02
  0
LINE
  8
0
 62
6
 10
7.37707710E+01
 20
-2.28675354E+02
 11
6.34108665E+01
 21
-2.28675354E+02
  0
LINE
  8
0
 62
6
 10
7.37707710E+01
 20
-2.00675354E+02
 11
6.34108665E+01
 21
-2.00675354E+02
  0
LINE
  8
0
 62
6
 10
3.72680054E+01
 20
-1.95175354E+02
 11
3.72680054E+01
 21
-2.06175354E+02
  0
LINE
  8
0
 62
6
 10
3.77680054E+01
 20
-1.94675354E+02
 11
4.07680054E+01
 21
-1.94675354E+02
  0
LINE
  8
0
 62
6
 10
3.77680054E+01
 20
-2.06675354E+02
 11
4.07680054E+01
 21
-2.06675354E+02
  0
LINE
  8
0
 62
6
 10
3.72680058E+01
 20
-1.95175354E+02
 11
3.77680056E+01
 21
-1.94675354E+02
  0
LINE
  8
0
 62
6
 10
4.12680053E+01
 20
-1.95175353E+02
 11
4.07680061E+01
 21
-1.94675354E+02
  0
LINE
  8
0
 62
6
 10
4.07680054E+01
 20
-2.06675354E+02
 11
4.12680060E+01
 21
-2.06175354E+02
  0
LINE
  8
0
 62
6
 10
3.77680049E+01
 20
-2.06675354E+02
 11
3.72680051E+01
 21
-2.06175354E+02
  0
LINE
  8
0
  6
CENTER
 62
6
 10
3.66259823E+01
 20
-2.00675354E+02
 11
6.59100285E+01
 21
-2.00675354E+02
  0
LINE
  8
0
  6
DASHED
 62
6
 10
6.12680054E+01
 20
-1.94675354E+02
 11
6.12680054E+01
 21
-2.34675354E+02
  0
ARC
  8
0
 62
6
 10
7.42680054E+01
 20
-2.34175354E+02
 40
5.00000000E-01
 50
2.70000000E+02
 51
0.00000000E+00
  0
ARC
  8
0
 62
6
 10
6.02680054E+01
 20
-2.34175354E+02
 40
5.00000000E-01
 50
1.79999995E+02
 51
2.70000000E+02
  0
ARC
  8
0
 62
6
 10
6.02680054E+01
 20
-1.95175354E+02
 40
5.00000000E-01
 50
9.00000002E+01
 51
1.80000005E+02
  0
ARC
  8
0
 62
6
 10
7.42680054E+01
 20
-1.95175354E+02
 40
5.00000000E-01
 50
0.00000000E+00
 51
9.00000002E+01
  0
CIRCLE
  8
0
 62
6
 10
6.87680054E+01
 20
-2.28675354E+02
 40
2.25000000E+00
  0
CIRCLE
  8
0
 62
6
 10
6.87680054E+01
 20
-2.00675354E+02
 40
2.25000000E+00
  0
LINE
  8
0
 62
6
 10
6.12680054E+01
 20
-2.92576733E+01
 11
5.97680054E+01
 21
-2.92576733E+01
  0
LINE
  8
0
 62
6
 10
5.97680054E+01
 20
-2.17576733E+01
 11
5.97680054E+01
 21
-1.44257673E+02
  0
LINE
  8
0
 62
6
 10
6.12680054E+01
 20
-2.17576733E+01
 11
6.12680054E+01
 21
-1.44257673E+02
  0
LINE
  8
0
 62
6
 10
6.17680054E+01
 20
-1.46257673E+02
 11
7.42680054E+01
 21
-1.46257673E+02
  0
LINE
  8
0
 62
6
 10
6.17680054E+01
 20
-1.44757673E+02
 11
7.42680054E+01
 21
-1.44757673E+02
  0
LINE
  8
0
 62
6
 10
5.97680054E+01
 20
-8.87576733E+01
 11
6.12680054E+01
 21
-8.87576733E+01
  0
LINE
  8
0
 62
6
 10
6.02680054E+01
 20
-2.12576733E+01
 11
6.07680054E+01
 21
-2.12576733E+01
  0
LINE
  8
0
 62
6
 10
7.47680054E+01
 20
-1.45257673E+02
 11
7.47680054E+01
 21
-1.45757673E+02
  0
LINE
  8
0
 62
6
 10
4.12680054E+01
 20
-2.87576733E+01
 11
4.12680054E+01
 21
-2.17576733E+01
  0
LINE
  8
0
 62
6
 10
3.72680054E+01
 20
-2.17576733E+01
 11
3.72680054E+01
 21
-2.87576733E+01
  0
LINE
  8
0
 62
6
 10
3.72680054E+01
 20
-2.17576733E+01
 11
4.12680054E+01
 21
-2.17576733E+01
  0
LINE
  8
0
 62
6
 10
3.72680054E+01
 20
-2.87576733E+01
 11
4.12680054E+01
 21
-2.87576733E+01
  0
LINE
  8
0
 62
6
 10
4.07680054E+01
 20
-2.17576733E+01
 11
4.07680054E+01
 21
-2.87576733E+01
  0
LINE
  8
0
 62
6
 10
3.77680054E+01
 20
-2.17576733E+01
 11
3.77680054E+01
 21
-2.87576733E+01
  0
LINE
  8
0
  6
CENTER
 62
6
 10
3.66259823E+01
 20
-2.52576733E+01
 11
6.59100285E+01
 21
-2.52576733E+01
  0
LINE
  8
0
  6
CENTER
 62
6
 10
3.66259823E+01
 20
-9.27549343E+01
 11
6.59100285E+01
 21
-9.27549343E+01
  0
LINE
  8
0
 62
6
 10
3.77680054E+01
 20
-8.92549343E+01
 11
3.77680054E+01
 21
-9.62549343E+01
  0
LINE
  8
0
 62
6
 10
4.07680054E+01
 20
-8.92549343E+01
 11
4.07680054E+01
 21
-9.62549343E+01
  0
LINE
  8
0
 62
6
 10
3.72680054E+01
 20
-9.62549343E+01
 11
4.12680054E+01
 21
-9.62549343E+01
  0
LINE
  8
0
 62
6
 10
3.72680054E+01
 20
-8.92549343E+01
 11
4.12680054E+01
 21
-8.92549343E+01
  0
LINE
  8
0
 62
6
 10
3.72680054E+01
 20
-8.92549343E+01
 11
3.72680054E+01
 21
-9.62549343E+01
  0
LINE
  8
0
 62
6
 10
4.12680054E+01
 20
-9.62549343E+01
 11
4.12680054E+01
 21
-8.92549343E+01
  0
LINE
  8
0
 62
6
 10
6.40680056E+01
 20
-2.25076733E+01
 11
6.12680054E+01
 21
-2.25076733E+01
  0
LINE
  8
0
 62
6
 10
6.40680053E+01
 20
-2.25076736E+01
 11
6.42680053E+01
 21
-2.28540839E+01
  0
LINE
  8
0
 62
6
 10
6.40680056E+01
 20
-2.80076733E+01
 11
6.40680056E+01
 21
-2.25076733E+01
  0
LINE
  8
0
 62
6
 10
6.42680054E+01
 20
-2.76612625E+01
 11
6.42680054E+01
 21
-2.28540840E+01
  0
LINE
  8
0
 62
6
 10
6.40680044E+01
 20
-2.80076735E+01
 11
6.42680048E+01
 21
-2.76612628E+01
  0
LINE
  8
0
 62
6
 10
6.40680056E+01
 20
-2.80076733E+01
 11
6.12680054E+01
 21
-2.80076733E+01
  0
LINE
  8
0
 62
6
 10
6.40680056E+01
 20
-9.55049343E+01
 11
6.12680054E+01
 21
-9.55049343E+01
  0
LINE
  8
0
 62
6
 10
6.40680039E+01
 20
-9.55049355E+01
 11
6.42680048E+01
 21
-9.51585240E+01
  0
LINE
  8
0
 62
6
 10
6.42680054E+01
 20
-9.51585217E+01
 11
6.42680054E+01
 21
-9.03513470E+01
  0
LINE
  8
0
 62
6
 10
6.40680056E+01
 20
-9.55049343E+01
 11
6.40680056E+01
 21
-9.00049343E+01
  0
LINE
  8
0
 62
6
 10
6.40680048E+01
 20
-9.00049359E+01
 11
6.42680036E+01
 21
-9.03513442E+01
  0
LINE
  8
0
 62
6
 10
6.40680056E+01
 20
-9.00049343E+01
 11
6.12680054E+01
 21
-9.00049343E+01
  0
LINE
  8
0
  6
CENTER
 62
6
 10
6.87680054E+01
 20
-1.49257673E+02
 11
6.87680054E+01
 21
-1.43257673E+02
  0
ARC
  8
0
 62
6
 10
6.02680054E+01
 20
-2.17576733E+01
 40
5.00000000E-01
 50
9.00000002E+01
 51
1.80000005E+02
  0
ARC
  8
0
 62
6
 10
6.07680054E+01
 20
-2.17576733E+01
 40
5.00000000E-01
 50
0.00000000E+00
 51
9.00000002E+01
  0
ARC
  8
0
 62
6
 10
6.17680054E+01
 20
-1.44257673E+02
 40
2.00000000E+00
 50
1.79999995E+02
 51
2.70000000E+02
  0
ARC
  8
0
 62
6
 10
6.17680054E+01
 20
-1.44257673E+02
 40
5.00000000E-01
 50
1.79999995E+02
 51
2.70000000E+02
  0
ARC
  8
0
 62
6
 10
7.42680054E+01
 20
-1.45257673E+02
 40
5.00000000E-01
 50
0.00000000E+00
 51
9.00000002E+01
  0
ARC
  8
0
 62
6
 10
7.42680054E+01
 20
-1.45757673E+02
 40
5.00000000E-01
 50
2.70000000E+02
 51
0.00000000E+00
  0
LINE
  8
0
 62
6
 10
1.36777084E+02
 20
-9.92576733E+01
 11
1.36777084E+02
 21
-1.44757673E+02
  0
LINE
  8
0
 62
6
 10
1.36277084E+02
 20
-8.87576733E+01
 11
1.25777084E+02
 21
-8.87576733E+01
  0
LINE
  8
0
 62
6
 10
1.25777084E+02
 20
-2.92576733E+01
 11
1.36277084E+02
 21
-2.92576733E+01
  0
LINE
  8
0
 62
6
 10
1.25277084E+02
 20
-2.17576733E+01
 11
1.25277084E+02
 21
-2.87576733E+01
  0
LINE
  8
0
 62
6
 10
1.36777084E+02
 20
-2.97576733E+01
 11
1.36777084E+02
 21
-8.82576733E+01
  0
LINE
  8
0
 62
6
 10
1.46777084E+02
 20
-2.17576733E+01
 11
1.46777084E+02
 21
-9.82576733E+01
  0
LINE
  8
0
 62
6
 10
1.46277084E+02
 20
-2.12576733E+01
 11
1.25777084E+02
 21
-2.12576733E+01
  0
LINE
  8
0
 62
6
 10
1.62277084E+02
 20
-1.46257673E+02
 11
1.25777084E+02
 21
-1.46257673E+02
  0
LINE
  8
0
 62
6
 10
1.62277084E+02
 20
-1.44757673E+02
 11
1.25777084E+02
 21
-1.44757673E+02
  0
LINE
  8
0
 62
6
 10
1.62777084E+02
 20
-1.45257673E+02
 11
1.62777084E+02
 21
-1.45757673E+02
  0
LINE
  8
0
 62
6
 10
1.46277084E+02
 20
-9.87576733E+01
 11
1.37277084E+02
 21
-9.87576733E+01
  0
LINE
  8
0
 62
6
 10
1.25277084E+02
 20
-8.92576733E+01
 11
1.25277084E+02
 21
-1.45757673E+02
  0
LINE
  8
0
  6
CENTER
 62
6
 10
1.32277084E+02
 20
-3.01222334E+01
 11
1.32277084E+02
 21
-2.07356877E+01
  0
LINE
  8
0
  6
CENTER
 62
6
 10
1.24945987E+02
 20
-2.52576733E+01
 11
1.39265607E+02
 21
-2.52576733E+01
  0
LINE
  8
0
  6
CENTER
 62
6
 10
1.22945987E+02
 20
-9.27549343E+01
 11
1.37265607E+02
 21
-9.27549343E+01
  0
LINE
  8
0
  6
CENTER
 62
6
 10
1.30277084E+02
 20
-9.76194973E+01
 11
1.30277084E+02
 21
-8.82329464E+01
  0
LINE
  8
0
 62
6
 10
1.31027084E+02
 20
-2.59793612E+01
 11
1.32277084E+02
 21
-2.67010489E+01
  0
LINE
  8
0
 62
6
 10
1.32277084E+02
 20
-2.38142984E+01
 11
1.33527084E+02
 21
-2.45359861E+01
  0
LINE
  8
0
 62
6
 10
1.32277084E+02
 20
-2.67010481E+01
 11
1.33527084E+02
 21
-2.59793604E+01
  0
LINE
  8
0
 62
6
 10
1.31027084E+02
 20
-2.45359853E+01
 11
1.32277084E+02
 21
-2.38142976E+01
  0
LINE
  8
0
 62
6
 10
1.33527084E+02
 20
-2.45359854E+01
 11
1.33527084E+02
 21
-2.59793612E+01
  0
LINE
  8
0
 62
6
 10
1.31027084E+02
 20
-2.45359852E+01
 11
1.31027084E+02
 21
-2.59793613E+01
  0
LINE
  8
0
 62
6
 10
1.29027084E+02
 20
-9.20332470E+01
 11
1.29027084E+02
 21
-9.34766216E+01
  0
LINE
  8
0
 62
6
 10
1.31527084E+02
 20
-9.20332470E+01
 11
1.31527084E+02
 21
-9.34766216E+01
  0
LINE
  8
0
 62
6
 10
1.29027084E+02
 20
-9.20332477E+01
 11
1.30277086E+02
 21
-9.13115586E+01
  0
LINE
  8
0
 62
6
 10
1.30277082E+02
 20
-9.41983080E+01
 11
1.31527084E+02
 21
-9.34766189E+01
  0
LINE
  8
0
 62
6
 10
1.30277084E+02
 20
-9.13115597E+01
 11
1.31527083E+02
 21
-9.20332470E+01
  0
LINE
  8
0
 62
6
 10
1.29027084E+02
 20
-9.34766233E+01
 11
1.30277083E+02
 21
-9.41983106E+01
  0
LINE
  8
0
  6
CENTER
 62
6
 10
1.31277084E+02
 20
-1.49007673E+02
 11
1.31277084E+02
 21
-1.42007673E+02
  0
LINE
  8
0
  6
CENTER
 62
6
 10
1.59277084E+02
 20
-1.49007673E+02
 11
1.59277084E+02
 21
-1.42007673E+02
  0
ARC
  8
0
 62
6
 10
1.46277084E+02
 20
-2.17576733E+01
 40
5.00000000E-01
 50
0.00000000E+00
 51
9.00000002E+01
  0
ARC
  8
0
 62
6
 10
1.25777084E+02
 20
-2.17576733E+01
 40
5.00000000E-01
 50
9.00000002E+01
 51
1.80000005E+02
  0
ARC
  8
0
 62
6
 10
1.25777084E+02
 20
-2.87576733E+01
 40
5.00000000E-01
 50
1.79999995E+02
 51
2.70000000E+02
  0
ARC
  8
0
 62
6
 10
1.36277084E+02
 20
-2.97576733E+01
 40
5.00000000E-01
 50
0.00000000E+00
 51
9.00000002E+01
  0
ARC
  8
0
 62
6
 10
1.25777084E+02
 20
-8.92576733E+01
 40
5.00000000E-01
 50
9.00000002E+01
 51
1.80000005E+02
  0
ARC
  8
0
 62
6
 10
1.36277084E+02
 20
-8.82576733E+01
 40
5.00000000E-01
 50
2.70000000E+02
 51
0.00000000E+00
  0
ARC
  8
0
 62
6
 10
1.37277084E+02
 20
-9.92576733E+01
 40
5.00000000E-01
 50
9.00000002E+01
 51
1.80000005E+02
  0
ARC
  8
0
 62
6
 10
1.46277084E+02
 20
-9.82576733E+01
 40
5.00000000E-01
 50
2.70000000E+02
 51
0.00000000E+00
  0
ARC
  8
0
 62
6
 10
1.25777084E+02
 20
-1.45257673E+02
 40
5.00000000E-01
 50
9.00000002E+01
 51
1.80000005E+02
  0
ARC
  8
0
 62
6
 10
1.25777084E+02
 20
-1.45757673E+02
 40
5.00000000E-01
 50
1.79999995E+02
 51
2.70000000E+02
  0
ARC
  8
0
 62
6
 10
1.62277084E+02
 20
-1.45757673E+02
 40
5.00000000E-01
 50
2.70000000E+02
 51
0.00000000E+00
  0
ARC
  8
0
 62
6
 10
1.62277084E+02
 20
-1.45257673E+02
 40
5.00000000E-01
 50
0.00000000E+00
 51
9.00000002E+01
  0
CIRCLE
  8
0
 62
6
 10
1.32277084E+02
 20
-2.52576731E+01
 40
2.40358925E+00
  0
CIRCLE
  8
0
 62
6
 10
1.32277084E+02
 20
-2.52576733E+01
 40
2.75000000E+00
  0
CIRCLE
  8
0
 62
6
 10
1.30277084E+02
 20
-9.27549343E+01
 40
2.75000000E+00
  0
CIRCLE
  8
0
 62
6
 10
1.30277084E+02
 20
-9.27549343E+01
 40
2.40358925E+00
  0
LINE
  8
0
 62
7
 10
1.00098405E+02
 20
1.05089019E+02
 11
1.04283795E+02
 21
1.12338328E+02
  0
LINE
  8
0
 62
7
 10
9.94921863E+01
 20
1.05439019E+02
 11
1.03677577E+02
 21
1.12688328E+02
  0
LINE
  8
0
 62
6
 10
9.26379929E+01
 20
1.26385933E+02
 11
9.11379929E+01
 21
1.26385933E+02
  0
LINE
  8
0
 62
6
 10
9.11379929E+01
 20
1.71885933E+02
 11
9.11379929E+01
 21
1.26385933E+02
  0
LINE
  8
0
 62
6
 10
9.26379929E+01
 20
1.71885933E+02
 11
9.11379929E+01
 21
1.71885933E+02
  0
LINE
  8
0
 62
6
 10
1.11137993E+02
 20
1.26385933E+02
 11
1.12637993E+02
 21
1.26385933E+02
  0
LINE
  8
0
 62
6
 10
1.12637993E+02
 20
1.71885933E+02
 11
1.12637993E+02
 21
1.26385933E+02
  0
LINE
  8
0
 62
6
 10
1.11137993E+02
 20
1.71885933E+02
 11
1.12637993E+02
 21
1.71885933E+02
  0
LINE
  8
0
  6
CENTER
 62
6
 10
1.13896848E+02
 20
1.49188671E+02
 11
8.70955925E+01
 21
1.49188671E+02
  0
LINE
  8
0
 62
6
 10
1.06737993E+02
 20
1.73314219E+02
 11
1.06737993E+02
 21
1.73660971E+02
  0
LINE
  8
0
 62
6
 10
9.70379925E+01
 20
1.24957649E+02
 11
9.70379925E+01
 21
1.24610893E+02
  0
LINE
  8
0
 62
6
 10
1.09019415E+02
 20
1.71004511E+02
 11
1.07220188E+02
 21
1.72803738E+02
  0
LINE
  8
0
 62
6
 10
1.09026980E+02
 20
1.72774920E+02
 11
1.07240013E+02
 21
1.70987953E+02
  0
LINE
  8
0
 62
6
 10
9.65194133E+01
 20
1.25504511E+02
 11
9.47201866E+01
 21
1.27303737E+02
  0
LINE
  8
0
 62
6
 10
9.65269822E+01
 20
1.27274921E+02
 11
9.47400152E+01
 21
1.25487954E+02
  0
LINE
  8
0
 62
7
 10
9.26379929E+01
 20
7.83886719E+01
 11
9.26379929E+01
 21
1.21385933E+02
  0
LINE
  8
0
 62
7
 10
1.11137993E+02
 20
1.21385933E+02
 11
1.11137993E+02
 21
7.83886719E+01
  0
LINE
  8
0
 62
7
 10
9.84008741E+01
 20
8.58886719E+01
 11
1.05375112E+02
 21
8.58886719E+01
  0
LINE
  8
0
  6
CENTER
 62
2
 10
9.46091537E+01
 20
8.63886719E+01
 11
1.09530311E+02
 21
8.63886719E+01
  0
LINE
  8
0
 62
7
 10
1.11137993E+02
 20
7.83886719E+01
 11
9.26379929E+01
 21
7.83886719E+01
  0
LINE
  8
0
 62
7
 10
9.26379929E+01
 20
1.21385933E+02
 11
1.11137993E+02
 21
1.21385933E+02
  0
LINE
  8
0
  6
CENTER
 62
6
 10
9.44204807E+01
 20
1.81390302E+02
 11
1.10207166E+02
 21
1.81390302E+02
  0
LINE
  8
0
 62
6
 10
9.91746874E+01
 20
1.78390302E+02
 11
9.98879929E+01
 21
1.78390302E+02
  0
LINE
  8
0
 62
6
 10
1.04601298E+02
 20
1.78390302E+02
 11
1.03887993E+02
 21
1.78390302E+02
  0
LINE
  8
0
 62
6
 10
9.98879929E+01
 20
1.77874334E+02
 11
9.98879929E+01
 21
1.84906269E+02
  0
LINE
  8
0
 62
6
 10
1.03887993E+02
 20
1.77874334E+02
 11
1.03887993E+02
 21
1.84906269E+02
  0
LINE
  8
0
 62
6
 10
1.11137993E+02
 20
2.06385932E+02
 11
1.11137993E+02
 21
1.21385933E+02
  0
LINE
  8
0
 62
6
 10
9.26379929E+01
 20
2.06385932E+02
 11
9.26379929E+01
 21
1.21385933E+02
  0
LINE
  8
0
 62
6
 10
9.26379929E+01
 20
2.06385932E+02
 11
1.11137993E+02
 21
2.06385932E+02
  0
LINE
  8
0
  6
CENTER
 62
2
 10
1.01887993E+02
 20
2.11437220E+02
 11
1.01887993E+02
 21
7.53561935E+01
  0
LINE
  8
0
  6
CENTER
 62
2
 10
8.93879929E+01
 20
1.92388672E+02
 11
1.14387993E+02
 21
1.92388672E+02
  0
LINE
  8
0
  6
CENTER
 62
2
 10
8.93879929E+01
 20
1.24888672E+02
 11
1.14387993E+02
 21
1.24888672E+02
  0
CIRCLE
  8
0
 62
7
 10
1.01887993E+02
 20
1.08888672E+02
 40
3.70000005E+00
  0
CIRCLE
  8
0
 62
7
 10
1.01887993E+02
 20
1.08888672E+02
 40
4.19999981E+00
  0
CIRCLE
  8
0
 62
7
 10
1.01887993E+02
 20
1.08888672E+02
 40
4.30000019E+00
  0
ARC
  8
0
 62
6
 10
1.01887993E+02
 20
1.49135933E+02
 40
2.50000000E+01
 50
7.88136896E+01
 51
1.11715619E+02
  0
ARC
  8
0
 62
6
 10
1.01887993E+02
 20
1.49135933E+02
 40
2.50000000E+01
 50
2.58813684E+02
 51
2.91715614E+02
  0
CIRCLE
  8
0
 62
6
 10
1.01887993E+02
 20
1.49188671E+02
 40
8.30000019E+00
  0
CIRCLE
  8
0
 62
6
 10
1.01887993E+02
 20
1.49188671E+02
 40
7.40000010E+00
  0
CIRCLE
  8
0
 62
6
 10
1.01887993E+02
 20
1.49188671E+02
 40
9.25000000E+00
  0
ARC
  8
0
 62
6
 10
1.01887993E+02
 20
1.49188671E+02
 40
1.43000002E+01
 50
4.96952407E+01
 51
1.30304764E+02
  0
ARC
  8
0
 62
6
 10
1.01887993E+02
 20
1.49188671E+02
 40
1.43000002E+01
 50
2.29695236E+02
 51
3.10304760E+02
  0
ARC
  8
0
 62
6
 10
1.01887993E+02
 20
1.49135933E+02
 40
2.50000000E+01
 50
6.82843858E+01
 51
7.12848128E+01
  0
ARC
  8
0
 62
6
 10
1.01887993E+02
 20
1.49135933E+02
 40
2.50000000E+01
 50
2.48284381E+02
 51
2.51284815E+02
  0
CIRCLE
  8
0
 62
6
 10
1.08137993E+02
 20
1.71885933E+02
 40
2.00000000E+00
  0
CIRCLE
  8
0
 62
6
 10
9.56379929E+01
 20
1.26385933E+02
 40
2.00000000E+00
  0
ARC
  8
0
 62
7
 10
1.05375112E+02
 20
8.61886749E+01
 40
3.00000012E-01
 50
2.70000000E+02
 51
4.91710014E+00
  0
ARC
  8
0
 62
7
 10
9.84008741E+01
 20
8.61886749E+01
 40
3.00000012E-01
 50
1.75082897E+02
 51
2.70000000E+02
  0
ARC
  8
0
 62
7
 10
1.01887993E+02
 20
8.58886719E+01
 40
3.79999995E+00
 50
4.91710014E+00
 51
1.75082897E+02
  0
CIRCLE
  8
0
 62
7
 10
1.01887993E+02
 20
8.63886719E+01
 40
4.28299999E+00
  0
CIRCLE
  8
0
 62
2
 10
1.01887993E+02
 20
8.63886719E+01
 40
4.86399984E+00
  0
CIRCLE
  8
0
 62
6
 10
1.01887993E+02
 20
1.81390302E+02
 40
4.04500008E+00
  0
CIRCLE
  8
0
 62
6
 10
1.01887993E+02
 20
1.81390302E+02
 40
4.86399984E+00
  0
LINE
  8
0
 62
6
 10
2.57137993E+02
 20
2.06385932E+02
 11
2.57137993E+02
 21
1.92885932E+02
  0
LINE
  8
0
 62
6
 10
2.06837995E+02
 20
1.26388672E+02
 11
2.07055943E+02
 21
1.26388672E+02
  0
LINE
  8
0
 62
7
 10
2.35637995E+02
 20
2.05885932E+02
 11
2.35637995E+02
 21
2.05385932E+02
  0
LINE
  8
0
 62
7
 10
2.32637995E+02
 20
2.05885932E+02
 11
2.32637995E+02
 21
2.05385932E+02
  0
LINE
  8
0
  6
CENTER
 62
2
 10
2.34137995E+02
 20
2.07833669E+02
 11
2.34137995E+02
 21
2.03260261E+02
  0
LINE
  8
0
 62
7
 10
2.35737995E+02
 20
2.05385932E+02
 11
2.32137995E+02
 21
2.05385932E+02
  0
LINE
  8
0
 62
7
 10
2.35737995E+02
 20
2.06385932E+02
 11
2.35737995E+02
 21
2.05385932E+02
  0
LINE
  8
0
 62
7
 10
2.51492996E+02
 20
1.72135933E+02
 11
2.50137993E+02
 21
1.72135933E+02
  0
LINE
  8
0
 62
7
 10
2.50797997E+02
 20
1.72135933E+02
 11
2.50797997E+02
 21
1.76635932E+02
  0
LINE
  8
0
 62
7
 10
2.51492996E+02
 20
1.76635932E+02
 11
2.50137993E+02
 21
1.76635932E+02
  0
LINE
  8
0
 62
7
 10
2.52637993E+02
 20
1.21887581E+02
 11
2.52637993E+02
 21
1.22387581E+02
  0
LINE
  8
0
 62
7
 10
2.49637993E+02
 20
1.21887581E+02
 11
2.49637993E+02
 21
1.22387581E+02
  0
LINE
  8
0
  6
CENTER
 62
2
 10
2.51137993E+02
 20
1.20084167E+02
 11
2.51137993E+02
 21
1.24093651E+02
  0
LINE
  8
0
 62
7
 10
2.49537994E+02
 20
1.22387581E+02
 11
2.53137993E+02
 21
1.22387581E+02
  0
LINE
  8
0
 62
7
 10
2.49537994E+02
 20
1.21387581E+02
 11
2.49537994E+02
 21
1.22387581E+02
  0
LINE
  8
0
 62
7
 10
2.27337995E+02
 20
8.33886719E+01
 11
2.22937994E+02
 21
8.33886719E+01
  0
LINE
  8
0
 62
7
 10
2.27837995E+02
 20
8.13886719E+01
 11
2.22437994E+02
 21
8.13886719E+01
  0
LINE
  8
0
 62
7
 10
2.23837995E+02
 20
1.13385933E+02
 11
2.26437994E+02
 21
1.13385933E+02
  0
LINE
  8
0
 62
7
 10
2.22887994E+02
 20
8.07286682E+01
 11
2.27387995E+02
 21
8.07286682E+01
  0
LINE
  8
0
 62
7
 10
2.27387995E+02
 20
8.00336685E+01
 11
2.27387995E+02
 21
8.13886719E+01
  0
LINE
  8
0
 62
7
 10
2.22887994E+02
 20
8.00336685E+01
 11
2.22887994E+02
 21
8.13886719E+01
  0
LINE
  8
0
 62
7
 10
2.26437994E+02
 20
8.33886719E+01
 11
2.26437994E+02
 21
1.19385933E+02
  0
LINE
  8
0
 62
7
 10
2.23837995E+02
 20
8.33886719E+01
 11
2.23837995E+02
 21
1.19385933E+02
  0
LINE
  8
0
 62
2
 10
2.26194494E+02
 20
1.13385933E+02
 11
2.26194494E+02
 21
1.19385933E+02
  0
LINE
  8
0
 62
2
 10
2.24081494E+02
 20
1.13385933E+02
 11
2.24081494E+02
 21
1.19385933E+02
  0
LINE
  8
0
 62
7
 10
2.27337995E+02
 20
8.33886719E+01
 11
2.27337995E+02
 21
1.19385933E+02
  0
LINE
  8
0
 62
7
 10
2.22937994E+02
 20
8.33886719E+01
 11
2.22937994E+02
 21
1.19385933E+02
  0
LINE
  8
0
 62
7
 10
2.22937994E+02
 20
1.19385933E+02
 11
2.27337995E+02
 21
1.19385933E+02
  0
LINE
  8
0
 62
7
 10
2.27837995E+02
 20
7.83886719E+01
 11
2.27837995E+02
 21
8.13886719E+01
  0
LINE
  8
0
 62
7
 10
2.22437994E+02
 20
7.83886719E+01
 11
2.22437994E+02
 21
8.13886719E+01
  0
LINE
  8
0
 62
7
 10
2.50137993E+02
 20
1.77085932E+02
 11
2.50137993E+02
 21
1.71685932E+02
  0
LINE
  8
0
 62
7
 10
2.53137993E+02
 20
1.77085932E+02
 11
2.50137993E+02
 21
1.77085932E+02
  0
LINE
  8
0
 62
7
 10
2.50137993E+02
 20
1.71685932E+02
 11
2.53137993E+02
 21
1.71685932E+02
  0
LINE
  8
0
  6
CENTER
 62
2
 10
2.45959270E+02
 20
1.74385933E+02
 11
2.57288532E+02
 21
1.74385933E+02
  0
LINE
  8
0
  6
CENTER
 62
2
 10
2.25137995E+02
 20
7.60511475E+01
 11
2.25137995E+02
 21
1.23131706E+02
  0
LINE
  8
0
 62
6
 10
2.02137995E+02
 20
1.74138672E+02
 11
2.06137995E+02
 21
1.74138672E+02
  0
LINE
  8
0
 62
6
 10
2.02137995E+02
 20
1.60044060E+02
 11
2.02137995E+02
 21
1.74138672E+02
  0
LINE
  8
0
 62
6
 10
1.96137995E+02
 20
1.58388670E+02
 11
2.02137996E+02
 21
1.63423269E+02
  0
LINE
  8
0
 62
6
 10
1.96137995E+02
 20
1.58388672E+02
 11
1.96137995E+02
 21
1.39888672E+02
  0
LINE
  8
0
 62
6
 10
2.02137995E+02
 20
1.38233284E+02
 11
2.02137995E+02
 21
1.24138672E+02
  0
LINE
  8
0
 62
6
 10
1.96137992E+02
 20
1.39888670E+02
 11
2.02137992E+02
 21
1.34854073E+02
  0
LINE
  8
0
 62
6
 10
2.02137995E+02
 20
1.24138672E+02
 11
2.06137995E+02
 21
1.24138672E+02
  0
LINE
  8
0
  6
CENTER
 62
6
 10
2.10182859E+02
 20
1.24891411E+02
 11
2.17594666E+02
 21
1.24891411E+02
  0
LINE
  8
0
 62
6
 10
2.10520045E+02
 20
1.26388672E+02
 11
2.11022131E+02
 21
1.26388672E+02
  0
LINE
  8
0
 62
6
 10
2.07928229E+02
 20
1.26528910E+02
 11
2.09610040E+02
 21
1.28210721E+02
  0
LINE
  8
0
 62
6
 10
2.09670842E+02
 20
1.26505823E+02
 11
2.07928097E+02
 21
1.28248569E+02
  0
LINE
  8
0
 62
6
 10
2.20787994E+02
 20
1.26388672E+02
 11
2.16553858E+02
 21
1.26388672E+02
  0
LINE
  8
0
 62
6
 10
2.18406572E+02
 20
1.70007251E+02
 11
2.20205799E+02
 21
1.71806477E+02
  0
LINE
  8
0
 62
6
 10
2.18399008E+02
 20
1.71777660E+02
 11
2.20185975E+02
 21
1.69990693E+02
  0
LINE
  8
0
 62
6
 10
2.21087995E+02
 20
1.70016891E+02
 11
2.21087995E+02
 21
1.26688675E+02
  0
LINE
  8
0
  6
CENTER
 62
6
 10
2.08746079E+02
 20
1.49138672E+02
 11
1.92569057E+02
 21
1.49138672E+02
  0
LINE
  8
0
  6
CENTER
 62
6
 10
2.14037994E+02
 20
1.21515633E+02
 11
2.14037994E+02
 21
1.28730423E+02
  0
LINE
  8
0
 62
6
 10
2.06837995E+02
 20
1.71888672E+02
 11
2.17555944E+02
 21
1.71888672E+02
  0
LINE
  8
0
 62
7
 10
2.53137993E+02
 20
1.21385933E+02
 11
2.53137993E+02
 21
2.06385932E+02
  0
LINE
  8
0
 62
6
 10
2.53137993E+02
 20
1.21384285E+02
 11
2.64637993E+02
 21
1.21384285E+02
  0
LINE
  8
0
 62
6
 10
2.63937996E+02
 20
1.22084290E+02
 11
2.56337994E+02
 21
1.22084290E+02
  0
LINE
  8
0
 62
6
 10
2.63937996E+02
 20
1.22884285E+02
 11
2.56337994E+02
 21
1.22884285E+02
  0
LINE
  8
0
 62
6
 10
2.63937996E+02
 20
1.22884285E+02
 11
2.63937996E+02
 21
1.22084290E+02
  0
LINE
  8
0
 62
6
 10
2.56337994E+02
 20
1.22084290E+02
 11
2.56337994E+02
 21
1.22884285E+02
  0
LINE
  8
0
 62
6
 10
2.85937996E+02
 20
1.40334286E+02
 11
2.85937996E+02
 21
1.39834286E+02
  0
LINE
  8
0
 62
6
 10
2.64637993E+02
 20
1.27167146E+02
 11
2.68137993E+02
 21
1.27784290E+02
  0
LINE
  8
0
 62
6
 10
2.72137993E+02
 20
1.35884285E+02
 11
2.72137993E+02
 21
1.35784286E+02
  0
LINE
  8
0
 62
6
 10
2.72737995E+02
 20
1.35286209E+02
 11
2.72737995E+02
 21
1.35784286E+02
  0
LINE
  8
0
 62
6
 10
2.68137995E+02
 20
1.34475104E+02
 11
2.72737992E+02
 21
1.35286207E+02
  0
LINE
  8
0
 62
6
 10
2.66837994E+02
 20
1.35784286E+02
 11
2.72737995E+02
 21
1.35784286E+02
  0
LINE
  8
0
 62
6
 10
2.68137993E+02
 20
1.27784286E+02
 11
2.68137993E+02
 21
1.34475105E+02
  0
LINE
  8
0
 62
6
 10
2.73537994E+02
 20
1.38084286E+02
 11
2.72737995E+02
 21
1.38084286E+02
  0
LINE
  8
0
 62
6
 10
2.73737995E+02
 20
1.38284286E+02
 11
2.73737995E+02
 21
1.41884285E+02
  0
LINE
  8
0
 62
6
 10
2.73537994E+02
 20
1.42084286E+02
 11
2.72737995E+02
 21
1.42084286E+02
  0
LINE
  8
0
 62
6
 10
2.66837994E+02
 20
1.35884285E+02
 11
2.72737995E+02
 21
1.35884285E+02
  0
LINE
  8
0
 62
6
 10
2.67137993E+02
 20
1.28284286E+02
 11
2.67137993E+02
 21
1.31484287E+02
  0
LINE
  8
0
 62
6
 10
2.68137993E+02
 20
1.31484287E+02
 11
2.67137993E+02
 21
1.31484287E+02
  0
LINE
  8
0
 62
6
 10
2.68137993E+02
 20
1.28284286E+02
 11
2.67137993E+02
 21
1.28284286E+02
  0
LINE
  8
0
 62
6
 10
2.73737995E+02
 20
1.39434288E+02
 11
2.77237995E+02
 21
1.39434288E+02
  0
LINE
  8
0
 62
6
 10
2.73737995E+02
 20
1.40734287E+02
 11
2.77587994E+02
 21
1.40734287E+02
  0
LINE
  8
0
 62
6
 10
2.78017998E+02
 20
1.38484287E+02
 11
2.78877997E+02
 21
1.41684284E+02
  0
LINE
  8
0
 62
6
 10
2.76987997E+02
 20
1.38484287E+02
 11
2.77847996E+02
 21
1.41684285E+02
  0
LINE
  8
0
 62
6
 10
2.81937996E+02
 20
1.40734287E+02
 11
2.81937996E+02
 21
1.39434288E+02
  0
LINE
  8
0
 62
6
 10
2.78277996E+02
 20
1.39434288E+02
 11
2.81937996E+02
 21
1.39434288E+02
  0
LINE
  8
0
 62
6
 10
2.78627995E+02
 20
1.40734287E+02
 11
2.81937996E+02
 21
1.40734287E+02
  0
LINE
  8
0
 62
6
 10
2.67237995E+02
 20
1.28384285E+02
 11
2.67137993E+02
 21
1.28384285E+02
  0
LINE
  8
0
 62
6
 10
2.67237995E+02
 20
1.31384285E+02
 11
2.67137993E+02
 21
1.31384285E+02
  0
LINE
  8
0
 62
6
 10
2.67737995E+02
 20
1.28884285E+02
 11
2.67737995E+02
 21
1.30884285E+02
  0
LINE
  8
0
 62
6
 10
2.64637993E+02
 20
1.21384285E+02
 11
2.64637993E+02
 21
1.27167145E+02
  0
LINE
  8
0
 62
6
 10
2.81937996E+02
 20
1.39834286E+02
 11
2.85937996E+02
 21
1.39834286E+02
  0
LINE
  8
0
 62
6
 10
2.81937996E+02
 20
1.40334286E+02
 11
2.85937996E+02
 21
1.40334286E+02
  0
LINE
  8
0
  6
CENTER
 62
6
 10
2.87354485E+02
 20
1.40084286E+02
 11
2.71625996E+02
 21
1.40084286E+02
  0
LINE
  8
0
 62
6
 10
2.66837994E+02
 20
1.51884285E+02
 11
2.54337994E+02
 21
1.51884285E+02
  0
LINE
  8
0
 62
6
 10
2.54337994E+02
 20
1.53384285E+02
 11
2.54337994E+02
 21
1.51884285E+02
  0
LINE
  8
0
 62
6
 10
2.53137993E+02
 20
1.53384285E+02
 11
2.72737995E+02
 21
1.53384285E+02
  0
LINE
  8
0
 62
6
 10
2.72737995E+02
 20
1.35884285E+02
 11
2.72737995E+02
 21
1.53384285E+02
  0
LINE
  8
0
 62
6
 10
2.66837994E+02
 20
1.51884285E+02
 11
2.66837994E+02
 21
1.35784286E+02
  0
LINE
  8
0
 62
7
 10
2.77133072E+02
 20
8.23886719E+01
 11
2.77133072E+02
 21
8.53886719E+01
  0
LINE
  8
0
 62
7
 10
2.77133072E+02
 20
8.53886719E+01
 11
2.77133072E+02
 21
9.63886719E+01
  0
LINE
  8
0
 62
7
 10
2.32137995E+02
 20
9.63886719E+01
 11
2.32137995E+02
 21
7.83886719E+01
  0
LINE
  8
0
 62
7
 10
2.53137993E+02
 20
1.34885933E+02
 11
2.32137995E+02
 21
1.34885933E+02
  0
LINE
  8
0
 62
6
 10
2.54637993E+02
 20
1.96385932E+02
 11
2.54137993E+02
 21
1.96385932E+02
  0
LINE
  8
0
 62
6
 10
2.54637993E+02
 20
1.99385932E+02
 11
2.54137993E+02
 21
1.99385932E+02
  0
LINE
  8
0
 62
6
 10
2.57137993E+02
 20
1.96285932E+02
 11
2.54137993E+02
 21
1.96285932E+02
  0
LINE
  8
0
 62
6
 10
2.57137993E+02
 20
1.99485932E+02
 11
2.54137993E+02
 21
1.99485932E+02
  0
LINE
  8
0
 62
6
 10
2.54137993E+02
 20
1.99485932E+02
 11
2.54137993E+02
 21
1.96285932E+02
  0
LINE
  8
0
 62
6
 10
2.32137995E+02
 20
2.06385932E+02
 11
2.06137995E+02
 21
2.06385932E+02
  0
LINE
  8
0
 62
7
 10
2.06137995E+02
 20
1.21385933E+02
 11
2.32137995E+02
 21
1.21385933E+02
  0
LINE
  8
0
 62
7
 10
2.32137995E+02
 20
1.21385933E+02
 11
2.32137995E+02
 21
2.06385932E+02
  0
LINE
  8
0
 62
6
 10
2.06537994E+02
 20
1.71588673E+02
 11
2.06537994E+02
 21
1.26688675E+02
  0
LINE
  8
0
  6
CENTER
 62
6
 10
2.16037994E+02
 20
1.88687327E+02
 11
2.16037994E+02
 21
1.97890954E+02
  0
LINE
  8
0
  6
CENTER
 62
6
 10
2.19772917E+02
 20
1.92388672E+02
 11
2.11141488E+02
 21
1.92388672E+02
  0
LINE
  8
0
 62
7
 10
2.32137995E+02
 20
9.63886719E+01
 11
2.77137993E+02
 21
9.63886719E+01
  0
LINE
  8
0
 62
6
 10
2.57137993E+02
 20
1.92885932E+02
 11
2.53137993E+02
 21
1.92885932E+02
  0
LINE
  8
0
 62
7
 10
2.53137993E+02
 20
1.21385933E+02
 11
2.32137995E+02
 21
1.21385933E+02
  0
LINE
  8
0
 62
6
 10
2.57137993E+02
 20
2.06385932E+02
 11
2.53137993E+02
 21
2.06385932E+02
  0
LINE
  8
0
 62
7
 10
2.32137995E+02
 20
1.21385933E+02
 11
2.32137995E+02
 21
9.63886719E+01
  0
LINE
  8
0
 62
7
 10
2.77433072E+02
 20
7.89386744E+01
 11
2.77133072E+02
 21
7.92386737E+01
  0
LINE
  8
0
 62
7
 10
2.77433070E+02
 20
8.88386750E+01
 11
2.77133070E+02
 21
8.85386744E+01
  0
LINE
  8
0
 62
7
 10
2.85133072E+02
 20
8.73386688E+01
 11
2.85133072E+02
 21
8.04386749E+01
  0
LINE
  8
0
 62
7
 10
2.77433071E+02
 20
7.89386749E+01
 11
2.83633072E+02
 21
7.89386749E+01
  0
LINE
  8
0
 62
7
 10
2.77433071E+02
 20
8.88386688E+01
 11
2.83633072E+02
 21
8.88386688E+01
  0
LINE
  8
0
 62
7
 10
2.77133072E+02
 20
7.83886719E+01
 11
2.32137995E+02
 21
7.83886719E+01
  0
LINE
  8
0
 62
7
 10
2.77133072E+02
 20
7.83886719E+01
 11
2.77133072E+02
 21
8.23886719E+01
  0
LINE
  8
0
 62
6
 10
2.06137995E+02
 20
2.06385932E+02
 11
2.06137995E+02
 21
1.21385933E+02
  0
LINE
  8
0
 62
7
 10
2.06137995E+02
 20
7.83886719E+01
 11
2.32137995E+02
 21
7.83886719E+01
  0
LINE
  8
0
 62
6
 10
2.32137995E+02
 20
1.20888672E+02
 11
2.40637995E+02
 21
1.20888672E+02
  0
LINE
  8
0
 62
6
 10
2.40637995E+02
 20
9.68886719E+01
 11
2.40637995E+02
 21
1.20888672E+02
  0
LINE
  8
0
 62
6
 10
2.32137995E+02
 20
9.68886719E+01
 11
2.40637995E+02
 21
9.68886719E+01
  0
LINE
  8
0
 62
7
 10
2.06137995E+02
 20
7.83886719E+01
 11
2.06137995E+02
 21
1.21385933E+02
  0
LINE
  8
0
 62
7
 10
2.53137993E+02
 20
2.06385932E+02
 11
2.32137995E+02
 21
2.06385932E+02
  0
LINE
  8
0
 62
7
 10
2.53137993E+02
 20
1.92885932E+02
 11
2.32137995E+02
 21
1.92885932E+02
  0
LINE
  8
0
  6
CENTER
 62
6
 10
2.50861938E+02
 20
1.97885932E+02
 11
2.58833782E+02
 21
1.97885932E+02
  0
LINE
  8
0
  6
CENTER
 62
6
 10
2.50861938E+02
 20
1.29884285E+02
 11
2.71621952E+02
 21
1.29884285E+02
  0
ARC
  8
0
 62
6
 10
2.06837995E+02
 20
1.26688675E+02
 40
3.00000012E-01
 50
1.79999995E+02
 51
2.70000000E+02
  0
ARC
  8
0
 62
7
 10
2.34137995E+02
 20
2.03885932E+02
 40
2.50000000E+00
 50
5.31301018E+01
 51
1.26869903E+02
  0
ARC
  8
0
 62
7
 10
2.51493561E+02
 20
1.72931572E+02
 40
7.95639873E-01
 50
2.70000000E+02
 51
3.43900220E+02
  0
ARC
  8
0
 62
7
 10
2.46500586E+02
 20
1.74383432E+02
 40
5.99541616E+00
 50
3.43801670E+02
 51
1.61983298E+01
  0
ARC
  8
0
 62
7
 10
2.51489006E+02
 20
1.75836164E+02
 40
7.99777389E-01
 50
1.59492465E+01
 51
8.97141315E+01
  0
ARC
  8
0
 62
7
 10
2.51137993E+02
 20
1.23887581E+02
 40
2.50000000E+00
 50
2.33130097E+02
 51
3.06869898E+02
  0
ARC
  8
0
 62
7
 10
2.25135494E+02
 20
8.50260773E+01
 40
5.99541616E+00
 50
2.53801671E+02
 51
2.86198330E+02
  0
ARC
  8
0
 62
7
 10
2.26588227E+02
 20
8.00376587E+01
 40
7.99777389E-01
 50
2.85949247E+02
 51
3.59714132E+02
  0
ARC
  8
0
 62
7
 10
2.23683634E+02
 20
8.00331039E+01
 40
7.95639873E-01
 50
1.79959311E+02
 51
2.53900234E+02
  0
ARC
  8
0
 62
6
 10
2.06837995E+02
 20
1.71588673E+02
 40
3.00000012E-01
 50
9.00000002E+01
 51
1.80000005E+02
  0
ARC
  8
0
 62
6
 10
2.11022131E+02
 20
1.26688675E+02
 40
3.00000012E-01
 50
2.70000000E+02
 51
3.26944268E+02
  0
ARC
  8
0
 62
6
 10
2.16553858E+02
 20
1.26688675E+02
 40
3.00000012E-01
 50
2.13055734E+02
 51
2.70000000E+02
  0
ARC
  8
0
 62
6
 10
2.13787994E+02
 20
1.24888672E+02
 40
3.00000000E+00
 50
3.30557318E+01
 51
1.46944266E+02
  0
ARC
  8
0
 62
6
 10
2.20787994E+02
 20
1.26688675E+02
 40
3.00000012E-01
 50
2.70000000E+02
 51
0.00000000E+00
  0
CIRCLE
  8
0
 62
6
 10
2.19287994E+02
 20
1.70888672E+02
 40
2.00000000E+00
  0
CIRCLE
  8
0
 62
6
 10
2.08787994E+02
 20
1.27388672E+02
 40
2.00000000E+00
  0
ARC
  8
0
 62
6
 10
2.73538704E+02
 20
1.38283573E+02
 40
1.99289829E-01
 50
2.70000000E+02
 51
2.04538593E-01
  0
ARC
  8
0
 62
6
 10
2.73538704E+02
 20
1.41884998E+02
 40
1.99289829E-01
 50
3.59795462E+02
 51
9.00000002E+01
  0
ARC
  8
0
 62
6
 10
2.67237995E+02
 20
1.30884285E+02
 40
5.00000000E-01
 50
0.00000000E+00
 51
9.00000002E+01
  0
ARC
  8
0
 62
6
 10
2.67237995E+02
 20
1.28884285E+02
 40
5.00000000E-01
 50
2.70000000E+02
 51
0.00000000E+00
  0
ARC
  8
0
 62
6
 10
2.52637993E+02
 20
1.97885932E+02
 40
2.50000000E+00
 50
3.23130102E+02
 51
3.68698973E+01
  0
CIRCLE
  8
0
 62
6
 10
2.14037994E+02
 20
1.24888672E+02
 40
2.29999995E+00
  0
CIRCLE
  8
0
 62
6
 10
2.16037994E+02
 20
1.92388672E+02
 40
2.29999995E+00
  0
ARC
  8
0
 62
7
 10
2.83633072E+02
 20
8.04386749E+01
 40
1.50000000E+00
 50
2.70000000E+02
 51
0.00000000E+00
  0
ARC
  8
0
 62
7
 10
2.83633072E+02
 20
8.73386688E+01
 40
1.50000000E+00
 50
0.00000000E+00
 51
9.00000002E+01
  0
POLYLINE
  8
0
 62
6
 66
1
  0
VERTEX
  8
0
 62
6
 10
1.96137995E+02
 20
1.49138672E+02
  0
VERTEX
  8
0
 62
6
 10
1.96161090E+02
 20
1.49238157E+02
  0
VERTEX
  8
0
 62
6
 10
1.96184581E+02
 20
1.49337557E+02
  0
VERTEX
  8
0
 62
6
 10
1.96208479E+02
 20
1.49436863E+02
  0
VERTEX
  8
0
 62
6
 10
1.96232794E+02
 20
1.49536071E+02
  0
VERTEX
  8
0
 62
6
 10
1.96257536E+02
 20
1.49635172E+02
  0
VERTEX
  8
0
 62
6
 10
1.96282715E+02
 20
1.49734161E+02
  0
VERTEX
  8
0
 62
6
 10
1.96308343E+02
 20
1.49833032E+02
  0
VERTEX
  8
0
 62
6
 10
1.96334427E+02
 20
1.49931777E+02
  0
VERTEX
  8
0
 62
6
 10
1.96360981E+02
 20
1.50030390E+02
  0
VERTEX
  8
0
 62
6
 10
1.96388012E+02
 20
1.50128864E+02
  0
VERTEX
  8
0
 62
6
 10
1.96414576E+02
 20
1.50223835E+02
  0
VERTEX
  8
0
 62
6
 10
1.96441564E+02
 20
1.50318682E+02
  0
VERTEX
  8
0
 62
6
 10
1.96468947E+02
 20
1.50413415E+02
  0
VERTEX
  8
0
 62
6
 10
1.96496694E+02
 20
1.50508046E+02
  0
VERTEX
  8
0
 62
6
 10
1.96524773E+02
 20
1.50602585E+02
  0
VERTEX
  8
0
 62
6
 10
1.96553155E+02
 20
1.50697044E+02
  0
VERTEX
  8
0
 62
6
 10
1.96581807E+02
 20
1.50791434E+02
  0
VERTEX
  8
0
 62
6
 10
1.96610701E+02
 20
1.50885765E+02
  0
VERTEX
  8
0
 62
6
 10
1.96639804E+02
 20
1.50980048E+02
  0
VERTEX
  8
0
 62
6
 10
1.96669086E+02
 20
1.51074295E+02
  0
VERTEX
  8
0
 62
6
 10
1.96699735E+02
 20
1.51172317E+02
  0
VERTEX
  8
0
 62
6
 10
1.96730656E+02
 20
1.51270263E+02
  0
VERTEX
  8
0
 62
6
 10
1.96761962E+02
 20
1.51368084E+02
  0
VERTEX
  8
0
 62
6
 10
1.96793764E+02
 20
1.51465732E+02
  0
VERTEX
  8
0
 62
6
 10
1.96826174E+02
 20
1.51563159E+02
  0
VERTEX
  8
0
 62
6
 10
1.96859304E+02
 20
1.51660316E+02
  0
VERTEX
  8
0
 62
6
 10
1.96893267E+02
 20
1.51757154E+02
  0
VERTEX
  8
0
 62
6
 10
1.96928173E+02
 20
1.51853626E+02
  0
VERTEX
  8
0
 62
6
 10
1.96964135E+02
 20
1.51949683E+02
  0
VERTEX
  8
0
 62
6
 10
1.97001265E+02
 20
1.52045277E+02
  0
VERTEX
  8
0
 62
6
 10
1.97069619E+02
 20
1.52212247E+02
  0
VERTEX
  8
0
 62
6
 10
1.97141668E+02
 20
1.52377702E+02
  0
VERTEX
  8
0
 62
6
 10
1.97217142E+02
 20
1.52541710E+02
  0
VERTEX
  8
0
 62
6
 10
1.97295775E+02
 20
1.52704341E+02
  0
VERTEX
  8
0
 62
6
 10
1.97377300E+02
 20
1.52865664E+02
  0
VERTEX
  8
0
 62
6
 10
1.97461448E+02
 20
1.53025747E+02
  0
VERTEX
  8
0
 62
6
 10
1.97547953E+02
 20
1.53184660E+02
  0
VERTEX
  8
0
 62
6
 10
1.97636547E+02
 20
1.53342471E+02
  0
VERTEX
  8
0
 62
6
 10
1.97726963E+02
 20
1.53499249E+02
  0
VERTEX
  8
0
 62
6
 10
1.97818933E+02
 20
1.53655064E+02
  0
VERTEX
  8
0
 62
6
 10
1.97945185E+02
 20
1.53864055E+02
  0
VERTEX
  8
0
 62
6
 10
1.98073544E+02
 20
1.54071582E+02
  0
VERTEX
  8
0
 62
6
 10
1.98203772E+02
 20
1.54277813E+02
  0
VERTEX
  8
0
 62
6
 10
1.98335630E+02
 20
1.54482916E+02
  0
VERTEX
  8
0
 62
6
 10
1.98468880E+02
 20
1.54687059E+02
  0
VERTEX
  8
0
 62
6
 10
1.98603282E+02
 20
1.54890408E+02
  0
VERTEX
  8
0
 62
6
 10
1.98738598E+02
 20
1.55093133E+02
  0
VERTEX
  8
0
 62
6
 10
1.98874590E+02
 20
1.55295400E+02
  0
VERTEX
  8
0
 62
6
 10
1.99011018E+02
 20
1.55497378E+02
  0
VERTEX
  8
0
 62
6
 10
1.99147644E+02
 20
1.55699234E+02
  0
VERTEX
  8
0
 62
6
 10
1.99443207E+02
 20
1.56135990E+02
  0
VERTEX
  8
0
 62
6
 10
1.99738842E+02
 20
1.56572764E+02
  0
VERTEX
  8
0
 62
6
 10
2.00034809E+02
 20
1.57009361E+02
  0
VERTEX
  8
0
 62
6
 10
2.00331373E+02
 20
1.57445583E+02
  0
VERTEX
  8
0
 62
6
 10
2.00628797E+02
 20
1.57881235E+02
  0
VERTEX
  8
0
 62
6
 10
2.00927341E+02
 20
1.58316120E+02
  0
VERTEX
  8
0
 62
6
 10
2.01227271E+02
 20
1.58750041E+02
  0
VERTEX
  8
0
 62
6
 10
2.01528848E+02
 20
1.59182802E+02
  0
VERTEX
  8
0
 62
6
 10
2.01832335E+02
 20
1.59614207E+02
  0
VERTEX
  8
0
 62
6
 10
2.02137995E+02
 20
1.60044060E+02
  0
SEQEND
  8
0
  0
POLYLINE
  8
0
 62
6
 66
1
  0
VERTEX
  8
0
 62
6
 10
1.96137995E+02
 20
1.49138672E+02
  0
VERTEX
  8
0
 62
6
 10
1.96161090E+02
 20
1.49039186E+02
  0
VERTEX
  8
0
 62
6
 10
1.96184581E+02
 20
1.48939787E+02
  0
VERTEX
  8
0
 62
6
 10
1.96208479E+02
 20
1.48840481E+02
  0
VERTEX
  8
0
 62
6
 10
1.96232794E+02
 20
1.48741273E+02
  0
VERTEX
  8
0
 62
6
 10
1.96257536E+02
 20
1.48642172E+02
  0
VERTEX
  8
0
 62
6
 10
1.96282715E+02
 20
1.48543182E+02
  0
VERTEX
  8
0
 62
6
 10
1.96308343E+02
 20
1.48444312E+02
  0
VERTEX
  8
0
 62
6
 10
1.96334427E+02
 20
1.48345567E+02
  0
VERTEX
  8
0
 62
6
 10
1.96360981E+02
 20
1.48246954E+02
  0
VERTEX
  8
0
 62
6
 10
1.96388012E+02
 20
1.48148479E+02
  0
VERTEX
  8
0
 62
6
 10
1.96414576E+02
 20
1.48053509E+02
  0
VERTEX
  8
0
 62
6
 10
1.96441564E+02
 20
1.47958662E+02
  0
VERTEX
  8
0
 62
6
 10
1.96468947E+02
 20
1.47863929E+02
  0
VERTEX
  8
0
 62
6
 10
1.96496694E+02
 20
1.47769298E+02
  0
VERTEX
  8
0
 62
6
 10
1.96524773E+02
 20
1.47674758E+02
  0
VERTEX
  8
0
 62
6
 10
1.96553155E+02
 20
1.47580299E+02
  0
VERTEX
  8
0
 62
6
 10
1.96581807E+02
 20
1.47485910E+02
  0
VERTEX
  8
0
 62
6
 10
1.96610701E+02
 20
1.47391579E+02
  0
VERTEX
  8
0
 62
6
 10
1.96639804E+02
 20
1.47297295E+02
  0
VERTEX
  8
0
 62
6
 10
1.96669086E+02
 20
1.47203049E+02
  0
VERTEX
  8
0
 62
6
 10
1.96699735E+02
 20
1.47105027E+02
  0
VERTEX
  8
0
 62
6
 10
1.96730656E+02
 20
1.47007081E+02
  0
VERTEX
  8
0
 62
6
 10
1.96761962E+02
 20
1.46909260E+02
  0
VERTEX
  8
0
 62
6
 10
1.96793764E+02
 20
1.46811611E+02
  0
VERTEX
  8
0
 62
6
 10
1.96826174E+02
 20
1.46714185E+02
  0
VERTEX
  8
0
 62
6
 10
1.96859304E+02
 20
1.46617028E+02
  0
VERTEX
  8
0
 62
6
 10
1.96893267E+02
 20
1.46520189E+02
  0
VERTEX
  8
0
 62
6
 10
1.96928173E+02
 20
1.46423717E+02
  0
VERTEX
  8
0
 62
6
 10
1.96964135E+02
 20
1.46327661E+02
  0
VERTEX
  8
0
 62
6
 10
1.97001265E+02
 20
1.46232067E+02
  0
VERTEX
  8
0
 62
6
 10
1.97069619E+02
 20
1.46065097E+02
  0
VERTEX
  8
0
 62
6
 10
1.97141668E+02
 20
1.45899642E+02
  0
VERTEX
  8
0
 62
6
 10
1.97217142E+02
 20
1.45735634E+02
  0
VERTEX
  8
0
 62
6
 10
1.97295775E+02
 20
1.45573002E+02
  0
VERTEX
  8
0
 62
6
 10
1.97377300E+02
 20
1.45411680E+02
  0
VERTEX
  8
0
 62
6
 10
1.97461448E+02
 20
1.45251597E+02
  0
VERTEX
  8
0
 62
6
 10
1.97547953E+02
 20
1.45092684E+02
  0
VERTEX
  8
0
 62
6
 10
1.97636547E+02
 20
1.44934873E+02
  0
VERTEX
  8
0
 62
6
 10
1.97726963E+02
 20
1.44778095E+02
  0
VERTEX
  8
0
 62
6
 10
1.97818933E+02
 20
1.44622280E+02
  0
VERTEX
  8
0
 62
6
 10
1.97945185E+02
 20
1.44413289E+02
  0
VERTEX
  8
0
 62
6
 10
1.98073544E+02
 20
1.44205762E+02
  0
VERTEX
  8
0
 62
6
 10
1.98203772E+02
 20
1.43999530E+02
  0
VERTEX
  8
0
 62
6
 10
1.98335630E+02
 20
1.43794428E+02
  0
VERTEX
  8
0
 62
6
 10
1.98468880E+02
 20
1.43590285E+02
  0
VERTEX
  8
0
 62
6
 10
1.98603282E+02
 20
1.43386935E+02
  0
VERTEX
  8
0
 62
6
 10
1.98738598E+02
 20
1.43184211E+02
  0
VERTEX
  8
0
 62
6
 10
1.98874590E+02
 20
1.42981944E+02
  0
VERTEX
  8
0
 62
6
 10
1.99011018E+02
 20
1.42779966E+02
  0
VERTEX
  8
0
 62
6
 10
1.99147644E+02
 20
1.42578110E+02
  0
VERTEX
  8
0
 62
6
 10
1.99443207E+02
 20
1.42141354E+02
  0
VERTEX
  8
0
 62
6
 10
1.99738842E+02
 20
1.41704580E+02
  0
VERTEX
  8
0
 62
6
 10
2.00034809E+02
 20
1.41267983E+02
  0
VERTEX
  8
0
 62
6
 10
2.00331373E+02
 20
1.40831761E+02
  0
VERTEX
  8
0
 62
6
 10
2.00628797E+02
 20
1.40396109E+02
  0
VERTEX
  8
0
 62
6
 10
2.00927341E+02
 20
1.39961224E+02
  0
VERTEX
  8
0
 62
6
 10
2.01227271E+02
 20
1.39527303E+02
  0
VERTEX
  8
0
 62
6
 10
2.01528848E+02
 20
1.39094541E+02
  0
VERTEX
  8
0
 62
6
 10
2.01832335E+02
 20
1.38663136E+02
  0
VERTEX
  8
0
 62
6
 10
2.02137995E+02
 20
1.38233284E+02
  0
SEQEND
  8
0
  0
LINE
  8
0
 62
7
 10
-1.56487556E+02
 20
-4.85155706E+01
 11
-1.56487556E+02
 21
-5.05155706E+01
  0
LINE
  8
0
 62
7
 10
-1.63482632E+02
 20
-4.89155707E+01
 11
-1.63482632E+02
 21
-5.10155706E+01
  0
LINE
  8
0
 62
7
 10
-1.65482632E+02
 20
-4.76155710E+01
 11
-1.65482632E+02
 21
-4.65155706E+01
  0
LINE
  8
0
 62
7
 10
-1.65482632E+02
 20
-4.18155708E+01
 11
-1.65482632E+02
 21
-4.13155708E+01
  0
LINE
  8
0
 62
7
 10
-1.63482632E+02
 20
-4.31155710E+01
 11
-1.63482632E+02
 21
-4.52155704E+01
  0
LINE
  8
0
 62
6
 10
-1.68887554E+02
 20
-4.03655710E+01
 11
-1.67887554E+02
 21
-4.03655710E+01
  0
LINE
  8
0
 62
6
 10
-1.67887554E+02
 20
-4.18155708E+01
 11
-1.59687553E+02
 21
-4.18155708E+01
  0
LINE
  8
0
 62
6
 10
-1.67887554E+02
 20
-4.31155710E+01
 11
-1.59687553E+02
 21
-4.31155710E+01
  0
LINE
  8
0
 62
6
 10
-1.59687553E+02
 20
-4.31155710E+01
 11
-1.59687553E+02
 21
-4.18155708E+01
  0
LINE
  8
0
 62
6
 10
-1.55687553E+02
 20
-4.27155704E+01
 11
-1.55687553E+02
 21
-4.22155704E+01
  0
LINE
  8
0
 62
6
 10
-1.59687553E+02
 20
-4.27155704E+01
 11
-1.55687553E+02
 21
-4.27155704E+01
  0
LINE
  8
0
 62
6
 10
-1.59687553E+02
 20
-4.22155704E+01
 11
-1.55687553E+02
 21
-4.22155704E+01
  0
LINE
  8
0
 62
6
 10
-1.59687553E+02
 20
-4.80155706E+01
 11
-1.55687553E+02
 21
-4.80155706E+01
  0
LINE
  8
0
 62
6
 10
-1.59687553E+02
 20
-4.85155706E+01
 11
-1.55687553E+02
 21
-4.85155706E+01
  0
LINE
  8
0
 62
6
 10
-1.55687553E+02
 20
-4.85155706E+01
 11
-1.55687553E+02
 21
-4.80155706E+01
  0
LINE
  8
0
 62
6
 10
-1.59687553E+02
 20
-4.89155707E+01
 11
-1.59687553E+02
 21
-4.76155710E+01
  0
LINE
  8
0
 62
6
 10
-1.67887554E+02
 20
-4.89155707E+01
 11
-1.59687553E+02
 21
-4.89155707E+01
  0
LINE
  8
0
 62
6
 10
-1.67887554E+02
 20
-4.76155710E+01
 11
-1.59687553E+02
 21
-4.76155710E+01
  0
LINE
  8
0
 62
6
 10
-1.67887554E+02
 20
-4.03655710E+01
 11
-1.67887554E+02
 21
-4.37655706E+01
  0
LINE
  8
0
  6
CENTER
 62
6
 10
-1.90883224E+02
 20
-4.53655710E+01
 11
-1.66664246E+02
 21
-4.53655710E+01
  0
LINE
  8
0
 62
6
 10
-1.84487556E+02
 20
-5.37655709E+01
 11
-1.84487556E+02
 21
-4.37655706E+01
  0
LINE
  8
0
  6
CENTER
 62
6
 10
-1.90883224E+02
 20
-4.87655706E+01
 11
-1.66664246E+02
 21
-4.87655706E+01
  0
LINE
  8
0
 62
7
 10
-1.64482632E+02
 20
-5.28155708E+01
 11
-1.64482632E+02
 21
-5.56668997E+01
  0
LINE
  8
0
 62
7
 10
-1.64482632E+02
 20
-3.95655708E+01
 11
-1.88487556E+02
 21
-3.95655708E+01
  0
LINE
  8
0
 62
7
 10
-1.64482632E+02
 20
-5.45655708E+01
 11
-1.88487556E+02
 21
-5.45655708E+01
  0
LINE
  8
0
 62
7
 10
-1.63482632E+02
 20
-5.28155708E+01
 11
-1.65482632E+02
 21
-5.28155708E+01
  0
LINE
  8
0
 62
7
 10
-1.63482632E+02
 20
-4.13155708E+01
 11
-1.65482632E+02
 21
-4.13155708E+01
  0
LINE
  8
0
 62
7
 10
-1.63482632E+02
 20
-4.13155708E+01
 11
-1.63482632E+02
 21
-4.18155708E+01
  0
LINE
  8
0
 62
7
 10
-1.65482632E+02
 20
-5.28155708E+01
 11
-1.65482632E+02
 21
-5.23155708E+01
  0
LINE
  8
0
 62
7
 10
-2.06709738E+02
 20
-5.48433889E+01
 11
-2.08265373E+02
 21
-5.32877534E+01
  0
LINE
  8
0
 62
7
 10
-2.06709738E+02
 20
-5.32877534E+01
 11
-2.08265372E+02
 21
-5.48433882E+01
  0
LINE
  8
0
 62
7
 10
-1.89709737E+02
 20
-3.92877527E+01
 11
-1.91265372E+02
 21
-4.08433882E+01
  0
LINE
  8
0
 62
7
 10
-1.89709739E+02
 20
-4.08433888E+01
 11
-1.91265373E+02
 21
-3.92877541E+01
  0
LINE
  8
0
 62
7
 10
-2.09487555E+02
 20
-3.80655708E+01
 11
-1.88487556E+02
 21
-3.80655708E+01
  0
LINE
  8
0
 62
7
 10
-1.88487556E+02
 20
-5.60655708E+01
 11
-2.09487555E+02
 21
-5.60655708E+01
  0
LINE
  8
0
 62
7
 10
-2.05887554E+02
 20
-5.40655708E+01
 11
-2.05887554E+02
 21
-5.60655708E+01
  0
LINE
  8
0
 62
7
 10
-1.92087555E+02
 20
-4.00655708E+01
 11
-1.92087555E+02
 21
-3.80655708E+01
  0
LINE
  8
0
 62
7
 10
-1.90487556E+02
 20
-4.16655712E+01
 11
-1.88487556E+02
 21
-4.16655712E+01
  0
LINE
  8
0
 62
7
 10
-2.07487555E+02
 20
-5.24655709E+01
 11
-2.09487555E+02
 21
-5.24655709E+01
  0
LINE
  8
0
 62
7
 10
-2.35487555E+02
 20
-3.78155708E+01
 11
-2.09487555E+02
 21
-3.78155708E+01
  0
LINE
  8
0
 62
7
 10
-2.09487555E+02
 20
-5.63155708E+01
 11
-2.35487555E+02
 21
-5.63155708E+01
  0
LINE
  8
0
 62
7
 10
-2.09487555E+02
 20
-3.78155708E+01
 11
-2.09487555E+02
 21
-5.63155708E+01
  0
LINE
  8
0
 62
7
 10
-2.35487555E+02
 20
-3.78155708E+01
 11
-2.35487555E+02
 21
-5.63155708E+01
  0
LINE
  8
0
 62
7
 10
-1.59687553E+02
 20
-4.21155710E+01
 11
-1.57987556E+02
 21
-4.21155710E+01
  0
LINE
  8
0
 62
7
 10
-1.59687553E+02
 20
-5.20155706E+01
 11
-1.57987556E+02
 21
-5.20155706E+01
  0
LINE
  8
0
 62
7
 10
-1.56487556E+02
 20
-4.36155710E+01
 11
-1.56487556E+02
 21
-4.56155710E+01
  0
LINE
  8
0
 62
7
 10
-1.64681299E+02
 20
-5.58668953E+01
 11
-1.94482633E+02
 21
-5.60655708E+01
  0
LINE
  8
0
 62
7
 10
-1.64681302E+02
 20
-3.82642457E+01
 11
-1.94482633E+02
 21
-3.80655702E+01
  0
LINE
  8
0
  6
CENTER
 62
2
 10
-2.16987555E+02
 20
-4.26905708E+01
 11
-2.16987555E+02
 21
-5.14405708E+01
  0
LINE
  8
0
 62
7
 10
-1.88487556E+02
 20
-5.60655708E+01
 11
-1.88487556E+02
 21
-3.80655708E+01
  0
LINE
  8
0
 62
6
 10
-1.88487556E+02
 20
-4.03655710E+01
 11
-1.68887554E+02
 21
-4.03655710E+01
  0
LINE
  8
0
 62
7
 10
-1.64482632E+02
 20
-3.84642410E+01
 11
-1.64482632E+02
 21
-4.13155708E+01
  0
LINE
  8
0
  6
CENTER
 62
2
 10
-2.38662283E+02
 20
-4.70655708E+01
 11
-1.53931808E+02
 21
-4.70655708E+01
  0
LINE
  8
0
 62
6
 10
-1.88487556E+02
 20
-5.37655709E+01
 11
-1.68887554E+02
 21
-5.37655709E+01
  0
LINE
  8
0
 62
6
 10
-1.68887554E+02
 20
-5.37655709E+01
 11
-1.67887554E+02
 21
-5.37655709E+01
  0
LINE
  8
0
 62
6
 10
-1.68887554E+02
 20
-4.37655706E+01
 11
-1.67887554E+02
 21
-4.37655706E+01
  0
LINE
  8
0
 62
6
 10
-1.88487556E+02
 20
-4.37655706E+01
 11
-1.68887554E+02
 21
-4.37655706E+01
  0
LINE
  8
0
 62
6
 10
-1.67887554E+02
 20
-5.10155706E+01
 11
-1.59687553E+02
 21
-5.10155706E+01
  0
LINE
  8
0
 62
6
 10
-1.67887554E+02
 20
-5.23155708E+01
 11
-1.59687553E+02
 21
-5.23155708E+01
  0
LINE
  8
0
 62
6
 10
-1.59687553E+02
 20
-5.23155708E+01
 11
-1.59687553E+02
 21
-5.10155706E+01
  0
LINE
  8
0
 62
6
 10
-1.55687553E+02
 20
-5.19155707E+01
 11
-1.55687553E+02
 21
-5.14155707E+01
  0
LINE
  8
0
 62
6
 10
-1.59687553E+02
 20
-5.19155707E+01
 11
-1.55687553E+02
 21
-5.19155707E+01
  0
LINE
  8
0
 62
6
 10
-1.59687553E+02
 20
-5.14155707E+01
 11
-1.55687553E+02
 21
-5.14155707E+01
  0
LINE
  8
0
 62
6
 10
-1.59687553E+02
 20
-4.56155710E+01
 11
-1.55687553E+02
 21
-4.56155710E+01
  0
LINE
  8
0
 62
6
 10
-1.59687553E+02
 20
-4.61155710E+01
 11
-1.55687553E+02
 21
-4.61155710E+01
  0
LINE
  8
0
 62
6
 10
-1.55687553E+02
 20
-4.61155710E+01
 11
-1.55687553E+02
 21
-4.56155710E+01
  0
LINE
  8
0
 62
6
 10
-1.59687553E+02
 20
-4.65155706E+01
 11
-1.59687553E+02
 21
-4.52155704E+01
  0
LINE
  8
0
 62
6
 10
-1.67887554E+02
 20
-4.65155706E+01
 11
-1.59687553E+02
 21
-4.65155706E+01
  0
LINE
  8
0
 62
6
 10
-1.67887554E+02
 20
-4.52155704E+01
 11
-1.59687553E+02
 21
-4.52155704E+01
  0
LINE
  8
0
 62
6
 10
-1.73487556E+02
 20
-4.37655706E+01
 11
-1.73487556E+02
 21
-5.37655709E+01
  0
LINE
  8
0
 62
6
 10
-1.76987556E+02
 20
-4.37655706E+01
 11
-1.76987556E+02
 21
-5.37655709E+01
  0
LINE
  8
0
 62
7
 10
-1.63482632E+02
 20
-4.65155706E+01
 11
-1.63482632E+02
 21
-4.76155710E+01
  0
LINE
  8
0
 62
7
 10
-1.65482632E+02
 20
-4.52155704E+01
 11
-1.65482632E+02
 21
-4.31155710E+01
  0
LINE
  8
0
 62
7
 10
-1.65482632E+02
 20
-5.10155706E+01
 11
-1.65482632E+02
 21
-4.89155707E+01
  0
LINE
  8
0
 62
7
 10
-1.63482632E+02
 20
-5.23155708E+01
 11
-1.63482632E+02
 21
-5.28155708E+01
  0
LINE
  8
0
 62
7
 10
-1.56487556E+02
 20
-4.61155710E+01
 11
-1.56487556E+02
 21
-4.80155706E+01
  0
LINE
  8
0
 62
6
 10
-1.68887554E+02
 20
-4.37655706E+01
 11
-1.68887554E+02
 21
-5.37655709E+01
  0
LINE
  8
0
 62
6
 10
-1.67887554E+02
 20
-4.37655706E+01
 11
-1.67887554E+02
 21
-5.37655709E+01
  0
LINE
  8
0
 62
6
 10
-1.68887554E+02
 20
-4.37655706E+01
 11
-1.68887554E+02
 21
-4.03655710E+01
  0
LINE
  8
0
 62
6
 10
-1.87287556E+02
 20
-4.37655706E+01
 11
-1.87287556E+02
 21
-4.03655710E+01
  0
LINE
  8
0
  6
PHANTOM
 62
2
 10
-1.13586334E+02
 20
-4.26655712E+01
 11
-1.13586334E+02
 21
-4.32655706E+01
  0
LINE
  8
0
  6
PHANTOM
 62
2
 10
-1.13586334E+02
 20
-4.22655706E+01
 11
-1.13586334E+02
 21
-4.16655712E+01
  0
LINE
  8
0
  6
PHANTOM
 62
2
 10
-1.33753555E+02
 20
-4.36655712E+01
 11
-1.33753555E+02
 21
-4.12655706E+01
  0
LINE
  8
0
  6
PHANTOM
 62
2
 10
-1.33753555E+02
 20
-4.32655706E+01
 11
-1.13586334E+02
 21
-4.32655706E+01
  0
LINE
  8
0
  6
PHANTOM
 62
2
 10
-1.33753555E+02
 20
-4.26655712E+01
 11
-1.13586334E+02
 21
-4.26655712E+01
  0
LINE
  8
0
  6
PHANTOM
 62
2
 10
-1.33753555E+02
 20
-4.22655706E+01
 11
-1.13586334E+02
 21
-4.22655706E+01
  0
LINE
  8
0
  6
PHANTOM
 62
2
 10
-1.33753555E+02
 20
-4.16655712E+01
 11
-1.13586334E+02
 21
-4.16655712E+01
  0
LINE
  8
0
  6
PHANTOM
 62
2
 10
-1.39287552E+02
 20
-4.36655712E+01
 11
-1.33753555E+02
 21
-4.36655712E+01
  0
LINE
  8
0
  6
PHANTOM
 62
2
 10
-1.39287552E+02
 20
-4.12655706E+01
 11
-1.33753555E+02
 21
-4.12655706E+01
  0
LINE
  8
0
  6
PHANTOM
 62
2
 10
-1.67987556E+02
 20
-4.03655710E+01
 11
-1.67987556E+02
 21
-3.95655708E+01
  0
LINE
  8
0
  6
PHANTOM
 62
2
 10
-1.66364265E+02
 20
-5.28155708E+01
 11
-1.66364265E+02
 21
-5.23155708E+01
  0
LINE
  8
0
  6
PHANTOM
 62
2
 10
-1.63487556E+02
 20
-5.28155708E+01
 11
-1.63487556E+02
 21
-5.23155708E+01
  0
LINE
  8
0
  6
PHANTOM
 62
2
 10
-1.67887554E+02
 20
-5.28155708E+01
 11
-1.63482632E+02
 21
-5.28155708E+01
  0
LINE
  8
0
  6
PHANTOM
 62
2
 10
-1.67887554E+02
 20
-4.13155708E+01
 11
-1.63487556E+02
 21
-4.13155708E+01
  0
LINE
  8
0
  6
PHANTOM
 62
2
 10
-1.67987556E+02
 20
-5.45655708E+01
 11
-1.67987556E+02
 21
-5.37655709E+01
  0
LINE
  8
0
  6
PHANTOM
 62
2
 10
-1.64487556E+02
 20
-5.45655708E+01
 11
-1.64487556E+02
 21
-5.23155708E+01
  0
LINE
  8
0
  6
PHANTOM
 62
2
 10
-1.88487556E+02
 20
-5.45655708E+01
 11
-1.64487556E+02
 21
-5.45655708E+01
  0
LINE
  8
0
  6
PHANTOM
 62
2
 10
-1.88487556E+02
 20
-3.95655708E+01
 11
-1.64487556E+02
 21
-3.95655708E+01
  0
LINE
  8
0
  6
PHANTOM
 62
2
 10
-1.51682449E+02
 20
-4.43655710E+01
 11
-1.39287552E+02
 21
-4.43655710E+01
  0
LINE
  8
0
  6
PHANTOM
 62
2
 10
-1.49488525E+02
 20
-4.05655708E+01
 11
-1.39287552E+02
 21
-4.05655708E+01
  0
LINE
  8
0
  6
PHANTOM
 62
2
 10
-1.52859758E+02
 20
-4.64047189E+01
 11
-1.48034908E+02
 21
-3.80478336E+01
  0
LINE
  8
0
  6
PHANTOM
 62
2
 10
-1.55626168E+02
 20
-4.61962824E+01
 11
-1.50813939E+02
 21
-3.78612572E+01
  0
LINE
  8
0
  6
PHANTOM
 62
2
 10
-1.39287552E+02
 20
-4.43655710E+01
 11
-1.39287552E+02
 21
-4.05655708E+01
  0
LINE
  8
0
  6
PHANTOM
 62
2
 10
-1.63487556E+02
 20
-4.43655710E+01
 11
-1.54569206E+02
 21
-4.43655710E+01
  0
LINE
  8
0
  6
PHANTOM
 62
2
 10
-1.63487556E+02
 20
-4.05655708E+01
 11
-1.52375275E+02
 21
-4.05655708E+01
  0
LINE
  8
0
  6
PHANTOM
 62
2
 10
-1.64487556E+02
 20
-3.96655712E+01
 11
-1.63487556E+02
 21
-3.96655712E+01
  0
LINE
  8
0
  6
PHANTOM
 62
2
 10
-1.63487556E+02
 20
-4.13155708E+01
 11
-1.63487556E+02
 21
-3.96655712E+01
  0
LINE
  8
0
  6
PHANTOM
 62
2
 10
-1.63482632E+02
 20
-4.13155708E+01
 11
-1.63482632E+02
 21
-4.18155708E+01
  0
LINE
  8
0
  6
PHANTOM
 62
2
 10
-1.63482632E+02
 20
-4.89155707E+01
 11
-1.63482632E+02
 21
-5.10155706E+01
  0
LINE
  8
0
  6
PHANTOM
 62
2
 10
-1.63487556E+02
 20
-4.18155708E+01
 11
-1.63487556E+02
 21
-4.13155708E+01
  0
LINE
  8
0
  6
PHANTOM
 62
2
 10
-1.64487556E+02
 20
-4.18155708E+01
 11
-1.64487556E+02
 21
-3.95655708E+01
  0
LINE
  8
0
  6
PHANTOM
 62
2
 10
-1.66364265E+02
 20
-4.18155708E+01
 11
-1.66364265E+02
 21
-4.13155708E+01
  0
LINE
  8
0
  6
PHANTOM
 62
2
 10
-1.66364265E+02
 20
-4.52155704E+01
 11
-1.66364265E+02
 21
-4.31155710E+01
  0
LINE
  8
0
  6
PHANTOM
 62
2
 10
-1.64487556E+02
 20
-4.52155704E+01
 11
-1.64487556E+02
 21
-4.31155710E+01
  0
LINE
  8
0
  6
PHANTOM
 62
2
 10
-1.63487556E+02
 20
-4.52155704E+01
 11
-1.63487556E+02
 21
-4.31155710E+01
  0
LINE
  8
0
  6
PHANTOM
 62
2
 10
-1.63487556E+02
 20
-4.76155710E+01
 11
-1.63487556E+02
 21
-4.65155706E+01
  0
LINE
  8
0
  6
PHANTOM
 62
2
 10
-1.64487556E+02
 20
-4.76155710E+01
 11
-1.64487556E+02
 21
-4.65155706E+01
  0
LINE
  8
0
  6
PHANTOM
 62
2
 10
-1.66364265E+02
 20
-4.76155710E+01
 11
-1.66364265E+02
 21
-4.65155706E+01
  0
LINE
  8
0
  6
PHANTOM
 62
2
 10
-1.66364265E+02
 20
-5.10155706E+01
 11
-1.66364265E+02
 21
-4.89155707E+01
  0
LINE
  8
0
  6
PHANTOM
 62
2
 10
-1.64487556E+02
 20
-5.10155706E+01
 11
-1.64487556E+02
 21
-4.89155707E+01
  0
LINE
  8
0
  6
PHANTOM
 62
2
 10
-1.63487556E+02
 20
-5.10155706E+01
 11
-1.63487556E+02
 21
-4.89155707E+01
  0
LINE
  8
0
  6
CENTER
 62
2
 10
-2.25587555E+02
 20
-5.95655708E+01
 11
-2.25587555E+02
 21
-3.45655708E+01
  0
LINE
  8
0
  6
CENTER
 62
2
 10
-2.27587555E+02
 20
-5.95655708E+01
 11
-2.27587555E+02
 21
-3.45655708E+01
  0
ARC
  8
0
 62
7
 10
-1.57987556E+02
 20
-4.36155710E+01
 40
1.50000000E+00
 50
6.89605270E+01
 51
9.00000002E+01
  0
CIRCLE
  8
0
 62
7
 10
-2.07487555E+02
 20
-5.40655708E+01
 40
1.50000000E+00
  0
CIRCLE
  8
0
 62
7
 10
-1.90487556E+02
 20
-4.00655708E+01
 40
1.50000000E+00
  0
ARC
  8
0
 62
7
 10
-1.90487556E+02
 20
-4.00655708E+01
 40
1.60000002E+00
 50
1.79999995E+02
 51
2.70000000E+02
  0
ARC
  8
0
 62
7
 10
-2.07487555E+02
 20
-5.40655708E+01
 40
1.60000002E+00
 50
0.00000000E+00
 51
9.00000002E+01
  0
ARC
  8
0
 62
7
 10
-1.57987556E+02
 20
-4.36155710E+01
 40
1.50000000E+00
 50
0.00000000E+00
 51
3.68698973E+01
  0
ARC
  8
0
 62
7
 10
-1.57987556E+02
 20
-5.05155706E+01
 40
1.50000000E+00
 50
3.23130102E+02
 51
0.00000000E+00
  0
ARC
  8
0
 62
7
 10
-1.64682632E+02
 20
-5.56668997E+01
 40
2.00000003E-01
 50
2.70381969E+02
 51
0.00000000E+00
  0
ARC
  8
0
 62
7
 10
-1.64682632E+02
 20
-3.84642410E+01
 40
2.00000003E-01
 50
0.00000000E+00
 51
8.96180310E+01
  0
CIRCLE
  8
0
 62
7
 10
-2.16987555E+02
 20
-4.70655708E+01
 40
2.53999996E+00
  0
ARC
  8
0
 62
7
 10
-1.57987556E+02
 20
-5.05155706E+01
 40
1.50000000E+00
 50
2.70000000E+02
 51
2.91039473E+02
  0
CIRCLE
  8
0
 62
7
 10
-2.16987555E+02
 20
-4.70655708E+01
 40
3.50000000E+00
  0
CIRCLE
  8
0
 62
7
 10
-2.16987555E+02
 20
-4.70655708E+01
 40
4.00000000E+00
  0
LINE
  8
0
 62
6
 10
-8.12875490E+01
 20
-1.84850819E+02
 11
-7.12875488E+01
 21
-1.84850819E+02
  0
LINE
  8
0
 62
6
 10
-7.12875488E+01
 20
-1.84352741E+02
 11
-8.12875490E+01
 21
-1.84352741E+02
  0
LINE
  8
0
 62
6
 10
-7.12875488E+01
 20
-1.84252739E+02
 11
-8.12875490E+01
 21
-1.84252739E+02
  0
LINE
  8
0
 62
6
 10
-7.12875488E+01
 20
-1.85661922E+02
 11
-8.12875490E+01
 21
-1.85661922E+02
  0
LINE
  8
0
 62
6
 10
-7.33875489E+01
 20
-1.78052738E+02
 11
-7.91875486E+01
 21
-1.78052738E+02
  0
LINE
  8
0
 62
6
 10
-7.33875489E+01
 20
-1.82052738E+02
 11
-7.91875486E+01
 21
-1.82052738E+02
  0
LINE
  8
0
 62
6
 10
-8.46875486E+01
 20
-1.28252740E+02
 11
-7.46875486E+01
 21
-1.28252740E+02
  0
LINE
  8
0
 62
6
 10
-8.46875486E+01
 20
-1.28152740E+02
 11
-7.46875486E+01
 21
-1.28152740E+02
  0
LINE
  8
0
 62
6
 10
-8.46875486E+01
 20
-1.27654661E+02
 11
-7.46875486E+01
 21
-1.27654661E+02
  0
LINE
  8
0
 62
6
 10
-8.25875492E+01
 20
-1.34452740E+02
 11
-7.67875490E+01
 21
-1.34452740E+02
  0
LINE
  8
0
 62
6
 10
-8.25875492E+01
 20
-1.30452740E+02
 11
-7.67875490E+01
 21
-1.30452740E+02
  0
LINE
  8
0
 62
7
 10
-8.46875486E+01
 20
-1.27252740E+02
 11
-8.69875488E+01
 21
-1.27252740E+02
  0
LINE
  8
0
 62
7
 10
-6.89875488E+01
 20
-1.27252740E+02
 11
-7.46875486E+01
 21
-1.27252740E+02
  0
LINE
  8
0
 62
7
 10
-8.33886156E+01
 20
-1.97973366E+02
 11
-8.33886156E+01
 21
-1.98752739E+02
  0
LINE
  8
0
 62
7
 10
-8.66825485E+01
 20
-1.97752739E+02
 11
-8.66825485E+01
 21
-1.98252739E+02
  0
LINE
  8
0
  6
CENTER
 62
2
 10
-8.51875496E+01
 20
-1.95736748E+02
 11
-8.51875496E+01
 21
-2.00038521E+02
  0
LINE
  8
0
 62
7
 10
-8.35875492E+01
 20
-1.97752739E+02
 11
-8.69875488E+01
 21
-1.97752739E+02
  0
LINE
  8
0
 62
7
 10
-8.55482084E+01
 20
-1.44692079E+02
 11
-8.34268880E+01
 21
-1.46813399E+02
  0
LINE
  8
0
 62
7
 10
-8.55482084E+01
 20
-1.46813399E+02
 11
-8.44875483E+01
 21
-1.45752739E+02
  0
LINE
  8
0
 62
6
 10
-7.81875486E+01
 20
-1.40752740E+02
 11
-7.81875486E+01
 21
-1.45752739E+02
  0
LINE
  8
0
 62
6
 10
-8.11875486E+01
 20
-1.40752740E+02
 11
-8.11875486E+01
 21
-1.45752739E+02
  0
LINE
  8
0
 62
6
 10
-8.11875486E+01
 20
-1.40752740E+02
 11
-7.81875486E+01
 21
-1.40752740E+02
  0
LINE
  8
0
 62
6
 10
-7.72931785E+01
 20
-1.19711923E+02
 11
-7.70375489E+01
 21
-1.20152740E+02
  0
LINE
  8
0
 62
6
 10
-8.23375486E+01
 20
-1.20152740E+02
 11
-8.20819190E+01
 21
-1.19711922E+02
  0
LINE
  8
0
 62
6
 10
-7.85431783E+01
 20
-1.20961923E+02
 11
-7.82875486E+01
 21
-1.21402740E+02
  0
LINE
  8
0
 62
6
 10
-7.70375486E+01
 20
-1.20152740E+02
 11
-7.82875484E+01
 21
-1.21402740E+02
  0
LINE
  8
0
 62
6
 10
-7.85431778E+01
 20
-1.20961923E+02
 11
-7.72931780E+01
 21
-1.19711923E+02
  0
LINE
  8
0
 62
6
 10
-8.08319187E+01
 20
-1.20961922E+02
 11
-8.10875483E+01
 21
-1.21402740E+02
  0
LINE
  8
0
 62
6
 10
-8.46875486E+01
 20
-1.26843557E+02
 11
-7.46875486E+01
 21
-1.26843557E+02
  0
LINE
  8
0
 62
6
 10
-8.08319189E+01
 20
-1.20961923E+02
 11
-8.20819189E+01
 21
-1.19711923E+02
  0
LINE
  8
0
 62
6
 10
-8.46875486E+01
 20
-1.19711923E+02
 11
-8.20819197E+01
 21
-1.19711923E+02
  0
LINE
  8
0
 62
6
 10
-7.72931786E+01
 20
-1.19711923E+02
 11
-7.46875486E+01
 21
-1.19711923E+02
  0
LINE
  8
0
 62
6
 10
-7.85431786E+01
 20
-1.20961923E+02
 11
-8.08319197E+01
 21
-1.20961923E+02
  0
LINE
  8
0
 62
6
 10
-8.46875486E+01
 20
-1.20152740E+02
 11
-8.23375492E+01
 21
-1.20152740E+02
  0
LINE
  8
0
 62
6
 10
-8.23375486E+01
 20
-1.20152740E+02
 11
-8.10875487E+01
 21
-1.21402740E+02
  0
LINE
  8
0
 62
6
 10
-7.82875490E+01
 20
-1.21402740E+02
 11
-8.10875492E+01
 21
-1.21402740E+02
  0
LINE
  8
0
 62
6
 10
-7.70375490E+01
 20
-1.20152740E+02
 11
-7.46875486E+01
 21
-1.20152740E+02
  0
LINE
  8
0
 62
6
 10
-8.31875486E+01
 20
-1.23852740E+02
 11
-8.46875486E+01
 21
-1.23852740E+02
  0
LINE
  8
0
 62
6
 10
-8.46875486E+01
 20
-1.20652740E+02
 11
-8.31875486E+01
 21
-1.20652740E+02
  0
LINE
  8
0
 62
6
 10
-7.61875486E+01
 20
-1.20652740E+02
 11
-7.46875486E+01
 21
-1.20652740E+02
  0
LINE
  8
0
 62
6
 10
-7.46875486E+01
 20
-1.23852740E+02
 11
-7.61875486E+01
 21
-1.23852740E+02
  0
LINE
  8
0
 62
6
 10
-8.15130625E+01
 20
-1.23702740E+02
 11
-7.78620348E+01
 21
-1.23702740E+02
  0
LINE
  8
0
 62
6
 10
-8.15130625E+01
 20
-1.24302740E+02
 11
-7.78620348E+01
 21
-1.24302740E+02
  0
LINE
  8
0
 62
6
 10
-7.54804417E+01
 20
-1.21545633E+02
 11
-7.68946551E+01
 21
-1.22959847E+02
  0
LINE
  8
0
 62
6
 10
-7.54804417E+01
 20
-1.22959847E+02
 11
-7.68946552E+01
 21
-1.21545633E+02
  0
LINE
  8
0
 62
6
 10
-8.38946555E+01
 20
-1.22959847E+02
 11
-8.24804420E+01
 21
-1.21545633E+02
  0
LINE
  8
0
 62
6
 10
-8.38946555E+01
 20
-1.21545633E+02
 11
-8.24804420E+01
 21
-1.22959847E+02
  0
LINE
  8
0
 62
6
 10
-8.43875484E+01
 20
-1.45752739E+02
 11
-7.49875488E+01
 21
-1.45752739E+02
  0
LINE
  8
0
 62
6
 10
-8.46875486E+01
 20
-1.45452740E+02
 11
-8.46875486E+01
 21
-1.13743024E+02
  0
LINE
  8
0
  6
CENTER
 62
6
 10
-7.96875486E+01
 20
-1.11967734E+02
 11
-7.96875486E+01
 21
-1.47888792E+02
  0
LINE
  8
0
 62
6
 10
-7.46875486E+01
 20
-1.45452740E+02
 11
-7.46875486E+01
 21
-1.13752740E+02
  0
LINE
  8
0
 62
7
 10
-8.44875488E+01
 20
-1.48452740E+02
 11
-8.69875488E+01
 21
-1.48452740E+02
  0
LINE
  8
0
 62
7
 10
-8.46875486E+01
 20
-1.43052740E+02
 11
-8.69875488E+01
 21
-1.43052740E+02
  0
LINE
  8
0
  6
CENTER
 62
2
 10
-7.07875488E+01
 20
-1.16768729E+02
 11
-7.07875488E+01
 21
-1.12466958E+02
  0
LINE
  8
0
 62
7
 10
-6.92925488E+01
 20
-1.14752740E+02
 11
-6.92925488E+01
 21
-1.14252740E+02
  0
LINE
  8
0
 62
7
 10
-7.22925489E+01
 20
-1.14752740E+02
 11
-7.22925489E+01
 21
-1.14252740E+02
  0
LINE
  8
0
 62
7
 10
-7.12875478E+01
 20
-1.68052739E+02
 11
-7.04268875E+01
 21
-1.67192079E+02
  0
LINE
  8
0
 62
7
 10
-7.12875478E+01
 20
-1.68452739E+02
 11
-7.04268875E+01
 21
-1.69313399E+02
  0
LINE
  8
0
  6
PHANTOM
 62
2
 10
-8.49875488E+01
 20
-1.98949997E+02
 11
-8.37375488E+01
 21
-1.98949997E+02
  0
LINE
  8
0
  6
CENTER
 62
2
 10
-7.33875489E+01
 20
-2.23940704E+02
 11
-7.33875489E+01
 21
-2.16203056E+02
  0
LINE
  8
0
  6
CENTER
 62
2
 10
-7.62244859E+01
 20
-2.19849998E+02
 11
-7.04227877E+01
 21
-2.19849998E+02
  0
LINE
  8
0
 62
7
 10
-7.12875488E+01
 20
-1.70952740E+02
 11
-6.89875488E+01
 21
-1.70952740E+02
  0
LINE
  8
0
 62
7
 10
-7.14875488E+01
 20
-1.65552738E+02
 11
-6.89875488E+01
 21
-1.65552738E+02
  0
LINE
  8
0
 62
7
 10
-7.25875487E+01
 20
-1.14552740E+02
 11
-7.25875487E+01
 21
-1.13752740E+02
  0
LINE
  8
0
 62
7
 10
-7.23875489E+01
 20
-1.14752740E+02
 11
-6.89875488E+01
 21
-1.14752740E+02
  0
LINE
  8
0
  6
CENTER
 62
2
 10
-8.43908081E+01
 20
-2.36250000E+02
 11
-7.13078475E+01
 21
-2.36250000E+02
  0
LINE
  8
0
 62
7
 10
-6.89875488E+01
 20
-1.98752739E+02
 11
-6.89875488E+01
 21
-1.13752740E+02
  0
LINE
  8
0
 62
7
 10
-8.69875488E+01
 20
-1.98752739E+02
 11
-8.69875488E+01
 21
-1.13752740E+02
  0
LINE
  8
0
 62
7
 10
-6.87375488E+01
 20
-2.41759720E+02
 11
-6.87375488E+01
 21
-1.13752740E+02
  0
LINE
  8
0
 62
7
 10
-8.72375488E+01
 20
-2.41759720E+02
 11
-8.72375488E+01
 21
-1.13752740E+02
  0
LINE
  8
0
 62
7
 10
-6.87375488E+01
 20
-2.41759720E+02
 11
-8.72375488E+01
 21
-2.41759720E+02
  0
LINE
  8
0
  6
PHANTOM
 62
2
 10
-7.61875486E+01
 20
-2.23259720E+02
 11
-7.61875486E+01
 21
-2.16659714E+02
  0
LINE
  8
0
  6
PHANTOM
 62
2
 10
-7.56875486E+01
 20
-2.16159714E+02
 11
-7.10875487E+01
 21
-2.16159714E+02
  0
LINE
  8
0
  6
PHANTOM
 62
2
 10
-7.05875489E+01
 20
-2.23259720E+02
 11
-7.05875489E+01
 21
-2.16659714E+02
  0
LINE
  8
0
  6
PHANTOM
 62
2
 10
-8.34733419E+01
 20
-2.17362457E+02
 11
-8.14855757E+01
 21
-2.17362457E+02
  0
LINE
  8
0
  6
PHANTOM
 62
2
 10
-8.34733419E+01
 20
-2.16762459E+02
 11
-8.14855757E+01
 21
-2.16762459E+02
  0
LINE
  8
0
  6
PHANTOM
 62
2
 10
-8.33808880E+01
 20
-2.09362457E+02
 11
-8.15318031E+01
 21
-2.09362457E+02
  0
LINE
  8
0
  6
PHANTOM
 62
2
 10
-8.34271145E+01
 20
-2.08762459E+02
 11
-8.15318031E+01
 21
-2.08762459E+02
  0
LINE
  8
0
  6
CENTER
 62
2
 10
-8.49033890E+01
 20
-2.17062454E+02
 11
-7.99705572E+01
 21
-2.17062454E+02
  0
LINE
  8
0
  6
CENTER
 62
2
 10
-8.24875488E+01
 20
-2.19510612E+02
 11
-8.24875488E+01
 21
-2.14577782E+02
  0
LINE
  8
0
  6
CENTER
 62
2
 10
-8.24875488E+01
 20
-2.11443985E+02
 11
-8.24875488E+01
 21
-2.06743286E+02
  0
LINE
  8
0
  6
CENTER
 62
2
 10
-8.47873230E+01
 20
-2.09062454E+02
 11
-8.03187571E+01
 21
-2.09062454E+02
  0
LINE
  8
0
  6
PHANTOM
 62
2
 10
-7.22375488E+01
 20
-2.06250000E+02
 11
-7.09875488E+01
 21
-2.06250000E+02
  0
LINE
  8
0
  6
PHANTOM
 62
2
 10
-8.49875488E+01
 20
-2.06250000E+02
 11
-8.37375488E+01
 21
-2.06250000E+02
  0
LINE
  8
0
  6
PHANTOM
 62
2
 10
-8.37375488E+01
 20
-2.06949997E+02
 11
-7.22375488E+01
 21
-2.06949997E+02
  0
LINE
  8
0
  6
PHANTOM
 62
2
 10
-8.32375488E+01
 20
-2.03949997E+02
 11
-7.27375488E+01
 21
-2.03949997E+02
  0
LINE
  8
0
  6
PHANTOM
 62
2
 10
-7.22375488E+01
 20
-1.98949997E+02
 11
-7.09875488E+01
 21
-1.98949997E+02
  0
LINE
  8
0
  6
PHANTOM
 62
2
 10
-8.32375488E+01
 20
-1.97949997E+02
 11
-7.27375488E+01
 21
-1.97949997E+02
  0
LINE
  8
0
  6
PHANTOM
 62
2
 10
-7.22375488E+01
 20
-1.98389702E+02
 11
-7.22375488E+01
 21
-2.06949997E+02
  0
LINE
  8
0
  6
PHANTOM
 62
2
 10
-8.37375488E+01
 20
-2.06949997E+02
 11
-8.37375488E+01
 21
-1.98449997E+02
  0
LINE
  8
0
 62
7
 10
-8.49875488E+01
 20
-2.23750000E+02
 11
-7.09875488E+01
 21
-2.23750000E+02
  0
LINE
  8
0
 62
7
 10
-7.04875488E+01
 20
-2.41259720E+02
 11
-7.04875488E+01
 21
-2.24062454E+02
  0
LINE
  8
0
 62
7
 10
-8.54875488E+01
 20
-2.41259720E+02
 11
-8.54875488E+01
 21
-2.24062454E+02
  0
LINE
  8
0
  6
PHANTOM
 62
2
 10
-7.04875488E+01
 20
-2.23250000E+02
 11
-7.04875488E+01
 21
-1.99449997E+02
  0
LINE
  8
0
  6
PHANTOM
 62
2
 10
-8.54875488E+01
 20
-2.23250000E+02
 11
-8.54875488E+01
 21
-1.99449997E+02
  0
LINE
  8
0
 62
7
 10
-7.09875488E+01
 20
-2.23759720E+02
 11
-8.49875488E+01
 21
-2.23759720E+02
  0
LINE
  8
0
 62
7
 10
-6.87375488E+01
 20
-1.13752740E+02
 11
-8.72375488E+01
 21
-1.13752740E+02
  0
LINE
  8
0
 62
6
 10
-7.15875487E+01
 20
-1.66752739E+02
 11
-8.09875488E+01
 21
-1.66752739E+02
  0
LINE
  8
0
 62
6
 10
-7.77875490E+01
 20
-1.71752739E+02
 11
-7.47875490E+01
 21
-1.71752739E+02
  0
LINE
  8
0
 62
6
 10
-7.47875490E+01
 20
-1.71752739E+02
 11
-7.47875490E+01
 21
-1.66752739E+02
  0
LINE
  8
0
 62
6
 10
-7.77875490E+01
 20
-1.71752739E+02
 11
-7.77875490E+01
 21
-1.66752739E+02
  0
LINE
  8
0
  6
CENTER
 62
6
 10
-7.62875490E+01
 20
-2.00537743E+02
 11
-7.62875490E+01
 21
-1.64616688E+02
  0
LINE
  8
0
 62
6
 10
-7.86819155E+01
 20
-1.92793557E+02
 11
-7.89375451E+01
 21
-1.92352739E+02
  0
LINE
  8
0
 62
6
 10
-7.36375506E+01
 20
-1.92352739E+02
 11
-7.38931802E+01
 21
-1.92793557E+02
  0
LINE
  8
0
 62
6
 10
-7.74319182E+01
 20
-1.91543555E+02
 11
-7.76875478E+01
 21
-1.91102738E+02
  0
LINE
  8
0
 62
6
 10
-7.89375472E+01
 20
-1.92352740E+02
 11
-7.76875486E+01
 21
-1.91102741E+02
  0
LINE
  8
0
 62
6
 10
-7.74319189E+01
 20
-1.91543558E+02
 11
-7.86819175E+01
 21
-1.92793556E+02
  0
LINE
  8
0
 62
6
 10
-7.51431811E+01
 20
-1.91543557E+02
 11
-7.48875514E+01
 21
-1.91102740E+02
  0
LINE
  8
0
 62
6
 10
-7.51431792E+01
 20
-1.91543555E+02
 11
-7.38931778E+01
 21
-1.92793556E+02
  0
LINE
  8
0
 62
6
 10
-7.12875488E+01
 20
-1.92793556E+02
 11
-7.38931785E+01
 21
-1.92793556E+02
  0
LINE
  8
0
 62
6
 10
-7.86819191E+01
 20
-1.92793556E+02
 11
-8.12875490E+01
 21
-1.92793556E+02
  0
LINE
  8
0
 62
6
 10
-7.74319191E+01
 20
-1.91543556E+02
 11
-7.51431785E+01
 21
-1.91543556E+02
  0
LINE
  8
0
 62
6
 10
-7.12875488E+01
 20
-1.92352737E+02
 11
-7.36375489E+01
 21
-1.92352737E+02
  0
LINE
  8
0
 62
6
 10
-7.36375481E+01
 20
-1.92352740E+02
 11
-7.48875494E+01
 21
-1.91102738E+02
  0
LINE
  8
0
 62
6
 10
-7.76875486E+01
 20
-1.91102741E+02
 11
-7.48875489E+01
 21
-1.91102741E+02
  0
LINE
  8
0
 62
6
 10
-7.89375486E+01
 20
-1.92352737E+02
 11
-8.12875490E+01
 21
-1.92352737E+02
  0
LINE
  8
0
 62
6
 10
-7.27875490E+01
 20
-1.88652740E+02
 11
-7.12875488E+01
 21
-1.88652740E+02
  0
LINE
  8
0
 62
6
 10
-7.12875488E+01
 20
-1.91852737E+02
 11
-7.27875490E+01
 21
-1.91852737E+02
  0
LINE
  8
0
 62
6
 10
-7.97875490E+01
 20
-1.91852737E+02
 11
-8.12875490E+01
 21
-1.91852737E+02
  0
LINE
  8
0
 62
6
 10
-8.12875490E+01
 20
-1.88652740E+02
 11
-7.97875490E+01
 21
-1.88652740E+02
  0
LINE
  8
0
 62
6
 10
-8.12875490E+01
 20
-1.67052738E+02
 11
-8.12875490E+01
 21
-1.98752739E+02
  0
LINE
  8
0
 62
6
 10
-7.12875488E+01
 20
-1.67052738E+02
 11
-7.12875488E+01
 21
-1.98762459E+02
  0
LINE
  8
0
 62
6
 10
-7.44620352E+01
 20
-1.88802738E+02
 11
-7.81130629E+01
 21
-1.88802738E+02
  0
LINE
  8
0
 62
6
 10
-7.81130629E+01
 20
-1.88202740E+02
 11
-7.44620352E+01
 21
-1.88202740E+02
  0
LINE
  8
0
 62
6
 10
-8.04946555E+01
 20
-1.90959844E+02
 11
-7.90804419E+01
 21
-1.89545630E+02
  0
LINE
  8
0
 62
6
 10
-8.04946555E+01
 20
-1.89545630E+02
 11
-7.90804419E+01
 21
-1.90959844E+02
  0
LINE
  8
0
 62
6
 10
-7.20804426E+01
 20
-1.89545633E+02
 11
-7.34946561E+01
 21
-1.90959846E+02
  0
LINE
  8
0
 62
6
 10
-7.20804426E+01
 20
-1.90959846E+02
 11
-7.34946561E+01
 21
-1.89545633E+02
  0
LINE
  8
0
 62
7
 10
-8.72375488E+01
 20
-1.98752739E+02
 11
-6.87375488E+01
 21
-1.98752739E+02
  0
LINE
  8
0
 62
7
 10
-8.69875488E+01
 20
-1.85252739E+02
 11
-8.12875490E+01
 21
-1.85252739E+02
  0
LINE
  8
0
 62
7
 10
-7.12875488E+01
 20
-1.85252739E+02
 11
-6.89875488E+01
 21
-1.85252739E+02
  0
LINE
  8
0
 62
7
 10
-7.59875488E+01
 20
-1.02047739E+02
 11
-7.99875488E+01
 21
-1.02047739E+02
  0
LINE
  8
0
 62
7
 10
-7.99875488E+01
 20
-1.07047739E+02
 11
-7.59875488E+01
 21
-1.07047739E+02
  0
LINE
  8
0
 62
7
 10
-7.49875488E+01
 20
-1.09752739E+02
 11
-8.09875488E+01
 21
-1.09752739E+02
  0
LINE
  8
0
 62
7
 10
-7.44875488E+01
 20
-1.12252740E+02
 11
-7.44875488E+01
 21
-1.10252739E+02
  0
LINE
  8
0
 62
7
 10
-7.67375488E+01
 20
-1.07047739E+02
 11
-7.67375488E+01
 21
-1.09752739E+02
  0
LINE
  8
0
 62
7
 10
-7.44875489E+01
 20
-1.10252740E+02
 11
-7.49875494E+01
 21
-1.09752740E+02
  0
LINE
  8
0
 62
7
 10
-7.54875486E+01
 20
-1.06547741E+02
 11
-7.59875484E+01
 21
-1.07047741E+02
  0
LINE
  8
0
 62
7
 10
-7.54875493E+01
 20
-1.02547740E+02
 11
-7.59875484E+01
 21
-1.02047741E+02
  0
LINE
  8
0
 62
7
 10
-7.54875488E+01
 20
-1.02547739E+02
 11
-7.54875488E+01
 21
-1.06547739E+02
  0
LINE
  8
0
 62
7
 10
-8.14875486E+01
 20
-1.12252740E+02
 11
-8.09875481E+01
 21
-1.12752741E+02
  0
LINE
  8
0
 62
7
 10
-8.14875484E+01
 20
-1.10252740E+02
 11
-8.09875483E+01
 21
-1.09752740E+02
  0
LINE
  8
0
 62
7
 10
-8.04875492E+01
 20
-1.02547740E+02
 11
-7.99875493E+01
 21
-1.02047740E+02
  0
LINE
  8
0
 62
7
 10
-7.99875490E+01
 20
-1.07047740E+02
 11
-8.04875482E+01
 21
-1.06547741E+02
  0
LINE
  8
0
 62
7
 10
-8.04875488E+01
 20
-1.02547739E+02
 11
-8.04875488E+01
 21
-1.06547739E+02
  0
LINE
  8
0
 62
7
 10
-8.14875488E+01
 20
-1.12252740E+02
 11
-8.14875488E+01
 21
-1.10252739E+02
  0
LINE
  8
0
 62
7
 10
-7.92375488E+01
 20
-1.07047739E+02
 11
-7.92375488E+01
 21
-1.09752739E+02
  0
LINE
  8
0
 62
7
 10
-7.44875492E+01
 20
-1.12252740E+02
 11
-7.49875491E+01
 21
-1.12752740E+02
  0
LINE
  8
0
 62
7
 10
-8.16875486E+01
 20
-1.12752740E+02
 11
-7.42875490E+01
 21
-1.12752740E+02
  0
LINE
  8
0
 62
7
 10
-7.39875488E+01
 20
-1.13752740E+02
 11
-7.39875488E+01
 21
-1.13052740E+02
  0
LINE
  8
0
 62
7
 10
-8.19875488E+01
 20
-1.13752740E+02
 11
-8.19875488E+01
 21
-1.13052740E+02
  0
LINE
  8
0
 62
7
 10
-8.19875491E+01
 20
-1.13052740E+02
 11
-8.16875491E+01
 21
-1.12752740E+02
  0
LINE
  8
0
 62
7
 10
-7.42875489E+01
 20
-1.12752740E+02
 11
-7.39875490E+01
 21
-1.13052740E+02
  0
LINE
  8
0
 62
7
 10
-8.19875488E+01
 20
-1.13052740E+02
 11
-7.39875488E+01
 21
-1.13052740E+02
  0
LINE
  8
0
  6
CENTER
 62
2
 10
-7.79875488E+01
 20
-9.82664604E+01
 11
-7.79875488E+01
 21
-2.46043037E+02
  0
LINE
  8
0
  6
CENTER
 62
6
 10
-8.22875490E+01
 20
-1.90252739E+02
 11
-7.72875490E+01
 21
-1.90252739E+02
  0
LINE
  8
0
  6
CENTER
 62
6
 10
-7.52875490E+01
 20
-1.90252739E+02
 11
-7.02875488E+01
 21
-1.90252739E+02
  0
LINE
  8
0
  6
CENTER
 62
6
 10
-7.97875490E+01
 20
-1.92752739E+02
 11
-7.97875490E+01
 21
-1.87752739E+02
  0
LINE
  8
0
  6
CENTER
 62
6
 10
-7.27875490E+01
 20
-1.92752739E+02
 11
-7.27875490E+01
 21
-1.87752739E+02
  0
LINE
  8
0
  6
CENTER
 62
6
 10
-7.61875486E+01
 20
-1.24752740E+02
 11
-7.61875486E+01
 21
-1.19752740E+02
  0
LINE
  8
0
  6
CENTER
 62
6
 10
-8.31875486E+01
 20
-1.24752740E+02
 11
-8.31875486E+01
 21
-1.19752740E+02
  0
LINE
  8
0
  6
CENTER
 62
6
 10
-7.86875486E+01
 20
-1.22252740E+02
 11
-7.36875486E+01
 21
-1.22252740E+02
  0
LINE
  8
0
  6
CENTER
 62
6
 10
-8.56875496E+01
 20
-1.22252740E+02
 11
-8.06875486E+01
 21
-1.22252740E+02
  0
LINE
  8
0
  6
CENTER
 62
6
 10
-7.08231337E+01
 20
-1.80052738E+02
 11
-8.16994314E+01
 21
-1.80052738E+02
  0
LINE
  8
0
  6
CENTER
 62
6
 10
-7.33875489E+01
 20
-1.82760815E+02
 11
-7.33875489E+01
 21
-1.77216038E+02
  0
LINE
  8
0
  6
CENTER
 62
6
 10
-7.91875486E+01
 20
-1.82760815E+02
 11
-7.91875486E+01
 21
-1.77216038E+02
  0
LINE
  8
0
  6
CENTER
 62
6
 10
-7.42231336E+01
 20
-1.32452740E+02
 11
-8.50994320E+01
 21
-1.32452740E+02
  0
LINE
  8
0
  6
CENTER
 62
6
 10
-7.67875490E+01
 20
-1.35160816E+02
 11
-7.67875490E+01
 21
-1.29616037E+02
  0
LINE
  8
0
  6
CENTER
 62
6
 10
-8.25875492E+01
 20
-1.35160816E+02
 11
-8.25875492E+01
 21
-1.29616037E+02
  0
LINE
  8
0
  6
CENTER
 62
2
 10
-9.04875488E+01
 20
-1.27750000E+02
 11
-6.54875488E+01
 21
-1.27750000E+02
  0
LINE
  8
0
  6
CENTER
 62
2
 10
-9.04875488E+01
 20
-1.95250000E+02
 11
-6.54875488E+01
 21
-1.95250000E+02
  0
LINE
  8
0
 62
6
 10
-7.04875488E+01
 20
-2.23250000E+02
 11
-7.04875488E+01
 21
-1.99250000E+02
  0
LINE
  8
0
 62
6
 10
-8.54875488E+01
 20
-1.99250000E+02
 11
-7.04875488E+01
 21
-1.99250000E+02
  0
LINE
  8
0
 62
6
 10
-8.54875488E+01
 20
-2.23250000E+02
 11
-8.54875488E+01
 21
-1.99250000E+02
  0
LINE
  8
0
 62
6
 10
-8.54875488E+01
 20
-2.23250000E+02
 11
-7.04875488E+01
 21
-2.23250000E+02
  0
CIRCLE
  8
0
 62
6
 10
-7.33875489E+01
 20
-1.80052738E+02
 40
8.75000000E-01
  0
ARC
  8
0
 62
6
 10
-7.33875489E+01
 20
-1.80052738E+02
 40
2.00000000E+00
 50
2.70000000E+02
 51
9.00000002E+01
  0
CIRCLE
  8
0
 62
6
 10
-7.91875486E+01
 20
-1.80052738E+02
 40
8.75000000E-01
  0
ARC
  8
0
 62
6
 10
-7.91875486E+01
 20
-1.80052738E+02
 40
2.00000000E+00
 50
9.00000002E+01
 51
2.70000000E+02
  0
CIRCLE
  8
0
 62
6
 10
-7.67875490E+01
 20
-1.32452740E+02
 40
8.75000000E-01
  0
ARC
  8
0
 62
6
 10
-7.67875490E+01
 20
-1.32452740E+02
 40
2.00000000E+00
 50
2.70000000E+02
 51
9.00000002E+01
  0
ARC
  8
0
 62
6
 10
-8.25875492E+01
 20
-1.32452740E+02
 40
2.00000000E+00
 50
9.00000002E+01
 51
2.70000000E+02
  0
CIRCLE
  8
0
 62
6
 10
-8.25875492E+01
 20
-1.32452740E+02
 40
8.75000000E-01
  0
ARC
  8
0
 62
7
 10
-8.51825485E+01
 20
-1.96252739E+02
 40
2.50000000E+00
 50
2.33130097E+02
 51
3.06869898E+02
  0
ARC
  8
0
 62
7
 10
-8.44875488E+01
 20
-1.45752739E+02
 40
2.70000005E+00
 50
2.70000000E+02
 51
6.03127398E-13
  0
CIRCLE
  8
0
 62
6
 10
-7.96875486E+01
 20
-1.24002740E+02
 40
2.04999995E+00
  0
ARC
  8
0
 62
6
 10
-7.61875486E+01
 20
-1.22252740E+02
 40
1.60000002E+00
 50
9.00000002E+01
 51
2.70000000E+02
  0
ARC
  8
0
 62
6
 10
-8.31875486E+01
 20
-1.22252740E+02
 40
1.60000002E+00
 50
2.70000000E+02
 51
9.00000002E+01
  0
CIRCLE
  8
0
 62
6
 10
-7.96875486E+01
 20
-1.24002740E+02
 40
1.85000002E+00
  0
ARC
  8
0
 62
6
 10
-7.96875486E+01
 20
-1.24002740E+02
 40
8.00000012E-01
 50
2.02024309E+02
 51
3.37975688E+02
  0
ARC
  8
0
 62
6
 10
-7.96875486E+01
 20
-1.24002740E+02
 40
8.00000012E-01
 50
2.20243121E+01
 51
1.57975691E+02
  0
CIRCLE
  8
0
 62
6
 10
-7.61875486E+01
 20
-1.22252740E+02
 40
1.50000000E+00
  0
CIRCLE
  8
0
 62
6
 10
-8.31875486E+01
 20
-1.22252740E+02
 40
1.50000000E+00
  0
ARC
  8
0
 62
6
 10
-7.49875488E+01
 20
-1.45452740E+02
 40
3.00000012E-01
 50
2.70000000E+02
 51
0.00000000E+00
  0
ARC
  8
0
 62
6
 10
-8.43875484E+01
 20
-1.45452740E+02
 40
3.00000012E-01
 50
1.79999995E+02
 51
2.70000000E+02
  0
ARC
  8
0
 62
7
 10
-8.44875488E+01
 20
-1.45752739E+02
 40
2.50000000E+00
 50
9.45885648E+01
 51
1.00179126E-05
  0
ARC
  8
0
 62
7
 10
-7.07925489E+01
 20
-1.16252740E+02
 40
2.50000000E+00
 50
5.31301018E+01
 51
1.26869903E+02
  0
ARC
  8
0
 62
7
 10
-7.14875488E+01
 20
-1.68252739E+02
 40
2.50000000E+00
 50
2.74588566E+02
 51
1.43130097E+02
  0
CIRCLE
  8
0
  6
PHANTOM
 62
2
 10
-7.38875489E+01
 20
-2.19349998E+02
 40
3.00000012E-01
  0
CIRCLE
  8
0
  6
PHANTOM
 62
2
 10
-7.38875489E+01
 20
-2.20349998E+02
 40
3.00000012E-01
  0
CIRCLE
  8
0
  6
PHANTOM
 62
2
 10
-7.28875489E+01
 20
-2.20349998E+02
 40
3.00000012E-01
  0
CIRCLE
  8
0
  6
PHANTOM
 62
2
 10
-7.28875489E+01
 20
-2.19349998E+02
 40
3.00000012E-01
  0
CIRCLE
  8
0
  6
PHANTOM
 62
2
 10
-7.33875489E+01
 20
-2.19849998E+02
 40
1.20000005E+00
  0
ARC
  8
0
 62
7
 10
-7.14875488E+01
 20
-1.68252739E+02
 40
2.70000005E+00
 50
9.00000002E+01
 51
1.46251016E+02
  0
ARC
  8
0
 62
7
 10
-7.23875489E+01
 20
-1.14552740E+02
 40
2.00000003E-01
 50
1.79999995E+02
 51
2.70000000E+02
  0
ARC
  8
0
 62
7
 10
-8.35875492E+01
 20
-1.97952744E+02
 40
2.00000003E-01
 50
3.54080197E+02
 51
9.00000002E+01
  0
CIRCLE
  8
0
 62
7
 10
-7.79875488E+01
 20
-2.36250000E+02
 40
4.94999981E+00
  0
CIRCLE
  8
0
  6
PHANTOM
 62
2
 10
-7.33875489E+01
 20
-2.19849998E+02
 40
1.89999998E+00
  0
ARC
  8
0
  6
PHANTOM
 62
2
 10
-7.10875487E+01
 20
-2.23259720E+02
 40
5.00000000E-01
 50
2.70000000E+02
 51
0.00000000E+00
  0
ARC
  8
0
  6
PHANTOM
 62
2
 10
-7.56875486E+01
 20
-2.23259720E+02
 40
5.00000000E-01
 50
1.79999995E+02
 51
2.70000000E+02
  0
ARC
  8
0
  6
PHANTOM
 62
2
 10
-7.10875487E+01
 20
-2.16659714E+02
 40
5.00000000E-01
 50
0.00000000E+00
 51
9.00000002E+01
  0
ARC
  8
0
  6
PHANTOM
 62
2
 10
-7.56875486E+01
 20
-2.16659714E+02
 40
5.00000000E-01
 50
9.00000002E+01
 51
1.80000005E+02
  0
CIRCLE
  8
0
  6
PHANTOM
 62
2
 10
-8.24875488E+01
 20
-2.17062454E+02
 40
1.00000000E+00
  0
CIRCLE
  8
0
  6
PHANTOM
 62
2
 10
-8.24875488E+01
 20
-2.09062454E+02
 40
1.00000000E+00
  0
CIRCLE
  8
0
  6
PHANTOM
 62
2
 10
-8.24875488E+01
 20
-2.17062454E+02
 40
1.75000000E+00
  0
CIRCLE
  8
0
  6
PHANTOM
 62
2
 10
-8.24875488E+01
 20
-2.09062454E+02
 40
1.75000000E+00
  0
ARC
  8
0
  6
PHANTOM
 62
2
 10
-8.49875488E+01
 20
-2.05750000E+02
 40
5.00000000E-01
 50
1.79999995E+02
 51
2.70000000E+02
  0
ARC
  8
0
  6
PHANTOM
 62
2
 10
-7.09875488E+01
 20
-2.05750000E+02
 40
5.00000000E-01
 50
2.70000000E+02
 51
0.00000000E+00
  0
ARC
  8
0
  6
PHANTOM
 62
2
 10
-8.32375488E+01
 20
-2.03449997E+02
 40
5.00000000E-01
 50
1.79999995E+02
 51
2.70000000E+02
  0
ARC
  8
0
  6
PHANTOM
 62
2
 10
-7.27375488E+01
 20
-2.03449997E+02
 40
5.00000000E-01
 50
2.70000000E+02
 51
0.00000000E+00
  0
ARC
  8
0
  6
PHANTOM
 62
2
 10
-8.32375488E+01
 20
-1.98449997E+02
 40
5.00000000E-01
 50
9.00000002E+01
 51
1.80000005E+02
  0
ARC
  8
0
  6
PHANTOM
 62
2
 10
-7.27375488E+01
 20
-1.98449997E+02
 40
5.00000000E-01
 50
0.00000000E+00
 51
9.00000002E+01
  0
ARC
  8
0
  6
PHANTOM
 62
2
 10
-8.49875488E+01
 20
-1.99449997E+02
 40
5.00000000E-01
 50
9.00000002E+01
 51
1.80000005E+02
  0
ARC
  8
0
  6
PHANTOM
 62
2
 10
-8.49875488E+01
 20
-2.23250000E+02
 40
5.00000000E-01
 50
1.79999995E+02
 51
2.70000000E+02
  0
ARC
  8
0
  6
PHANTOM
 62
2
 10
-7.09875488E+01
 20
-2.23250000E+02
 40
5.00000000E-01
 50
2.70000000E+02
 51
0.00000000E+00
  0
ARC
  8
0
  6
PHANTOM
 62
2
 10
-7.09875488E+01
 20
-1.99449997E+02
 40
5.00000000E-01
 50
0.00000000E+00
 51
9.00000002E+01
  0
ARC
  8
0
 62
7
 10
-8.49875488E+01
 20
-2.41259720E+02
 40
5.00000000E-01
 50
1.79999995E+02
 51
2.70000000E+02
  0
ARC
  8
0
 62
7
 10
-7.09875488E+01
 20
-2.41259720E+02
 40
5.00000000E-01
 50
2.70000000E+02
 51
0.00000000E+00
  0
ARC
  8
0
 62
7
 10
-7.09875488E+01
 20
-2.24259720E+02
 40
5.00000000E-01
 50
0.00000000E+00
 51
9.00000002E+01
  0
ARC
  8
0
 62
7
 10
-8.49875488E+01
 20
-2.24259720E+02
 40
5.00000000E-01
 50
9.00000002E+01
 51
1.80000005E+02
  0
ARC
  8
0
 62
6
 10
-8.09875488E+01
 20
-1.67052738E+02
 40
3.00000012E-01
 50
9.00000002E+01
 51
1.80000005E+02
  0
ARC
  8
0
 62
6
 10
-7.15875487E+01
 20
-1.67052738E+02
 40
3.00000012E-01
 50
0.00000000E+00
 51
9.00000002E+01
  0
CIRCLE
  8
0
 62
6
 10
-7.62875490E+01
 20
-1.88502739E+02
 40
2.04999995E+00
  0
ARC
  8
0
 62
6
 10
-7.97875490E+01
 20
-1.90252739E+02
 40
1.60000002E+00
 50
2.70000000E+02
 51
9.00000002E+01
  0
ARC
  8
0
 62
6
 10
-7.27875490E+01
 20
-1.90252739E+02
 40
1.60000002E+00
 50
9.00000002E+01
 51
2.70000000E+02
  0
CIRCLE
  8
0
 62
6
 10
-7.62875490E+01
 20
-1.88502739E+02
 40
1.85000002E+00
  0
ARC
  8
0
 62
6
 10
-7.62875490E+01
 20
-1.88502739E+02
 40
8.00000012E-01
 50
2.20243121E+01
 51
1.57975691E+02
  0
ARC
  8
0
 62
6
 10
-7.62875490E+01
 20
-1.88502739E+02
 40
8.00000012E-01
 50
2.02024309E+02
 51
3.37975688E+02
  0
CIRCLE
  8
0
 62
6
 10
-7.97875490E+01
 20
-1.90252739E+02
 40
1.50000000E+00
  0
CIRCLE
  8
0
 62
6
 10
-7.27875490E+01
 20
-1.90252739E+02
 40
1.50000000E+00
  0
LINE
  8
0
 62
7
 10
-3.44293969E+02
 20
-2.14699653E+02
 11
-3.40108579E+02
 21
-2.07450344E+02
  0
LINE
  8
0
 62
7
 10
-3.43687751E+02
 20
-2.15049653E+02
 11
-3.39502360E+02
 21
-2.07800344E+02
  0
LINE
  8
0
 62
7
 10
-3.51148163E+02
 20
-1.13752740E+02
 11
-3.32648163E+02
 21
-1.13752740E+02
  0
LINE
  8
0
 62
7
 10
-3.51148163E+02
 20
-1.13752740E+02
 11
-3.51148163E+02
 21
-2.41750000E+02
  0
LINE
  8
0
 62
7
 10
-3.32648163E+02
 20
-1.13752740E+02
 11
-3.32648163E+02
 21
-2.41750000E+02
  0
LINE
  8
0
 62
7
 10
-3.51148163E+02
 20
-1.98752739E+02
 11
-3.32648163E+02
 21
-1.98752739E+02
  0
LINE
  8
0
 62
7
 10
-3.39898163E+02
 20
-1.42264338E+02
 11
-3.39898163E+02
 21
-1.35232403E+02
  0
LINE
  8
0
 62
7
 10
-3.43898163E+02
 20
-1.42264338E+02
 11
-3.43898163E+02
 21
-1.35232403E+02
  0
LINE
  8
0
 62
7
 10
-3.39184858E+02
 20
-1.41748370E+02
 11
-3.39898163E+02
 21
-1.41748370E+02
  0
LINE
  8
0
 62
7
 10
-3.44611468E+02
 20
-1.41748370E+02
 11
-3.43898163E+02
 21
-1.41748370E+02
  0
LINE
  8
0
  6
CENTER
 62
2
 10
-3.49365675E+02
 20
-1.38748370E+02
 11
-3.34742395E+02
 21
-1.38748370E+02
  0
LINE
  8
0
 62
7
 10
-3.32648163E+02
 20
-2.41750000E+02
 11
-3.51148163E+02
 21
-2.41750000E+02
  0
LINE
  8
0
  6
CENTER
 62
2
 10
-3.49177002E+02
 20
-2.33750000E+02
 11
-3.34170573E+02
 21
-2.33750000E+02
  0
LINE
  8
0
 62
7
 10
-3.45385282E+02
 20
-2.34250000E+02
 11
-3.38411044E+02
 21
-2.34250000E+02
  0
LINE
  8
0
 62
7
 10
-3.39898163E+02
 20
-1.02047739E+02
 11
-3.43898163E+02
 21
-1.02047739E+02
  0
LINE
  8
0
 62
7
 10
-3.43898163E+02
 20
-1.07047739E+02
 11
-3.39898163E+02
 21
-1.07047739E+02
  0
LINE
  8
0
 62
7
 10
-3.38898163E+02
 20
-1.09752739E+02
 11
-3.44898163E+02
 21
-1.09752739E+02
  0
LINE
  8
0
 62
7
 10
-3.38398163E+02
 20
-1.12252740E+02
 11
-3.38398163E+02
 21
-1.10252739E+02
  0
LINE
  8
0
 62
7
 10
-3.40648163E+02
 20
-1.07047739E+02
 11
-3.40648163E+02
 21
-1.09752739E+02
  0
LINE
  8
0
 62
7
 10
-3.38398163E+02
 20
-1.10252740E+02
 11
-3.38898163E+02
 21
-1.09752740E+02
  0
LINE
  8
0
 62
7
 10
-3.39398163E+02
 20
-1.06547741E+02
 11
-3.39898162E+02
 21
-1.07047741E+02
  0
LINE
  8
0
 62
7
 10
-3.39398163E+02
 20
-1.02547740E+02
 11
-3.39898162E+02
 21
-1.02047741E+02
  0
LINE
  8
0
 62
7
 10
-3.39398163E+02
 20
-1.02547739E+02
 11
-3.39398163E+02
 21
-1.06547739E+02
  0
LINE
  8
0
 62
7
 10
-3.45398163E+02
 20
-1.12252740E+02
 11
-3.44898162E+02
 21
-1.12752741E+02
  0
LINE
  8
0
 62
7
 10
-3.45398162E+02
 20
-1.10252740E+02
 11
-3.44898162E+02
 21
-1.09752740E+02
  0
LINE
  8
0
 62
7
 10
-3.44398163E+02
 20
-1.02547740E+02
 11
-3.43898163E+02
 21
-1.02047740E+02
  0
LINE
  8
0
 62
7
 10
-3.43898163E+02
 20
-1.07047740E+02
 11
-3.44398162E+02
 21
-1.06547741E+02
  0
LINE
  8
0
 62
7
 10
-3.44398163E+02
 20
-1.02547739E+02
 11
-3.44398163E+02
 21
-1.06547739E+02
  0
LINE
  8
0
 62
7
 10
-3.45398163E+02
 20
-1.12252740E+02
 11
-3.45398163E+02
 21
-1.10252739E+02
  0
LINE
  8
0
 62
7
 10
-3.43148163E+02
 20
-1.07047739E+02
 11
-3.43148163E+02
 21
-1.09752739E+02
  0
LINE
  8
0
 62
7
 10
-3.38398163E+02
 20
-1.12252740E+02
 11
-3.38898163E+02
 21
-1.12752740E+02
  0
LINE
  8
0
 62
7
 10
-3.45598163E+02
 20
-1.12752740E+02
 11
-3.38198163E+02
 21
-1.12752740E+02
  0
LINE
  8
0
 62
7
 10
-3.37898163E+02
 20
-1.13752740E+02
 11
-3.37898163E+02
 21
-1.13052740E+02
  0
LINE
  8
0
 62
7
 10
-3.45898163E+02
 20
-1.13752740E+02
 11
-3.45898163E+02
 21
-1.13052740E+02
  0
LINE
  8
0
 62
7
 10
-3.45898163E+02
 20
-1.13052740E+02
 11
-3.45598163E+02
 21
-1.12752740E+02
  0
LINE
  8
0
 62
7
 10
-3.38198163E+02
 20
-1.12752740E+02
 11
-3.37898163E+02
 21
-1.13052740E+02
  0
LINE
  8
0
 62
7
 10
-3.45898163E+02
 20
-1.13052740E+02
 11
-3.37898163E+02
 21
-1.13052740E+02
  0
LINE
  8
0
  6
CENTER
 62
2
 10
-3.41898163E+02
 20
-9.82664604E+01
 11
-3.41898163E+02
 21
-2.46043037E+02
  0
LINE
  8
0
  6
CENTER
 62
2
 10
-3.54398163E+02
 20
-1.27750000E+02
 11
-3.29398163E+02
 21
-1.27750000E+02
  0
LINE
  8
0
  6
CENTER
 62
2
 10
-3.54398163E+02
 20
-1.95250000E+02
 11
-3.29398163E+02
 21
-1.95250000E+02
  0
CIRCLE
  8
0
 62
7
 10
-3.41898163E+02
 20
-2.11250000E+02
 40
3.70000005E+00
  0
CIRCLE
  8
0
 62
7
 10
-3.41898163E+02
 20
-2.11250000E+02
 40
4.19999981E+00
  0
CIRCLE
  8
0
 62
7
 10
-3.41898163E+02
 20
-2.11250000E+02
 40
4.30000019E+00
  0
CIRCLE
  8
0
 62
2
 10
-3.41898163E+02
 20
-1.38748370E+02
 40
4.86399984E+00
  0
CIRCLE
  8
0
 62
7
 10
-3.41898163E+02
 20
-1.38748370E+02
 40
4.04500008E+00
  0
CIRCLE
  8
0
 62
2
 10
-3.41898163E+02
 20
-2.33750000E+02
 40
4.86399984E+00
  0
CIRCLE
  8
0
 62
7
 10
-3.41898163E+02
 20
-2.33750000E+02
 40
4.28299999E+00
  0
ARC
  8
0
 62
7
 10
-3.41898163E+02
 20
-2.34250000E+02
 40
3.79999995E+00
 50
4.91710014E+00
 51
1.75082897E+02
  0
ARC
  8
0
 62
7
 10
-3.45385282E+02
 20
-2.33949997E+02
 40
3.00000012E-01
 50
1.75082897E+02
 51
2.70000000E+02
  0
ARC
  8
0
 62
7
 10
-3.38411044E+02
 20
-2.33949997E+02
 40
3.00000012E-01
 50
2.70000000E+02
 51
4.91710014E+00
  0
LINE
  8
0
 62
7
 10
-2.32287555E+02
 20
-1.52252739E+02
 11
-2.22787555E+02
 21
-1.52252739E+02
  0
LINE
  8
0
 62
7
 10
-2.32587555E+02
 20
-1.52552740E+02
 11
-2.32587555E+02
 21
-1.89552738E+02
  0
LINE
  8
0
 62
7
 10
-2.22887555E+02
 20
-1.89752739E+02
 11
-2.32387555E+02
 21
-1.89752739E+02
  0
LINE
  8
0
 62
7
 10
-2.22587555E+02
 20
-1.52452740E+02
 11
-2.22587555E+02
 21
-1.89452740E+02
  0
LINE
  8
0
 62
7
 10
-2.21287555E+02
 20
-1.51152740E+02
 11
-2.21287555E+02
 21
-1.90752739E+02
  0
LINE
  8
0
 62
7
 10
-2.33587555E+02
 20
-1.50952740E+02
 11
-2.21487555E+02
 21
-1.50952740E+02
  0
LINE
  8
0
 62
7
 10
-2.33887555E+02
 20
-1.51252739E+02
 11
-2.33887555E+02
 21
-1.90752739E+02
  0
LINE
  8
0
 62
7
 10
-2.21587555E+02
 20
-1.91052738E+02
 11
-2.33587555E+02
 21
-1.91052738E+02
  0
LINE
  8
0
 62
7
 10
-2.23887555E+02
 20
-1.88752739E+02
 11
-2.31387555E+02
 21
-1.88752739E+02
  0
LINE
  8
0
 62
7
 10
-2.31587555E+02
 20
-1.52552740E+02
 11
-2.31587555E+02
 21
-1.88552738E+02
  0
LINE
  8
0
 62
7
 10
-2.23587555E+02
 20
-1.52452740E+02
 11
-2.23587555E+02
 21
-1.88452740E+02
  0
LINE
  8
0
 62
7
 10
-2.05987555E+02
 20
-1.14252740E+02
 11
-2.05987555E+02
 21
-1.14752740E+02
  0
LINE
  8
0
 62
7
 10
-2.08987555E+02
 20
-1.14252740E+02
 11
-2.08987555E+02
 21
-1.14752740E+02
  0
LINE
  8
0
  6
CENTER
 62
2
 10
-2.07487555E+02
 20
-1.12305003E+02
 11
-2.07487555E+02
 21
-1.16878411E+02
  0
LINE
  8
0
 62
7
 10
-2.05887554E+02
 20
-1.14752740E+02
 11
-2.09487555E+02
 21
-1.14752740E+02
  0
LINE
  8
0
 62
7
 10
-2.05887554E+02
 20
-1.13752740E+02
 11
-2.05887554E+02
 21
-1.14752740E+02
  0
LINE
  8
0
 62
7
 10
-1.90132553E+02
 20
-1.48002739E+02
 11
-1.91487556E+02
 21
-1.48002739E+02
  0
LINE
  8
0
 62
7
 10
-1.90827553E+02
 20
-1.48002739E+02
 11
-1.90827553E+02
 21
-1.43502740E+02
  0
LINE
  8
0
 62
7
 10
-1.90132553E+02
 20
-1.43502740E+02
 11
-1.91487556E+02
 21
-1.43502740E+02
  0
LINE
  8
0
 62
7
 10
-1.92087555E+02
 20
-1.97751091E+02
 11
-1.88487556E+02
 21
-1.97751091E+02
  0
LINE
  8
0
 62
7
 10
-1.88987556E+02
 20
-1.98251091E+02
 11
-1.88987556E+02
 21
-1.97751091E+02
  0
LINE
  8
0
 62
7
 10
-1.91987556E+02
 20
-1.98251091E+02
 11
-1.91987556E+02
 21
-1.97751091E+02
  0
LINE
  8
0
  6
CENTER
 62
2
 10
-1.90487556E+02
 20
-2.00054504E+02
 11
-1.90487556E+02
 21
-1.96045021E+02
  0
LINE
  8
0
 62
7
 10
-1.92087555E+02
 20
-1.98751091E+02
 11
-1.92087555E+02
 21
-1.97751091E+02
  0
LINE
  8
0
 62
7
 10
-2.14287555E+02
 20
-2.36750000E+02
 11
-2.18687555E+02
 21
-2.36750000E+02
  0
LINE
  8
0
 62
7
 10
-2.13787555E+02
 20
-2.38750000E+02
 11
-2.19187555E+02
 21
-2.38750000E+02
  0
LINE
  8
0
 62
7
 10
-2.17787555E+02
 20
-2.06752739E+02
 11
-2.15187555E+02
 21
-2.06752739E+02
  0
LINE
  8
0
 62
7
 10
-2.18737555E+02
 20
-2.39410004E+02
 11
-2.14237555E+02
 21
-2.39410004E+02
  0
LINE
  8
0
 62
7
 10
-2.14237555E+02
 20
-2.40105003E+02
 11
-2.14237555E+02
 21
-2.38750000E+02
  0
LINE
  8
0
 62
7
 10
-2.18737555E+02
 20
-2.40105003E+02
 11
-2.18737555E+02
 21
-2.38750000E+02
  0
LINE
  8
0
 62
7
 10
-2.15187555E+02
 20
-2.36750000E+02
 11
-2.15187555E+02
 21
-2.00752739E+02
  0
LINE
  8
0
 62
7
 10
-2.17787555E+02
 20
-2.36750000E+02
 11
-2.17787555E+02
 21
-2.00752739E+02
  0
LINE
  8
0
 62
2
 10
-2.15431055E+02
 20
-2.06752739E+02
 11
-2.15431055E+02
 21
-2.00752739E+02
  0
LINE
  8
0
 62
2
 10
-2.17544055E+02
 20
-2.06752739E+02
 11
-2.17544055E+02
 21
-2.00752739E+02
  0
LINE
  8
0
 62
7
 10
-2.14287555E+02
 20
-2.36750000E+02
 11
-2.14287555E+02
 21
-2.00752739E+02
  0
LINE
  8
0
 62
7
 10
-2.18687555E+02
 20
-2.36750000E+02
 11
-2.18687555E+02
 21
-2.00752739E+02
  0
LINE
  8
0
 62
7
 10
-2.18687555E+02
 20
-2.00752739E+02
 11
-2.14287555E+02
 21
-2.00752739E+02
  0
LINE
  8
0
 62
7
 10
-2.13787555E+02
 20
-2.41750000E+02
 11
-2.13787555E+02
 21
-2.38750000E+02
  0
LINE
  8
0
 62
7
 10
-2.19187555E+02
 20
-2.41750000E+02
 11
-2.19187555E+02
 21
-2.38750000E+02
  0
LINE
  8
0
  6
CENTER
 62
2
 10
-2.16487555E+02
 20
-2.44087524E+02
 11
-2.16487555E+02
 21
-1.97006966E+02
  0
LINE
  8
0
 62
7
 10
-1.91487556E+02
 20
-1.48452740E+02
 11
-1.88487556E+02
 21
-1.48452740E+02
  0
LINE
  8
0
 62
7
 10
-1.88487556E+02
 20
-1.43052740E+02
 11
-1.91487556E+02
 21
-1.43052740E+02
  0
LINE
  8
0
 62
7
 10
-1.91487556E+02
 20
-1.43052740E+02
 11
-1.91487556E+02
 21
-1.48452740E+02
  0
LINE
  8
0
  6
CENTER
 62
2
 10
-1.95666279E+02
 20
-1.45752739E+02
 11
-1.84337017E+02
 21
-1.45752739E+02
  0
LINE
  8
0
 62
7
 10
-1.88487556E+02
 20
-1.13752740E+02
 11
-1.88487556E+02
 21
-1.98752739E+02
  0
LINE
  8
0
 62
6
 10
-1.88487556E+02
 20
-1.98752739E+02
 11
-1.76987556E+02
 21
-1.98752739E+02
  0
LINE
  8
0
 62
6
 10
-1.77687553E+02
 20
-1.98052742E+02
 11
-1.85287556E+02
 21
-1.98052742E+02
  0
LINE
  8
0
 62
6
 10
-1.74387554E+02
 20
-1.91752739E+02
 11
-1.74487556E+02
 21
-1.91752739E+02
  0
LINE
  8
0
 62
6
 10
-1.73487556E+02
 20
-1.91852737E+02
 11
-1.74487556E+02
 21
-1.91852737E+02
  0
LINE
  8
0
 62
6
 10
-1.76987556E+02
 20
-1.92969884E+02
 11
-1.73487556E+02
 21
-1.92352739E+02
  0
LINE
  8
0
 62
6
 10
-1.77687553E+02
 20
-1.97252739E+02
 11
-1.85287556E+02
 21
-1.97252739E+02
  0
LINE
  8
0
 62
6
 10
-1.77687553E+02
 20
-1.97252739E+02
 11
-1.77687553E+02
 21
-1.98052742E+02
  0
LINE
  8
0
 62
6
 10
-1.85287556E+02
 20
-1.98052742E+02
 11
-1.85287556E+02
 21
-1.97252739E+02
  0
LINE
  8
0
 62
6
 10
-1.76987556E+02
 20
-1.98752739E+02
 11
-1.76987556E+02
 21
-1.92969887E+02
  0
LINE
  8
0
 62
6
 10
-1.74787556E+02
 20
-1.68252739E+02
 11
-1.74787556E+02
 21
-1.84352741E+02
  0
LINE
  8
0
 62
6
 10
-1.68887554E+02
 20
-1.84252739E+02
 11
-1.68887554E+02
 21
-1.66752739E+02
  0
LINE
  8
0
 62
6
 10
-1.88487556E+02
 20
-1.66752739E+02
 11
-1.68887554E+02
 21
-1.66752739E+02
  0
LINE
  8
0
 62
6
 10
-1.87287556E+02
 20
-1.66752739E+02
 11
-1.87287556E+02
 21
-1.68252739E+02
  0
LINE
  8
0
 62
6
 10
-1.74787556E+02
 20
-1.68252739E+02
 11
-1.87287556E+02
 21
-1.68252739E+02
  0
LINE
  8
0
 62
6
 10
-1.62997555E+02
 20
-1.79402740E+02
 11
-1.59687553E+02
 21
-1.79402740E+02
  0
LINE
  8
0
 62
6
 10
-1.63347553E+02
 20
-1.80702740E+02
 11
-1.59687553E+02
 21
-1.80702740E+02
  0
LINE
  8
0
 62
6
 10
-1.59687553E+02
 20
-1.80302738E+02
 11
-1.55687553E+02
 21
-1.80302738E+02
  0
LINE
  8
0
 62
6
 10
-1.59687553E+02
 20
-1.79802738E+02
 11
-1.55687553E+02
 21
-1.79802738E+02
  0
LINE
  8
0
 62
6
 10
-1.59687553E+02
 20
-1.79402740E+02
 11
-1.59687553E+02
 21
-1.80702740E+02
  0
LINE
  8
0
 62
6
 10
-1.55687553E+02
 20
-1.79802738E+02
 11
-1.55687553E+02
 21
-1.80302738E+02
  0
LINE
  8
0
 62
6
 10
-1.64637553E+02
 20
-1.81652741E+02
 11
-1.63777553E+02
 21
-1.78452740E+02
  0
LINE
  8
0
 62
6
 10
-1.63607552E+02
 20
-1.81652742E+02
 11
-1.62747552E+02
 21
-1.78452741E+02
  0
LINE
  8
0
 62
6
 10
-1.67887554E+02
 20
-1.79402740E+02
 11
-1.64037556E+02
 21
-1.79402740E+02
  0
LINE
  8
0
 62
6
 10
-1.67887554E+02
 20
-1.80702740E+02
 11
-1.64387554E+02
 21
-1.80702740E+02
  0
LINE
  8
0
 62
6
 10
-1.74787556E+02
 20
-1.84252739E+02
 11
-1.68887554E+02
 21
-1.84252739E+02
  0
LINE
  8
0
 62
6
 10
-1.68087555E+02
 20
-1.78052738E+02
 11
-1.68887554E+02
 21
-1.78052738E+02
  0
LINE
  8
0
 62
6
 10
-1.67887554E+02
 20
-1.81852741E+02
 11
-1.67887554E+02
 21
-1.78252739E+02
  0
LINE
  8
0
 62
6
 10
-1.68087555E+02
 20
-1.82052738E+02
 11
-1.68887554E+02
 21
-1.82052738E+02
  0
LINE
  8
0
 62
6
 10
-1.74787556E+02
 20
-1.84352741E+02
 11
-1.68887554E+02
 21
-1.84352741E+02
  0
LINE
  8
0
 62
6
 10
-1.73487555E+02
 20
-1.85661918E+02
 11
-1.68887558E+02
 21
-1.84850815E+02
  0
LINE
  8
0
 62
6
 10
-1.68887554E+02
 20
-1.84850819E+02
 11
-1.68887554E+02
 21
-1.84352741E+02
  0
LINE
  8
0
 62
6
 10
-1.69487556E+02
 20
-1.84252739E+02
 11
-1.69487556E+02
 21
-1.84352741E+02
  0
LINE
  8
0
  6
CENTER
 62
6
 10
-1.54271065E+02
 20
-1.80052738E+02
 11
-1.69999554E+02
 21
-1.80052738E+02
  0
LINE
  8
0
 62
6
 10
-1.73887554E+02
 20
-1.91252739E+02
 11
-1.73887554E+02
 21
-1.89252739E+02
  0
LINE
  8
0
 62
6
 10
-1.74387554E+02
 20
-1.88752739E+02
 11
-1.74487556E+02
 21
-1.88752739E+02
  0
LINE
  8
0
 62
6
 10
-1.73487556E+02
 20
-1.88652740E+02
 11
-1.74487556E+02
 21
-1.88652740E+02
  0
LINE
  8
0
 62
6
 10
-1.74487556E+02
 20
-1.91852737E+02
 11
-1.74487556E+02
 21
-1.88652740E+02
  0
LINE
  8
0
 62
6
 10
-1.73487556E+02
 20
-1.92352737E+02
 11
-1.73487556E+02
 21
-1.85661922E+02
  0
LINE
  8
0
 62
6
 10
-1.87287556E+02
 20
-1.45752739E+02
 11
-1.87287556E+02
 21
-1.44252739E+02
  0
LINE
  8
0
 62
6
 10
-1.74787556E+02
 20
-1.44252739E+02
 11
-1.74787556E+02
 21
-1.28152740E+02
  0
LINE
  8
0
 62
6
 10
-1.68887554E+02
 20
-1.28252740E+02
 11
-1.68887554E+02
 21
-1.45752739E+02
  0
LINE
  8
0
  6
CENTER
 62
6
 10
-1.54271065E+02
 20
-1.32452740E+02
 11
-1.69999554E+02
 21
-1.32452740E+02
  0
LINE
  8
0
 62
6
 10
-1.77687553E+02
 20
-1.14452740E+02
 11
-1.85287556E+02
 21
-1.14452740E+02
  0
LINE
  8
0
 62
6
 10
-1.77687553E+02
 20
-1.15252740E+02
 11
-1.85287556E+02
 21
-1.15252740E+02
  0
LINE
  8
0
 62
6
 10
-1.77687553E+02
 20
-1.15252740E+02
 11
-1.77687553E+02
 21
-1.14452740E+02
  0
LINE
  8
0
 62
6
 10
-1.85287556E+02
 20
-1.14452740E+02
 11
-1.85287556E+02
 21
-1.15252740E+02
  0
LINE
  8
0
 62
6
 10
-1.76987556E+02
 20
-1.13752740E+02
 11
-1.76987556E+02
 21
-1.19535596E+02
  0
LINE
  8
0
 62
6
 10
-1.67887554E+02
 20
-1.31802740E+02
 11
-1.64037556E+02
 21
-1.31802740E+02
  0
LINE
  8
0
 62
6
 10
-1.67887554E+02
 20
-1.33102740E+02
 11
-1.64387554E+02
 21
-1.33102740E+02
  0
LINE
  8
0
 62
6
 10
-1.69487556E+02
 20
-1.28252740E+02
 11
-1.69487556E+02
 21
-1.28152740E+02
  0
LINE
  8
0
 62
6
 10
-1.68887554E+02
 20
-1.27654661E+02
 11
-1.68887554E+02
 21
-1.28152740E+02
  0
LINE
  8
0
 62
6
 10
-1.73487557E+02
 20
-1.26843557E+02
 11
-1.68887556E+02
 21
-1.27654661E+02
  0
LINE
  8
0
 62
6
 10
-1.74787556E+02
 20
-1.28152740E+02
 11
-1.68887554E+02
 21
-1.28152740E+02
  0
LINE
  8
0
 62
6
 10
-1.73487556E+02
 20
-1.20152740E+02
 11
-1.73487556E+02
 21
-1.26843557E+02
  0
LINE
  8
0
 62
6
 10
-1.68087555E+02
 20
-1.30452740E+02
 11
-1.68887554E+02
 21
-1.30452740E+02
  0
LINE
  8
0
 62
6
 10
-1.67887554E+02
 20
-1.30652740E+02
 11
-1.67887554E+02
 21
-1.34252740E+02
  0
LINE
  8
0
 62
6
 10
-1.68087555E+02
 20
-1.34452740E+02
 11
-1.68887554E+02
 21
-1.34452740E+02
  0
LINE
  8
0
 62
6
 10
-1.74787556E+02
 20
-1.28252740E+02
 11
-1.68887554E+02
 21
-1.28252740E+02
  0
LINE
  8
0
 62
6
 10
-1.74487556E+02
 20
-1.20652740E+02
 11
-1.74487556E+02
 21
-1.23852740E+02
  0
LINE
  8
0
 62
6
 10
-1.73487556E+02
 20
-1.23852740E+02
 11
-1.74487556E+02
 21
-1.23852740E+02
  0
LINE
  8
0
 62
6
 10
-1.73487556E+02
 20
-1.20652740E+02
 11
-1.74487556E+02
 21
-1.20652740E+02
  0
LINE
  8
0
 62
6
 10
-1.74387554E+02
 20
-1.20752740E+02
 11
-1.74487556E+02
 21
-1.20752740E+02
  0
LINE
  8
0
 62
6
 10
-1.74387554E+02
 20
-1.23752740E+02
 11
-1.74487556E+02
 21
-1.23752740E+02
  0
LINE
  8
0
 62
6
 10
-1.73887554E+02
 20
-1.21252740E+02
 11
-1.73887554E+02
 21
-1.23252740E+02
  0
LINE
  8
0
 62
6
 10
-1.63607556E+02
 20
-1.34052739E+02
 11
-1.62747556E+02
 21
-1.30852739E+02
  0
LINE
  8
0
 62
6
 10
-1.64637554E+02
 20
-1.34052740E+02
 11
-1.63777554E+02
 21
-1.30852739E+02
  0
LINE
  8
0
 62
6
 10
-1.55687553E+02
 20
-1.32702740E+02
 11
-1.55687553E+02
 21
-1.32202740E+02
  0
LINE
  8
0
 62
6
 10
-1.59687553E+02
 20
-1.31802740E+02
 11
-1.59687553E+02
 21
-1.33102740E+02
  0
LINE
  8
0
 62
6
 10
-1.59687553E+02
 20
-1.32202740E+02
 11
-1.55687553E+02
 21
-1.32202740E+02
  0
LINE
  8
0
 62
6
 10
-1.59687553E+02
 20
-1.32702740E+02
 11
-1.55687553E+02
 21
-1.32702740E+02
  0
LINE
  8
0
 62
6
 10
-1.63347553E+02
 20
-1.33102740E+02
 11
-1.59687553E+02
 21
-1.33102740E+02
  0
LINE
  8
0
 62
6
 10
-1.62997555E+02
 20
-1.31802740E+02
 11
-1.59687553E+02
 21
-1.31802740E+02
  0
LINE
  8
0
 62
6
 10
-1.76987555E+02
 20
-1.19535595E+02
 11
-1.73487555E+02
 21
-1.20152740E+02
  0
LINE
  8
0
 62
6
 10
-1.74787556E+02
 20
-1.44252739E+02
 11
-1.87287556E+02
 21
-1.44252739E+02
  0
LINE
  8
0
 62
6
 10
-1.88487556E+02
 20
-1.45752739E+02
 11
-1.68887554E+02
 21
-1.45752739E+02
  0
LINE
  8
0
 62
7
 10
-1.88487556E+02
 20
-1.98752739E+02
 11
-2.09487555E+02
 21
-1.98752739E+02
  0
LINE
  8
0
 62
7
 10
-2.09487555E+02
 20
-1.98752739E+02
 11
-2.09487555E+02
 21
-1.13752740E+02
  0
LINE
  8
0
 62
7
 10
-1.88487556E+02
 20
-1.85252739E+02
 11
-2.09487555E+02
 21
-1.85252739E+02
  0
LINE
  8
0
 62
7
 10
-1.88487556E+02
 20
-1.27252740E+02
 11
-2.09487555E+02
 21
-1.27252740E+02
  0
LINE
  8
0
 62
6
 10
-1.76987556E+02
 20
-1.13752740E+02
 11
-1.88487556E+02
 21
-1.13752740E+02
  0
LINE
  8
0
 62
7
 10
-1.64492477E+02
 20
-2.41750000E+02
 11
-1.64492477E+02
 21
-2.23750000E+02
  0
LINE
  8
0
 62
7
 10
-2.09487555E+02
 20
-1.13752740E+02
 11
-2.35487555E+02
 21
-1.13752740E+02
  0
LINE
  8
0
 62
7
 10
-2.35487555E+02
 20
-1.98752739E+02
 11
-2.09487555E+02
 21
-1.98752739E+02
  0
LINE
  8
0
  6
CENTER
 62
2
 10
-2.27587555E+02
 20
-1.98534317E+02
 11
-2.27587555E+02
 21
-1.91955215E+02
  0
LINE
  8
0
  6
CENTER
 62
2
 10
-2.31211166E+02
 20
-1.95250000E+02
 11
-2.23602147E+02
 21
-1.95250000E+02
  0
LINE
  8
0
  6
CENTER
 62
2
 10
-2.25587555E+02
 20
-1.31451345E+02
 11
-2.25587555E+02
 21
-1.23833673E+02
  0
LINE
  8
0
  6
CENTER
 62
2
 10
-2.21852632E+02
 20
-1.27750000E+02
 11
-2.30503798E+02
 21
-1.27750000E+02
  0
LINE
  8
0
  6
PHANTOM
 62
2
 10
-1.64487556E+02
 20
-2.23750000E+02
 11
-1.63887554E+02
 21
-2.23750000E+02
  0
LINE
  8
0
  6
PHANTOM
 62
2
 10
-1.63687553E+02
 20
-2.17949997E+02
 11
-1.52575272E+02
 21
-2.17949997E+02
  0
LINE
  8
0
 62
7
 10
-2.09487555E+02
 20
-2.23750000E+02
 11
-1.64487556E+02
 21
-2.23750000E+02
  0
LINE
  8
0
  6
PHANTOM
 62
2
 10
-1.63687553E+02
 20
-2.23550003E+02
 11
-1.63687553E+02
 21
-2.16349998E+02
  0
LINE
  8
0
  6
PHANTOM
 62
2
 10
-1.72364271E+02
 20
-1.98949998E+02
 11
-1.71864270E+02
 21
-1.97949998E+02
  0
LINE
  8
0
  6
PHANTOM
 62
2
 10
-1.66364267E+02
 20
-1.97950001E+02
 11
-1.63487557E+02
 21
-2.03949996E+02
  0
LINE
  8
0
  6
PHANTOM
 62
2
 10
-1.63487556E+02
 20
-2.03949997E+02
 11
-1.63487556E+02
 21
-2.06949997E+02
  0
LINE
  8
0
  6
PHANTOM
 62
2
 10
-1.63487556E+02
 20
-2.06949997E+02
 11
-1.64487556E+02
 21
-2.06949997E+02
  0
LINE
  8
0
  6
PHANTOM
 62
2
 10
-1.71864265E+02
 20
-1.97949997E+02
 11
-1.66364265E+02
 21
-1.97949997E+02
  0
LINE
  8
0
  6
PHANTOM
 62
2
 10
-1.67987554E+02
 20
-1.98950001E+02
 11
-1.64487556E+02
 21
-2.06249996E+02
  0
LINE
  8
0
  6
PHANTOM
 62
2
 10
-2.09487555E+02
 20
-1.98949997E+02
 11
-1.67987556E+02
 21
-1.98949997E+02
  0
LINE
  8
0
  6
PHANTOM
 62
2
 10
-1.64487556E+02
 20
-2.16150002E+02
 11
-1.63887554E+02
 21
-2.16150002E+02
  0
LINE
  8
0
  6
PHANTOM
 62
2
 10
-1.64487556E+02
 20
-2.23750000E+02
 11
-1.64487556E+02
 21
-2.06250000E+02
  0
LINE
  8
0
  6
PHANTOM
 62
2
 10
-1.31462761E+02
 20
-2.20531603E+02
 11
-1.13586338E+02
 21
-2.21468467E+02
  0
LINE
  8
0
  6
PHANTOM
 62
2
 10
-1.33462763E+02
 20
-2.18531602E+02
 11
-1.13586339E+02
 21
-2.17489922E+02
  0
LINE
  8
0
  6
PHANTOM
 62
2
 10
-1.13586334E+02
 20
-2.18531609E+02
 11
-1.13586334E+02
 21
-2.17489929E+02
  0
LINE
  8
0
  6
PHANTOM
 62
2
 10
-1.13586334E+02
 20
-2.20531609E+02
 11
-1.13586334E+02
 21
-2.18531609E+02
  0
LINE
  8
0
  6
PHANTOM
 62
2
 10
-1.20586334E+02
 20
-2.21101616E+02
 11
-1.20586334E+02
 21
-2.17856781E+02
  0
LINE
  8
0
  6
PHANTOM
 62
2
 10
-1.13586334E+02
 20
-2.21468468E+02
 11
-1.13586334E+02
 21
-2.20531609E+02
  0
LINE
  8
0
  6
PHANTOM
 62
2
 10
-1.33462761E+02
 20
-2.18531609E+02
 11
-1.13586334E+02
 21
-2.18531609E+02
  0
LINE
  8
0
  6
PHANTOM
 62
2
 10
-1.32462761E+02
 20
-2.19531609E+02
 11
-1.13586334E+02
 21
-2.19531609E+02
  0
LINE
  8
0
  6
PHANTOM
 62
2
 10
-1.31462761E+02
 20
-2.20531609E+02
 11
-1.13586334E+02
 21
-2.20531609E+02
  0
LINE
  8
0
  6
PHANTOM
 62
2
 10
-1.13861415E+02
 20
-2.25040616E+02
 11
-1.13514119E+02
 21
-2.24086427E+02
  0
LINE
  8
0
  6
PHANTOM
 62
2
 10
-1.33744364E+02
 20
-2.18250004E+02
 11
-1.30989285E+02
 21
-2.21005083E+02
  0
LINE
  8
0
  6
PHANTOM
 62
2
 10
-1.30989290E+02
 20
-2.21005084E+02
 11
-1.13514122E+02
 21
-2.24086427E+02
  0
LINE
  8
0
  6
PHANTOM
 62
2
 10
-1.31162938E+02
 20
-2.21989891E+02
 11
-1.13861422E+02
 21
-2.25040616E+02
  0
LINE
  8
0
  6
PHANTOM
 62
2
 10
-1.39487551E+02
 20
-2.21263018E+02
 11
-1.31010274E+02
 21
-2.22004683E+02
  0
LINE
  8
0
  6
PHANTOM
 62
2
 10
-1.33753555E+02
 20
-2.18250000E+02
 11
-1.39487556E+02
 21
-2.18250000E+02
  0
LINE
  8
0
  6
PHANTOM
 62
2
 10
-1.51882454E+02
 20
-2.21750000E+02
 11
-1.39487556E+02
 21
-2.21750000E+02
  0
LINE
  8
0
  6
PHANTOM
 62
2
 10
-1.49688522E+02
 20
-2.17949997E+02
 11
-1.39487556E+02
 21
-2.17949997E+02
  0
LINE
  8
0
  6
PHANTOM
 62
2
 10
-1.53059757E+02
 20
-2.23789145E+02
 11
-1.48234908E+02
 21
-2.15432263E+02
  0
LINE
  8
0
  6
PHANTOM
 62
2
 10
-1.55826169E+02
 20
-2.23580711E+02
 11
-1.51013938E+02
 21
-2.15245683E+02
  0
LINE
  8
0
  6
PHANTOM
 62
2
 10
-1.39487556E+02
 20
-2.21750000E+02
 11
-1.39487556E+02
 21
-2.17949997E+02
  0
LINE
  8
0
  6
PHANTOM
 62
2
 10
-1.63687553E+02
 20
-2.21750000E+02
 11
-1.54769203E+02
 21
-2.21750000E+02
  0
LINE
  8
0
 62
7
 10
-2.09487555E+02
 20
-1.98752739E+02
 11
-2.09487555E+02
 21
-2.41750000E+02
  0
LINE
  8
0
 62
7
 10
-1.64192478E+02
 20
-2.41199997E+02
 11
-1.64492477E+02
 21
-2.40899998E+02
  0
LINE
  8
0
 62
7
 10
-1.64192479E+02
 20
-2.31299997E+02
 11
-1.64492480E+02
 21
-2.31599997E+02
  0
LINE
  8
0
 62
7
 10
-1.56492477E+02
 20
-2.32800003E+02
 11
-1.56492477E+02
 21
-2.39699997E+02
  0
LINE
  8
0
 62
7
 10
-1.64192478E+02
 20
-2.41199997E+02
 11
-1.57992477E+02
 21
-2.41199997E+02
  0
LINE
  8
0
 62
7
 10
-1.64192478E+02
 20
-2.31300003E+02
 11
-1.57992477E+02
 21
-2.31300003E+02
  0
LINE
  8
0
 62
7
 10
-1.64492477E+02
 20
-2.41750000E+02
 11
-2.09487555E+02
 21
-2.41750000E+02
  0
LINE
  8
0
 62
7
 10
-2.35487555E+02
 20
-1.13752740E+02
 11
-2.35487555E+02
 21
-2.41750000E+02
  0
LINE
  8
0
 62
7
 10
-2.35487555E+02
 20
-2.41750000E+02
 11
-2.09487555E+02
 21
-2.41750000E+02
  0
LINE
  8
0
 62
7
 10
-2.14987555E+02
 20
-1.02047739E+02
 11
-2.18987555E+02
 21
-1.02047739E+02
  0
LINE
  8
0
 62
7
 10
-2.18987555E+02
 20
-1.07047739E+02
 11
-2.14987555E+02
 21
-1.07047739E+02
  0
LINE
  8
0
 62
7
 10
-2.13987555E+02
 20
-1.09752739E+02
 11
-2.19987555E+02
 21
-1.09752739E+02
  0
LINE
  8
0
 62
7
 10
-2.13487555E+02
 20
-1.12252740E+02
 11
-2.13487555E+02
 21
-1.10252739E+02
  0
LINE
  8
0
 62
7
 10
-2.15737555E+02
 20
-1.07047739E+02
 11
-2.15737555E+02
 21
-1.09752739E+02
  0
LINE
  8
0
 62
7
 10
-2.13487555E+02
 20
-1.10252741E+02
 11
-2.13987556E+02
 21
-1.09752740E+02
  0
LINE
  8
0
 62
7
 10
-2.14487556E+02
 20
-1.06547741E+02
 11
-2.14987555E+02
 21
-1.07047740E+02
  0
LINE
  8
0
 62
7
 10
-2.14487555E+02
 20
-1.02547740E+02
 11
-2.14987555E+02
 21
-1.02047740E+02
  0
LINE
  8
0
 62
7
 10
-2.14487555E+02
 20
-1.02547739E+02
 11
-2.14487555E+02
 21
-1.06547739E+02
  0
LINE
  8
0
 62
7
 10
-2.20487555E+02
 20
-1.12252740E+02
 11
-2.19987555E+02
 21
-1.12752740E+02
  0
LINE
  8
0
 62
7
 10
-2.20487555E+02
 20
-1.10252740E+02
 11
-2.19987555E+02
 21
-1.09752740E+02
  0
LINE
  8
0
 62
7
 10
-2.19487555E+02
 20
-1.02547740E+02
 11
-2.18987555E+02
 21
-1.02047741E+02
  0
LINE
  8
0
 62
7
 10
-2.18987555E+02
 20
-1.07047741E+02
 11
-2.19487555E+02
 21
-1.06547741E+02
  0
LINE
  8
0
 62
7
 10
-2.19487555E+02
 20
-1.02547739E+02
 11
-2.19487555E+02
 21
-1.06547739E+02
  0
LINE
  8
0
 62
7
 10
-2.20487555E+02
 20
-1.12252740E+02
 11
-2.20487555E+02
 21
-1.10252739E+02
  0
LINE
  8
0
 62
7
 10
-2.18237555E+02
 20
-1.07047739E+02
 11
-2.18237555E+02
 21
-1.09752739E+02
  0
LINE
  8
0
 62
7
 10
-2.13487555E+02
 20
-1.12252740E+02
 11
-2.13987556E+02
 21
-1.12752741E+02
  0
LINE
  8
0
 62
7
 10
-2.20687555E+02
 20
-1.12752740E+02
 11
-2.13287555E+02
 21
-1.12752740E+02
  0
LINE
  8
0
 62
7
 10
-2.12987555E+02
 20
-1.13752740E+02
 11
-2.12987555E+02
 21
-1.13052740E+02
  0
LINE
  8
0
 62
7
 10
-2.20987555E+02
 20
-1.13752740E+02
 11
-2.20987555E+02
 21
-1.13052740E+02
  0
LINE
  8
0
 62
7
 10
-2.20987555E+02
 20
-1.13052740E+02
 11
-2.20687555E+02
 21
-1.12752740E+02
  0
LINE
  8
0
 62
7
 10
-2.13287555E+02
 20
-1.12752740E+02
 11
-2.12987555E+02
 21
-1.13052740E+02
  0
LINE
  8
0
 62
7
 10
-2.20987555E+02
 20
-1.13052740E+02
 11
-2.12987555E+02
 21
-1.13052740E+02
  0
LINE
  8
0
  6
CENTER
 62
2
 10
-2.16987555E+02
 20
-9.82664604E+01
 11
-2.16987555E+02
 21
-1.15230290E+02
  0
LINE
  8
0
 62
7
 10
-1.88487556E+02
 20
-1.13752740E+02
 11
-2.09487555E+02
 21
-1.13752740E+02
  0
LINE
  8
0
  6
CENTER
 62
6
 10
-1.71179775E+02
 20
-1.22252740E+02
 11
-1.90370785E+02
 21
-1.22252740E+02
  0
LINE
  8
0
  6
CENTER
 62
6
 10
-1.89687332E+02
 20
-1.90252739E+02
 11
-1.71312363E+02
 21
-1.90252739E+02
  0
LINE
  8
0
 62
6
 10
-2.09487555E+02
 20
-2.23250000E+02
 11
-2.00987555E+02
 21
-2.23250000E+02
  0
LINE
  8
0
 62
6
 10
-2.09487555E+02
 20
-1.99250000E+02
 11
-2.00987555E+02
 21
-1.99250000E+02
  0
LINE
  8
0
 62
6
 10
-2.00987555E+02
 20
-2.23250000E+02
 11
-2.00987555E+02
 21
-1.99250000E+02
  0
ARC
  8
0
 62
7
 10
-2.22787555E+02
 20
-1.52452740E+02
 40
2.00000003E-01
 50
0.00000000E+00
 51
9.00000002E+01
  0
ARC
  8
0
 62
7
 10
-2.32387555E+02
 20
-1.89552738E+02
 40
2.00000003E-01
 50
1.79999995E+02
 51
2.70000000E+02
  0
ARC
  8
0
 62
7
 10
-2.21487555E+02
 20
-1.51152740E+02
 40
2.00000003E-01
 50
0.00000000E+00
 51
9.00000002E+01
  0
ARC
  8
0
 62
7
 10
-2.33587555E+02
 20
-1.51252739E+02
 40
3.00000012E-01
 50
9.00000002E+01
 51
1.80000005E+02
  0
ARC
  8
0
 62
7
 10
-2.21587555E+02
 20
-1.90752739E+02
 40
3.00000012E-01
 50
2.70000000E+02
 51
0.00000000E+00
  0
ARC
  8
0
 62
7
 10
-2.33587555E+02
 20
-1.90752739E+02
 40
3.00000012E-01
 50
1.79999995E+02
 51
2.70000000E+02
  0
ARC
  8
0
 62
7
 10
-2.32287555E+02
 20
-1.52552740E+02
 40
3.00000012E-01
 50
9.00000002E+01
 51
1.80000005E+02
  0
ARC
  8
0
 62
7
 10
-2.22887555E+02
 20
-1.89452740E+02
 40
3.00000012E-01
 50
2.70000000E+02
 51
0.00000000E+00
  0
ARC
  8
0
 62
7
 10
-2.31387555E+02
 20
-1.88552738E+02
 40
2.00000003E-01
 50
1.79999995E+02
 51
2.70000000E+02
  0
ARC
  8
0
 62
7
 10
-2.23887555E+02
 20
-1.88452740E+02
 40
3.00000012E-01
 50
2.70000000E+02
 51
0.00000000E+00
  0
ARC
  8
0
 62
7
 10
-2.31287555E+02
 20
-1.52552740E+02
 40
3.00000012E-01
 50
9.00000002E+01
 51
1.80000005E+02
  0
ARC
  8
0
 62
7
 10
-2.23787555E+02
 20
-1.52452740E+02
 40
2.00000003E-01
 50
0.00000000E+00
 51
9.00000002E+01
  0
ARC
  8
0
 62
7
 10
-2.07487555E+02
 20
-1.16252740E+02
 40
2.50000000E+00
 50
5.31301018E+01
 51
1.26869903E+02
  0
ARC
  8
0
 62
7
 10
-1.90131989E+02
 20
-1.47207100E+02
 40
7.95639873E-01
 50
2.70000000E+02
 51
3.43900220E+02
  0
ARC
  8
0
 62
7
 10
-1.95124964E+02
 20
-1.45755239E+02
 40
5.99541616E+00
 50
3.43801670E+02
 51
1.61983298E+01
  0
ARC
  8
0
 62
7
 10
-1.90136543E+02
 20
-1.44302507E+02
 40
7.99777389E-01
 50
1.59492465E+01
 51
8.97141315E+01
  0
ARC
  8
0
 62
7
 10
-1.90487556E+02
 20
-1.96251091E+02
 40
2.50000000E+00
 50
2.33130097E+02
 51
3.06869898E+02
  0
ARC
  8
0
 62
7
 10
-2.16490055E+02
 20
-2.35112595E+02
 40
5.99541616E+00
 50
2.53801671E+02
 51
2.86198330E+02
  0
ARC
  8
0
 62
7
 10
-2.17941916E+02
 20
-2.40105568E+02
 40
7.95639873E-01
 50
1.79959311E+02
 51
2.53900234E+02
  0
ARC
  8
0
 62
7
 10
-2.15037322E+02
 20
-2.40101013E+02
 40
7.99777389E-01
 50
2.85949247E+02
 51
3.59714132E+02
  0
ARC
  8
0
 62
6
 10
-1.68086845E+02
 20
-1.78252029E+02
 40
1.99289829E-01
 50
3.59795462E+02
 51
9.00000002E+01
  0
ARC
  8
0
 62
6
 10
-1.68086845E+02
 20
-1.81853451E+02
 40
1.99289829E-01
 50
2.70000000E+02
 51
2.04538593E-01
  0
ARC
  8
0
 62
6
 10
-1.74387554E+02
 20
-1.89252739E+02
 40
5.00000000E-01
 50
0.00000000E+00
 51
9.00000002E+01
  0
ARC
  8
0
 62
6
 10
-1.74387554E+02
 20
-1.91252739E+02
 40
5.00000000E-01
 50
2.70000000E+02
 51
0.00000000E+00
  0
ARC
  8
0
 62
6
 10
-1.68086845E+02
 20
-1.30652028E+02
 40
1.99289829E-01
 50
3.59795462E+02
 51
9.00000002E+01
  0
ARC
  8
0
 62
6
 10
-1.68086845E+02
 20
-1.34253451E+02
 40
1.99289829E-01
 50
2.70000000E+02
 51
2.04538593E-01
  0
ARC
  8
0
 62
6
 10
-1.74387554E+02
 20
-1.23252740E+02
 40
5.00000000E-01
 50
2.70000000E+02
 51
0.00000000E+00
  0
ARC
  8
0
 62
6
 10
-1.74387554E+02
 20
-1.21252740E+02
 40
5.00000000E-01
 50
0.00000000E+00
 51
9.00000002E+01
  0
CIRCLE
  8
0
 62
7
 10
-2.27587555E+02
 20
-1.95250000E+02
 40
2.29999995E+00
  0
CIRCLE
  8
0
 62
7
 10
-2.25587555E+02
 20
-1.27750000E+02
 40
2.29999995E+00
  0
ARC
  8
0
  6
PHANTOM
 62
2
 10
-1.63887554E+02
 20
-2.23550003E+02
 40
2.00000003E-01
 50
2.70000000E+02
 51
0.00000000E+00
  0
CIRCLE
  8
0
  6
PHANTOM
 62
2
 10
-2.04987555E+02
 20
-2.17349998E+02
 40
1.64999998E+00
  0
CIRCLE
  8
0
  6
PHANTOM
 62
2
 10
-2.04987555E+02
 20
-2.05349998E+02
 40
1.64999998E+00
  0
ARC
  8
0
  6
PHANTOM
 62
2
 10
-1.63887554E+02
 20
-2.16349998E+02
 40
2.00000003E-01
 50
0.00000000E+00
 51
9.00000002E+01
  0
ARC
  8
0
 62
7
 10
-1.57992477E+02
 20
-2.39699997E+02
 40
1.50000000E+00
 50
2.70000000E+02
 51
0.00000000E+00
  0
ARC
  8
0
 62
7
 10
-1.57992477E+02
 20
-2.32800003E+02
 40
1.50000000E+00
 50
0.00000000E+00
 51
9.00000002E+01
  0
LINE
  8
0
 62
6
 10
-1.87287556E+02
 20
2.31047254E+02
 11
-1.87287556E+02
 21
2.34447253E+02
  0
LINE
  8
0
 62
7
 10
-1.56487556E+02
 20
2.26297254E+02
 11
-1.56487556E+02
 21
2.24297254E+02
  0
LINE
  8
0
  6
PHANTOM
 62
2
 10
-1.63482632E+02
 20
2.25897254E+02
 11
-1.63482632E+02
 21
2.21997253E+02
  0
LINE
  8
0
 62
7
 10
-1.65482632E+02
 20
2.27197253E+02
 11
-1.65482632E+02
 21
2.31697253E+02
  0
LINE
  8
0
 62
7
 10
-1.65482632E+02
 20
2.32997253E+02
 11
-1.65482632E+02
 21
2.33497253E+02
  0
LINE
  8
0
 62
7
 10
-1.63482632E+02
 20
2.31697253E+02
 11
-1.63482632E+02
 21
2.27197253E+02
  0
LINE
  8
0
 62
6
 10
-1.68887554E+02
 20
2.34447253E+02
 11
-1.67887554E+02
 21
2.34447253E+02
  0
LINE
  8
0
 62
6
 10
-1.68887554E+02
 20
2.24447253E+02
 11
-1.67887554E+02
 21
2.24447253E+02
  0
LINE
  8
0
 62
6
 10
-1.67887554E+02
 20
2.32997253E+02
 11
-1.59687553E+02
 21
2.32997253E+02
  0
LINE
  8
0
 62
6
 10
-1.67887554E+02
 20
2.31697253E+02
 11
-1.59687553E+02
 21
2.31697253E+02
  0
LINE
  8
0
 62
6
 10
-1.59687553E+02
 20
2.31697253E+02
 11
-1.59687553E+02
 21
2.32997253E+02
  0
LINE
  8
0
 62
6
 10
-1.55687553E+02
 20
2.32097254E+02
 11
-1.55687553E+02
 21
2.32597254E+02
  0
LINE
  8
0
 62
6
 10
-1.59687553E+02
 20
2.32097254E+02
 11
-1.55687553E+02
 21
2.32097254E+02
  0
LINE
  8
0
 62
6
 10
-1.59687553E+02
 20
2.32597254E+02
 11
-1.55687553E+02
 21
2.32597254E+02
  0
LINE
  8
0
 62
6
 10
-1.59687553E+02
 20
2.26797254E+02
 11
-1.55687553E+02
 21
2.26797254E+02
  0
LINE
  8
0
 62
6
 10
-1.59687553E+02
 20
2.26297254E+02
 11
-1.55687553E+02
 21
2.26297254E+02
  0
LINE
  8
0
 62
6
 10
-1.55687553E+02
 20
2.26297254E+02
 11
-1.55687553E+02
 21
2.26797254E+02
  0
LINE
  8
0
 62
7
 10
-1.59687553E+02
 20
2.25897254E+02
 11
-1.59687553E+02
 21
2.27197253E+02
  0
LINE
  8
0
 62
6
 10
-1.67887554E+02
 20
2.25897254E+02
 11
-1.59687553E+02
 21
2.25897254E+02
  0
LINE
  8
0
 62
6
 10
-1.67887554E+02
 20
2.27197253E+02
 11
-1.59687553E+02
 21
2.27197253E+02
  0
LINE
  8
0
 62
6
 10
-1.67887554E+02
 20
2.34447253E+02
 11
-1.67887554E+02
 21
2.24447253E+02
  0
LINE
  8
0
 62
6
 10
-1.68887554E+02
 20
2.34447253E+02
 11
-1.68887554E+02
 21
2.24447253E+02
  0
LINE
  8
0
 62
6
 10
-1.88487556E+02
 20
2.34447253E+02
 11
-1.68887554E+02
 21
2.34447253E+02
  0
LINE
  8
0
 62
6
 10
-1.84487556E+02
 20
2.24447253E+02
 11
-1.68887554E+02
 21
2.24447253E+02
  0
LINE
  8
0
 62
6
 10
-1.88487556E+02
 20
2.31047254E+02
 11
-1.84487556E+02
 21
2.31047254E+02
  0
LINE
  8
0
  6
CENTER
 62
6
 10
-1.90883224E+02
 20
2.29447253E+02
 11
-1.66664246E+02
 21
2.29447253E+02
  0
LINE
  8
0
 62
6
 10
-1.84487556E+02
 20
2.21047253E+02
 11
-1.84487556E+02
 21
2.31047254E+02
  0
LINE
  8
0
  6
CENTER
 62
6
 10
-1.90883224E+02
 20
2.26047254E+02
 11
-1.81323421E+02
 21
2.26047254E+02
  0
LINE
  8
0
 62
7
 10
-1.64482632E+02
 20
2.21997253E+02
 11
-1.64482632E+02
 21
2.19145925E+02
  0
LINE
  8
0
 62
7
 10
-1.64482632E+02
 20
2.35247253E+02
 11
-1.88487556E+02
 21
2.35247253E+02
  0
LINE
  8
0
 62
7
 10
-1.64482632E+02
 20
2.20247253E+02
 11
-1.88487556E+02
 21
2.20247253E+02
  0
LINE
  8
0
 62
7
 10
-1.63482632E+02
 20
2.21997253E+02
 11
-1.65482632E+02
 21
2.21997253E+02
  0
LINE
  8
0
 62
7
 10
-1.63482632E+02
 20
2.33497253E+02
 11
-1.65482632E+02
 21
2.33497253E+02
  0
LINE
  8
0
  6
PHANTOM
 62
2
 10
-1.63482632E+02
 20
2.33497253E+02
 11
-1.63482632E+02
 21
2.32997253E+02
  0
LINE
  8
0
 62
7
 10
-1.65482632E+02
 20
2.21997253E+02
 11
-1.65482632E+02
 21
2.25897254E+02
  0
LINE
  8
0
 62
7
 10
-2.06709738E+02
 20
2.19969435E+02
 11
-2.08265373E+02
 21
2.21525071E+02
  0
LINE
  8
0
 62
7
 10
-2.06709738E+02
 20
2.21525071E+02
 11
-2.08265372E+02
 21
2.19969436E+02
  0
LINE
  8
0
 62
7
 10
-1.89709737E+02
 20
2.35525072E+02
 11
-1.91265372E+02
 21
2.33969436E+02
  0
LINE
  8
0
 62
7
 10
-1.89709739E+02
 20
2.33969435E+02
 11
-1.91265373E+02
 21
2.35525070E+02
  0
LINE
  8
0
 62
7
 10
-2.09487555E+02
 20
2.36747253E+02
 11
-1.88487556E+02
 21
2.36747253E+02
  0
LINE
  8
0
 62
7
 10
-1.88487556E+02
 20
2.18747253E+02
 11
-2.09487555E+02
 21
2.18747253E+02
  0
LINE
  8
0
 62
7
 10
-2.05887554E+02
 20
2.20747253E+02
 11
-2.05887554E+02
 21
2.18747253E+02
  0
LINE
  8
0
 62
7
 10
-1.92087555E+02
 20
2.34747253E+02
 11
-1.92087555E+02
 21
2.36747253E+02
  0
LINE
  8
0
 62
7
 10
-1.90487556E+02
 20
2.33147253E+02
 11
-1.88487556E+02
 21
2.33147253E+02
  0
LINE
  8
0
 62
7
 10
-2.07487555E+02
 20
2.22347253E+02
 11
-2.09487555E+02
 21
2.22347253E+02
  0
LINE
  8
0
 62
7
 10
-2.35487555E+02
 20
2.36997253E+02
 11
-2.09487555E+02
 21
2.36997253E+02
  0
LINE
  8
0
 62
7
 10
-2.09487555E+02
 20
2.18497253E+02
 11
-2.35487555E+02
 21
2.18497253E+02
  0
LINE
  8
0
 62
7
 10
-2.09487555E+02
 20
2.36997253E+02
 11
-2.09487555E+02
 21
2.18497253E+02
  0
LINE
  8
0
 62
7
 10
-2.35487555E+02
 20
2.36997253E+02
 11
-2.35487555E+02
 21
2.18497253E+02
  0
LINE
  8
0
 62
7
 10
-1.59687553E+02
 20
2.32697253E+02
 11
-1.57987556E+02
 21
2.32697253E+02
  0
LINE
  8
0
 62
7
 10
-1.63482632E+02
 20
2.22797254E+02
 11
-1.57987556E+02
 21
2.22797254E+02
  0
LINE
  8
0
 62
7
 10
-1.56487556E+02
 20
2.31197253E+02
 11
-1.56487556E+02
 21
2.26797254E+02
  0
LINE
  8
0
 62
7
 10
-1.64681299E+02
 20
2.18945929E+02
 11
-1.94482633E+02
 21
2.18747253E+02
  0
LINE
  8
0
 62
7
 10
-1.64681302E+02
 20
2.36548579E+02
 11
-1.94482633E+02
 21
2.36747254E+02
  0
LINE
  8
0
 62
7
 10
-1.88487556E+02
 20
2.18747253E+02
 11
-1.88487556E+02
 21
2.36747253E+02
  0
LINE
  8
0
 62
6
 10
-1.88487556E+02
 20
2.21047253E+02
 11
-1.84487556E+02
 21
2.21047253E+02
  0
LINE
  8
0
 62
7
 10
-1.64482632E+02
 20
2.36348583E+02
 11
-1.64482632E+02
 21
2.33497253E+02
  0
LINE
  8
0
  6
CENTER
 62
2
 10
-2.38662283E+02
 20
2.27747253E+02
 11
-1.53931808E+02
 21
2.27747253E+02
  0
LINE
  8
0
  6
PHANTOM
 62
2
 10
-1.63487556E+02
 20
2.33497253E+02
 11
-1.63487556E+02
 21
2.35147253E+02
  0
LINE
  8
0
  6
PHANTOM
 62
2
 10
-1.64487556E+02
 20
2.35147253E+02
 11
-1.63487556E+02
 21
2.35147253E+02
  0
LINE
  8
0
  6
PHANTOM
 62
2
 10
-1.63487556E+02
 20
2.34247253E+02
 11
-1.52375275E+02
 21
2.34247253E+02
  0
LINE
  8
0
  6
PHANTOM
 62
2
 10
-1.63487556E+02
 20
2.30447253E+02
 11
-1.54569206E+02
 21
2.30447253E+02
  0
LINE
  8
0
  6
PHANTOM
 62
2
 10
-1.39287552E+02
 20
2.30447253E+02
 11
-1.39287552E+02
 21
2.34247253E+02
  0
LINE
  8
0
  6
PHANTOM
 62
2
 10
-1.55626168E+02
 20
2.28616542E+02
 11
-1.50813939E+02
 21
2.36951567E+02
  0
LINE
  8
0
  6
PHANTOM
 62
2
 10
-1.52859758E+02
 20
2.28408105E+02
 11
-1.48034908E+02
 21
2.36764991E+02
  0
LINE
  8
0
  6
PHANTOM
 62
2
 10
-1.49488525E+02
 20
2.34247253E+02
 11
-1.39287552E+02
 21
2.34247253E+02
  0
LINE
  8
0
  6
PHANTOM
 62
2
 10
-1.51682449E+02
 20
2.30447253E+02
 11
-1.39287552E+02
 21
2.30447253E+02
  0
LINE
  8
0
  6
PHANTOM
 62
2
 10
-1.88487556E+02
 20
2.35247253E+02
 11
-1.64487556E+02
 21
2.35247253E+02
  0
LINE
  8
0
  6
PHANTOM
 62
2
 10
-1.88487556E+02
 20
2.20247253E+02
 11
-1.64487556E+02
 21
2.20247253E+02
  0
LINE
  8
0
  6
PHANTOM
 62
2
 10
-1.64487556E+02
 20
2.20247253E+02
 11
-1.64487556E+02
 21
2.25897254E+02
  0
LINE
  8
0
  6
PHANTOM
 62
2
 10
-1.67987556E+02
 20
2.20247253E+02
 11
-1.67987556E+02
 21
2.21997253E+02
  0
LINE
  8
0
  6
PHANTOM
 62
2
 10
-1.67887554E+02
 20
2.33497253E+02
 11
-1.63487556E+02
 21
2.33497253E+02
  0
LINE
  8
0
  6
PHANTOM
 62
2
 10
-1.72364265E+02
 20
2.21997253E+02
 11
-1.63482632E+02
 21
2.21997253E+02
  0
LINE
  8
0
  6
PHANTOM
 62
2
 10
-1.63487556E+02
 20
2.21997253E+02
 11
-1.63487556E+02
 21
2.25897254E+02
  0
LINE
  8
0
  6
PHANTOM
 62
2
 10
-1.66364265E+02
 20
2.21997253E+02
 11
-1.66364265E+02
 21
2.25897254E+02
  0
LINE
  8
0
  6
PHANTOM
 62
2
 10
-1.71864265E+02
 20
2.21997253E+02
 11
-1.71864265E+02
 21
2.24447253E+02
  0
LINE
  8
0
  6
PHANTOM
 62
2
 10
-1.72364265E+02
 20
2.21997253E+02
 11
-1.72364265E+02
 21
2.24447253E+02
  0
LINE
  8
0
  6
PHANTOM
 62
2
 10
-1.67987556E+02
 20
2.34447253E+02
 11
-1.67987556E+02
 21
2.35247253E+02
  0
LINE
  8
0
  6
PHANTOM
 62
2
 10
-1.39287552E+02
 20
2.33547254E+02
 11
-1.33753555E+02
 21
2.33547254E+02
  0
LINE
  8
0
  6
PHANTOM
 62
2
 10
-1.39287552E+02
 20
2.31147253E+02
 11
-1.33753555E+02
 21
2.31147253E+02
  0
LINE
  8
0
  6
PHANTOM
 62
2
 10
-1.33753555E+02
 20
2.33147253E+02
 11
-1.13586334E+02
 21
2.33147253E+02
  0
LINE
  8
0
  6
PHANTOM
 62
2
 10
-1.33753555E+02
 20
2.32547254E+02
 11
-1.13586334E+02
 21
2.32547254E+02
  0
LINE
  8
0
  6
PHANTOM
 62
2
 10
-1.33753555E+02
 20
2.32147253E+02
 11
-1.13586334E+02
 21
2.32147253E+02
  0
LINE
  8
0
  6
PHANTOM
 62
2
 10
-1.33753555E+02
 20
2.31547254E+02
 11
-1.13586334E+02
 21
2.31547254E+02
  0
LINE
  8
0
  6
PHANTOM
 62
2
 10
-1.33753555E+02
 20
2.31147253E+02
 11
-1.33753555E+02
 21
2.33547254E+02
  0
LINE
  8
0
  6
PHANTOM
 62
2
 10
-1.13586334E+02
 20
2.32547254E+02
 11
-1.13586334E+02
 21
2.33147253E+02
  0
LINE
  8
0
  6
PHANTOM
 62
2
 10
-1.13586334E+02
 20
2.32147253E+02
 11
-1.13586334E+02
 21
2.31547254E+02
  0
LINE
  8
0
  6
PHANTOM
 62
2
 10
-1.66364265E+02
 20
2.32997253E+02
 11
-1.66364265E+02
 21
2.33497253E+02
  0
LINE
  8
0
  6
PHANTOM
 62
2
 10
-1.64487556E+02
 20
2.32997253E+02
 11
-1.64487556E+02
 21
2.35247253E+02
  0
LINE
  8
0
  6
PHANTOM
 62
2
 10
-1.63487556E+02
 20
2.32997253E+02
 11
-1.63487556E+02
 21
2.33497253E+02
  0
LINE
  8
0
  6
PHANTOM
 62
2
 10
-1.63487556E+02
 20
2.27197253E+02
 11
-1.63487556E+02
 21
2.31697253E+02
  0
LINE
  8
0
  6
PHANTOM
 62
2
 10
-1.64487556E+02
 20
2.27197253E+02
 11
-1.64487556E+02
 21
2.31697253E+02
  0
LINE
  8
0
  6
PHANTOM
 62
2
 10
-1.66364265E+02
 20
2.27197253E+02
 11
-1.66364265E+02
 21
2.31697253E+02
  0
LINE
  8
0
  6
CENTER
 62
2
 10
-2.25587555E+02
 20
2.15247253E+02
 11
-2.25587555E+02
 21
2.40247253E+02
  0
LINE
  8
0
  6
CENTER
 62
2
 10
-2.27587555E+02
 20
2.15247253E+02
 11
-2.27587555E+02
 21
2.40247253E+02
  0
ARC
  8
0
 62
7
 10
-1.57987556E+02
 20
2.31197253E+02
 40
1.50000000E+00
 50
6.89605270E+01
 51
9.00000002E+01
  0
CIRCLE
  8
0
 62
7
 10
-2.07487555E+02
 20
2.20747253E+02
 40
1.50000000E+00
  0
CIRCLE
  8
0
 62
7
 10
-1.90487556E+02
 20
2.34747253E+02
 40
1.50000000E+00
  0
ARC
  8
0
 62
7
 10
-1.90487556E+02
 20
2.34747253E+02
 40
1.60000002E+00
 50
1.79999995E+02
 51
2.70000000E+02
  0
ARC
  8
0
 62
7
 10
-2.07487555E+02
 20
2.20747253E+02
 40
1.60000002E+00
 50
0.00000000E+00
 51
9.00000002E+01
  0
ARC
  8
0
 62
7
 10
-1.57987556E+02
 20
2.31197253E+02
 40
1.50000000E+00
 50
0.00000000E+00
 51
3.68698973E+01
  0
ARC
  8
0
 62
7
 10
-1.57987556E+02
 20
2.24297254E+02
 40
1.50000000E+00
 50
2.70000000E+02
 51
0.00000000E+00
  0
ARC
  8
0
 62
7
 10
-1.64682632E+02
 20
2.19145925E+02
 40
2.00000003E-01
 50
2.70381969E+02
 51
0.00000000E+00
  0
ARC
  8
0
 62
7
 10
-1.64682632E+02
 20
2.36348583E+02
 40
2.00000003E-01
 50
0.00000000E+00
 51
8.96180310E+01
  0
LINE
  8
0
  6
CENTER
 62
6
 10
-7.81875486E+01
 20
1.48547781E+02
 11
-7.81875486E+01
 21
1.63670452E+02
  0
LINE
  8
0
 62
6
 10
-8.16875486E+01
 20
1.52647260E+02
 11
-8.31875486E+01
 21
1.52647260E+02
  0
LINE
  8
0
 62
6
 10
-8.16875486E+01
 20
1.55847260E+02
 11
-8.31875486E+01
 21
1.55847260E+02
  0
LINE
  8
0
 62
6
 10
-7.46875486E+01
 20
1.52647260E+02
 11
-7.31875486E+01
 21
1.52647260E+02
  0
LINE
  8
0
 62
6
 10
-7.46875486E+01
 20
1.55847260E+02
 11
-7.31875486E+01
 21
1.55847260E+02
  0
LINE
  8
0
 62
6
 10
-7.31875486E+01
 20
1.62747260E+02
 11
-7.31875486E+01
 21
1.49247260E+02
  0
LINE
  8
0
 62
6
 10
-8.31875486E+01
 20
1.62747260E+02
 11
-8.31875486E+01
 21
1.49247260E+02
  0
LINE
  8
0
 62
7
 10
-8.29875488E+01
 20
1.28047260E+02
 11
-8.54875488E+01
 21
1.28047260E+02
  0
LINE
  8
0
 62
7
 10
-8.29875488E+01
 20
1.33447260E+02
 11
-8.54875488E+01
 21
1.33447260E+02
  0
LINE
  8
0
 62
7
 10
-6.74875488E+01
 20
1.49247260E+02
 11
-8.54875488E+01
 21
1.49247260E+02
  0
LINE
  8
0
  6
PHANTOM
 62
2
 10
-8.34875488E+01
 20
7.75500031E+01
 11
-8.22375488E+01
 21
7.75500031E+01
  0
LINE
  8
0
  6
CENTER
 62
2
 10
-7.18875489E+01
 20
5.25592957E+01
 11
-7.18875489E+01
 21
6.02969437E+01
  0
LINE
  8
0
  6
CENTER
 62
2
 10
-7.47244859E+01
 20
5.66500015E+01
 11
-6.89227877E+01
 21
5.66500015E+01
  0
LINE
  8
0
 62
7
 10
-6.97875488E+01
 20
1.05547260E+02
 11
-6.74875488E+01
 21
1.05547260E+02
  0
LINE
  8
0
 62
7
 10
-6.99875488E+01
 20
1.10947262E+02
 11
-6.74875488E+01
 21
1.10947262E+02
  0
LINE
  8
0
 62
7
 10
-7.10875487E+01
 20
1.61947260E+02
 11
-7.10875487E+01
 21
1.62747260E+02
  0
LINE
  8
0
 62
7
 10
-7.08875489E+01
 20
1.61747260E+02
 11
-6.74875488E+01
 21
1.61747260E+02
  0
LINE
  8
0
  6
CENTER
 62
2
 10
-8.28908081E+01
 20
4.02500000E+01
 11
-6.98078475E+01
 21
4.02500000E+01
  0
LINE
  8
0
 62
7
 10
-8.20875492E+01
 20
7.87472610E+01
 11
-8.54875488E+01
 21
7.87472610E+01
  0
LINE
  8
0
 62
7
 10
-6.74875488E+01
 20
7.77472610E+01
 11
-6.74875488E+01
 21
1.62747260E+02
  0
LINE
  8
0
 62
7
 10
-8.54875488E+01
 20
7.77472610E+01
 11
-8.54875488E+01
 21
1.62747260E+02
  0
LINE
  8
0
 62
7
 10
-6.72375488E+01
 20
3.47402802E+01
 11
-6.72375488E+01
 21
1.62747260E+02
  0
LINE
  8
0
 62
7
 10
-8.57375488E+01
 20
3.47402802E+01
 11
-8.57375488E+01
 21
1.62747260E+02
  0
LINE
  8
0
 62
7
 10
-6.72375488E+01
 20
3.47402802E+01
 11
-8.57375488E+01
 21
3.47402802E+01
  0
LINE
  8
0
  6
PHANTOM
 62
2
 10
-7.46875486E+01
 20
5.32402802E+01
 11
-7.46875486E+01
 21
5.98402863E+01
  0
LINE
  8
0
  6
PHANTOM
 62
2
 10
-7.41875486E+01
 20
6.03402863E+01
 11
-6.95875487E+01
 21
6.03402863E+01
  0
LINE
  8
0
  6
PHANTOM
 62
2
 10
-6.90875489E+01
 20
5.32402802E+01
 11
-6.90875489E+01
 21
5.98402863E+01
  0
LINE
  8
0
  6
PHANTOM
 62
2
 10
-8.19733419E+01
 20
5.91375427E+01
 11
-7.99855757E+01
 21
5.91375427E+01
  0
LINE
  8
0
  6
PHANTOM
 62
2
 10
-8.19733419E+01
 20
5.97375412E+01
 11
-7.99855757E+01
 21
5.97375412E+01
  0
LINE
  8
0
  6
PHANTOM
 62
2
 10
-8.18808880E+01
 20
6.71375427E+01
 11
-8.00318031E+01
 21
6.71375427E+01
  0
LINE
  8
0
  6
PHANTOM
 62
2
 10
-8.19271145E+01
 20
6.77375412E+01
 11
-8.00318031E+01
 21
6.77375412E+01
  0
LINE
  8
0
  6
CENTER
 62
2
 10
-8.34033890E+01
 20
5.94375458E+01
 11
-7.84705572E+01
 21
5.94375458E+01
  0
LINE
  8
0
  6
CENTER
 62
2
 10
-8.09875488E+01
 20
5.69893875E+01
 11
-8.09875488E+01
 21
6.19222183E+01
  0
LINE
  8
0
  6
CENTER
 62
2
 10
-8.09875488E+01
 20
6.50560150E+01
 11
-8.09875488E+01
 21
6.97567139E+01
  0
LINE
  8
0
  6
CENTER
 62
2
 10
-8.32873230E+01
 20
6.74375458E+01
 11
-7.88187571E+01
 21
6.74375458E+01
  0
LINE
  8
0
  6
PHANTOM
 62
2
 10
-7.07375488E+01
 20
7.02500000E+01
 11
-6.94875488E+01
 21
7.02500000E+01
  0
LINE
  8
0
  6
PHANTOM
 62
2
 10
-8.34875488E+01
 20
7.02500000E+01
 11
-8.22375488E+01
 21
7.02500000E+01
  0
LINE
  8
0
  6
PHANTOM
 62
2
 10
-8.22375488E+01
 20
6.95500031E+01
 11
-7.07375488E+01
 21
6.95500031E+01
  0
LINE
  8
0
  6
PHANTOM
 62
2
 10
-8.17375488E+01
 20
7.25500031E+01
 11
-7.12375488E+01
 21
7.25500031E+01
  0
LINE
  8
0
  6
PHANTOM
 62
2
 10
-7.07375488E+01
 20
7.75500031E+01
 11
-6.94875488E+01
 21
7.75500031E+01
  0
LINE
  8
0
  6
PHANTOM
 62
2
 10
-8.17375488E+01
 20
7.85500031E+01
 11
-7.12375488E+01
 21
7.85500031E+01
  0
LINE
  8
0
  6
PHANTOM
 62
2
 10
-7.07375488E+01
 20
7.81102982E+01
 11
-7.07375488E+01
 21
6.95500031E+01
  0
LINE
  8
0
  6
PHANTOM
 62
2
 10
-8.22375488E+01
 20
6.95500031E+01
 11
-8.22375488E+01
 21
7.80500031E+01
  0
LINE
  8
0
  6
PHANTOM
 62
2
 10
-8.34875488E+01
 20
5.27500000E+01
 11
-6.94875488E+01
 21
5.27500000E+01
  0
LINE
  8
0
 62
7
 10
-6.89875488E+01
 20
3.52402802E+01
 11
-6.89875488E+01
 21
5.24375458E+01
  0
LINE
  8
0
 62
7
 10
-8.39875488E+01
 20
3.52402802E+01
 11
-8.39875488E+01
 21
5.24375458E+01
  0
LINE
  8
0
  6
PHANTOM
 62
2
 10
-6.89875488E+01
 20
5.32500000E+01
 11
-6.89875488E+01
 21
7.70500031E+01
  0
LINE
  8
0
  6
PHANTOM
 62
2
 10
-8.39875488E+01
 20
5.32500000E+01
 11
-8.39875488E+01
 21
7.70500031E+01
  0
LINE
  8
0
 62
7
 10
-6.94875488E+01
 20
5.27402802E+01
 11
-8.34875488E+01
 21
5.27402802E+01
  0
LINE
  8
0
 62
7
 10
-6.72375488E+01
 20
1.62747260E+02
 11
-8.57375488E+01
 21
1.62747260E+02
  0
LINE
  8
0
 62
6
 10
-7.00875487E+01
 20
1.09747261E+02
 11
-7.94875488E+01
 21
1.09747261E+02
  0
LINE
  8
0
 62
6
 10
-7.32875490E+01
 20
1.04747261E+02
 11
-7.47875490E+01
 21
1.04747261E+02
  0
LINE
  8
0
 62
6
 10
-7.32875490E+01
 20
1.04747261E+02
 11
-7.32875490E+01
 21
1.09747261E+02
  0
LINE
  8
0
 62
6
 10
-7.62875490E+01
 20
1.04747261E+02
 11
-7.47875490E+01
 21
1.04747261E+02
  0
LINE
  8
0
 62
6
 10
-7.62875490E+01
 20
1.04747261E+02
 11
-7.62875490E+01
 21
1.09747261E+02
  0
LINE
  8
0
 62
6
 10
-7.71819155E+01
 20
8.37064431E+01
 11
-7.74375451E+01
 21
8.41472606E+01
  0
LINE
  8
0
 62
6
 10
-7.21375506E+01
 20
8.41472609E+01
 11
-7.23931802E+01
 21
8.37064434E+01
  0
LINE
  8
0
 62
6
 10
-7.59319182E+01
 20
8.49564447E+01
 11
-7.61875478E+01
 21
8.53972622E+01
  0
LINE
  8
0
 62
6
 10
-7.74375472E+01
 20
8.41472605E+01
 11
-7.61875486E+01
 21
8.53972591E+01
  0
LINE
  8
0
 62
6
 10
-7.59319189E+01
 20
8.49564422E+01
 11
-7.71819175E+01
 21
8.37064435E+01
  0
LINE
  8
0
 62
6
 10
-7.36431811E+01
 20
8.49564426E+01
 11
-7.33875514E+01
 21
8.53972601E+01
  0
LINE
  8
0
 62
6
 10
-6.97875488E+01
 20
9.08380775E+01
 11
-7.97875490E+01
 21
9.08380775E+01
  0
LINE
  8
0
 62
6
 10
-7.36431792E+01
 20
8.49564449E+01
 11
-7.23931778E+01
 21
8.37064435E+01
  0
LINE
  8
0
 62
6
 10
-6.97875488E+01
 20
8.37064438E+01
 11
-7.23931785E+01
 21
8.37064438E+01
  0
LINE
  8
0
 62
6
 10
-7.71819191E+01
 20
8.37064438E+01
 11
-7.97875490E+01
 21
8.37064438E+01
  0
LINE
  8
0
 62
6
 10
-7.59319191E+01
 20
8.49564438E+01
 11
-7.36431785E+01
 21
8.49564438E+01
  0
LINE
  8
0
 62
6
 10
-6.97875488E+01
 20
8.41472626E+01
 11
-7.21375489E+01
 21
8.41472626E+01
  0
LINE
  8
0
 62
6
 10
-7.21375481E+01
 20
8.41472605E+01
 11
-7.33875494E+01
 21
8.53972618E+01
  0
LINE
  8
0
 62
6
 10
-7.61875486E+01
 20
8.53972588E+01
 11
-7.33875489E+01
 21
8.53972588E+01
  0
LINE
  8
0
 62
6
 10
-7.74375486E+01
 20
8.41472626E+01
 11
-7.97875490E+01
 21
8.41472626E+01
  0
LINE
  8
0
 62
6
 10
-7.12875490E+01
 20
8.78472595E+01
 11
-6.97875488E+01
 21
8.78472595E+01
  0
LINE
  8
0
 62
6
 10
-6.97875488E+01
 20
8.46472626E+01
 11
-7.12875490E+01
 21
8.46472626E+01
  0
LINE
  8
0
 62
6
 10
-7.82875490E+01
 20
8.46472626E+01
 11
-7.97875490E+01
 21
8.46472626E+01
  0
LINE
  8
0
 62
6
 10
-7.97875490E+01
 20
8.78472595E+01
 11
-7.82875490E+01
 21
8.78472595E+01
  0
LINE
  8
0
 62
6
 10
-7.97875490E+01
 20
1.09447262E+02
 11
-7.97875490E+01
 21
7.77472610E+01
  0
LINE
  8
0
 62
6
 10
-6.97875488E+01
 20
1.09447262E+02
 11
-6.97875488E+01
 21
7.77375412E+01
  0
LINE
  8
0
 62
6
 10
-7.29620352E+01
 20
8.76972618E+01
 11
-7.66130629E+01
 21
8.76972618E+01
  0
LINE
  8
0
 62
6
 10
-7.47875490E+01
 20
8.82972603E+01
 11
-7.66130629E+01
 21
8.82972603E+01
  0
LINE
  8
0
 62
6
 10
-7.29620352E+01
 20
8.82972603E+01
 11
-7.47875490E+01
 21
8.82972603E+01
  0
LINE
  8
0
 62
6
 10
-7.89946555E+01
 20
8.55401565E+01
 11
-7.75804419E+01
 21
8.69543700E+01
  0
LINE
  8
0
 62
6
 10
-7.89946555E+01
 20
8.69543700E+01
 11
-7.75804419E+01
 21
8.55401565E+01
  0
LINE
  8
0
 62
6
 10
-7.05804426E+01
 20
8.69543673E+01
 11
-7.19946561E+01
 21
8.55401538E+01
  0
LINE
  8
0
 62
6
 10
-7.05804426E+01
 20
8.55401538E+01
 11
-7.19946561E+01
 21
8.69543673E+01
  0
LINE
  8
0
 62
7
 10
-8.54875488E+01
 20
9.12472610E+01
 11
-7.97875490E+01
 21
9.12472610E+01
  0
LINE
  8
0
 62
7
 10
-6.97875488E+01
 20
9.12472610E+01
 11
-6.74875488E+01
 21
9.12472610E+01
  0
LINE
  8
0
  6
CENTER
 62
2
 10
-7.64875488E+01
 20
3.04569626E+01
 11
-7.64875488E+01
 21
1.66265038E+02
  0
LINE
  8
0
 62
7
 10
-7.07925489E+01
 20
1.61747260E+02
 11
-7.07925489E+01
 21
1.62247260E+02
  0
LINE
  8
0
 62
7
 10
-6.77925488E+01
 20
1.61747260E+02
 11
-6.77925488E+01
 21
1.62247260E+02
  0
LINE
  8
0
 62
6
 10
-7.53946551E+01
 20
1.53540153E+02
 11
-7.39804417E+01
 21
1.54954367E+02
  0
LINE
  8
0
 62
6
 10
-7.53946552E+01
 20
1.54954367E+02
 11
-7.39804417E+01
 21
1.53540153E+02
  0
LINE
  8
0
 62
6
 10
-8.23946555E+01
 20
1.53540153E+02
 11
-8.09804420E+01
 21
1.54954367E+02
  0
LINE
  8
0
 62
6
 10
-8.23946555E+01
 20
1.54954367E+02
 11
-8.09804420E+01
 21
1.53540153E+02
  0
LINE
  8
0
 62
7
 10
-8.40482084E+01
 20
1.31807921E+02
 11
-8.19268880E+01
 21
1.29686601E+02
  0
LINE
  8
0
 62
7
 10
-8.40482084E+01
 20
1.29686601E+02
 11
-8.19268881E+01
 21
1.31807921E+02
  0
LINE
  8
0
 62
7
 10
-6.97875478E+01
 20
1.08047261E+02
 11
-6.89268875E+01
 21
1.07186601E+02
  0
LINE
  8
0
 62
7
 10
-6.97875478E+01
 20
1.08447261E+02
 11
-6.89268875E+01
 21
1.09307921E+02
  0
LINE
  8
0
  6
CENTER
 62
2
 10
-6.92875488E+01
 20
1.60768710E+02
 11
-6.92875488E+01
 21
1.63889874E+02
  0
LINE
  8
0
 62
7
 10
-8.18886156E+01
 20
7.85266342E+01
 11
-8.18886156E+01
 21
7.77472610E+01
  0
LINE
  8
0
 62
2
 10
-8.36875496E+01
 20
7.97258072E+01
 11
-8.36875496E+01
 21
7.66046448E+01
  0
LINE
  8
0
 62
7
 10
-8.51825485E+01
 20
7.87472610E+01
 11
-8.51825485E+01
 21
7.82472610E+01
  0
LINE
  8
0
 62
7
 10
-8.21825485E+01
 20
7.87472610E+01
 11
-8.21825485E+01
 21
7.82472610E+01
  0
LINE
  8
0
 62
6
 10
-7.97875490E+01
 20
9.16491814E+01
 11
-6.97875488E+01
 21
9.16491814E+01
  0
LINE
  8
0
  6
CENTER
 62
6
 10
-6.93231337E+01
 20
9.64472618E+01
 11
-8.01994314E+01
 21
9.64472618E+01
  0
LINE
  8
0
 62
6
 10
-7.18875489E+01
 20
9.44472618E+01
 11
-7.76875486E+01
 21
9.44472618E+01
  0
LINE
  8
0
 62
6
 10
-7.18875489E+01
 20
9.84472618E+01
 11
-7.76875486E+01
 21
9.84472618E+01
  0
LINE
  8
0
 62
6
 10
-6.97875488E+01
 20
9.21472588E+01
 11
-7.97875490E+01
 21
9.21472588E+01
  0
LINE
  8
0
 62
6
 10
-6.97875488E+01
 20
9.22472610E+01
 11
-7.97875490E+01
 21
9.22472610E+01
  0
LINE
  8
0
  6
CENTER
 62
6
 10
-7.76875486E+01
 20
9.37391853E+01
 11
-7.76875486E+01
 21
9.92839622E+01
  0
LINE
  8
0
  6
CENTER
 62
6
 10
-7.18875489E+01
 20
9.37391853E+01
 11
-7.18875489E+01
 21
9.92839622E+01
  0
LINE
  8
0
 62
7
 10
-6.72375488E+01
 20
7.77472610E+01
 11
-8.57375488E+01
 21
7.77472610E+01
  0
LINE
  8
0
  6
DASHED
 62
2
 10
-7.47875490E+01
 20
7.66381607E+01
 11
-7.47875490E+01
 21
1.12675335E+02
  0
LINE
  8
0
  6
CENTER
 62
6
 10
-7.71875486E+01
 20
1.54247260E+02
 11
-7.21875486E+01
 21
1.54247260E+02
  0
LINE
  8
0
  6
CENTER
 62
6
 10
-8.41875496E+01
 20
1.54247260E+02
 11
-7.91875486E+01
 21
1.54247260E+02
  0
LINE
  8
0
  6
CENTER
 62
6
 10
-7.46875486E+01
 20
1.51747260E+02
 11
-7.46875486E+01
 21
1.56747260E+02
  0
LINE
  8
0
  6
CENTER
 62
6
 10
-8.16875486E+01
 20
1.51747260E+02
 11
-8.16875486E+01
 21
1.56747260E+02
  0
LINE
  8
0
  6
CENTER
 62
2
 10
-8.89875488E+01
 20
1.48750000E+02
 11
-6.39875488E+01
 21
1.48750000E+02
  0
LINE
  8
0
  6
CENTER
 62
2
 10
-8.89875488E+01
 20
8.12500000E+01
 11
-6.39875488E+01
 21
8.12500000E+01
  0
LINE
  8
0
 62
6
 10
-6.89875488E+01
 20
5.32500000E+01
 11
-6.89875488E+01
 21
7.72500000E+01
  0
LINE
  8
0
 62
6
 10
-8.39875488E+01
 20
7.72500000E+01
 11
-6.89875488E+01
 21
7.72500000E+01
  0
LINE
  8
0
 62
6
 10
-6.89875488E+01
 20
5.32500000E+01
 11
-6.89875488E+01
 21
7.72500000E+01
  0
LINE
  8
0
 62
6
 10
-8.39875488E+01
 20
7.72500000E+01
 11
-6.89875488E+01
 21
7.72500000E+01
  0
LINE
  8
0
 62
6
 10
-8.39875488E+01
 20
5.32500000E+01
 11
-8.39875488E+01
 21
7.72500000E+01
  0
LINE
  8
0
 62
6
 10
-8.39875488E+01
 20
5.32500000E+01
 11
-8.39875488E+01
 21
7.72500000E+01
  0
LINE
  8
0
 62
6
 10
-8.39875488E+01
 20
5.32500000E+01
 11
-6.89875488E+01
 21
5.32500000E+01
  0
ARC
  8
0
 62
7
 10
-6.79875488E+01
 20
3.52402802E+01
 40
5.00000000E-01
 50
2.70000000E+02
 51
0.00000000E+00
  0
ARC
  8
0
 62
6
 10
-8.16875486E+01
 20
1.54247260E+02
 40
1.60000002E+00
 50
2.70000000E+02
 51
9.00000002E+01
  0
ARC
  8
0
 62
6
 10
-7.46875486E+01
 20
1.54247260E+02
 40
1.60000002E+00
 50
9.00000002E+01
 51
2.70000000E+02
  0
ARC
  8
0
 62
7
 10
-8.29875488E+01
 20
1.30747261E+02
 40
2.70000005E+00
 50
2.70000000E+02
 51
9.00000002E+01
  0
CIRCLE
  8
0
  6
PHANTOM
 62
2
 10
-7.23875489E+01
 20
5.71500015E+01
 40
3.00000012E-01
  0
CIRCLE
  8
0
  6
PHANTOM
 62
2
 10
-7.23875489E+01
 20
5.61500015E+01
 40
3.00000012E-01
  0
CIRCLE
  8
0
  6
PHANTOM
 62
2
 10
-7.13875489E+01
 20
5.61500015E+01
 40
3.00000012E-01
  0
CIRCLE
  8
0
  6
PHANTOM
 62
2
 10
-7.13875489E+01
 20
5.71500015E+01
 40
3.00000012E-01
  0
CIRCLE
  8
0
  6
PHANTOM
 62
2
 10
-7.18875489E+01
 20
5.66500015E+01
 40
1.20000005E+00
  0
ARC
  8
0
 62
7
 10
-7.08875489E+01
 20
1.61947260E+02
 40
2.00000003E-01
 50
1.79999995E+02
 51
2.70000000E+02
  0
CIRCLE
  8
0
 62
7
 10
-7.64875488E+01
 20
4.02500000E+01
 40
4.94999981E+00
  0
CIRCLE
  8
0
  6
PHANTOM
 62
2
 10
-7.18875489E+01
 20
5.66500015E+01
 40
1.89999998E+00
  0
ARC
  8
0
  6
PHANTOM
 62
2
 10
-6.95875487E+01
 20
5.32402802E+01
 40
5.00000000E-01
 50
2.70000000E+02
 51
0.00000000E+00
  0
ARC
  8
0
  6
PHANTOM
 62
2
 10
-7.41875486E+01
 20
5.32402802E+01
 40
5.00000000E-01
 50
1.79999995E+02
 51
2.70000000E+02
  0
ARC
  8
0
  6
PHANTOM
 62
2
 10
-6.95875487E+01
 20
5.98402863E+01
 40
5.00000000E-01
 50
0.00000000E+00
 51
9.00000002E+01
  0
ARC
  8
0
  6
PHANTOM
 62
2
 10
-7.41875486E+01
 20
5.98402863E+01
 40
5.00000000E-01
 50
9.00000002E+01
 51
1.80000005E+02
  0
CIRCLE
  8
0
  6
PHANTOM
 62
2
 10
-8.09875488E+01
 20
5.94375458E+01
 40
1.00000000E+00
  0
CIRCLE
  8
0
  6
PHANTOM
 62
2
 10
-8.09875488E+01
 20
6.74375458E+01
 40
1.00000000E+00
  0
CIRCLE
  8
0
  6
PHANTOM
 62
2
 10
-8.09875488E+01
 20
5.94375458E+01
 40
1.75000000E+00
  0
CIRCLE
  8
0
  6
PHANTOM
 62
2
 10
-8.09875488E+01
 20
6.74375458E+01
 40
1.75000000E+00
  0
ARC
  8
0
  6
PHANTOM
 62
2
 10
-8.34875488E+01
 20
7.07500000E+01
 40
5.00000000E-01
 50
1.79999995E+02
 51
2.70000000E+02
  0
ARC
  8
0
  6
PHANTOM
 62
2
 10
-6.94875488E+01
 20
7.07500000E+01
 40
5.00000000E-01
 50
2.70000000E+02
 51
0.00000000E+00
  0
ARC
  8
0
  6
PHANTOM
 62
2
 10
-8.17375488E+01
 20
7.30500031E+01
 40
5.00000000E-01
 50
1.79999995E+02
 51
2.70000000E+02
  0
ARC
  8
0
  6
PHANTOM
 62
2
 10
-7.12375488E+01
 20
7.30500031E+01
 40
5.00000000E-01
 50
2.70000000E+02
 51
0.00000000E+00
  0
ARC
  8
0
  6
PHANTOM
 62
2
 10
-8.17375488E+01
 20
7.80500031E+01
 40
5.00000000E-01
 50
9.00000002E+01
 51
1.80000005E+02
  0
ARC
  8
0
  6
PHANTOM
 62
2
 10
-7.12375488E+01
 20
7.80500031E+01
 40
5.00000000E-01
 50
0.00000000E+00
 51
9.00000002E+01
  0
ARC
  8
0
  6
PHANTOM
 62
2
 10
-8.34875488E+01
 20
7.70500031E+01
 40
5.00000000E-01
 50
9.00000002E+01
 51
1.80000005E+02
  0
ARC
  8
0
  6
PHANTOM
 62
2
 10
-8.34875488E+01
 20
5.32500000E+01
 40
5.00000000E-01
 50
1.79999995E+02
 51
2.70000000E+02
  0
ARC
  8
0
  6
PHANTOM
 62
2
 10
-6.94875488E+01
 20
5.32500000E+01
 40
5.00000000E-01
 50
2.70000000E+02
 51
0.00000000E+00
  0
ARC
  8
0
  6
PHANTOM
 62
2
 10
-6.94875488E+01
 20
7.70500031E+01
 40
5.00000000E-01
 50
0.00000000E+00
 51
9.00000002E+01
  0
ARC
  8
0
 62
7
 10
-8.34875488E+01
 20
3.52402802E+01
 40
5.00000000E-01
 50
1.79999995E+02
 51
2.70000000E+02
  0
ARC
  8
0
 62
7
 10
-6.94875488E+01
 20
3.52402802E+01
 40
5.00000000E-01
 50
2.70000000E+02
 51
0.00000000E+00
  0
ARC
  8
0
 62
7
 10
-6.94875488E+01
 20
5.22402802E+01
 40
5.00000000E-01
 50
0.00000000E+00
 51
9.00000002E+01
  0
ARC
  8
0
 62
7
 10
-8.34875488E+01
 20
5.22402802E+01
 40
5.00000000E-01
 50
9.00000002E+01
 51
1.80000005E+02
  0
ARC
  8
0
 62
6
 10
-7.94875488E+01
 20
1.09447262E+02
 40
3.00000012E-01
 50
9.00000002E+01
 51
1.80000005E+02
  0
ARC
  8
0
 62
6
 10
-7.00875487E+01
 20
1.09447262E+02
 40
3.00000012E-01
 50
0.00000000E+00
 51
9.00000002E+01
  0
CIRCLE
  8
0
 62
6
 10
-7.47875490E+01
 20
8.79972610E+01
 40
2.04999995E+00
  0
ARC
  8
0
 62
6
 10
-7.82875490E+01
 20
8.62472610E+01
 40
1.60000002E+00
 50
2.70000000E+02
 51
9.00000002E+01
  0
ARC
  8
0
 62
6
 10
-7.12875490E+01
 20
8.62472610E+01
 40
1.60000002E+00
 50
9.00000002E+01
 51
2.70000000E+02
  0
CIRCLE
  8
0
 62
6
 10
-7.47875490E+01
 20
8.79972610E+01
 40
1.85000002E+00
  0
ARC
  8
0
 62
6
 10
-7.47875490E+01
 20
8.79972610E+01
 40
8.00000012E-01
 50
2.20243121E+01
 51
1.57975691E+02
  0
ARC
  8
0
 62
6
 10
-7.47875490E+01
 20
8.79972610E+01
 40
8.00000012E-01
 50
2.02024309E+02
 51
3.37975688E+02
  0
CIRCLE
  8
0
 62
6
 10
-7.82875490E+01
 20
8.62472610E+01
 40
1.50000000E+00
  0
CIRCLE
  8
0
 62
6
 10
-7.12875490E+01
 20
8.62472610E+01
 40
1.50000000E+00
  0
ARC
  8
0
 62
7
 10
-6.92925489E+01
 20
1.60247260E+02
 40
2.50000000E+00
 50
5.31301018E+01
 51
1.26869903E+02
  0
CIRCLE
  8
0
 62
6
 10
-7.46875486E+01
 20
1.54247260E+02
 40
1.50000000E+00
  0
CIRCLE
  8
0
 62
6
 10
-8.16875486E+01
 20
1.54247260E+02
 40
1.50000000E+00
  0
CIRCLE
  8
0
 62
7
 10
-8.29875488E+01
 20
1.30747261E+02
 40
2.50000000E+00
  0
ARC
  8
0
 62
7
 10
-6.99875488E+01
 20
1.08247261E+02
 40
2.70000005E+00
 50
9.00000002E+01
 51
1.46251016E+02
  0
ARC
  8
0
 62
7
 10
-6.99875488E+01
 20
1.08247261E+02
 40
2.50000000E+00
 50
2.74588566E+02
 51
1.43130097E+02
  0
ARC
  8
0
 62
7
 10
-8.36825485E+01
 20
8.02472610E+01
 40
2.50000000E+00
 50
2.33130097E+02
 51
3.06869898E+02
  0
ARC
  8
0
 62
7
 10
-8.20875492E+01
 20
7.85472565E+01
 40
2.00000003E-01
 50
0.00000000E+00
 51
9.00000002E+01
  0
ARC
  8
0
 62
6
 10
-7.76875486E+01
 20
9.64472618E+01
 40
2.00000000E+00
 50
9.00000002E+01
 51
2.70000000E+02
  0
CIRCLE
  8
0
 62
6
 10
-7.76875486E+01
 20
9.64472618E+01
 40
8.75000000E-01
  0
ARC
  8
0
 62
6
 10
-7.18875489E+01
 20
9.64472618E+01
 40
2.00000000E+00
 50
2.70000000E+02
 51
9.00000002E+01
  0
CIRCLE
  8
0
 62
6
 10
-7.18875489E+01
 20
9.64472618E+01
 40
8.75000000E-01
  0
LINE
  8
0
  6
CENTER
 62
2
 10
-3.42898163E+02
 20
1.68631250E+02
 11
-3.42898163E+02
 21
3.17175217E+01
  0
LINE
  8
0
 62
7
 10
-3.52148163E+02
 20
1.62747260E+02
 11
-3.33648163E+02
 21
1.62747260E+02
  0
LINE
  8
0
 62
7
 10
-3.52148163E+02
 20
1.62747260E+02
 11
-3.52148163E+02
 21
3.47500000E+01
  0
LINE
  8
0
 62
7
 10
-3.33648163E+02
 20
1.62747260E+02
 11
-3.33648163E+02
 21
3.47500000E+01
  0
LINE
  8
0
 62
7
 10
-3.40898163E+02
 20
1.34235662E+02
 11
-3.40898163E+02
 21
1.41267597E+02
  0
LINE
  8
0
 62
7
 10
-3.44898163E+02
 20
1.34235662E+02
 11
-3.44898163E+02
 21
1.41267597E+02
  0
LINE
  8
0
 62
7
 10
-3.40184858E+02
 20
1.34751630E+02
 11
-3.40898163E+02
 21
1.34751630E+02
  0
LINE
  8
0
 62
7
 10
-3.45611468E+02
 20
1.34751630E+02
 11
-3.44898163E+02
 21
1.34751630E+02
  0
LINE
  8
0
  6
CENTER
 62
2
 10
-3.50365675E+02
 20
1.37751630E+02
 11
-3.34895410E+02
 21
1.37751630E+02
  0
LINE
  8
0
 62
7
 10
-3.52148163E+02
 20
7.77472610E+01
 11
-3.33648163E+02
 21
7.77472610E+01
  0
LINE
  8
0
 62
7
 10
-3.33648163E+02
 20
3.47500000E+01
 11
-3.52148163E+02
 21
3.47500000E+01
  0
LINE
  8
0
  6
CENTER
 62
2
 10
-3.50177002E+02
 20
4.27500000E+01
 11
-3.35241802E+02
 21
4.27500000E+01
  0
LINE
  8
0
 62
7
 10
-3.46385282E+02
 20
4.22500000E+01
 11
-3.39411044E+02
 21
4.22500000E+01
  0
LINE
  8
0
 62
7
 10
-3.45293969E+02
 20
6.18003472E+01
 11
-3.41108579E+02
 21
6.90496560E+01
  0
LINE
  8
0
 62
7
 10
-3.44687751E+02
 20
6.14503468E+01
 11
-3.40502360E+02
 21
6.86996557E+01
  0
LINE
  8
0
  6
CENTER
 62
2
 10
-3.55398163E+02
 20
1.48750000E+02
 11
-3.30398163E+02
 21
1.48750000E+02
  0
LINE
  8
0
  6
CENTER
 62
2
 10
-3.55398163E+02
 20
8.12500000E+01
 11
-3.30398163E+02
 21
8.12500000E+01
  0
CIRCLE
  8
0
 62
2
 10
-3.42898163E+02
 20
1.37751630E+02
 40
4.86399984E+00
  0
CIRCLE
  8
0
 62
7
 10
-3.42898163E+02
 20
1.37751630E+02
 40
4.04500008E+00
  0
CIRCLE
  8
0
 62
2
 10
-3.42898163E+02
 20
4.27500000E+01
 40
4.86399984E+00
  0
CIRCLE
  8
0
 62
7
 10
-3.42898163E+02
 20
4.27500000E+01
 40
4.28299999E+00
  0
ARC
  8
0
 62
7
 10
-3.42898163E+02
 20
4.22500000E+01
 40
3.79999995E+00
 50
4.91710014E+00
 51
1.75082897E+02
  0
ARC
  8
0
 62
7
 10
-3.46385282E+02
 20
4.25500031E+01
 40
3.00000012E-01
 50
1.75082897E+02
 51
2.70000000E+02
  0
ARC
  8
0
 62
7
 10
-3.39411044E+02
 20
4.25500031E+01
 40
3.00000012E-01
 50
2.70000000E+02
 51
4.91710014E+00
  0
CIRCLE
  8
0
 62
7
 10
-3.42898163E+02
 20
6.52500000E+01
 40
4.19999981E+00
  0
CIRCLE
  8
0
 62
7
 10
-3.42898163E+02
 20
6.52500000E+01
 40
4.30000019E+00
  0
CIRCLE
  8
0
 62
7
 10
-3.42898163E+02
 20
6.52500000E+01
 40
3.70000005E+00
  0
LINE
  8
0
  6
PHANTOM
 62
2
 10
-1.13861415E+02
 20
5.14593841E+01
 11
-1.13514119E+02
 21
5.24135730E+01
  0
LINE
  8
0
  6
PHANTOM
 62
2
 10
-1.13586334E+02
 20
5.50315323E+01
 11
-1.13586334E+02
 21
5.59683914E+01
  0
LINE
  8
0
  6
PHANTOM
 62
2
 10
-1.13586334E+02
 20
5.59683914E+01
 11
-1.13586334E+02
 21
5.79683914E+01
  0
LINE
  8
0
  6
PHANTOM
 62
2
 10
-1.13586334E+02
 20
5.79683914E+01
 11
-1.13586334E+02
 21
5.90100708E+01
  0
LINE
  8
0
 62
7
 10
-2.35487555E+02
 20
3.47500000E+01
 11
-2.09487555E+02
 21
3.47500000E+01
  0
LINE
  8
0
 62
7
 10
-2.35487555E+02
 20
1.62747260E+02
 11
-2.35487555E+02
 21
3.47500000E+01
  0
LINE
  8
0
 62
7
 10
-1.64492477E+02
 20
3.47500000E+01
 11
-1.64492477E+02
 21
3.87500000E+01
  0
LINE
  8
0
 62
7
 10
-1.64492477E+02
 20
3.47500000E+01
 11
-2.09487555E+02
 21
3.47500000E+01
  0
LINE
  8
0
 62
7
 10
-1.64192478E+02
 20
4.51999969E+01
 11
-1.57992477E+02
 21
4.51999969E+01
  0
LINE
  8
0
 62
7
 10
-1.64192478E+02
 20
3.53000031E+01
 11
-1.57992477E+02
 21
3.53000031E+01
  0
LINE
  8
0
 62
7
 10
-1.56492477E+02
 20
4.36999969E+01
 11
-1.56492477E+02
 21
3.68000031E+01
  0
LINE
  8
0
 62
7
 10
-1.64192479E+02
 20
4.52000031E+01
 11
-1.64492480E+02
 21
4.49000025E+01
  0
LINE
  8
0
 62
7
 10
-1.64192478E+02
 20
3.53000026E+01
 11
-1.64492477E+02
 21
3.56000018E+01
  0
LINE
  8
0
 62
7
 10
-2.09487555E+02
 20
7.77472610E+01
 11
-2.09487555E+02
 21
5.27500000E+01
  0
LINE
  8
0
 62
6
 10
-1.84487556E+02
 20
1.62747260E+02
 11
-1.88487556E+02
 21
1.62747260E+02
  0
LINE
  8
0
 62
7
 10
-1.88487556E+02
 20
7.77472610E+01
 11
-2.09487555E+02
 21
7.77472610E+01
  0
LINE
  8
0
 62
6
 10
-1.84487556E+02
 20
1.49247260E+02
 11
-1.88487556E+02
 21
1.49247260E+02
  0
LINE
  8
0
  6
PHANTOM
 62
2
 10
-1.63687553E+02
 20
5.47500000E+01
 11
-1.54769203E+02
 21
5.47500000E+01
  0
LINE
  8
0
  6
PHANTOM
 62
2
 10
-1.39487556E+02
 20
5.47500000E+01
 11
-1.39487556E+02
 21
5.85500031E+01
  0
LINE
  8
0
  6
PHANTOM
 62
2
 10
-1.55826169E+02
 20
5.29192885E+01
 11
-1.51013938E+02
 21
6.12543171E+01
  0
LINE
  8
0
  6
PHANTOM
 62
2
 10
-1.53059757E+02
 20
5.27108553E+01
 11
-1.48234908E+02
 21
6.10677373E+01
  0
LINE
  8
0
  6
PHANTOM
 62
2
 10
-1.49688522E+02
 20
5.85500031E+01
 11
-1.39487556E+02
 21
5.85500031E+01
  0
LINE
  8
0
  6
PHANTOM
 62
2
 10
-1.51882454E+02
 20
5.47500000E+01
 11
-1.39487556E+02
 21
5.47500000E+01
  0
LINE
  8
0
  6
PHANTOM
 62
2
 10
-1.33753555E+02
 20
5.82500000E+01
 11
-1.39487556E+02
 21
5.82500000E+01
  0
LINE
  8
0
  6
PHANTOM
 62
2
 10
-1.39487551E+02
 20
5.52369822E+01
 11
-1.31010274E+02
 21
5.44953165E+01
  0
LINE
  8
0
  6
PHANTOM
 62
2
 10
-1.33744364E+02
 20
5.82499962E+01
 11
-1.30989285E+02
 21
5.54949168E+01
  0
LINE
  8
0
  6
PHANTOM
 62
2
 10
-1.20586334E+02
 20
5.53983841E+01
 11
-1.20586334E+02
 21
5.86432190E+01
  0
LINE
  8
0
  6
PHANTOM
 62
2
 10
-1.64487556E+02
 20
5.27500000E+01
 11
-1.64487556E+02
 21
7.02500000E+01
  0
LINE
  8
0
  6
PHANTOM
 62
2
 10
-1.64487556E+02
 20
6.03499985E+01
 11
-1.63887554E+02
 21
6.03499985E+01
  0
LINE
  8
0
  6
PHANTOM
 62
2
 10
-2.09487555E+02
 20
7.75500031E+01
 11
-1.67987556E+02
 21
7.75500031E+01
  0
LINE
  8
0
  6
PHANTOM
 62
2
 10
-1.67987554E+02
 20
7.75499991E+01
 11
-1.64487556E+02
 21
7.02500041E+01
  0
LINE
  8
0
  6
PHANTOM
 62
2
 10
-1.71864265E+02
 20
7.85500031E+01
 11
-1.66364265E+02
 21
7.85500031E+01
  0
LINE
  8
0
  6
PHANTOM
 62
2
 10
-1.63487556E+02
 20
6.95500031E+01
 11
-1.64487556E+02
 21
6.95500031E+01
  0
LINE
  8
0
  6
PHANTOM
 62
2
 10
-1.63487556E+02
 20
7.25500031E+01
 11
-1.63487556E+02
 21
6.95500031E+01
  0
LINE
  8
0
  6
PHANTOM
 62
2
 10
-1.66364267E+02
 20
7.85499986E+01
 11
-1.63487557E+02
 21
7.25500037E+01
  0
LINE
  8
0
  6
PHANTOM
 62
2
 10
-1.72364271E+02
 20
7.75500016E+01
 11
-1.71864270E+02
 21
7.85500019E+01
  0
LINE
  8
0
  6
PHANTOM
 62
2
 10
-1.63687553E+02
 20
5.29499969E+01
 11
-1.63687553E+02
 21
6.01500015E+01
  0
LINE
  8
0
 62
7
 10
-2.09487555E+02
 20
5.27500000E+01
 11
-1.64487556E+02
 21
5.27500000E+01
  0
LINE
  8
0
  6
PHANTOM
 62
2
 10
-1.63687553E+02
 20
5.85500031E+01
 11
-1.52575272E+02
 21
5.85500031E+01
  0
LINE
  8
0
  6
PHANTOM
 62
2
 10
-1.64487556E+02
 20
5.27500000E+01
 11
-1.63887554E+02
 21
5.27500000E+01
  0
LINE
  8
0
  6
CENTER
 62
2
 10
-2.21852632E+02
 20
1.48750000E+02
 11
-2.29558794E+02
 21
1.48750000E+02
  0
LINE
  8
0
  6
CENTER
 62
2
 10
-2.25587555E+02
 20
1.45048655E+02
 11
-2.25587555E+02
 21
1.52282221E+02
  0
LINE
  8
0
 62
7
 10
-2.09487555E+02
 20
7.77472610E+01
 11
-2.09487555E+02
 21
1.62747260E+02
  0
LINE
  8
0
  6
CENTER
 62
2
 10
-2.31218543E+02
 20
8.12500000E+01
 11
-2.23602147E+02
 21
8.12500000E+01
  0
LINE
  8
0
  6
CENTER
 62
2
 10
-2.27587555E+02
 20
7.79630814E+01
 11
-2.27587555E+02
 21
8.45447845E+01
  0
LINE
  8
0
 62
7
 10
-2.35487555E+02
 20
7.77472610E+01
 11
-2.09487555E+02
 21
7.77472610E+01
  0
LINE
  8
0
 62
7
 10
-2.09487555E+02
 20
1.62747260E+02
 11
-2.35487555E+02
 21
1.62747260E+02
  0
LINE
  8
0
 62
6
 10
-1.87487556E+02
 20
1.55847260E+02
 11
-1.87487556E+02
 21
1.52647260E+02
  0
LINE
  8
0
 62
6
 10
-1.86487556E+02
 20
1.55847260E+02
 11
-1.87487556E+02
 21
1.55847260E+02
  0
LINE
  8
0
 62
6
 10
-1.86487556E+02
 20
1.52647260E+02
 11
-1.87487556E+02
 21
1.52647260E+02
  0
LINE
  8
0
 62
6
 10
-1.86987556E+02
 20
1.55747260E+02
 11
-1.87487556E+02
 21
1.55747260E+02
  0
LINE
  8
0
 62
6
 10
-1.86987556E+02
 20
1.52747260E+02
 11
-1.87487556E+02
 21
1.52747260E+02
  0
LINE
  8
0
 62
7
 10
-1.88487556E+02
 20
9.12472610E+01
 11
-2.09487555E+02
 21
9.12472610E+01
  0
LINE
  8
0
 62
7
 10
-2.09487555E+02
 20
5.27500000E+01
 11
-2.09487555E+02
 21
3.47500000E+01
  0
LINE
  8
0
 62
7
 10
-1.64492477E+02
 20
4.17500000E+01
 11
-1.64492477E+02
 21
5.27500000E+01
  0
LINE
  8
0
 62
7
 10
-1.64492477E+02
 20
3.87500000E+01
 11
-1.64492477E+02
 21
4.17500000E+01
  0
LINE
  8
0
 62
6
 10
-1.74787556E+02
 20
1.08245613E+02
 11
-1.74787556E+02
 21
9.21456146E+01
  0
LINE
  8
0
 62
6
 10
-1.68887554E+02
 20
9.22456131E+01
 11
-1.68887554E+02
 21
1.09745613E+02
  0
LINE
  8
0
 62
6
 10
-1.87287556E+02
 20
1.09745613E+02
 11
-1.68887554E+02
 21
1.09745613E+02
  0
LINE
  8
0
 62
6
 10
-1.87287556E+02
 20
1.09745613E+02
 11
-1.87287556E+02
 21
1.08245613E+02
  0
LINE
  8
0
 62
6
 10
-1.74787556E+02
 20
1.08245613E+02
 11
-1.87287556E+02
 21
1.08245613E+02
  0
LINE
  8
0
 62
6
 10
-1.88487556E+02
 20
1.09745613E+02
 11
-1.87287556E+02
 21
1.09745613E+02
  0
LINE
  8
0
  6
CENTER
 62
6
 10
-1.54271065E+02
 20
9.64456139E+01
 11
-1.69999554E+02
 21
9.64456139E+01
  0
LINE
  8
0
 62
6
 10
-1.59687553E+02
 20
9.66956139E+01
 11
-1.55687553E+02
 21
9.66956139E+01
  0
LINE
  8
0
 62
6
 10
-1.59687553E+02
 20
9.61956139E+01
 11
-1.55687553E+02
 21
9.61956139E+01
  0
LINE
  8
0
 62
6
 10
-1.76987556E+02
 20
7.77456131E+01
 11
-1.76987556E+02
 21
8.35284729E+01
  0
LINE
  8
0
 62
6
 10
-1.73887554E+02
 20
8.52456131E+01
 11
-1.73887554E+02
 21
8.72456131E+01
  0
LINE
  8
0
 62
6
 10
-1.74387554E+02
 20
8.77456131E+01
 11
-1.74487556E+02
 21
8.77456131E+01
  0
LINE
  8
0
 62
6
 10
-1.74387554E+02
 20
8.47456131E+01
 11
-1.74487556E+02
 21
8.47456131E+01
  0
LINE
  8
0
 62
6
 10
-1.62997555E+02
 20
9.70956154E+01
 11
-1.59687553E+02
 21
9.70956154E+01
  0
LINE
  8
0
 62
6
 10
-1.63347553E+02
 20
9.57956161E+01
 11
-1.59687553E+02
 21
9.57956161E+01
  0
LINE
  8
0
 62
6
 10
-1.59687553E+02
 20
9.70956154E+01
 11
-1.59687553E+02
 21
9.57956161E+01
  0
LINE
  8
0
 62
6
 10
-1.64637553E+02
 20
9.48456155E+01
 11
-1.63777553E+02
 21
9.80456129E+01
  0
LINE
  8
0
 62
6
 10
-1.63607552E+02
 20
9.48456148E+01
 11
-1.62747552E+02
 21
9.80456122E+01
  0
LINE
  8
0
 62
6
 10
-1.67887554E+02
 20
9.70956154E+01
 11
-1.64037556E+02
 21
9.70956154E+01
  0
LINE
  8
0
 62
6
 10
-1.67887554E+02
 20
9.57956161E+01
 11
-1.64387554E+02
 21
9.57956161E+01
  0
LINE
  8
0
 62
6
 10
-1.73487556E+02
 20
8.46456146E+01
 11
-1.74487556E+02
 21
8.46456146E+01
  0
LINE
  8
0
 62
6
 10
-1.73487556E+02
 20
8.78456154E+01
 11
-1.74487556E+02
 21
8.78456154E+01
  0
LINE
  8
0
 62
6
 10
-1.74487556E+02
 20
8.46456146E+01
 11
-1.74487556E+02
 21
8.78456154E+01
  0
LINE
  8
0
 62
6
 10
-1.74787556E+02
 20
9.22456131E+01
 11
-1.68887554E+02
 21
9.22456131E+01
  0
LINE
  8
0
 62
6
 10
-1.68087555E+02
 20
9.84456139E+01
 11
-1.68887554E+02
 21
9.84456139E+01
  0
LINE
  8
0
 62
6
 10
-1.67887554E+02
 20
9.46456146E+01
 11
-1.67887554E+02
 21
9.82456131E+01
  0
LINE
  8
0
 62
6
 10
-1.68087555E+02
 20
9.44456139E+01
 11
-1.68887554E+02
 21
9.44456139E+01
  0
LINE
  8
0
 62
6
 10
-1.73487556E+02
 20
8.41456146E+01
 11
-1.73487556E+02
 21
9.08364334E+01
  0
LINE
  8
0
 62
6
 10
-1.74787556E+02
 20
9.21456146E+01
 11
-1.68887554E+02
 21
9.21456146E+01
  0
LINE
  8
0
 62
6
 10
-1.73487554E+02
 20
9.08364317E+01
 11
-1.68887557E+02
 21
9.16475354E+01
  0
LINE
  8
0
 62
6
 10
-1.68887554E+02
 20
9.16475372E+01
 11
-1.68887554E+02
 21
9.21456146E+01
  0
LINE
  8
0
 62
6
 10
-1.69487556E+02
 20
9.22456131E+01
 11
-1.69487556E+02
 21
9.21456146E+01
  0
LINE
  8
0
 62
6
 10
-1.76987557E+02
 20
8.35284738E+01
 11
-1.73487557E+02
 21
8.41456183E+01
  0
LINE
  8
0
 62
6
 10
-1.55687553E+02
 20
9.66956139E+01
 11
-1.55687553E+02
 21
9.61956139E+01
  0
LINE
  8
0
 62
6
 10
-1.85287556E+02
 20
7.84456177E+01
 11
-1.85287556E+02
 21
7.92456131E+01
  0
LINE
  8
0
 62
6
 10
-1.77687553E+02
 20
7.92456131E+01
 11
-1.77687553E+02
 21
7.84456177E+01
  0
LINE
  8
0
 62
6
 10
-1.77687553E+02
 20
7.92456131E+01
 11
-1.85287556E+02
 21
7.92456131E+01
  0
LINE
  8
0
 62
6
 10
-1.77687553E+02
 20
7.84456177E+01
 11
-1.85287556E+02
 21
7.84456177E+01
  0
LINE
  8
0
 62
6
 10
-1.88487556E+02
 20
7.77456131E+01
 11
-1.76987556E+02
 21
7.77456131E+01
  0
LINE
  8
0
 62
7
 10
-1.88487556E+02
 20
7.77472610E+01
 11
-1.88487556E+02
 21
1.62747260E+02
  0
LINE
  8
0
  6
PHANTOM
 62
2
 10
-1.31462761E+02
 20
5.59683969E+01
 11
-1.13586338E+02
 21
5.50315333E+01
  0
LINE
  8
0
  6
PHANTOM
 62
2
 10
-1.33462763E+02
 20
5.79683983E+01
 11
-1.13586339E+02
 21
5.90100776E+01
  0
LINE
  8
0
  6
PHANTOM
 62
2
 10
-1.33462761E+02
 20
5.79683914E+01
 11
-1.13586334E+02
 21
5.79683914E+01
  0
LINE
  8
0
  6
PHANTOM
 62
2
 10
-1.32462761E+02
 20
5.69683914E+01
 11
-1.13586334E+02
 21
5.69683914E+01
  0
LINE
  8
0
  6
PHANTOM
 62
2
 10
-1.31462761E+02
 20
5.59683914E+01
 11
-1.13586334E+02
 21
5.59683914E+01
  0
LINE
  8
0
  6
PHANTOM
 62
2
 10
-1.30989290E+02
 20
5.54949163E+01
 11
-1.13514122E+02
 21
5.24135726E+01
  0
LINE
  8
0
  6
PHANTOM
 62
2
 10
-1.31162938E+02
 20
5.45101086E+01
 11
-1.13861422E+02
 21
5.14593844E+01
  0
LINE
  8
0
  6
CENTER
 62
2
 10
-1.95666279E+02
 20
1.30747261E+02
 11
-1.84337017E+02
 21
1.30747261E+02
  0
LINE
  8
0
 62
7
 10
-1.91487556E+02
 20
1.28047260E+02
 11
-1.88487556E+02
 21
1.28047260E+02
  0
LINE
  8
0
 62
7
 10
-1.88487556E+02
 20
1.33447260E+02
 11
-1.91487556E+02
 21
1.33447260E+02
  0
LINE
  8
0
 62
7
 10
-1.91487556E+02
 20
1.33447260E+02
 11
-1.91487556E+02
 21
1.28047260E+02
  0
LINE
  8
0
  6
CENTER
 62
2
 10
-2.16487555E+02
 20
3.24124756E+01
 11
-2.16487555E+02
 21
7.94930344E+01
  0
LINE
  8
0
 62
7
 10
-1.90132553E+02
 20
1.32997260E+02
 11
-1.91487556E+02
 21
1.32997260E+02
  0
LINE
  8
0
 62
7
 10
-1.90827553E+02
 20
1.28497261E+02
 11
-1.90827553E+02
 21
1.32997260E+02
  0
LINE
  8
0
 62
7
 10
-1.90132553E+02
 20
1.28497261E+02
 11
-1.91487556E+02
 21
1.28497261E+02
  0
LINE
  8
0
 62
7
 10
-2.05887554E+02
 20
1.62747260E+02
 11
-2.05887554E+02
 21
1.61747260E+02
  0
LINE
  8
0
 62
7
 10
-2.05887554E+02
 20
1.61747260E+02
 11
-2.09487555E+02
 21
1.61747260E+02
  0
LINE
  8
0
  6
CENTER
 62
2
 10
-2.07487555E+02
 20
1.64194997E+02
 11
-2.07487555E+02
 21
1.59621589E+02
  0
LINE
  8
0
 62
7
 10
-2.05987555E+02
 20
1.62247260E+02
 11
-2.05987555E+02
 21
1.61747260E+02
  0
LINE
  8
0
 62
7
 10
-2.08987555E+02
 20
1.62247260E+02
 11
-2.08987555E+02
 21
1.61747260E+02
  0
LINE
  8
0
 62
7
 10
-1.92087555E+02
 20
7.77489090E+01
 11
-1.92087555E+02
 21
7.87489090E+01
  0
LINE
  8
0
 62
7
 10
-1.92087555E+02
 20
7.87489090E+01
 11
-1.88487556E+02
 21
7.87489090E+01
  0
LINE
  8
0
  6
CENTER
 62
2
 10
-1.90487556E+02
 20
7.64454956E+01
 11
-1.90487556E+02
 21
8.04549789E+01
  0
LINE
  8
0
 62
7
 10
-1.88987556E+02
 20
7.82489090E+01
 11
-1.88987556E+02
 21
7.87489090E+01
  0
LINE
  8
0
 62
7
 10
-1.91987556E+02
 20
7.82489090E+01
 11
-1.91987556E+02
 21
7.87489090E+01
  0
LINE
  8
0
 62
7
 10
-2.19187555E+02
 20
3.47500000E+01
 11
-2.19187555E+02
 21
3.77500000E+01
  0
LINE
  8
0
 62
7
 10
-2.13787555E+02
 20
3.47500000E+01
 11
-2.13787555E+02
 21
3.77500000E+01
  0
LINE
  8
0
 62
7
 10
-2.14287555E+02
 20
3.97500000E+01
 11
-2.18687555E+02
 21
3.97500000E+01
  0
LINE
  8
0
 62
7
 10
-2.13787555E+02
 20
3.77500000E+01
 11
-2.19187555E+02
 21
3.77500000E+01
  0
LINE
  8
0
 62
7
 10
-2.17787555E+02
 20
6.97472610E+01
 11
-2.15187555E+02
 21
6.97472610E+01
  0
LINE
  8
0
 62
7
 10
-2.18737555E+02
 20
3.70899963E+01
 11
-2.14237555E+02
 21
3.70899963E+01
  0
LINE
  8
0
 62
7
 10
-2.14237555E+02
 20
3.63949966E+01
 11
-2.14237555E+02
 21
3.77500000E+01
  0
LINE
  8
0
 62
7
 10
-2.18737555E+02
 20
3.63949966E+01
 11
-2.18737555E+02
 21
3.77500000E+01
  0
LINE
  8
0
 62
7
 10
-2.15187555E+02
 20
3.97500000E+01
 11
-2.15187555E+02
 21
7.57472610E+01
  0
LINE
  8
0
 62
7
 10
-2.17787555E+02
 20
3.97500000E+01
 11
-2.17787555E+02
 21
7.57472610E+01
  0
LINE
  8
0
 62
2
 10
-2.15431055E+02
 20
6.97472610E+01
 11
-2.15431055E+02
 21
7.57472610E+01
  0
LINE
  8
0
 62
2
 10
-2.17544055E+02
 20
6.97472610E+01
 11
-2.17544055E+02
 21
7.57472610E+01
  0
LINE
  8
0
 62
7
 10
-2.14287555E+02
 20
3.97500000E+01
 11
-2.14287555E+02
 21
7.57472610E+01
  0
LINE
  8
0
 62
7
 10
-2.18687555E+02
 20
3.97500000E+01
 11
-2.18687555E+02
 21
7.57472610E+01
  0
LINE
  8
0
 62
7
 10
-2.18687555E+02
 20
7.57472610E+01
 11
-2.14287555E+02
 21
7.57472610E+01
  0
LINE
  8
0
 62
7
 10
-2.23587555E+02
 20
1.24047260E+02
 11
-2.23587555E+02
 21
8.80472603E+01
  0
LINE
  8
0
 62
7
 10
-2.31587555E+02
 20
1.23947260E+02
 11
-2.31587555E+02
 21
8.79472618E+01
  0
LINE
  8
0
 62
7
 10
-2.23887555E+02
 20
8.77472610E+01
 11
-2.31387555E+02
 21
8.77472610E+01
  0
LINE
  8
0
 62
7
 10
-2.21587555E+02
 20
8.54472618E+01
 11
-2.33587555E+02
 21
8.54472618E+01
  0
LINE
  8
0
 62
7
 10
-2.33887555E+02
 20
1.25247261E+02
 11
-2.33887555E+02
 21
8.57472610E+01
  0
LINE
  8
0
 62
7
 10
-2.33587555E+02
 20
1.25547260E+02
 11
-2.21487555E+02
 21
1.25547260E+02
  0
LINE
  8
0
 62
7
 10
-2.21287555E+02
 20
1.25347260E+02
 11
-2.21287555E+02
 21
8.57472610E+01
  0
LINE
  8
0
 62
7
 10
-2.22587555E+02
 20
1.24047260E+02
 11
-2.22587555E+02
 21
8.70472603E+01
  0
LINE
  8
0
 62
7
 10
-2.22887555E+02
 20
8.67472610E+01
 11
-2.32387555E+02
 21
8.67472610E+01
  0
LINE
  8
0
 62
7
 10
-2.32587555E+02
 20
1.23947260E+02
 11
-2.32587555E+02
 21
8.69472618E+01
  0
LINE
  8
0
 62
7
 10
-2.32287555E+02
 20
1.24247261E+02
 11
-2.22787555E+02
 21
1.24247261E+02
  0
LINE
  8
0
 62
6
 10
-1.84487556E+02
 20
1.62747260E+02
 11
-1.84487556E+02
 21
1.49247260E+02
  0
LINE
  8
0
 62
7
 10
-1.88487556E+02
 20
1.62747260E+02
 11
-2.09487555E+02
 21
1.62747260E+02
  0
LINE
  8
0
 62
7
 10
-1.88487556E+02
 20
1.49247260E+02
 11
-2.09487555E+02
 21
1.49247260E+02
  0
LINE
  8
0
  6
CENTER
 62
6
 10
-1.90487556E+02
 20
8.62456131E+01
 11
-1.70941833E+02
 21
8.62456131E+01
  0
LINE
  8
0
  6
CENTER
 62
6
 10
-1.82936798E+02
 20
1.54247260E+02
 11
-1.89995728E+02
 21
1.54247260E+02
  0
LINE
  8
0
 62
6
 10
-2.09487555E+02
 20
5.32500000E+01
 11
-2.00987555E+02
 21
5.32500000E+01
  0
LINE
  8
0
 62
6
 10
-2.09487555E+02
 20
7.72500000E+01
 11
-2.00987555E+02
 21
7.72500000E+01
  0
LINE
  8
0
 62
6
 10
-2.00987555E+02
 20
5.32500000E+01
 11
-2.00987555E+02
 21
7.72500000E+01
  0
ARC
  8
0
 62
7
 10
-1.57992477E+02
 20
4.36999969E+01
 40
1.50000000E+00
 50
0.00000000E+00
 51
9.00000002E+01
  0
ARC
  8
0
 62
7
 10
-1.57992477E+02
 20
3.68000031E+01
 40
1.50000000E+00
 50
2.70000000E+02
 51
0.00000000E+00
  0
ARC
  8
0
  6
PHANTOM
 62
2
 10
-1.63887554E+02
 20
6.01500015E+01
 40
2.00000003E-01
 50
0.00000000E+00
 51
9.00000002E+01
  0
CIRCLE
  8
0
  6
PHANTOM
 62
2
 10
-2.04987555E+02
 20
7.11500015E+01
 40
1.64999998E+00
  0
CIRCLE
  8
0
  6
PHANTOM
 62
2
 10
-2.04987555E+02
 20
5.91500015E+01
 40
1.64999998E+00
  0
ARC
  8
0
  6
PHANTOM
 62
2
 10
-1.63887554E+02
 20
5.29499969E+01
 40
2.00000003E-01
 50
2.70000000E+02
 51
0.00000000E+00
  0
CIRCLE
  8
0
 62
7
 10
-2.25587555E+02
 20
1.48750000E+02
 40
2.29999995E+00
  0
CIRCLE
  8
0
 62
7
 10
-2.27587555E+02
 20
8.12500000E+01
 40
2.29999995E+00
  0
ARC
  8
0
 62
6
 10
-1.88987556E+02
 20
1.54247260E+02
 40
2.50000000E+00
 50
3.23130102E+02
 51
3.68698973E+01
  0
ARC
  8
0
 62
6
 10
-1.74387554E+02
 20
8.52456131E+01
 40
5.00000000E-01
 50
2.70000000E+02
 51
0.00000000E+00
  0
ARC
  8
0
 62
6
 10
-1.74387554E+02
 20
8.72456131E+01
 40
5.00000000E-01
 50
0.00000000E+00
 51
9.00000002E+01
  0
ARC
  8
0
 62
6
 10
-1.68086845E+02
 20
9.82463264E+01
 40
1.99289829E-01
 50
3.59795462E+02
 51
9.00000002E+01
  0
ARC
  8
0
 62
6
 10
-1.68086845E+02
 20
9.46449013E+01
 40
1.99289829E-01
 50
2.70000000E+02
 51
2.04538593E-01
  0
ARC
  8
0
 62
7
 10
-1.95124964E+02
 20
1.30744761E+02
 40
5.99541616E+00
 50
3.43801670E+02
 51
1.61983298E+01
  0
ARC
  8
0
 62
7
 10
-1.90131989E+02
 20
1.29292900E+02
 40
7.95639873E-01
 50
2.70000000E+02
 51
3.43900220E+02
  0
ARC
  8
0
 62
7
 10
-1.90136543E+02
 20
1.32197493E+02
 40
7.99777389E-01
 50
1.59492465E+01
 51
8.97141315E+01
  0
ARC
  8
0
 62
7
 10
-2.07487555E+02
 20
1.60247260E+02
 40
2.50000000E+00
 50
5.31301018E+01
 51
1.26869903E+02
  0
ARC
  8
0
 62
7
 10
-1.90487556E+02
 20
8.02489090E+01
 40
2.50000000E+00
 50
2.33130097E+02
 51
3.06869898E+02
  0
ARC
  8
0
 62
7
 10
-2.16490055E+02
 20
4.13874054E+01
 40
5.99541616E+00
 50
2.53801671E+02
 51
2.86198330E+02
  0
ARC
  8
0
 62
7
 10
-2.15037322E+02
 20
3.63989868E+01
 40
7.99777389E-01
 50
2.85949247E+02
 51
3.59714132E+02
  0
ARC
  8
0
 62
7
 10
-2.17941916E+02
 20
3.63944321E+01
 40
7.95639873E-01
 50
1.79959311E+02
 51
2.53900234E+02
  0
ARC
  8
0
 62
7
 10
-2.23787555E+02
 20
1.24047260E+02
 40
2.00000003E-01
 50
0.00000000E+00
 51
9.00000002E+01
  0
ARC
  8
0
 62
7
 10
-2.31287555E+02
 20
1.23947260E+02
 40
3.00000012E-01
 50
9.00000002E+01
 51
1.80000005E+02
  0
ARC
  8
0
 62
7
 10
-2.23887555E+02
 20
8.80472603E+01
 40
3.00000012E-01
 50
2.70000000E+02
 51
0.00000000E+00
  0
ARC
  8
0
 62
7
 10
-2.31387555E+02
 20
8.79472618E+01
 40
2.00000003E-01
 50
1.79999995E+02
 51
2.70000000E+02
  0
ARC
  8
0
 62
7
 10
-2.22887555E+02
 20
8.70472603E+01
 40
3.00000012E-01
 50
2.70000000E+02
 51
0.00000000E+00
  0
ARC
  8
0
 62
7
 10
-2.32287555E+02
 20
1.23947260E+02
 40
3.00000012E-01
 50
9.00000002E+01
 51
1.80000005E+02
  0
ARC
  8
0
 62
7
 10
-2.33587555E+02
 20
8.57472610E+01
 40
3.00000012E-01
 50
1.79999995E+02
 51
2.70000000E+02
  0
ARC
  8
0
 62
7
 10
-2.21587555E+02
 20
8.57472610E+01
 40
3.00000012E-01
 50
2.70000000E+02
 51
0.00000000E+00
  0
ARC
  8
0
 62
7
 10
-2.33587555E+02
 20
1.25247261E+02
 40
3.00000012E-01
 50
9.00000002E+01
 51
1.80000005E+02
  0
ARC
  8
0
 62
7
 10
-2.21487555E+02
 20
1.25347260E+02
 40
2.00000003E-01
 50
0.00000000E+00
 51
9.00000002E+01
  0
ARC
  8
0
 62
7
 10
-2.32387555E+02
 20
8.69472618E+01
 40
2.00000003E-01
 50
1.79999995E+02
 51
2.70000000E+02
  0
ARC
  8
0
 62
7
 10
-2.22787555E+02
 20
1.24047260E+02
 40
2.00000003E-01
 50
0.00000000E+00
 51
9.00000002E+01
  0
TEXT
  8
0
 62
7
 10
-3.69850268E+02
 20
2.63100000E+02
 40
6.29999924E+00
  1
GME SERIES
 41
1.06382946E+00
  7
MONOTXT
  0
TEXT
  8
0
 62
7
 10
-3.85600561E+02
 20
2.38100000E+02
 40
6.29999924E+00
  1
MODEL:GME10-E1
 41
9.99999697E-01
  7
MONOTXT
  0
TEXT
  8
0
 62
7
 10
3.15499656E+02
 20
2.63100000E+02
 40
6.29999924E+00
  1
Ver. 1.0
 41
1.08108075E+00
  7
MONOTXT
  0
TEXT
  8
0
 62
7
 10
2.87585227E+02
 20
-2.71250000E+02
 40
9.00000000E+00
  1
KOGANEI CORP.
 41
1.04838732E+00
  7
MONOTXT
  0
TEXT
  8
0
 62
7
 10
-3.85600561E+02
 20
-1.83999996E+01
 40
6.29999924E+00
  1
MODEL:GME10-E2
 41
9.99999697E-01
  7
MONOTXT
  0
TEXT
  8
0
 62
7
 10
1.39243412E+01
 20
2.58100000E+02
 40
6.29999924E+00
  1
-UR(GME10-E1)
 41
9.99999697E-01
  7
MONOTXT
  0
TEXT
  8
0
 62
7
 10
1.61746211E+01
 20
2.16000004E+01
 40
6.29999924E+00
  1
-21
 41
9.99999697E-01
  7
MONOTXT
  0
TEXT
  8
0
 62
7
 10
1.97185089E+02
 20
2.16000004E+01
 40
6.29999924E+00
  1
-PL,-ML
 41
9.99999697E-01
  7
MONOTXT
  0
LINE
  8
0
 62
7
 10
3.99799805E+02
 20
2.76250000E+02
 11
3.99799805E+02
 21
-2.76750000E+02
  0
LINE
  8
0
 62
7
 10
-3.99250000E+02
 20
2.76250000E+02
 11
-3.99250000E+02
 21
-2.76750000E+02
  0
LINE
  8
0
 62
7
 10
-3.99250000E+02
 20
2.76250000E+02
 11
3.99799805E+02
 21
2.76250000E+02
  0
LINE
  8
0
 62
7
 10
-3.99250000E+02
 20
-2.76750000E+02
 11
3.99799805E+02
 21
-2.76750000E+02
  0
LINE
  8
0
 62
7
 10
-2.79250000E+02
 20
2.76250000E+02
 11
-2.79250000E+02
 21
2.56250000E+02
  0
LINE
  8
0
 62
7
 10
-3.99250000E+02
 20
2.56250000E+02
 11
-2.79250000E+02
 21
2.56250000E+02
  0
LINE
  8
0
 62
7
 10
2.79799927E+02
 20
2.76250000E+02
 11
2.79799927E+02
 21
2.56250000E+02
  0
LINE
  8
0
 62
7
 10
2.79799927E+02
 20
2.56250000E+02
 11
3.99799805E+02
 21
2.56250000E+02
  0
LINE
  8
0
 62
7
 10
2.79799927E+02
 20
-2.56750000E+02
 11
2.79799927E+02
 21
-2.76750000E+02
  0
LINE
  8
0
 62
7
 10
2.79799927E+02
 20
-2.56750000E+02
 11
3.99799805E+02
 21
-2.56750000E+02
  0
LINE
  8
0
 62
7
 10
2.74902344E-01
 20
-2.76750000E+02
 11
2.74902344E-01
 21
2.76250000E+02
  0
LINE
  8
0
 62
7
 10
-3.99250000E+02
 20
-2.50000000E-01
 11
2.74902344E-01
 21
-2.50000000E-01
  0
LINE
  8
0
  6
CENTER
 62
2
 10
5.05180054E+01
 20
-1.43550705E+02
 11
5.05180054E+01
 21
4.07056475E+00
  0
LINE
  8
0
  6
DASHED
 62
2
 10
4.12680054E+01
 20
-1.12604132E+01
 11
5.97680054E+01
 21
-1.12604132E+01
  0
LINE
  8
0
  6
DASHED
 62
2
 10
4.12680054E+01
 20
-1.12604132E+01
 11
4.12680054E+01
 21
-1.39257675E+02
  0
LINE
  8
0
  6
DASHED
 62
2
 10
5.97680054E+01
 20
-1.12604132E+01
 11
5.97680054E+01
 21
-1.39257675E+02
  0
LINE
  8
0
  6
DASHED
 62
2
 10
4.12680054E+01
 20
-9.62604141E+01
 11
5.97680054E+01
 21
-9.62604141E+01
  0
LINE
  8
0
  6
DASHED
 62
2
 10
5.97680054E+01
 20
-1.39257675E+02
 11
4.12680054E+01
 21
-1.39257675E+02
  0
LINE
  8
0
  6
DASHED
 62
2
 10
5.05180054E+01
 20
4.22586632E+00
 11
5.05180054E+01
 21
-1.27379627E+01
  0
LINE
  8
0
  6
DASHED
 62
2
 10
4.65180054E+01
 20
-1.05604124E+01
 11
5.45180054E+01
 21
-1.05604124E+01
  0
LINE
  8
0
  6
DASHED
 62
2
 10
5.42180031E+01
 20
-1.02604107E+01
 11
5.45180050E+01
 21
-1.05604126E+01
  0
LINE
  8
0
  6
DASHED
 62
2
 10
4.65180032E+01
 20
-1.05604113E+01
 11
4.68180025E+01
 21
-1.02604120E+01
  0
LINE
  8
0
  6
DASHED
 62
2
 10
4.65180054E+01
 20
-1.12604132E+01
 11
4.65180054E+01
 21
-1.05604124E+01
  0
LINE
  8
0
  6
DASHED
 62
2
 10
5.45180054E+01
 20
-1.12604132E+01
 11
5.45180054E+01
 21
-1.05604124E+01
  0
LINE
  8
0
  6
DASHED
 62
2
 10
4.68180046E+01
 20
-1.02604132E+01
 11
5.42180061E+01
 21
-1.02604132E+01
  0
LINE
  8
0
  6
DASHED
 62
2
 10
5.40180045E+01
 20
-9.76041287E+00
 11
5.35180039E+01
 21
-1.02604134E+01
  0
LINE
  8
0
  6
DASHED
 62
2
 10
4.92680054E+01
 20
-4.55541277E+00
 11
4.92680054E+01
 21
-7.26041269E+00
  0
LINE
  8
0
  6
DASHED
 62
2
 10
4.70180054E+01
 20
-9.76041317E+00
 11
4.70180054E+01
 21
-7.76041269E+00
  0
LINE
  8
0
  6
DASHED
 62
2
 10
4.80180054E+01
 20
-5.54126948E-02
 11
4.80180054E+01
 21
-4.05541277E+00
  0
LINE
  8
0
  6
DASHED
 62
2
 10
4.85180027E+01
 20
-4.55541203E+00
 11
4.80180048E+01
 21
-4.05541420E+00
  0
LINE
  8
0
  6
DASHED
 62
2
 10
4.80180021E+01
 20
-5.54126524E-02
 11
4.85180027E+01
 21
4.44587878E-01
  0
LINE
  8
0
  6
DASHED
 62
2
 10
4.70180051E+01
 20
-7.76041344E+00
 11
4.75180057E+01
 21
-7.26041291E+00
  0
LINE
  8
0
  6
DASHED
 62
2
 10
4.70180038E+01
 20
-9.76041152E+00
 11
4.75180043E+01
 21
-1.02604120E+01
  0
LINE
  8
0
  6
DASHED
 62
2
 10
5.30180054E+01
 20
-5.54126948E-02
 11
5.30180054E+01
 21
-4.05541277E+00
  0
LINE
  8
0
  6
DASHED
 62
2
 10
5.30180021E+01
 20
-5.54126524E-02
 11
5.25180042E+01
 21
4.44585181E-01
  0
LINE
  8
0
  6
DASHED
 62
2
 10
5.30180048E+01
 20
-4.05541420E+00
 11
5.25180042E+01
 21
-4.55541473E+00
  0
LINE
  8
0
  6
DASHED
 62
2
 10
5.40180031E+01
 20
-7.76041209E+00
 11
5.35180026E+01
 21
-7.26041156E+00
  0
LINE
  8
0
  6
DASHED
 62
2
 10
5.17680054E+01
 20
-4.55541277E+00
 11
5.17680054E+01
 21
-7.26041269E+00
  0
LINE
  8
0
  6
DASHED
 62
2
 10
5.40180054E+01
 20
-9.76041317E+00
 11
5.40180054E+01
 21
-7.76041269E+00
  0
LINE
  8
0
  6
DASHED
 62
2
 10
5.35180054E+01
 20
-7.26041269E+00
 11
4.75180054E+01
 21
-7.26041269E+00
  0
LINE
  8
0
  6
DASHED
 62
2
 10
4.85180054E+01
 20
-4.55541277E+00
 11
5.25180054E+01
 21
-4.55541277E+00
  0
LINE
  8
0
  6
DASHED
 62
2
 10
5.25180054E+01
 20
4.44587290E-01
 11
4.85180054E+01
 21
4.44587290E-01
  0
ENDSEC
  0
EOF
