  0
SECTION
  2
HEADER
  9
$ACADVER
  1
AC1009
  9
$DWGCODEPAGE
  3
dos932
  9
$INSBASE
 10
0.0
 20
0.0
 30
0.0
  9
$EXTMIN
 10
-194.25
 20
-133.5
 30
0.0
  9
$EXTMAX
 10
194.80000305
 20
132.6000061
 30
0.0
  9
$LIMMIN
 10
-194.25
 20
-133.5
  9
$LIMMAX
 10
194.80000305
 20
132.6000061
  9
$ORTHOMODE
 70
       0
  9
$REGENMODE
 70
       1
  9
$FILLMODE
 70
       1
  9
$QTEXTMODE
 70
       0
  9
$MIRRTEXT
 70
       1
  9
$DRAGMODE
 70
       2
  9
$LTSCALE
 40
1.0
  9
$OSMODE
 70
       0
  9
$ATTMODE
 70
       1
  9
$TEXTSIZE
 40
3.20000005
  9
$TRACEWID
 40
0.05
  9
$TEXTSTYLE
  7
MX_NOTE_STANDARD
  9
$CLAYER
  8
0
  9
$CELTYPE
  6
CONTINUOUS
  9
$CECOLOR
 62
     256
  9
$DIMSCALE
 40
1.0
  9
$DIMASZ
 40
2.5
  9
$DIMEXO
 40
1.5
  9
$DIMDLI
 40
3.75
  9
$DIMRND
 40
0.0
  9
$DIMDLE
 40
0.0
  9
$DIMEXE
 40
1.5
  9
$DIMTP
 40
0.0
  9
$DIMTM
 40
0.0
  9
$DIMTXT
 40
3.20000005
  9
$DIMCEN
 40
2.5
  9
$DIMTSZ
 40
0.0
  9
$DIMTOL
 70
       0
  9
$DIMLIM
 70
       0
  9
$DIMTIH
 70
       0
  9
$DIMTOH
 70
       0
  9
$DIMSE1
 70
       0
  9
$DIMSE2
 70
       0
  9
$DIMTAD
 70
       1
  9
$DIMZIN
 70
       8
  9
$DIMBLK
  1

  9
$DIMASO
 70
       1
  9
$DIMSHO
 70
       1
  9
$DIMPOST
  1

  9
$DIMAPOST
  1

  9
$DIMALT
 70
       0
  9
$DIMALTD
 70
       4
  9
$DIMALTF
 40
0.03937008
  9
$DIMLFAC
 40
1.0
  9
$DIMTOFL
 70
       1
  9
$DIMTVP
 40
0.0
  9
$DIMTIX
 70
       0
  9
$DIMSOXD
 70
       0
  9
$DIMSAH
 70
       0
  9
$DIMBLK1
  1

  9
$DIMBLK2
  1

  9
$DIMSTYLE
  2
MXDIMSTYLE
  9
$DIMCLRD
 70
       0
  9
$DIMCLRE
 70
       0
  9
$DIMCLRT
 70
       0
  9
$DIMTFAC
 40
1.0
  9
$DIMGAP
 40
1.0
  9
$LUNITS
 70
       2
  9
$LUPREC
 70
       4
  9
$AXISMODE
 70
       0
  9
$AXISUNIT
 10
0.0
 20
0.0
  9
$SKETCHINC
 40
0.1
  9
$FILLETRAD
 40
0.0
  9
$AUNITS
 70
       0
  9
$AUPREC
 70
       0
  9
$MENU
  1
acad
  9
$ELEVATION
 40
0.0
  9
$PELEVATION
 40
0.0
  9
$THICKNESS
 40
0.0
  9
$LIMCHECK
 70
       0
  9
$BLIPMODE
 70
       1
  9
$CHAMFERA
 40
0.0
  9
$CHAMFERB
 40
0.0
  9
$SKPOLY
 70
       0
  9
$TDCREATE
 40
2453770.647106481
  9
$TDUPDATE
 40
2453770.647106481
  9
$TDINDWG
 40
0.0000000000
  9
$TDUSRTIMER
 40
0.0000000000
  9
$USRTIMER
 70
       1
  9
$ANGBASE
 50
0.0
  9
$ANGDIR
 70
       0
  9
$PDMODE
 70
       0
  9
$PDSIZE
 40
0.0
  9
$PLINEWID
 40
0.0
  9
$COORDS
 70
       1
  9
$SPLFRAME
 70
       0
  9
$SPLINETYPE
 70
       6
  9
$SPLINESEGS
 70
       8
  9
$ATTDIA
 70
       0
  9
$ATTREQ
 70
       1
  9
$HANDLING
 70
       1
  9
$HANDSEED
  5
CF
  9
$SURFTAB1
 70
       6
  9
$SURFTAB2
 70
       6
  9
$SURFTYPE
 70
       6
  9
$SURFU
 70
       6
  9
$SURFV
 70
       6
  9
$UCSNAME
  2

  9
$UCSORG
 10
0.0
 20
0.0
 30
0.0
  9
$UCSXDIR
 10
1.0
 20
0.0
 30
0.0
  9
$UCSYDIR
 10
0.0
 20
1.0
 30
0.0
  9
$PUCSNAME
  2

  9
$PUCSORG
 10
0.0
 20
0.0
 30
0.0
  9
$PUCSXDIR
 10
1.0
 20
0.0
 30
0.0
  9
$PUCSYDIR
 10
0.0
 20
1.0
 30
0.0
  9
$USERI1
 70
       0
  9
$USERI2
 70
       0
  9
$USERI3
 70
       0
  9
$USERI4
 70
       0
  9
$USERI5
 70
       0
  9
$USERR1
 40
0.0
  9
$USERR2
 40
0.0
  9
$USERR3
 40
0.0
  9
$USERR4
 40
0.0
  9
$USERR5
 40
0.0
  9
$WORLDVIEW
 70
       1
  9
$SHADEDGE
 70
       3
  9
$SHADEDIF
 70
      70
  9
$TILEMODE
 70
       1
  9
$MAXACTVP
 70
      16
  9
$PINSBASE
 10
0.0
 20
0.0
 30
0.0
  9
$PLIMCHECK
 70
       0
  9
$PEXTMIN
 10
1.00000000E+20
 20
1.00000000E+20
 30
1.00000000E+20
  9
$PEXTMAX
 10
-1.00000000E+20
 20
-1.00000000E+20
 30
-1.00000000E+20
  9
$PLIMMIN
 10
0.0
 20
0.0
  9
$PLIMMAX
 10
12.0
 20
9.0
  9
$UNITMODE
 70
       0
  9
$VISRETAIN
 70
       0
  9
$PLINEGEN
 70
       1
  9
$PSLTSCALE
 70
       0
  9
$TREEDEPTH
 70
    3020
  9
$DWGCODEPAGE
  3
dos932
  0
ENDSEC
  0
SECTION
  2
TABLES
  0
TABLE
  2
VPORT
 70
       1
  0
VPORT
  2
*ACTIVE
 70
       0
 10
0.0
 20
0.0
 11
1.0
 21
1.0
 12
0.27500153
 22
-0.44999695
 13
0.0
 23
0.0
 14
1.0
 24
1.0
 15
0.0
 25
0.0
 16
0.0
 26
0.0
 36
1.0
 17
0.0
 27
0.0
 37
0.0
 40
268.76100616
 41
1.73205081
 42
50.0
 43
0.0
 44
0.0
 50
0.0
 51
0.0
 71
       0
 72
     100
 73
       1
 74
       1
 75
       0
 76
       0
 77
       0
 78
       0
  0
ENDTAB
  0
TABLE
  2
LTYPE
 70
       1
  0
LTYPE
  2
CONTINUOUS
 70
      64
  3
Solid line
 72
      65
 73
       0
 40
0.0
  0
ENDTAB
  0
TABLE
  2
LAYER
 70
       2
  0
LAYER
  2
0
 70
       0
 62
       7
  6
CONTINUOUS
  0
LAYER
  2
DEFPOINTS
 70
       0
 62
       7
  6
CONTINUOUS
  0
ENDTAB
  0
TABLE
  2
STYLE
 70
       1
  0
STYLE
  2
MX_NOTE_STANDARD
 70
       0
 40
0.0
 41
1.0
 50
0.0
 71
       0
 42
3.20000005
  3
txt.shx
  4
extfont.shx
  0
ENDTAB
  0
TABLE
  2
VIEW
 70
       0
  0
ENDTAB
  0
TABLE
  2
UCS
 70
       0
  0
ENDTAB
  0
TABLE
  2
APPID
 70
       1
  0
APPID
  2
ACAD
 70
       0
  0
ENDTAB
  0
TABLE
  2
DIMSTYLE
 70
       1
  0
DIMSTYLE
  2
MXDIMSTYLE
 70
       0
  3

  4

  5

  6

  7

 40
1.0
 41
2.5
 42
1.5
 43
3.75
 44
1.5
 45
0.0
 46
0.0
 47
0.0
 48
0.0
 71
       0
 72
       0
 73
       0
 74
       0
 75
       0
 76
       0
 77
       1
 78
       8
140
3.20000005
141
2.5
142
0.0
143
0.03937008
144
1.0
145
0.0
146
1.0
147
1.0
170
       0
171
       4
172
       1
173
       0
174
       0
175
       0
176
       0
177
       0
178
       0
  0
ENDTAB
  0
ENDSEC
  0
SECTION
  2
BLOCKS
  0
ENDSEC
  0
SECTION
  2
ENTITIES
  0
CIRCLE
  8
0
  6
CONTINUOUS
 62
       7
  5
1E
 10
-66.28857408
 20
-7.89783619
 30
0.0
 40
1.65
  0
CIRCLE
  8
0
  6
CONTINUOUS
 62
       7
  5
1F
 10
-26.29757408
 20
32.10016381
 30
0.0
 40
1.65
  0
LINE
  8
0
  6
CONTINUOUS
 62
       7
  5
20
 10
-41.94257408
 20
-45.14483619
 30
0.0
 11
-28.14557408
 21
-45.14483619
 31
0.0
  0
CIRCLE
  8
0
  6
CONTINUOUS
 62
       7
  5
21
 10
-46.29115874
 20
12.10382171
 30
0.0
 40
1.75
  0
ARC
  8
0
  6
CONTINUOUS
 62
       7
  5
22
 10
-46.29609072
 20
12.10332238
 30
0.0
 40
3.49776341
 50
45.54816663
 51
145.96211505
  0
ARC
  8
0
  6
CONTINUOUS
 62
       7
  5
23
 10
-46.29651507
 20
12.10143727
 30
0.0
 40
3.50092561
 50
221.59818755
 51
6.42440857
  0
ARC
  8
0
  6
CONTINUOUS
 62
       7
  5
24
 10
-62.06703944
 20
4.40474155
 30
0.0
 40
0.44797723
 50
118.03217233
 51
293.89596475
  0
ARC
  8
0
  6
CONTINUOUS
 62
       7
  5
25
 10
-46.29744888
 20
12.10102694
 30
0.0
 40
2.50035229
 50
229.09871126
 51
358.88022598
  0
ARC
  8
0
  6
CONTINUOUS
 62
       7
  5
26
 10
-46.29461884
 20
12.10198414
 30
0.0
 40
2.49717763
 50
52.99408879
 51
182.91104506
  0
CIRCLE
  8
0
  6
CONTINUOUS
 62
       7
  5
27
 10
-36.49115874
 20
12.10382171
 30
0.0
 40
1.4
  0
CIRCLE
  8
0
  6
CONTINUOUS
 62
       7
  5
28
 10
-56.09115807
 20
12.10382171
 30
0.0
 40
1.4
  0
ARC
  8
0
  6
CONTINUOUS
 62
       7
  5
29
 10
-37.17871783
 20
-46.31071623
 30
0.0
 40
0.66886353
 50
180.26726086
 51
240.84466769
  0
ARC
  8
0
  6
CONTINUOUS
 62
       7
  5
2A
 10
-32.90852427
 20
-46.31925656
 30
0.0
 40
0.66097242
 50
299.44740709
 51
0.46986506
  0
ARC
  8
0
  6
CONTINUOUS
 62
       7
  5
2B
 10
-35.04407408
 20
-42.54617601
 30
0.0
 40
4.99648933
 50
240.49853836
 51
299.50146164
  0
ARC
  8
0
  6
CONTINUOUS
 62
       7
  5
2C
 10
-41.94451155
 20
-44.64277366
 30
0.0
 40
0.50206627
 50
179.77889537
 51
270.22110463
  0
ARC
  8
0
  6
CONTINUOUS
 62
       7
  5
2D
 10
-28.14068488
 20
-44.64572539
 30
0.0
 40
0.49913474
 50
269.43875848
 51
0.56124152
  0
ARC
  8
0
  6
CONTINUOUS
 62
       7
  5
2E
 10
60.09245176
 20
-46.31750776
 30
0.0
 40
0.66398431
 50
299.60044743
 51
0.31682472
  0
ARC
  8
0
  6
CONTINUOUS
 62
       7
  5
2F
 10
55.82400774
 20
-46.3154214
 30
0.0
 40
0.6675837
 50
179.86394794
 51
240.21877992
  0
ARC
  8
0
  6
CONTINUOUS
 62
       7
  5
30
 10
57.95642592
 20
-42.54618694
 30
0.0
 40
4.99820431
 50
240.46355724
 51
299.53644276
  0
ARC
  8
0
  6
CONTINUOUS
 62
       7
  5
31
 10
51.05746727
 20
-44.64478847
 30
0.0
 40
0.50005697
 50
179.54714891
 51
269.65152458
  0
ARC
  8
0
  6
CONTINUOUS
 62
       7
  5
32
 10
64.85783929
 20
-44.64720909
 30
0.0
 40
0.49762744
 50
270.06754383
 51
0.73378268
  0
ARC
  8
0
  6
CONTINUOUS
 62
       7
  5
33
 10
81.37216235
 20
-43.37021468
 30
0.0
 40
3.26949752
 50
332.65921115
 51
34.93737929
  0
ARC
  8
0
  6
CONTINUOUS
 62
       7
  5
34
 10
72.3483651
 20
-37.74233619
 30
0.0
 40
12.29181922
 50
342.21004278
 51
17.78995722
  0
ARC
  8
0
  6
CONTINUOUS
 62
       7
  5
35
 10
81.37267714
 20
-32.11449187
 30
0.0
 40
3.26905594
 50
325.0579447
 51
27.34546486
  0
ARC
  8
0
  6
CONTINUOUS
 62
       7
  5
36
 10
37.95796534
 20
-11.14529677
 30
0.0
 40
3.00353947
 50
180.01029004
 51
269.98970996
  0
ARC
  8
0
  6
CONTINUOUS
 62
       7
  5
37
 10
67.95530166
 20
-12.14971411
 30
0.0
 40
1.99912633
 50
270.11820314
 51
0.08248239
  0
ARC
  8
0
  6
CONTINUOUS
 62
       7
  5
38
 10
67.95795446
 20
36.35468526
 30
0.0
 40
1.9964791
 50
359.84154304
 51
89.95777142
  0
ARC
  8
0
  6
CONTINUOUS
 62
       7
  5
39
 10
37.9553174
 20
35.35027233
 30
0.0
 40
3.00089222
 50
89.95974223
 51
180.04025777
  0
ARC
  8
0
  6
CONTINUOUS
 62
       7
  5
3A
 10
71.4588393
 20
8.60116381
 30
0.0
 40
7.00035403
 50
330.00167292
 51
29.99832708
  0
ARC
  8
0
  6
CONTINUOUS
 62
       7
  5
3B
 10
71.4588393
 20
15.60116381
 30
0.0
 40
7.00035402
 50
330.00167291
 51
29.99832709
  0
ARC
  8
0
  6
CONTINUOUS
 62
       2
  5
3C
 10
-46.29657408
 20
0.10381591
 30
0.0
 40
4.0021045
 50
210.02645094
 51
329.97354906
  0
CIRCLE
  8
0
  6
CONTINUOUS
 62
       7
  5
3D
 10
-46.29115874
 20
0.10381408
 30
0.0
 40
2.49999981
  0
CIRCLE
  8
0
  6
CONTINUOUS
 62
       7
  5
3E
 10
-46.29115874
 20
0.10381408
 30
0.0
 40
1.49999962
  0
ARC
  8
0
  6
CONTINUOUS
 62
       7
  5
3F
 10
-60.23130589
 20
16.09404367
 30
0.0
 40
0.49932665
 50
77.30508784
 51
250.91462327
  0
ARC
  8
0
  6
CONTINUOUS
 62
       7
  5
40
 10
-46.29169793
 20
12.1087056
 30
0.0
 40
3.5004244
 50
182.18637444
 51
190.49400905
  0
CIRCLE
  8
0
  6
CONTINUOUS
 62
       7
  5
41
 10
-56.29116265
 20
5.10382171
 30
0.0
 40
0.99999952
  0
CIRCLE
  8
0
  6
CONTINUOUS
 62
       7
  5
42
 10
-56.29116265
 20
5.10382171
 30
0.0
 40
0.50000001
  0
CIRCLE
  8
0
  6
CONTINUOUS
 62
       7
  5
43
 10
-46.29115874
 20
12.10382171
 30
0.0
 40
22.49999695
  0
CIRCLE
  8
0
  6
CONTINUOUS
 62
       7
  5
44
 10
-66.29116722
 20
32.10382018
 30
0.0
 40
2.2500001
  0
CIRCLE
  8
0
  6
CONTINUOUS
 62
       2
  5
45
 10
-26.29116026
 20
32.10382018
 30
0.0
 40
1.99999971
  0
CIRCLE
  8
0
  6
CONTINUOUS
 62
       2
  5
46
 10
-66.29116722
 20
-7.89618745
 30
0.0
 40
1.99999971
  0
ARC
  8
0
  6
CONTINUOUS
 62
       7
  5
47
 10
-67.5390379
 20
-9.14830136
 30
0.0
 40
5.00053682
 50
180.02904389
 51
270.05114613
  0
ARC
  8
0
  6
CONTINUOUS
 62
       7
  5
48
 10
-25.04519927
 20
-9.150211
 30
0.0
 40
4.99862523
 50
270.00716614
 51
359.99283386
  0
ARC
  8
0
  6
CONTINUOUS
 62
       7
  5
49
 10
-25.04253994
 20
33.35519795
 30
0.0
 40
4.99596627
 50
359.97667161
 51
90.02332839
  0
ARC
  8
0
  6
CONTINUOUS
 62
       7
  5
4A
 10
-67.54169622
 20
33.35329102
 30
0.0
 40
4.99787786
 50
89.91835164
 51
180.00145834
  0
LINE
  8
0
  6
CONTINUOUS
 62
       7
  5
4B
 10
-47.70357408
 20
0.62116381
 30
0.0
 11
-45.77157408
 21
-1.30383619
 31
0.0
  0
LINE
  8
0
  6
CONTINUOUS
 62
       7
  5
4C
 10
-46.48557408
 20
-0.58983619
 30
0.0
 11
-45.01557408
 21
0.88716381
 31
0.0
  0
LINE
  8
0
  6
CONTINUOUS
 62
       7
  5
4D
 10
-46.98257408
 20
-0.09283619
 30
0.0
 11
-45.51257408
 21
1.37716381
 31
0.0
  0
LINE
  8
0
  6
CONTINUOUS
 62
       7
  5
4E
 10
-36.49657408
 20
12.85716381
 30
0.0
 11
-36.49657408
 21
11.33116381
 31
0.0
  0
LINE
  8
0
  6
CONTINUOUS
 62
       7
  5
4F
 10
-56.09657408
 20
12.82916381
 30
0.0
 11
-56.09657408
 21
11.26816381
 31
0.0
  0
LINE
  8
0
  6
CONTINUOUS
 62
       7
  5
50
 10
-43.79757408
 20
12.05216381
 30
0.0
 11
-38.72257408
 21
14.31316381
 31
0.0
  0
LINE
  8
0
  6
CONTINUOUS
 62
       7
  5
51
 10
-44.79157408
 20
14.09616381
 30
0.0
 11
-39.89157408
 21
16.70716381
 31
0.0
  0
LINE
  8
0
  6
CONTINUOUS
 62
       7
  5
52
 10
-61.88557408
 20
3.99516381
 30
0.0
 11
-47.93457408
 21
10.21116381
 31
0.0
  0
LINE
  8
0
  6
CONTINUOUS
 62
       7
  5
53
 10
-62.27757408
 20
4.80016381
 30
0.0
 11
-48.78857408
 21
11.97516381
 31
0.0
  0
LINE
  8
0
  6
CONTINUOUS
 62
       7
  5
54
 10
-39.89157408
 20
16.70716381
 30
0.0
 11
-38.65257408
 21
15.82516381
 31
0.0
  0
LINE
  8
0
  6
CONTINUOUS
 62
       7
  5
55
 10
-38.65257408
 20
15.82516381
 30
0.0
 11
-38.72257408
 21
14.31316381
 31
0.0
  0
LINE
  8
0
  6
CONTINUOUS
 62
       7
  5
56
 10
-37.25257408
 20
12.10116381
 30
0.0
 11
-35.72657408
 21
12.10116381
 31
0.0
  0
LINE
  8
0
  6
CONTINUOUS
 62
       7
  5
57
 10
-56.81757408
 20
12.10116381
 30
0.0
 11
-55.26357408
 21
12.10116381
 31
0.0
  0
LINE
  8
0
  6
CONTINUOUS
 62
       2
  5
58
 10
87.37742592
 20
-37.74583619
 30
0.0
 11
63.93442592
 21
-37.74583619
 31
0.0
  0
LINE
  8
0
  6
CONTINUOUS
 62
       7
  5
59
 10
84.05242592
 20
-41.49783619
 30
0.0
 11
78.65542592
 21
-41.49783619
 31
0.0
  0
LINE
  8
0
  6
CONTINUOUS
 62
       7
  5
5A
 10
84.05242592
 20
-33.98683619
 30
0.0
 11
78.65542592
 21
-33.98683619
 31
0.0
  0
LINE
  8
0
  6
CONTINUOUS
 62
       7
  5
5B
 10
-42.44657408
 20
-22.63983619
 30
0.0
 11
-27.64157408
 21
-22.63983619
 31
0.0
  0
LINE
  8
0
  6
CONTINUOUS
 62
       2
  5
5C
 10
77.65442592
 20
-32.41883619
 30
0.0
 11
75.65242592
 21
-32.41883619
 31
0.0
  0
LINE
  8
0
  6
CONTINUOUS
 62
       2
  5
5D
 10
77.65442592
 20
-43.06583619
 30
0.0
 11
75.65242592
 21
-43.06583619
 31
0.0
  0
LINE
  8
0
  6
CONTINUOUS
 62
       7
  5
5E
 10
77.65442592
 20
-43.74483619
 30
0.0
 11
75.65242592
 21
-43.74483619
 31
0.0
  0
LINE
  8
0
  6
CONTINUOUS
 62
       7
  5
5F
 10
77.65442592
 20
-31.73983619
 30
0.0
 11
75.65242592
 21
-31.73983619
 31
0.0
  0
LINE
  8
0
  6
CONTINUOUS
 62
       7
  5
60
 10
75.65242592
 20
-30.33983619
 30
0.0
 11
65.35542592
 21
-30.33983619
 31
0.0
  0
LINE
  8
0
  6
CONTINUOUS
 62
       7
  5
61
 10
75.65242592
 20
-45.14483619
 30
0.0
 11
51.05442592
 21
-45.14483619
 31
0.0
  0
LINE
  8
0
  6
CONTINUOUS
 62
       7
  5
62
 10
75.65242592
 20
-30.33983619
 30
0.0
 11
75.65242592
 21
-45.14483619
 31
0.0
  0
LINE
  8
0
  6
CONTINUOUS
 62
       7
  5
63
 10
-27.64157408
 20
-22.14283619
 30
0.0
 11
-27.64157408
 21
-44.64083619
 31
0.0
  0
LINE
  8
0
  6
CONTINUOUS
 62
       7
  5
64
 10
-42.44657408
 20
-22.14283619
 30
0.0
 11
-42.44657408
 21
-44.64083619
 31
0.0
  0
LINE
  8
0
  6
CONTINUOUS
 62
       7
  5
65
 10
85.04642592
 20
-31.94283619
 30
0.0
 11
84.12242592
 21
-30.33983619
 31
0.0
  0
LINE
  8
0
  6
CONTINUOUS
 62
       7
  5
66
 10
85.04642592
 20
-43.54183619
 30
0.0
 11
84.12242592
 21
-45.14483619
 31
0.0
  0
LINE
  8
0
  6
CONTINUOUS
 62
       7
  5
67
 10
78.65542592
 20
-30.33983619
 30
0.0
 11
78.65542592
 21
-45.14483619
 31
0.0
  0
LINE
  8
0
  6
CONTINUOUS
 62
       7
  5
68
 10
77.65442592
 20
-30.33983619
 30
0.0
 11
77.65442592
 21
-45.14483619
 31
0.0
  0
LINE
  8
0
  6
CONTINUOUS
 62
       7
  5
69
 10
-38.29557408
 20
-45.64183619
 30
0.0
 11
-38.29557408
 21
-45.14483619
 31
0.0
  0
LINE
  8
0
  6
CONTINUOUS
 62
       7
  5
6A
 10
-31.79257408
 20
-45.64183619
 30
0.0
 11
-31.79257408
 21
-45.14483619
 31
0.0
  0
LINE
  8
0
  6
CONTINUOUS
 62
       7
  5
6B
 10
-31.79257408
 20
-45.64183619
 30
0.0
 11
-38.29557408
 21
-45.64183619
 31
0.0
  0
LINE
  8
0
  6
CONTINUOUS
 62
       7
  5
6C
 10
-37.84757408
 20
-46.31383619
 30
0.0
 11
-37.84757408
 21
-45.64183619
 31
0.0
  0
LINE
  8
0
  6
CONTINUOUS
 62
       7
  5
6D
 10
-32.24757408
 20
-46.31383619
 30
0.0
 11
-32.24757408
 21
-45.64183619
 31
0.0
  0
LINE
  8
0
  6
CONTINUOUS
 62
       7
  5
6E
 10
85.04642592
 20
-31.94283619
 30
0.0
 11
85.04642592
 21
-43.54183619
 31
0.0
  0
LINE
  8
0
  6
CONTINUOUS
 62
       7
  5
6F
 10
84.12242592
 20
-30.33983619
 30
0.0
 11
77.65442592
 21
-30.33983619
 31
0.0
  0
LINE
  8
0
  6
CONTINUOUS
 62
       7
  5
70
 10
84.12242592
 20
-45.14483619
 30
0.0
 11
77.65442592
 21
-45.14483619
 31
0.0
  0
LINE
  8
0
  6
CONTINUOUS
 62
       7
  5
71
 10
-27.04657408
 20
-15.14983619
 30
0.0
 11
-27.04657408
 21
-22.14283619
 31
0.0
  0
LINE
  8
0
  6
CONTINUOUS
 62
       7
  5
72
 10
-43.04157408
 20
-22.14283619
 30
0.0
 11
-27.04657408
 21
-22.14283619
 31
0.0
  0
LINE
  8
0
  6
CONTINUOUS
 62
       7
  5
73
 10
-43.04157408
 20
-15.14983619
 30
0.0
 11
-43.04157408
 21
-22.14283619
 31
0.0
  0
LINE
  8
0
  6
CONTINUOUS
 62
       7
  5
74
 10
49.95542592
 20
-22.14283619
 30
0.0
 11
65.95742592
 21
-22.14283619
 31
0.0
  0
LINE
  8
0
  6
CONTINUOUS
 62
       7
  5
75
 10
65.95742592
 20
-15.14983619
 30
0.0
 11
65.95742592
 21
-22.14283619
 31
0.0
  0
LINE
  8
0
  6
CONTINUOUS
 62
       7
  5
76
 10
49.95542592
 20
-15.14983619
 30
0.0
 11
49.95542592
 21
-22.14283619
 31
0.0
  0
LINE
  8
0
  6
CONTINUOUS
 62
       7
  5
77
 10
50.55742592
 20
-22.63983619
 30
0.0
 11
65.35542592
 21
-22.63983619
 31
0.0
  0
LINE
  8
0
  6
CONTINUOUS
 62
       7
  5
78
 10
61.20442592
 20
-45.64183619
 30
0.0
 11
61.20442592
 21
-45.14483619
 31
0.0
  0
LINE
  8
0
  6
CONTINUOUS
 62
       7
  5
79
 10
54.70842592
 20
-45.64183619
 30
0.0
 11
54.70842592
 21
-45.14483619
 31
0.0
  0
LINE
  8
0
  6
CONTINUOUS
 62
       7
  5
7A
 10
54.70842592
 20
-45.64183619
 30
0.0
 11
61.20442592
 21
-45.64183619
 31
0.0
  0
LINE
  8
0
  6
CONTINUOUS
 62
       7
  5
7B
 10
60.75642592
 20
-46.31383619
 30
0.0
 11
60.75642592
 21
-45.64183619
 31
0.0
  0
LINE
  8
0
  6
CONTINUOUS
 62
       7
  5
7C
 10
55.15642592
 20
-46.31383619
 30
0.0
 11
55.15642592
 21
-45.64183619
 31
0.0
  0
LINE
  8
0
  6
CONTINUOUS
 62
       7
  5
7D
 10
65.35542592
 20
-22.14283619
 30
0.0
 11
65.35542592
 21
-44.64083619
 31
0.0
  0
LINE
  8
0
  6
CONTINUOUS
 62
       7
  5
7E
 10
50.55742592
 20
-22.14283619
 30
0.0
 11
50.55742592
 21
-44.64083619
 31
0.0
  0
LINE
  8
0
  6
CONTINUOUS
 62
       7
  5
7F
 10
65.95742592
 20
-14.14883619
 30
0.0
 11
65.95742592
 21
-15.14983619
 31
0.0
  0
LINE
  8
0
  6
CONTINUOUS
 62
       7
  5
80
 10
49.95542592
 20
-15.14983619
 30
0.0
 11
65.95742592
 21
-15.14983619
 31
0.0
  0
LINE
  8
0
  6
CONTINUOUS
 62
       7
  5
81
 10
49.95542592
 20
-14.14883619
 30
0.0
 11
49.95542592
 21
-15.14983619
 31
0.0
  0
LINE
  8
0
  6
CONTINUOUS
 62
       7
  5
82
 10
-27.04657408
 20
-14.14883619
 30
0.0
 11
-27.04657408
 21
-15.14983619
 31
0.0
  0
LINE
  8
0
  6
CONTINUOUS
 62
       7
  5
83
 10
-43.04157408
 20
-15.14983619
 30
0.0
 11
-27.04657408
 21
-15.14983619
 31
0.0
  0
LINE
  8
0
  6
CONTINUOUS
 62
       7
  5
84
 10
-43.04157408
 20
-14.14883619
 30
0.0
 11
-43.04157408
 21
-15.14983619
 31
0.0
  0
LINE
  8
0
  6
CONTINUOUS
 62
       2
  5
85
 10
84.45842592
 20
19.68216381
 30
0.0
 11
84.45842592
 21
4.52016381
 31
0.0
  0
LINE
  8
0
  6
CONTINUOUS
 62
       7
  5
86
 10
71.45942592
 20
3.09916381
 30
0.0
 11
69.95442592
 21
3.09916381
 31
0.0
  0
LINE
  8
0
  6
CONTINUOUS
 62
       7
  5
87
 10
71.45942592
 20
21.10316381
 30
0.0
 11
69.95442592
 21
21.10316381
 31
0.0
  0
LINE
  8
0
  6
CONTINUOUS
 62
       7
  5
88
 10
71.45942592
 20
21.10316381
 30
0.0
 11
71.45942592
 21
3.09916381
 31
0.0
  0
LINE
  8
0
  6
CONTINUOUS
 62
       2
  5
89
 10
57.95642592
 20
-12.14683619
 30
0.0
 11
57.95642592
 21
-50.54266411
 31
0.0
  0
LINE
  8
0
  6
CONTINUOUS
 62
       7
  5
8A
 10
89.45642592
 20
18.54816381
 30
0.0
 11
89.45642592
 21
5.65416381
 31
0.0
  0
LINE
  8
0
  6
CONTINUOUS
 62
       7
  5
8B
 10
90.45742592
 20
6.68316381
 30
0.0
 11
89.42842592
 21
5.65416381
 31
0.0
  0
LINE
  8
0
  6
CONTINUOUS
 62
       7
  5
8C
 10
89.45642592
 20
18.54816381
 30
0.0
 11
90.45742592
 21
17.49116381
 31
0.0
  0
LINE
  8
0
  6
CONTINUOUS
 62
       7
  5
8D
 10
90.45742592
 20
17.49116381
 30
0.0
 11
90.45742592
 21
6.68316381
 31
0.0
  0
LINE
  8
0
  6
CONTINUOUS
 62
       7
  5
8E
 10
89.42842592
 20
5.65416381
 30
0.0
 11
78.45942592
 21
5.36016381
 31
0.0
  0
LINE
  8
0
  6
CONTINUOUS
 62
       2
  5
8F
 10
90.31042592
 20
6.53616381
 30
0.0
 11
80.45442592
 21
6.27016381
 31
0.0
  0
LINE
  8
0
  6
CONTINUOUS
 62
       7
  5
90
 10
80.45442592
 20
18.78616381
 30
0.0
 11
80.45442592
 21
5.41616381
 31
0.0
  0
LINE
  8
0
  6
CONTINUOUS
 62
       2
  5
91
 10
80.45442592
 20
17.93216381
 30
0.0
 11
78.90042592
 21
18.82816381
 31
0.0
  0
LINE
  8
0
  6
CONTINUOUS
 62
       2
  5
92
 10
90.28942592
 20
17.66616381
 30
0.0
 11
80.45442592
 21
17.93216381
 31
0.0
  0
LINE
  8
0
  6
CONTINUOUS
 62
       7
  5
93
 10
89.45642592
 20
18.54816381
 30
0.0
 11
78.45942592
 21
18.84216381
 31
0.0
  0
LINE
  8
0
  6
CONTINUOUS
 62
       2
  5
94
 10
80.45442592
 20
6.27016381
 30
0.0
 11
78.90042592
 21
5.37416381
 31
0.0
  0
LINE
  8
0
  6
CONTINUOUS
 62
       7
  5
95
 10
37.95742592
 20
-14.14883619
 30
0.0
 11
67.95942592
 21
-14.14883619
 31
0.0
  0
LINE
  8
0
  6
CONTINUOUS
 62
       7
  5
96
 10
37.95742592
 20
38.35116381
 30
0.0
 11
67.95942592
 21
38.35116381
 31
0.0
  0
LINE
  8
0
  6
CONTINUOUS
 62
       7
  5
97
 10
34.95442592
 20
35.34816381
 30
0.0
 11
34.95442592
 21
-11.14583619
 31
0.0
  0
LINE
  8
0
  6
CONTINUOUS
 62
       7
  5
98
 10
66.95842592
 20
38.35116381
 30
0.0
 11
66.95842592
 21
-14.14883619
 31
0.0
  0
LINE
  8
0
  6
CONTINUOUS
 62
       7
  5
99
 10
69.95442592
 20
36.34916381
 30
0.0
 11
69.95442592
 21
-12.14683619
 31
0.0
  0
LINE
  8
0
  6
CONTINUOUS
 62
       7
  5
9A
 10
78.45942592
 20
5.10116381
 30
0.0
 11
71.45942592
 21
5.10116381
 31
0.0
  0
LINE
  8
0
  6
CONTINUOUS
 62
       7
  5
9B
 10
77.52142592
 20
12.10116381
 30
0.0
 11
71.45942592
 21
12.10116381
 31
0.0
  0
LINE
  8
0
  6
CONTINUOUS
 62
       7
  5
9C
 10
78.45942592
 20
19.10116381
 30
0.0
 11
71.45942592
 21
19.10116381
 31
0.0
  0
LINE
  8
0
  6
CONTINUOUS
 62
       7
  5
9D
 10
78.45942592
 20
19.10116381
 30
0.0
 11
78.45942592
 21
5.10116381
 31
0.0
  0
LINE
  8
0
  6
CONTINUOUS
 62
       2
  5
9E
 10
93.45742592
 20
12.10116381
 30
0.0
 11
31.95442592
 21
12.10116381
 31
0.0
  0
LINE
  8
0
  6
CONTINUOUS
 62
       2
  5
9F
 10
-35.04757408
 20
-12.14683619
 30
0.0
 11
-35.04757408
 21
-50.54266411
 31
0.0
  0
LINE
  8
0
  6
CONTINUOUS
 62
       7
  5
A0
 10
-25.04457408
 20
-14.14883619
 30
0.0
 11
-67.53457408
 21
-14.14883619
 31
0.0
  0
LINE
  8
0
  6
CONTINUOUS
 62
       7
  5
A1
 10
-20.04657408
 20
33.35316381
 30
0.0
 11
-20.04657408
 21
-9.15083619
 31
0.0
  0
LINE
  8
0
  6
CONTINUOUS
 62
       7
  5
A2
 10
-25.04457408
 20
38.35116381
 30
0.0
 11
-67.53457408
 21
38.35116381
 31
0.0
  0
LINE
  8
0
  6
CONTINUOUS
 62
       7
  5
A3
 10
-72.53957408
 20
33.35316381
 30
0.0
 11
-72.53957408
 21
-9.15083619
 31
0.0
  0
LINE
  8
0
  6
CONTINUOUS
 62
       7
  5
A4
 10
-46.29657408
 20
29.10416381
 30
0.0
 11
-46.29657408
 21
27.10216381
 31
0.0
  0
LINE
  8
0
  6
CONTINUOUS
 62
       7
  5
A5
 10
-60.39457408
 20
15.62216381
 30
0.0
 11
-49.78957408
 21
11.97516381
 31
0.0
  0
LINE
  8
0
  6
CONTINUOUS
 62
       7
  5
A6
 10
-60.12157408
 20
16.58116381
 30
0.0
 11
-49.19457408
 21
14.06116381
 31
0.0
  0
LINE
  8
0
  6
CONTINUOUS
 62
       2
  5
A7
 10
-49.35557408
 20
-3.40383619
 30
0.0
 11
-49.76157408
 21
-1.89883619
 31
0.0
  0
LINE
  8
0
  6
CONTINUOUS
 62
       2
  5
A8
 10
-48.65557408
 20
-2.82283619
 30
0.0
 11
-49.76157408
 21
-1.89883619
 31
0.0
  0
LINE
  8
0
  6
CONTINUOUS
 62
       2
  5
A9
 10
-43.23057408
 20
-3.40383619
 30
0.0
 11
-42.83157408
 21
-1.89883619
 31
0.0
  0
LINE
  8
0
  6
CONTINUOUS
 62
       2
  5
AA
 10
-43.93057408
 20
-2.82283619
 30
0.0
 11
-42.83157408
 21
-1.89883619
 31
0.0
  0
LINE
  8
0
  6
CONTINUOUS
 62
       2
  5
AB
 10
-69.78857408
 20
32.10016381
 30
0.0
 11
-62.78857408
 21
32.10016381
 31
0.0
  0
LINE
  8
0
  6
CONTINUOUS
 62
       2
  5
AC
 10
-66.28857408
 20
35.60016381
 30
0.0
 11
-66.28857408
 21
28.60016381
 31
0.0
  0
LINE
  8
0
  6
CONTINUOUS
 62
       2
  5
AD
 10
-29.79757408
 20
32.10016381
 30
0.0
 11
-22.79757408
 21
32.10016381
 31
0.0
  0
LINE
  8
0
  6
CONTINUOUS
 62
       2
  5
AE
 10
-26.29757408
 20
35.60016381
 30
0.0
 11
-26.29757408
 21
28.60016381
 31
0.0
  0
LINE
  8
0
  6
CONTINUOUS
 62
       2
  5
AF
 10
-66.28857408
 20
-4.39783619
 30
0.0
 11
-66.28857408
 21
-11.39783619
 31
0.0
  0
LINE
  8
0
  6
CONTINUOUS
 62
       2
  5
B0
 10
-69.78857408
 20
-7.89783619
 30
0.0
 11
-62.78857408
 21
-7.89783619
 31
0.0
  0
LINE
  8
0
  6
CONTINUOUS
 62
       2
  5
B1
 10
-17.04657408
 20
12.10116381
 30
0.0
 11
-75.53957408
 21
12.10116381
 31
0.0
  0
LINE
  8
0
  6
CONTINUOUS
 62
       7
  5
B2
 10
-33.30622183
 20
4.60511474
 30
0.0
 11
-28.97528981
 21
2.10784345
 31
0.0
  0
LINE
  8
0
  6
CONTINUOUS
 62
       2
  5
B3
 10
-31.55658598
 20
7.31381721
 30
0.0
 11
-27.27565434
 21
5.92880991
 31
0.0
  0
LINE
  8
0
  6
CONTINUOUS
 62
       7
  5
B4
 10
-31.38075138
 20
10.53328744
 30
0.0
 11
-26.40888705
 21
10.0099333
 31
0.0
  0
LINE
  8
0
  6
CONTINUOUS
 62
       2
  5
B5
 10
-30.88322092
 20
13.71809957
 30
0.0
 11
-26.40957349
 21
14.19891215
 31
0.0
  0
LINE
  8
0
  6
CONTINUOUS
 62
       7
  5
B6
 10
-32.03224513
 20
16.7346207
 30
0.0
 11
-27.27565434
 21
18.27351772
 31
0.0
  0
LINE
  8
0
  6
CONTINUOUS
 62
       2
  5
B7
 10
-32.87388516
 20
19.84825093
 30
0.0
 11
-28.97902427
 21
22.10095426
 31
0.0
  0
LINE
  8
0
  6
CONTINUOUS
 62
       7
  5
B8
 10
-35.14969136
 20
22.13545546
 30
0.0
 11
-31.43545872
 21
25.48176883
 31
0.0
  0
LINE
  8
0
  6
CONTINUOUS
 62
       2
  5
B9
 10
-37.18362592
 20
24.63671775
 30
0.0
 11
-34.54468014
 21
28.28097621
 31
0.0
  0
LINE
  8
0
  6
CONTINUOUS
 62
       7
  5
BA
 10
-40.19492076
 20
25.80188751
 30
0.0
 11
-38.16449874
 21
30.37033706
 31
0.0
  0
LINE
  8
0
  6
CONTINUOUS
 62
       2
  5
BB
 10
-43.07033506
 20
27.25957133
 30
0.0
 11
-42.14340974
 21
31.66246659
 31
0.0
  0
LINE
  8
0
  6
CONTINUOUS
 62
       2
  5
BC
 10
-49.51611322
 20
27.26099575
 30
0.0
 11
-50.4631827
 21
31.65960734
 31
0.0
  0
LINE
  8
0
  6
CONTINUOUS
 62
       7
  5
BD
 10
-52.39238423
 20
25.80448829
 30
0.0
 11
-54.4228059
 21
30.37293704
 31
0.0
  0
LINE
  8
0
  6
CONTINUOUS
 62
       2
  5
BE
 10
-55.40493634
 20
24.64005027
 30
0.0
 11
-58.04388087
 21
28.28430701
 31
0.0
  0
LINE
  8
0
  6
CONTINUOUS
 62
       7
  5
BF
 10
-61.15455424
 20
25.48525011
 30
0.0
 11
-57.44032182
 21
22.13893695
 31
0.0
  0
LINE
  8
0
  6
CONTINUOUS
 62
       2
  5
C0
 10
-63.61237132
 20
22.10398874
 30
0.0
 11
-59.71751097
 21
19.85128573
 31
0.0
  0
LINE
  8
0
  6
CONTINUOUS
 62
       7
  5
C1
 10
-65.31414558
 20
18.28382625
 30
0.0
 11
-60.56090287
 21
16.73462122
 31
0.0
  0
LINE
  8
0
  6
CONTINUOUS
 62
       2
  5
C2
 10
-66.18326012
 20
14.201892
 30
0.0
 11
-61.70984875
 21
13.71884758
 31
0.0
  0
LINE
  8
0
  6
CONTINUOUS
 62
       7
  5
C3
 10
-66.18399238
 20
10.00737925
 30
0.0
 11
-61.21231987
 21
10.53255592
 31
0.0
  0
LINE
  8
0
  6
CONTINUOUS
 62
       2
  5
C4
 10
-65.30861623
 20
5.90151916
 30
0.0
 11
-61.03588449
 21
7.31173111
 31
0.0
  0
LINE
  8
0
  6
CONTINUOUS
 62
       7
  5
C5
 10
-63.61172994
 20
2.09722868
 30
0.0
 11
-59.28517314
 21
4.60207736
 31
0.0
  0
LINE
  8
0
  6
CONTINUOUS
 62
       7
  5
C6
 10
-46.29657408
 20
33.09836381
 30
0.0
 11
-46.29657408
 21
27.37398907
 31
0.0
  0
LINE
  8
0
  6
CONTINUOUS
 62
       2
  5
C7
 10
-46.29657408
 20
41.35116381
 30
0.0
 11
-46.29657408
 21
-17.14883619
 31
0.0
  0
TEXT
  8
0
  6
CONTINUOUS
 62
       7
  5
C8
 10
-185.69473684
 20
115.3500061
 30
0.0
 40
4.5
  1
MODEL:GS1-50-DL-T
 41
1.07368421
  7
MX_NOTE_STANDARD
 11
-185.69473684
 21
117.6000061
 31
0.0
 73
       2
  0
LINE
  8
0
  6
CONTINUOUS
 62
       7
  5
C9
 10
-194.25
 20
132.6000061
 30
0.0
 11
194.80000305
 21
132.6000061
 31
0.0
  0
LINE
  8
0
  6
CONTINUOUS
 62
       7
  5
CA
 10
194.80000305
 20
132.6000061
 30
0.0
 11
194.80000305
 21
-133.5
 31
0.0
  0
LINE
  8
0
  6
CONTINUOUS
 62
       7
  5
CB
 10
-194.25
 20
132.6000061
 30
0.0
 11
-194.25
 21
-133.5
 31
0.0
  0
LINE
  8
0
  6
CONTINUOUS
 62
       7
  5
CC
 10
-194.25
 20
-133.5
 30
0.0
 11
194.80000305
 21
-133.5
 31
0.0
  0
ENDSEC
  0
EOF
